  0
SECTION
  2
HEADER
  9
$ACADVER
  1
AC1012
  9
$DWGCODEPAGE
  3
dos932
  9
$INSBASE
 10
0.0
 20
0.0
 30
0.0
  9
$EXTMIN
 10
-198.8958582971886
 20
-3800.631323674114
 30
-0.0000000000000053
  9
$EXTMAX
 10
727.6513606074681
 20
-3348.668005608519
 30
0.0000000000000099
  9
$LIMMIN
 10
0.0
 20
0.0
  9
$LIMMAX
 10
297.0
 20
210.0
  9
$ORTHOMODE
 70
     1
  9
$REGENMODE
 70
     1
  9
$FILLMODE
 70
     1
  9
$QTEXTMODE
 70
     0
  9
$MIRRTEXT
 70
     1
  9
$DRAGMODE
 70
     2
  9
$LTSCALE
 40
1.0
  9
$OSMODE
 70
    39
  9
$ATTMODE
 70
     1
  9
$TEXTSIZE
 40
5.599999999999999
  9
$TRACEWID
 40
0.05
  9
$TEXTSTYLE
  7
STANDARD
  9
$CLAYER
  8
L-TYUSIN
  9
$CELTYPE
  6
BYLAYER
  9
$CECOLOR
 62
   256
  9
$CELTSCALE
 40
1.0
  9
$DELOBJ
 70
     1
  9
$DISPSILH
 70
     0
  9
$DIMSCALE
 40
2.0
  9
$DIMASZ
 40
2.0
  9
$DIMEXO
 40
1.0
  9
$DIMDLI
 40
8.0
  9
$DIMRND
 40
0.0
  9
$DIMDLE
 40
0.0
  9
$DIMEXE
 40
0.8
  9
$DIMTP
 40
0.0
  9
$DIMTM
 40
0.0
  9
$DIMTXT
 40
2.799999999999999
  9
$DIMCEN
 40
0.0
  9
$DIMTSZ
 40
0.0
  9
$DIMTOL
 70
     0
  9
$DIMLIM
 70
     0
  9
$DIMTIH
 70
     0
  9
$DIMTOH
 70
     0
  9
$DIMSE1
 70
     0
  9
$DIMSE2
 70
     0
  9
$DIMTAD
 70
     0
  9
$DIMZIN
 70
    12
  9
$DIMBLK
  1

  9
$DIMASO
 70
     1
  9
$DIMSHO
 70
     0
  9
$DIMPOST
  1

  9
$DIMAPOST
  1

  9
$DIMALT
 70
     0
  9
$DIMALTD
 70
     2
  9
$DIMALTF
 40
25.4
  9
$DIMLFAC
 40
1.0
  9
$DIMTOFL
 70
     1
  9
$DIMTVP
 40
1.0
  9
$DIMTIX
 70
     1
  9
$DIMSOXD
 70
     0
  9
$DIMSAH
 70
     0
  9
$DIMBLK1
  1

  9
$DIMBLK2
  1

  9
$DIMSTYLE
  2
STANDARD
  9
$DIMCLRD
 70
     0
  9
$DIMCLRE
 70
     0
  9
$DIMCLRT
 70
     0
  9
$DIMTFAC
 40
1.0
  9
$DIMGAP
 40
0.8
  9
$DIMJUST
 70
     0
  9
$DIMSD1
 70
     0
  9
$DIMSD2
 70
     0
  9
$DIMTOLJ
 70
     1
  9
$DIMTZIN
 70
     0
  9
$DIMALTZ
 70
     0
  9
$DIMALTTZ
 70
     0
  9
$DIMFIT
 70
     3
  9
$DIMUPT
 70
     0
  9
$DIMUNIT
 70
     2
  9
$DIMDEC
 70
     8
  9
$DIMTDEC
 70
     8
  9
$DIMALTU
 70
     2
  9
$DIMALTTD
 70
     2
  9
$DIMTXSTY
  7
STANDARD
  9
$DIMAUNIT
 70
     0
  9
$LUNITS
 70
     2
  9
$LUPREC
 70
     4
  9
$SKETCHINC
 40
0.1
  9
$FILLETRAD
 40
1.5
  9
$AUNITS
 70
     0
  9
$AUPREC
 70
     0
  9
$MENU
  1
.
  9
$ELEVATION
 40
0.0
  9
$PELEVATION
 40
0.0
  9
$THICKNESS
 40
0.0
  9
$LIMCHECK
 70
     0
  9
$BLIPMODE
 70
     0
  9
$CHAMFERA
 40
3.0
  9
$CHAMFERB
 40
3.0
  9
$CHAMFERC
 40
0.0
  9
$CHAMFERD
 40
0.0
  9
$SKPOLY
 70
     0
  9
$TDCREATE
 40
2453354.092125822
  9
$TDUPDATE
 40
2455065.651170428
  9
$TDINDWG
 40
11.3552366551
  9
$TDUSRTIMER
 40
11.3552366551
  9
$USRTIMER
 70
     1
  9
$ANGBASE
 50
0.0
  9
$ANGDIR
 70
     0
  9
$PDMODE
 70
     0
  9
$PDSIZE
 40
0.0
  9
$PLINEWID
 40
0.0
  9
$COORDS
 70
     2
  9
$SPLFRAME
 70
     0
  9
$SPLINETYPE
 70
     6
  9
$SPLINESEGS
 70
     8
  9
$ATTDIA
 70
     0
  9
$ATTREQ
 70
     1
  9
$HANDLING
 70
-16383
  9
$HANDSEED
  5
F855
  9
$SURFTAB1
 70
     6
  9
$SURFTAB2
 70
     6
  9
$SURFTYPE
 70
     6
  9
$SURFU
 70
     6
  9
$SURFV
 70
     6
  9
$UCSNAME
  2

  9
$UCSORG
 10
0.0
 20
0.0
 30
0.0
  9
$UCSXDIR
 10
1.0
 20
0.0
 30
0.0
  9
$UCSYDIR
 10
0.0
 20
1.0
 30
0.0
  9
$PUCSNAME
  2

  9
$PUCSORG
 10
0.0
 20
0.0
 30
0.0
  9
$PUCSXDIR
 10
1.0
 20
0.0
 30
0.0
  9
$PUCSYDIR
 10
0.0
 20
1.0
 30
0.0
  9
$USERI1
 70
     0
  9
$USERI2
 70
     0
  9
$USERI3
 70
     0
  9
$USERI4
 70
     0
  9
$USERI5
 70
     0
  9
$USERR1
 40
0.0
  9
$USERR2
 40
0.0
  9
$USERR3
 40
0.0
  9
$USERR4
 40
0.0
  9
$USERR5
 40
0.0
  9
$WORLDVIEW
 70
     1
  9
$SHADEDGE
 70
     3
  9
$SHADEDIF
 70
    70
  9
$TILEMODE
 70
     1
  9
$MAXACTVP
 70
    48
  9
$PINSBASE
 10
0.0
 20
0.0
 30
0.0
  9
$PLIMCHECK
 70
     0
  9
$PEXTMIN
 10
0.0
 20
0.0
 30
0.0
  9
$PEXTMAX
 10
0.0
 20
0.0
 30
0.0
  9
$PLIMMIN
 10
0.0
 20
0.0
  9
$PLIMMAX
 10
0.0
 20
0.0
  9
$UNITMODE
 70
     0
  9
$VISRETAIN
 70
     0
  9
$PLINEGEN
 70
     0
  9
$PSLTSCALE
 70
     0
  9
$TREEDEPTH
 70
  3020
  9
$PICKSTYLE
 70
     1
  9
$CMLSTYLE
  2
STANDARD
  9
$CMLJUST
 70
     0
  9
$CMLSCALE
 40
1.0
  9
$SAVEIMAGES
 70
     1
  0
ENDSEC
  0
SECTION
  2
CLASSES
  0
CLASS
  1
ACDBDICTIONARYWDFLT
  2
AcDbDictionaryWithDefault
  3
AutoCAD 2000
 90
    32768
280
     0
281
     0
  0
CLASS
  1
ACDBPLACEHOLDER
  2
AcDbPlaceHolder
  3
AutoCAD 2000
 90
    32768
280
     0
281
     0
  0
CLASS
  1
LAYOUT
  2
AcDbLayout
  3
AutoCAD 2000
 90
    32768
280
     0
281
     0
  0
CLASS
  1
DICTIONARYVAR
  2
AcDbDictionaryVar
  3
AutoCAD 2000
 90
    32768
280
     0
281
     0
  0
CLASS
  1
TABLESTYLE
  2
AcDbTableStyle
  3
ObjectDBX Classes
 90
    34815
280
     1
281
     0
  0
CLASS
  1
ACAD_PROXY_OBJECT_WRAPPER
  2
AcDbProxyObjectWrapper
  3
AutoCAD 2000
 90
    32768
280
     0
281
     0
  0
CLASS
  1
LONG_TRANSACTION
  2
AcDbLongTransaction
  3
AutoCAD 2000
 90
    32768
280
     0
281
     0
  0
CLASS
  1
LWPOLYLINE
  2
AcDbPolyline
  3
AutoCAD 2000
 90
    32768
280
     0
281
     1
  0
CLASS
  1
HATCH
  2
AcDbHatch
  3
AutoCAD 2000
 90
    32768
280
     0
281
     1
  0
CLASS
  1
XRECORD
  2
AcDbXrecord
  3
AutoCAD 2000
 90
    32768
280
     0
281
     0
  0
CLASS
  1
LONG_TRANSACTION
  2
AcDbLongTransaction
  3
AutoCAD 2000
 90
    32768
280
     0
281
     0
  0
CLASS
  1
LWPOLYLINE
  2
AcDbPolyline
  3
AutoCAD 2000
 90
    32768
280
     0
281
     1
  0
CLASS
  1
HATCH
  2
AcDbHatch
  3
AutoCAD 2000
 90
    32768
280
     0
281
     1
  0
CLASS
  1
XRECORD
  2
AcDbXrecord
  3
AutoCAD 2000
 90
    32768
280
     0
281
     0
  0
CLASS
  1
LONG_TRANSACTION
  2
AcDbLongTransaction
  3
AutoCAD 2000
 90
    32768
280
     0
281
     0
  0
CLASS
  1
LWPOLYLINE
  2
AcDbPolyline
  3
AutoCAD 2000
 90
    32768
280
     0
281
     1
  0
CLASS
  1
HATCH
  2
AcDbHatch
  3
AutoCAD 2000
 90
    32768
280
     0
281
     1
  0
CLASS
  1
XRECORD
  2
AcDbXrecord
  3
AutoCAD 2000
 90
    32768
280
     0
281
     0
  0
CLASS
  1
LONG_TRANSACTION
  2
AcDbLongTransaction
  3
AutoCAD 2000
 90
    32768
280
     0
281
     0
  0
CLASS
  1
LWPOLYLINE
  2
AcDbPolyline
  3
AutoCAD 2000
 90
    32768
280
     0
281
     1
  0
CLASS
  1
HATCH
  2
AcDbHatch
  3
AutoCAD 2000
 90
    32768
280
     0
281
     1
  0
CLASS
  1
XRECORD
  2
AcDbXrecord
  3
AutoCAD 2000
 90
    32768
280
     0
281
     0
  0
CLASS
  1
LONG_TRANSACTION
  2
AcDbLongTransaction
  3
AutoCAD 2000
 90
    32768
280
     0
281
     0
  0
CLASS
  1
LWPOLYLINE
  2
AcDbPolyline
  3
AutoCAD 2000
 90
    32768
280
     0
281
     1
  0
CLASS
  1
HATCH
  2
AcDbHatch
  3
AutoCAD 2000
 90
    32768
280
     0
281
     1
  0
CLASS
  1
XRECORD
  2
AcDbXrecord
  3
AutoCAD 2000
 90
    32768
280
     0
281
     0
  0
CLASS
  1
LONG_TRANSACTION
  2
AcDbLongTransaction
  3
AutoCAD 2000
 90
    32768
280
     0
281
     0
  0
CLASS
  1
LWPOLYLINE
  2
AcDbPolyline
  3
AutoCAD 2000
 90
    32768
280
     0
281
     1
  0
CLASS
  1
HATCH
  2
AcDbHatch
  3
AutoCAD 2000
 90
    32768
280
     0
281
     1
  0
CLASS
  1
XRECORD
  2
AcDbXrecord
  3
AutoCAD 2000
 90
    32768
280
     0
281
     0
  0
CLASS
  1
LONG_TRANSACTION
  2
AcDbLongTransaction
  3
AutoCAD 2000
 90
    32768
280
     0
281
     0
  0
CLASS
  1
LWPOLYLINE
  2
AcDbPolyline
  3
AutoCAD 2000
 90
    32768
280
     0
281
     1
  0
CLASS
  1
HATCH
  2
AcDbHatch
  3
AutoCAD 2000
 90
    32768
280
     0
281
     1
  0
CLASS
  1
XRECORD
  2
AcDbXrecord
  3
AutoCAD 2000
 90
    32768
280
     0
281
     0
  0
CLASS
  1
LONG_TRANSACTION
  2
AcDbLongTransaction
  3
AutoCAD 2000
 90
    32768
280
     0
281
     0
  0
CLASS
  1
LWPOLYLINE
  2
AcDbPolyline
  3
AutoCAD 2000
 90
    32768
280
     0
281
     1
  0
CLASS
  1
HATCH
  2
AcDbHatch
  3
AutoCAD 2000
 90
    32768
280
     0
281
     1
  0
CLASS
  1
XRECORD
  2
AcDbXrecord
  3
AutoCAD 2000
 90
    32768
280
     0
281
     0
  0
CLASS
  1
LONG_TRANSACTION
  2
AcDbLongTransaction
  3
AutoCAD 2000
 90
    32768
280
     0
281
     0
  0
CLASS
  1
LWPOLYLINE
  2
AcDbPolyline
  3
AutoCAD 2000
 90
    32768
280
     0
281
     1
  0
CLASS
  1
HATCH
  2
AcDbHatch
  3
AutoCAD 2000
 90
    32768
280
     0
281
     1
  0
CLASS
  1
XRECORD
  2
AcDbXrecord
  3
AutoCAD 2000
 90
    32768
280
     0
281
     0
  0
CLASS
  1
LONG_TRANSACTION
  2
AcDbLongTransaction
  3
AutoCAD 2000
 90
    32768
280
     0
281
     0
  0
CLASS
  1
LWPOLYLINE
  2
AcDbPolyline
  3
AutoCAD 2000
 90
    32768
280
     0
281
     1
  0
CLASS
  1
HATCH
  2
AcDbHatch
  3
AutoCAD 2000
 90
    32768
280
     0
281
     1
  0
CLASS
  1
XRECORD
  2
AcDbXrecord
  3
AutoCAD 2000
 90
    32768
280
     0
281
     0
  0
CLASS
  1
LONG_TRANSACTION
  2
AcDbLongTransaction
  3
AutoCAD 2000
 90
    32768
280
     0
281
     0
  0
CLASS
  1
LWPOLYLINE
  2
AcDbPolyline
  3
AutoCAD 2000
 90
    32768
280
     0
281
     1
  0
CLASS
  1
HATCH
  2
AcDbHatch
  3
AutoCAD 2000
 90
    32768
280
     0
281
     1
  0
CLASS
  1
XRECORD
  2
AcDbXrecord
  3
AutoCAD 2000
 90
    32768
280
     0
281
     0
  0
CLASS
  1
LONG_TRANSACTION
  2
AcDbLongTransaction
  3
AutoCAD 2000
 90
    32768
280
     0
281
     0
  0
CLASS
  1
LWPOLYLINE
  2
AcDbPolyline
  3
AutoCAD 2000
 90
    32768
280
     0
281
     1
  0
CLASS
  1
HATCH
  2
AcDbHatch
  3
AutoCAD 2000
 90
    32768
280
     0
281
     1
  0
CLASS
  1
XRECORD
  2
AcDbXrecord
  3
AutoCAD 2000
 90
    32768
280
     0
281
     0
  0
CLASS
  1
LONG_TRANSACTION
  2
AcDbLongTransaction
  3
AutoCAD 2000
 90
    32768
280
     0
281
     0
  0
CLASS
  1
LWPOLYLINE
  2
AcDbPolyline
  3
AutoCAD 2000
 90
    32768
280
     0
281
     1
  0
CLASS
  1
HATCH
  2
AcDbHatch
  3
AutoCAD 2000
 90
    32768
280
     0
281
     1
  0
CLASS
  1
XRECORD
  2
AcDbXrecord
  3
AutoCAD 2000
 90
    32768
280
     0
281
     0
  0
CLASS
  1
LONG_TRANSACTION
  2
AcDbLongTransaction
  3
AutoCAD 2000
 90
    32768
280
     0
281
     0
  0
CLASS
  1
LWPOLYLINE
  2
AcDbPolyline
  3
AutoCAD 2000
 90
    32768
280
     0
281
     1
  0
CLASS
  1
HATCH
  2
AcDbHatch
  3
AutoCAD 2000
 90
    32768
280
     0
281
     1
  0
CLASS
  1
XRECORD
  2
AcDbXrecord
  3
AutoCAD 2000
 90
    32768
280
     0
281
     0
  0
CLASS
  1
LONG_TRANSACTION
  2
AcDbLongTransaction
  3
AutoCAD 2000
 90
    32768
280
     0
281
     0
  0
CLASS
  1
LWPOLYLINE
  2
AcDbPolyline
  3
AutoCAD 2000
 90
    32768
280
     0
281
     1
  0
CLASS
  1
HATCH
  2
AcDbHatch
  3
AutoCAD 2000
 90
    32768
280
     0
281
     1
  0
CLASS
  1
XRECORD
  2
AcDbXrecord
  3
AutoCAD 2000
 90
    32768
280
     0
281
     0
  0
CLASS
  1
LONG_TRANSACTION
  2
AcDbLongTransaction
  3
AutoCAD 2000
 90
    32768
280
     0
281
     0
  0
CLASS
  1
LWPOLYLINE
  2
AcDbPolyline
  3
AutoCAD 2000
 90
    32768
280
     0
281
     1
  0
CLASS
  1
HATCH
  2
AcDbHatch
  3
AutoCAD 2000
 90
    32768
280
     0
281
     1
  0
CLASS
  1
XRECORD
  2
AcDbXrecord
  3
AutoCAD 2000
 90
    32768
280
     0
281
     0
  0
CLASS
  1
LONG_TRANSACTION
  2
AcDbLongTransaction
  3
AutoCAD 2000
 90
    32768
280
     0
281
     0
  0
CLASS
  1
LWPOLYLINE
  2
AcDbPolyline
  3
AutoCAD 2000
 90
    32768
280
     0
281
     1
  0
CLASS
  1
HATCH
  2
AcDbHatch
  3
AutoCAD 2000
 90
    32768
280
     0
281
     1
  0
CLASS
  1
XRECORD
  2
AcDbXrecord
  3
AutoCAD 2000
 90
    32768
280
     0
281
     0
  0
ENDSEC
  0
SECTION
  2
TABLES
  0
TABLE
  2
VPORT
  5
1E
330
0
100
AcDbSymbolTable
 70
     3
  0
VPORT
  5
F83D
330
1E
100
AcDbSymbolTableRecord
100
AcDbViewportTableRecord
  2
*ACTIVE
 70
     0
 10
0.0
 20
0.0
 11
1.0
 21
1.0
 12
264.3777511551397
 22
-3574.649664641316
 13
0.0
 23
0.0
 14
1.0
 24
1.0
 15
4.0
 25
4.0
 16
0.0
 26
0.0
 36
1.0
 17
0.0
 27
0.0
 37
0.0
 40
578.6228716575046
 41
1.60759493670886
 42
50.0
 43
0.0
 44
0.0
 50
0.0
 51
0.0
 71
    16
 72
   100
 73
     1
 74
     0
 75
     0
 76
     0
 77
     0
 78
     0
  0
ENDTAB
  0
TABLE
  2
LTYPE
  5
19
330
0
100
AcDbSymbolTable
 70
     3
  0
LTYPE
  5
1A
330
19
100
AcDbSymbolTableRecord
100
AcDbLinetypeTableRecord
  2
BYBLOCK
 70
     0
  3

 72
    65
 73
     0
 40
0.0
  0
LTYPE
  5
1B
330
19
100
AcDbSymbolTableRecord
100
AcDbLinetypeTableRecord
  2
BYLAYER
 70
     0
  3

 72
    65
 73
     0
 40
0.0
  0
LTYPE
  5
B
330
19
100
AcDbSymbolTableRecord
100
AcDbLinetypeTableRecord
  2
CONTINUOUS
 70
     0
  3
Solid line
 72
    65
 73
     0
 40
0.0
  0
LTYPE
  5
32
330
19
100
AcDbSymbolTableRecord
100
AcDbLinetypeTableRecord
  2
CENTER
 70
     0
  3

 72
    65
 73
     4
 40
18.0
 49
15.0
 74
     4
 75
     0
340
0
 46
1.0
 50
0.0
 44
0.0
 45
0.0
 49
-1.0
 74
     4
 75
     0
340
0
 46
1.0
 50
0.0
 44
0.0
 45
0.0
 49
1.0
 74
     4
 75
     0
340
0
 46
1.0
 50
0.0
 44
0.0
 45
0.0
 49
-1.0
 74
     4
 75
     0
340
0
 46
1.0
 50
0.0
 44
0.0
 45
0.0
  0
LTYPE
  5
A348
330
19
100
AcDbSymbolTableRecord
100
AcDbLinetypeTableRecord
  2
PHANTOM
 70
     0
  3
----- - - ----- - - ----- - - ----- - - -----
 72
    65
 73
     6
 40
22.5
 49
15.0
 74
     4
 75
     0
340
0
 46
1.0
 50
0.0
 44
0.0
 45
0.0
 49
-1.5
 74
     4
 75
     0
340
0
 46
1.0
 50
0.0
 44
0.0
 45
0.0
 49
1.5
 74
     4
 75
     0
340
0
 46
1.0
 50
0.0
 44
0.0
 45
0.0
 49
-1.5
 74
     4
 75
     0
340
0
 46
1.0
 50
0.0
 44
0.0
 45
0.0
 49
1.5
 74
     4
 75
     0
340
0
 46
1.0
 50
0.0
 44
0.0
 45
0.0
 49
-1.5
 74
     4
 75
     0
340
0
 46
1.0
 50
0.0
 44
0.0
 45
0.0
  0
ENDTAB
  0
TABLE
  2
LAYER
  5
15
102
{ACAD_XDICTIONARY
360
8E1
102
}
330
0
100
AcDbSymbolTable
 70
     6
  0
LAYER
  5
6
330
15
100
AcDbSymbolTableRecord
100
AcDbLayerTableRecord
  2
0
 70
     0
 62
     7
  6
CONTINUOUS
  0
LAYER
  5
34
330
15
100
AcDbSymbolTableRecord
100
AcDbLayerTableRecord
  2
L-ZISSEN
 70
     0
 62
     7
  6
CONTINUOUS
  0
LAYER
  5
31
330
15
100
AcDbSymbolTableRecord
100
AcDbLayerTableRecord
  2
L-TYUSIN
 70
     0
 62
     1
  6
CENTER
  0
LAYER
  5
26
330
15
100
AcDbSymbolTableRecord
100
AcDbLayerTableRecord
  2
SUNPOU
 70
     0
 62
     3
  6
CONTINUOUS
  0
LAYER
  5
9E
330
15
100
AcDbSymbolTableRecord
100
AcDbLayerTableRecord
  2
L-SAISEN
 70
     0
 62
     6
  6
CONTINUOUS
  0
LAYER
  5
A349
330
15
100
AcDbSymbolTableRecord
100
AcDbLayerTableRecord
  2
L-SOUZOU
 70
     0
 62
     2
  6
PHANTOM
  0
ENDTAB
  0
TABLE
  2
STYLE
  5
16
330
0
100
AcDbSymbolTable
 70
     1
  0
STYLE
  5
17
330
16
100
AcDbSymbolTableRecord
100
AcDbTextStyleTableRecord
  2
STANDARD
 70
     0
 40
0.0
 41
1.0
 50
0.0
 71
     0
 42
5.599999999999999
  3
txt.shx
  4

  0
ENDTAB
  0
TABLE
  2
VIEW
  5
1C
330
0
100
AcDbSymbolTable
 70
     0
  0
ENDTAB
  0
TABLE
  2
UCS
  5
1D
330
0
100
AcDbSymbolTable
 70
     0
  0
ENDTAB
  0
TABLE
  2
APPID
  5
20
330
0
100
AcDbSymbolTable
 70
     1
  0
APPID
  5
A
330
20
100
AcDbSymbolTableRecord
100
AcDbRegAppTableRecord
  2
ACAD
 70
     0
  0
ENDTAB
  0
TABLE
  2
DIMSTYLE
  5
21
330
0
100
AcDbSymbolTable
 70
     1
  0
DIMSTYLE
105
28
330
21
100
AcDbSymbolTableRecord
100
AcDbDimStyleTableRecord
  2
STANDARD
 70
     0
  3

  4

  5

  6

  7

 40
1.0
 41
0.18
 42
0.0625
 43
0.38
 44
0.18
 45
0.0
 46
0.0
 47
0.0
 48
0.0
140
0.18
141
0.09
142
0.0
143
25.4
144
1.0
145
0.0
146
1.0
147
0.09
 71
     0
 72
     0
 73
     1
 74
     1
 75
     0
 76
     0
 77
     0
 78
     0
170
     0
171
     2
172
     0
173
     0
174
     0
175
     0
176
     0
177
     0
178
     0
270
     2
271
     4
272
     4
273
     2
274
     2
340
17
275
     0
280
     0
281
     0
282
     0
283
     1
284
     0
285
     0
286
     0
287
     3
288
     0
  0
ENDTAB
  0
TABLE
  2
BLOCK_RECORD
  5
1
330
0
100
AcDbSymbolTable
 70
     0
  0
BLOCK_RECORD
  5
2
102
{ACAD_XDICTIONARY
360
3
102
}
330
1
100
AcDbSymbolTableRecord
100
AcDbBlockTableRecord
  2
*MODEL_SPACE
  0
BLOCK_RECORD
  5
F
102
{ACAD_XDICTIONARY
360
10
102
}
330
1
100
AcDbSymbolTableRecord
100
AcDbBlockTableRecord
  2
*PAPER_SPACE
  0
ENDTAB
  0
ENDSEC
  0
SECTION
  2
BLOCKS
  0
BLOCK
  5
5
330
2
100
AcDbEntity
  8
0
100
AcDbBlockBegin
  2
*MODEL_SPACE
 70
     0
 10
0.0
 20
0.0
 30
0.0
  3
*MODEL_SPACE
  1

  0
ENDBLK
  5
C
330
2
100
AcDbEntity
  8
0
100
AcDbBlockEnd
  0
BLOCK
  5
12
330
F
100
AcDbEntity
 67
     1
  8
0
100
AcDbBlockBegin
  2
*PAPER_SPACE
 70
     0
 10
0.0
 20
0.0
 30
0.0
  3
*PAPER_SPACE
  1

  0
ENDBLK
  5
13
330
F
100
AcDbEntity
 67
     1
  8
0
100
AcDbBlockEnd
  0
ENDSEC
  0
SECTION
  2
ENTITIES
  0
TEXT
  5
D086
330
2
100
AcDbEntity
  8
L-ZISSEN
100
AcDbText
 10
326.1579979499921
 20
-3604.279538609348
 30
0.0
 40
4.5
  1
MODEL NO. CH4-*00-*04*
100
AcDbText
  0
LINE
  5
D089
330
2
100
AcDbEntity
  8
L-ZISSEN
100
AcDbLine
 10
357.7126390895676
 20
-3654.123858262249
 30
0.0
 11
344.2490816487626
 21
-3642.904227061579
 31
0.0
  0
LINE
  5
D08B
330
2
100
AcDbEntity
  8
L-ZISSEN
100
AcDbLine
 10
340.7490816487631
 20
-3668.903207561873
 30
0.0
 11
355.4990816487624
 21
-3668.903207561873
 31
0.0
  0
LINE
  5
D08C
330
2
100
AcDbEntity
  8
L-ZISSEN
100
AcDbLine
 10
349.8139143805435
 20
-3758.903207561874
 30
0.0
 11
340.8570543169461
 21
-3757.854303195947
 31
0.0
  0
LINE
  5
D08D
330
2
100
AcDbEntity
  8
L-ZISSEN
100
AcDbLine
 10
329.9932145872814
 20
-3668.903207561874
 30
0.0
 11
331.7090755892581
 21
-3748.148800892813
 31
0.0
  0
ARC
  5
D091
330
2
100
AcDbEntity
  8
L-ZISSEN
100
AcDbCircle
 10
341.7057359975032
 20
-3747.890381307198
 30
0.0
 40
10.0
100
AcDbArc
 50
181.0000000000278
 51
265.1315559371177
  0
TEXT
  5
D095
330
2
100
AcDbEntity
  8
L-ZISSEN
100
AcDbText
 10
331.2490816487626
 20
-3645.154227061579
 30
0.0
 40
4.5
  1
P.P
100
AcDbText
  0
LINE
  5
D096
330
2
100
AcDbEntity
  8
L-ZISSEN
100
AcDbLine
 10
329.2930970485355
 20
-3668.903207561874
 30
0.0
 11
332.7490816487631
 21
-3668.903207561874
 31
0.0
  0
LINE
  5
D097
330
2
100
AcDbEntity
  8
L-ZISSEN
100
AcDbLine
 10
329.0457107137285
 20
-3655.404227061579
 30
0.0
 11
329.2930970485355
 21
-3668.903207561874
 31
0.0
  0
LINE
  5
D098
330
2
100
AcDbEntity
  8
L-ZISSEN
100
AcDbLine
 10
332.7490816487631
 20
-3658.903207561874
 30
0.0
 11
340.7490816487631
 21
-3658.903207561874
 31
0.0
  0
LINE
  5
D099
330
2
100
AcDbEntity
  8
L-ZISSEN
100
AcDbLine
 10
332.7490816487631
 20
-3658.903207561874
 30
0.0
 11
332.7490816487631
 21
-3668.903207561874
 31
0.0
  0
LINE
  5
D09A
330
2
100
AcDbEntity
  8
L-ZISSEN
100
AcDbLine
 10
344.2490816487626
 20
-3642.904227061579
 30
0.0
 11
342.2490816487626
 21
-3642.904227061579
 31
0.0
  0
LINE
  5
D09B
330
2
100
AcDbEntity
  8
L-ZISSEN
100
AcDbLine
 10
340.7490816487631
 20
-3658.903207561874
 30
0.0
 11
340.7490816487631
 21
-3668.903207561874
 31
0.0
  0
LINE
  5
D0A2
330
2
100
AcDbEntity
  8
L-ZISSEN
100
AcDbLine
 10
356.7490816487624
 20
-3738.403207561874
 30
0.0
 11
356.7490816487624
 21
-3684.403207561874
 31
0.0
  0
LINE
  5
D0A3
330
2
100
AcDbEntity
  8
L-ZISSEN
100
AcDbLine
 10
350.4990816487624
 20
-3672.903207561874
 30
0.0
 11
350.4990816487642
 21
-3749.903207561873
 31
0.0
  0
LINE
  5
D0A4
330
2
100
AcDbEntity
  8
L-ZISSEN
100
AcDbLine
 10
361.7490816487624
 20
-3684.403207561874
 30
0.0
 11
361.7490816487624
 21
-3738.403207561874
 31
0.0
  0
LINE
  5
D0A5
330
2
100
AcDbEntity
  8
L-ZISSEN
100
AcDbLine
 10
367.9990816487624
 20
-3672.903207561874
 30
0.0
 11
367.9990816487642
 21
-3749.903207561873
 31
0.0
  0
LINE
  5
D0A6
330
2
100
AcDbEntity
  8
L-ZISSEN
100
AcDbLine
 10
388.5049487102439
 20
-3668.903207561874
 30
0.0
 11
386.7890877082672
 21
-3748.148800892813
 31
0.0
  0
LINE
  5
D0A7
330
2
100
AcDbEntity
  8
L-ZISSEN
100
AcDbLine
 10
349.8139143805437
 20
-3762.403207561875
 30
0.0
 11
368.6842489169818
 21
-3762.403207561875
 31
0.0
  0
LINE
  5
D0A8
330
2
100
AcDbEntity
  8
L-ZISSEN
100
AcDbLine
 10
349.8139143805433
 20
-3758.903207561874
 30
0.0
 11
368.6842489169818
 21
-3758.903207561874
 31
0.0
  0
LINE
  5
D0A9
330
2
100
AcDbEntity
  8
L-TYUSIN
100
AcDbLine
 10
365.4990816487627
 20
-3744.653207561874
 30
0.0
 11
352.9990816487627
 21
-3744.653207561874
 31
0.0
  0
LINE
  5
D0AA
330
2
100
AcDbEntity
  8
L-ZISSEN
100
AcDbLine
 10
354.713817289124
 20
-3765.404866982956
 30
0.0
 11
363.7824411468602
 21
-3765.404944145904
 31
0.0
  0
ARC
  5
D0AB
330
2
100
AcDbEntity
  8
L-ZISSEN
100
AcDbCircle
 10
355.3279800452805
 20
-3750.267060311355
 30
0.0
 40
15.15026028548078
100
AcDbArc
 50
255.1892479927985
 51
284.9997091106928
  0
ARC
  5
D0AC
330
2
100
AcDbEntity
  8
L-ZISSEN
100
AcDbCircle
 10
355.3273752774684
 20
-3777.908150196561
 30
0.0
 40
15.50496374778473
100
AcDbArc
 50
75.34890043484701
 51
104.4621424617026
  0
LINE
  5
D0AD
330
2
100
AcDbEntity
  8
L-ZISSEN
100
AcDbLine
 10
353.7818804270167
 20
-3767.345392472071
 30
0.0
 11
362.2818804270181
 21
-3767.345392472071
 31
0.0
  0
CIRCLE
  5
D0AE
330
2
100
AcDbEntity
  8
L-ZISSEN
100
AcDbCircle
 10
359.2490816487627
 20
-3744.653207561874
 30
0.0
 40
3.75
  0
LINE
  5
D0AF
330
2
100
AcDbEntity
  8
L-ZISSEN
100
AcDbLine
 10
364.981880427018
 20
-3777.404227061579
 30
0.0
 11
353.5818804270192
 21
-3777.404227061579
 31
0.0
  0
LINE
  5
D0B0
330
2
100
AcDbEntity
  8
L-ZISSEN
100
AcDbLine
 10
350.4990816487624
 20
-3749.903207561873
 30
0.0
 11
367.9990816487624
 21
-3749.903207561874
 31
0.0
  0
LINE
  5
D0B1
330
2
100
AcDbEntity
  8
L-ZISSEN
100
AcDbLine
 10
351.4551616487626
 20
-3762.894494331522
 30
0.0
 11
351.4551616487626
 21
-3764.913959791635
 31
0.0
  0
LINE
  5
D0B2
330
2
100
AcDbEntity
  8
L-ZISSEN
100
AcDbLine
 10
353.7818804270167
 20
-3767.345392472071
 30
0.0
 11
353.2818804270195
 21
-3767.84539247207
 31
0.0
  0
LINE
  5
D0B3
330
2
100
AcDbEntity
  8
L-ZISSEN
100
AcDbLine
 10
353.7818804270195
 20
-3766.84539247207
 30
0.0
 11
353.7818804270195
 21
-3765.404227061579
 31
0.0
  0
LINE
  5
D0B4
330
2
100
AcDbEntity
  8
L-ZISSEN
100
AcDbLine
 10
354.2818804270209
 20
-3765.404923672707
 30
0.0
 11
354.2818804270168
 21
-3767.345392472071
 31
0.0
  0
LINE
  5
D0B5
330
2
100
AcDbEntity
  8
L-ZISSEN
100
AcDbLine
 10
354.2818804270168
 20
-3767.345392472071
 30
0.0
 11
353.7818804270195
 21
-3766.84539247207
 31
0.0
  0
LINE
  5
D0B6
330
2
100
AcDbEntity
  8
L-ZISSEN
100
AcDbLine
 10
353.5818804270192
 20
-3777.404227061579
 30
0.0
 11
353.2818804270195
 21
-3777.104227061578
 31
0.0
  0
LINE
  5
D0B7
330
2
100
AcDbEntity
  8
L-ZISSEN
100
AcDbLine
 10
356.281880427019
 20
-3767.345392472071
 30
0.0
 11
356.281880427019
 21
-3777.404227061579
 31
0.0
  0
LINE
  5
D0B8
330
2
100
AcDbEntity
  8
L-ZISSEN
100
AcDbLine
 10
355.2818804270177
 20
-3767.345392472071
 30
0.0
 11
355.2818804270177
 21
-3777.404227061579
 31
0.0
  0
LINE
  5
D0B9
330
2
100
AcDbEntity
  8
L-ZISSEN
100
AcDbLine
 10
354.2818804270186
 20
-3767.345392472071
 30
0.0
 11
354.2818804270186
 21
-3777.404227061579
 31
0.0
  0
LINE
  5
D0BA
330
2
100
AcDbEntity
  8
L-ZISSEN
100
AcDbLine
 10
353.2818804270195
 20
-3777.104227061578
 30
0.0
 11
353.2818804270195
 21
-3767.84539247207
 31
0.0
  0
LINE
  5
D0BB
330
2
100
AcDbEntity
  8
L-ZISSEN
100
AcDbLine
 10
349.8139143805435
 20
-3758.903207561874
 30
0.0
 11
349.8139143805437
 21
-3762.403207561875
 31
0.0
  0
ARC
  5
D0BC
330
2
100
AcDbEntity
  8
L-ZISSEN
100
AcDbCircle
 10
363.1707880200578
 20
-3777.908150196561
 30
0.0
 40
15.50496374778473
100
AcDbArc
 50
75.53785753829742
 51
104.6510995651527
  0
ARC
  5
D0BD
330
2
100
AcDbEntity
  8
L-ZISSEN
100
AcDbCircle
 10
363.1701832522457
 20
-3750.267060311355
 30
0.0
 40
15.15026028548078
100
AcDbArc
 50
255.0002908893071
 51
284.8107520072012
  0
LINE
  5
D0BE
330
2
100
AcDbEntity
  8
L-ZISSEN
100
AcDbLine
 10
362.2818804270181
 20
-3767.345392472071
 30
0.0
 11
364.7818804270181
 21
-3767.345392472071
 31
0.0
  0
LINE
  5
D0BF
330
2
100
AcDbEntity
  8
L-ZISSEN
100
AcDbLine
 10
359.2490816487631
 20
-3762.907346219525
 30
0.0
 11
359.2490816487631
 21
-3764.902170132153
 31
0.0
  0
LINE
  5
D0C0
330
2
100
AcDbEntity
  8
L-ZISSEN
100
AcDbLine
 10
359.2490816487631
 20
-3762.907346219525
 30
0.0
 11
359.2490816487631
 21
-3764.902170132153
 31
0.0
  0
LINE
  5
D0C1
330
2
100
AcDbEntity
  8
L-ZISSEN
100
AcDbLine
 10
359.2490816487631
 20
-3762.907346219525
 30
0.0
 11
359.2490816487631
 21
-3764.902170132153
 31
0.0
  0
LINE
  5
D0C2
330
2
100
AcDbEntity
  8
L-ZISSEN
100
AcDbLine
 10
359.2490816487631
 20
-3762.907346219525
 30
0.0
 11
359.2490816487631
 21
-3764.902170132153
 31
0.0
  0
LINE
  5
D0C3
330
2
100
AcDbEntity
  8
L-ZISSEN
100
AcDbLine
 10
357.2818804270204
 20
-3767.345392472071
 30
0.0
 11
357.2818804270204
 21
-3777.404227061579
 31
0.0
  0
LINE
  5
D0C4
330
2
100
AcDbEntity
  8
L-ZISSEN
100
AcDbLine
 10
362.2818804270181
 20
-3767.345392472071
 30
0.0
 11
362.2818804270181
 21
-3777.404227061579
 31
0.0
  0
LINE
  5
D0C5
330
2
100
AcDbEntity
  8
L-ZISSEN
100
AcDbLine
 10
361.281880427019
 20
-3767.345392472071
 30
0.0
 11
361.281880427019
 21
-3777.404227061579
 31
0.0
  0
LINE
  5
D0C6
330
2
100
AcDbEntity
  8
L-ZISSEN
100
AcDbLine
 10
360.2818804270199
 20
-3767.345392472071
 30
0.0
 11
360.2818804270199
 21
-3777.404227061579
 31
0.0
  0
LINE
  5
D0C7
330
2
100
AcDbEntity
  8
L-ZISSEN
100
AcDbLine
 10
359.2818804270208
 20
-3767.345392472071
 30
0.0
 11
359.2818804270208
 21
-3777.404227061579
 31
0.0
  0
LINE
  5
D0C8
330
2
100
AcDbEntity
  8
L-ZISSEN
100
AcDbLine
 10
358.2818804270195
 20
-3767.345392472071
 30
0.0
 11
358.2818804270195
 21
-3777.404227061579
 31
0.0
  0
LINE
  5
D0C9
330
2
100
AcDbEntity
  8
L-ZISSEN
100
AcDbLine
 10
367.0430016487636
 20
-3762.894494331522
 30
0.0
 11
367.0430016487636
 21
-3764.913959791635
 31
0.0
  0
LINE
  5
D0CA
330
2
100
AcDbEntity
  8
L-ZISSEN
100
AcDbLine
 10
364.7818804270181
 20
-3767.345392472071
 30
0.0
 11
365.2818804270177
 21
-3767.84539247207
 31
0.0
  0
LINE
  5
D0CB
330
2
100
AcDbEntity
  8
L-ZISSEN
100
AcDbLine
 10
364.7818804270177
 20
-3766.84539247207
 30
0.0
 11
364.7818804270177
 21
-3765.404227061579
 31
0.0
  0
LINE
  5
D0CC
330
2
100
AcDbEntity
  8
L-ZISSEN
100
AcDbLine
 10
364.2818804270222
 20
-3765.405573324001
 30
0.0
 11
364.2818804270181
 21
-3767.345392472071
 31
0.0
  0
LINE
  5
D0CD
330
2
100
AcDbEntity
  8
L-ZISSEN
100
AcDbLine
 10
364.2818804270181
 20
-3767.345392472071
 30
0.0
 11
364.7818804270177
 21
-3766.84539247207
 31
0.0
  0
LINE
  5
D0CE
330
2
100
AcDbEntity
  8
L-ZISSEN
100
AcDbLine
 10
364.981880427018
 20
-3777.404227061579
 30
0.0
 11
365.2818804270177
 21
-3777.104227061578
 31
0.0
  0
LINE
  5
D0CF
330
2
100
AcDbEntity
  8
L-ZISSEN
100
AcDbLine
 10
365.2818804270177
 20
-3767.84539247207
 30
0.0
 11
365.2818804270177
 21
-3777.104227061578
 31
0.0
  0
LINE
  5
D0D0
330
2
100
AcDbEntity
  8
L-ZISSEN
100
AcDbLine
 10
364.2818804270209
 20
-3767.345392472071
 30
0.0
 11
364.2818804270229
 21
-3777.404227061579
 31
0.0
  0
LINE
  5
D0D1
330
2
100
AcDbEntity
  8
L-ZISSEN
100
AcDbLine
 10
363.2818804270218
 20
-3767.345392472071
 30
0.0
 11
363.2818804270218
 21
-3777.404227061579
 31
0.0
  0
LINE
  5
D0D2
330
2
100
AcDbEntity
  8
L-ZISSEN
100
AcDbLine
 10
361.7490816487624
 20
-3738.403207561874
 30
0.0
 11
356.7490816487624
 21
-3738.403207561874
 31
0.0
  0
POLYLINE
  5
D0D3
330
2
100
AcDbEntity
  8
L-ZISSEN
100
AcDb2dPolyline
 66
     1
 10
0.0
 20
0.0
 30
0.0
 70
     1
  0
VERTEX
  5
F840
330
D0D3
100
AcDbEntity
  8
L-ZISSEN
100
AcDbVertex
100
AcDb2dVertex
 10
357.9990816487626
 20
-3743.931519725387
 30
0.0
  0
VERTEX
  5
F841
330
D0D3
100
AcDbEntity
  8
L-ZISSEN
100
AcDbVertex
100
AcDb2dVertex
 10
359.2490816487627
 20
-3743.2098318889
 30
0.0
  0
VERTEX
  5
F842
330
D0D3
100
AcDbEntity
  8
L-ZISSEN
100
AcDbVertex
100
AcDb2dVertex
 10
360.4990816487626
 20
-3743.931519725387
 30
0.0
  0
VERTEX
  5
F843
330
D0D3
100
AcDbEntity
  8
L-ZISSEN
100
AcDbVertex
100
AcDb2dVertex
 10
360.4990816487626
 20
-3745.374895398361
 30
0.0
  0
VERTEX
  5
F844
330
D0D3
100
AcDbEntity
  8
L-ZISSEN
100
AcDbVertex
100
AcDb2dVertex
 10
359.2490816487627
 20
-3746.096583234848
 30
0.0
  0
VERTEX
  5
F845
330
D0D3
100
AcDbEntity
  8
L-ZISSEN
100
AcDbVertex
100
AcDb2dVertex
 10
357.9990816487626
 20
-3745.374895398361
 30
0.0
  0
SEQEND
  5
F846
330
D0D3
100
AcDbEntity
  8
L-ZISSEN
  0
ARC
  5
D0D4
330
2
100
AcDbEntity
  8
L-ZISSEN
100
AcDbCircle
 10
376.792427300022
 20
-3747.890381307198
 30
0.0
 40
10.0
100
AcDbArc
 50
274.868444062882
 51
358.9999999999721
  0
LINE
  5
D0D5
330
2
100
AcDbEntity
  8
L-ZISSEN
100
AcDbLine
 10
368.6842489169818
 20
-3758.903207561874
 30
0.0
 11
377.6411089805792
 21
-3757.854303195947
 31
0.0
  0
LINE
  5
D0D6
330
2
100
AcDbEntity
  8
L-ZISSEN
100
AcDbLine
 10
368.6842489169818
 20
-3758.903207561874
 30
0.0
 11
368.6842489169816
 21
-3762.403207561875
 31
0.0
  0
LINE
  5
D0D9
330
2
100
AcDbEntity
  8
L-ZISSEN
100
AcDbLine
 10
393.0532100584331
 20
-3655.703207561873
 30
0.0
 11
390.8532100584329
 21
-3655.703207561873
 31
0.0
  0
ARC
  5
D0DA
330
2
100
AcDbEntity
  8
L-ZISSEN
100
AcDbCircle
 10
390.0850282402506
 20
-3689.503207561873
 30
0.0
 40
2.368181818181991
100
AcDbArc
 50
302.3784125140503
 51
57.62158748594965
  0
LINE
  5
D0DB
330
2
100
AcDbEntity
  8
L-ZISSEN
100
AcDbLine
 10
398.8532100584329
 20
-3680.062828448242
 30
0.0
 11
390.8532100584329
 21
-3682.003207561873
 31
0.0
  0
LINE
  5
D0E7
330
2
100
AcDbEntity
  8
L-ZISSEN
100
AcDbLine
 10
377.7490816487631
 20
-3668.903207561871
 30
0.0
 11
362.999081648762
 21
-3668.903207561874
 31
0.0
  0
LINE
  5
D0E8
330
2
100
AcDbEntity
  8
L-ZISSEN
100
AcDbLine
 10
362.9990816487624
 20
-3658.903207561874
 30
0.0
 11
355.4990816487624
 21
-3658.903207561874
 31
0.0
  0
CIRCLE
  5
D0E9
330
2
100
AcDbEntity
  8
L-ZISSEN
100
AcDbCircle
 10
359.2490816487627
 20
-3678.153207561873
 30
0.0
 40
3.75
  0
LINE
  5
D0EA
330
2
100
AcDbEntity
  8
L-TYUSIN
100
AcDbLine
 10
365.4990816487627
 20
-3678.153207561873
 30
0.0
 11
352.9990816487627
 21
-3678.153207561873
 31
0.0
  0
LINE
  5
D0EB
330
2
100
AcDbEntity
  8
L-ZISSEN
100
AcDbLine
 10
350.4990816487624
 20
-3672.903207561874
 30
0.0
 11
367.9990816487624
 21
-3672.903207561873
 31
0.0
  0
LINE
  5
D0EC
330
2
100
AcDbEntity
  8
L-ZISSEN
100
AcDbLine
 10
355.4990816487624
 20
-3658.903207561874
 30
0.0
 11
355.4990816487624
 21
-3668.903207561873
 31
0.0
  0
SOLID
  5
D0ED
330
2
100
AcDbEntity
  8
L-ZISSEN
100
AcDbTrace
 10
357.4992442896795
 20
-3654.379932022116
 30
0.0
 11
357.9260338894558
 21
-3653.867784502384
 31
0.0
 12
359.2490816487624
 22
-3655.404227061579
 32
0.0
 13
359.2490816487624
 23
-3655.404227061579
 33
0.0
  0
LINE
  5
D0EE
330
2
100
AcDbEntity
  8
L-ZISSEN
100
AcDbLine
 10
356.7490816487624
 20
-3684.403207561874
 30
0.0
 11
361.7490816487624
 21
-3684.403207561874
 31
0.0
  0
POLYLINE
  5
D0EF
330
2
100
AcDbEntity
  8
L-ZISSEN
100
AcDb2dPolyline
 66
     1
 10
0.0
 20
0.0
 30
0.0
 70
     1
  0
VERTEX
  5
F847
330
D0EF
100
AcDbEntity
  8
L-ZISSEN
100
AcDbVertex
100
AcDb2dVertex
 10
357.9990816487626
 20
-3678.87489539836
 30
0.0
  0
VERTEX
  5
F848
330
D0EF
100
AcDbEntity
  8
L-ZISSEN
100
AcDbVertex
100
AcDb2dVertex
 10
359.2490816487627
 20
-3679.596583234848
 30
0.0
  0
VERTEX
  5
F849
330
D0EF
100
AcDbEntity
  8
L-ZISSEN
100
AcDbVertex
100
AcDb2dVertex
 10
360.4990816487626
 20
-3678.87489539836
 30
0.0
  0
VERTEX
  5
F84A
330
D0EF
100
AcDbEntity
  8
L-ZISSEN
100
AcDbVertex
100
AcDb2dVertex
 10
360.4990816487626
 20
-3677.431519725386
 30
0.0
  0
VERTEX
  5
F84B
330
D0EF
100
AcDbEntity
  8
L-ZISSEN
100
AcDbVertex
100
AcDb2dVertex
 10
359.2490816487627
 20
-3676.709831888899
 30
0.0
  0
VERTEX
  5
F84C
330
D0EF
100
AcDbEntity
  8
L-ZISSEN
100
AcDbVertex
100
AcDb2dVertex
 10
357.9990816487626
 20
-3677.431519725386
 30
0.0
  0
SEQEND
  5
F84D
330
D0EF
100
AcDbEntity
  8
L-ZISSEN
  0
LINE
  5
D0F0
330
2
100
AcDbEntity
  8
L-ZISSEN
100
AcDbLine
 10
362.9990816487622
 20
-3658.903207561874
 30
0.0
 11
362.999081648762
 21
-3668.903207561873
 31
0.0
  0
LINE
  5
D0F7
330
2
100
AcDbEntity
  8
L-ZISSEN
100
AcDbLine
 10
377.7490816487622
 20
-3658.903207561873
 30
0.0
 11
383.2604360870206
 21
-3658.903207561874
 31
0.0
  0
LINE
  5
D0F8
330
2
100
AcDbEntity
  8
L-ZISSEN
100
AcDbLine
 10
377.7490816487631
 20
-3658.903207561873
 30
0.0
 11
377.7490816487631
 21
-3668.903207561871
 31
0.0
  0
LINE
  5
D0F9
330
2
100
AcDbEntity
  8
L-ZISSEN
100
AcDbLine
 10
383.2604360870206
 20
-3668.903207561871
 30
0.0
 11
388.5049487102439
 21
-3668.903207561871
 31
0.0
  0
LINE
  5
D0FA
330
2
100
AcDbEntity
  8
L-ZISSEN
100
AcDbLine
 10
383.2604360870206
 20
-3658.903207561874
 30
0.0
 11
383.2604360870206
 21
-3668.903207561871
 31
0.0
  0
LINE
  5
D0FB
330
2
100
AcDbEntity
  8
L-ZISSEN
100
AcDbLine
 10
390.8532100584329
 20
-3660.403207561874
 30
0.0
 11
390.8532100584329
 21
-3655.703207561872
 31
0.0
  0
LINE
  5
D0FC
330
2
100
AcDbEntity
  8
L-ZISSEN
100
AcDbLine
 10
391.3410977441269
 20
-3660.403207561874
 30
0.0
 11
389.3185961099413
 21
-3660.403207561874
 31
0.0
  0
LINE
  5
D0FD
330
2
100
AcDbEntity
  8
L-ZISSEN
100
AcDbLine
 10
390.8532100584329
 20
-3655.404227061579
 30
0.0
 11
390.8532100584329
 21
-3655.703207561872
 31
0.0
  0
LINE
  5
D0FE
330
2
100
AcDbEntity
  8
L-ZISSEN
100
AcDbLine
 10
390.8532100584324
 20
-3696.003207561874
 30
0.0
 11
390.8532100584333
 21
-3672.684252145614
 31
0.0
  0
LINE
  5
D0FF
330
2
100
AcDbEntity
  8
L-ZISSEN
100
AcDbLine
 10
387.8532100584324
 20
-3699.003207561873
 30
0.0
 11
390.8532100584324
 21
-3696.003207561874
 31
0.0
  0
LINE
  5
D100
330
2
100
AcDbEntity
  8
L-ZISSEN
100
AcDbLine
 10
390.8532100584329
 20
-3691.503207561873
 30
0.0
 11
391.3532100584329
 21
-3691.503207561873
 31
0.0
  0
LINE
  5
D101
330
2
100
AcDbEntity
  8
L-ZISSEN
100
AcDbLine
 10
390.8532100584329
 20
-3687.503207561873
 30
0.0
 11
391.3532100584329
 21
-3687.503207561873
 31
0.0
  0
LINE
  5
D102
330
2
100
AcDbEntity
  8
L-ZISSEN
100
AcDbLine
 10
389.6532100584331
 20
-3685.003207561875
 30
0.0
 11
389.6532100584331
 21
-3679.203207561873
 31
0.0
  0
LINE
  5
D103
330
2
100
AcDbEntity
  8
L-ZISSEN
100
AcDbLine
 10
390.8532100584329
 20
-3682.003207561873
 30
0.0
 11
390.8532100584329
 21
-3668.903207561872
 31
0.0
  0
LINE
  5
D104
330
2
100
AcDbEntity
  8
L-ZISSEN
100
AcDbLine
 10
388.7236690769658
 20
-3679.203207561873
 30
0.0
 11
388.7236690769658
 21
-3668.903207561874
 31
0.0
  0
LINE
  5
D105
330
2
100
AcDbEntity
  8
L-ZISSEN
100
AcDbLine
 10
388.7236690769652
 20
-3677.920743956943
 30
0.0
 11
388.7236690769658
 21
-3668.903207561874
 31
0.0
  0
LINE
  5
D106
330
2
100
AcDbEntity
  8
L-ZISSEN
100
AcDbLine
 10
390.8532100584329
 20
-3679.203207561873
 30
0.0
 11
388.7236690769658
 21
-3679.203207561873
 31
0.0
  0
LINE
  5
D107
330
2
100
AcDbEntity
  8
L-ZISSEN
100
AcDbLine
 10
391.3410977441269
 20
-3668.903207561873
 30
0.0
 11
388.6783581425585
 21
-3668.903207561873
 31
0.0
  0
LINE
  5
D108
330
2
100
AcDbEntity
  8
L-ZISSEN
100
AcDbLine
 10
388.1563443150889
 20
-3685.003207561875
 30
0.0
 11
390.8532100584333
 21
-3685.003207561875
 31
0.0
  0
LINE
  5
D109
330
2
100
AcDbEntity
  8
L-ZISSEN
100
AcDbLine
 10
388.5049487102439
 20
-3668.903207561874
 30
0.0
 11
389.2050662489897
 21
-3668.903207561874
 31
0.0
  0
LINE
  5
D10A
330
2
100
AcDbEntity
  8
L-ZISSEN
100
AcDbLine
 10
389.3185961099413
 20
-3660.403207561874
 30
0.0
 11
389.3185961099413
 21
-3668.903207561873
 31
0.0
  0
LINE
  5
D10B
330
2
100
AcDbEntity
  8
L-ZISSEN
100
AcDbLine
 10
391.3410977441269
 20
-3660.403207561874
 30
0.0
 11
391.3410977441269
 21
-3668.903207561873
 31
0.0
  0
LINE
  5
D11D
330
2
100
AcDbEntity
  8
L-ZISSEN
100
AcDbLine
 10
393.0532100584331
 20
-3675.167861073269
 30
0.0
 11
398.8532100584329
 21
-3675.778659465645
 31
0.0
  0
LINE
  5
D11E
330
2
100
AcDbEntity
  8
L-ZISSEN
100
AcDbLine
 10
393.0532100584331
 20
-3655.703207561873
 30
0.0
 11
393.0532100584331
 21
-3675.167861073269
 31
0.0
  0
LINE
  5
D11F
330
2
100
AcDbEntity
  8
L-ZISSEN
100
AcDbLine
 10
398.8532100584329
 20
-3675.778659465645
 30
0.0
 11
398.8532100584329
 21
-3680.062828448242
 31
0.0
  0
LINE
  5
D12A
330
2
100
AcDbEntity
  8
L-ZISSEN
100
AcDbLine
 10
533.2604360870207
 20
-3668.903207561871
 30
0.0
 11
538.5049487102439
 21
-3668.903207561871
 31
0.0
  0
ARC
  5
D12B
330
2
100
AcDbEntity
  8
L-ZISSEN
100
AcDbCircle
 10
526.7924273000224
 20
-3747.890381307197
 30
0.0
 40
10.0
100
AcDbArc
 50
274.868444062882
 51
358.9999999999721
  0
LINE
  5
D12C
330
2
100
AcDbEntity
  8
L-ZISSEN
100
AcDbLine
 10
477.0044907683956
 20
-3672.903207561873
 30
0.0
 11
477.0044907683974
 21
-3749.903207561873
 31
0.0
  0
LINE
  5
D12D
330
2
100
AcDbEntity
  8
L-ZISSEN
 48
0.3
100
AcDbLine
 10
482.1022739639126
 20
-3749.903207561873
 30
0.0
 11
482.1022739639126
 21
-3672.903207561873
 31
0.0
  0
LINE
  5
D12E
330
2
100
AcDbEntity
  8
L-ZISSEN
100
AcDbLine
 10
467.5044907683957
 20
-3672.903207561873
 30
0.0
 11
467.5044907683974
 21
-3749.903207561873
 31
0.0
  0
ARC
  5
D12F
330
2
100
AcDbEntity
  8
L-ZISSEN
100
AcDbCircle
 10
491.705735997503
 20
-3747.890381307197
 30
0.0
 40
10.0
100
AcDbArc
 50
191.6119735011067
 51
265.1315559371177
  0
LINE
  5
D130
330
2
100
AcDbEntity
  8
L-TYUSIN
100
AcDbLine
 10
483.6453664776124
 20
-3744.903207561873
 30
0.0
 11
460.604490768396
 21
-3744.903207561873
 31
0.0
  0
LINE
  5
D131
330
2
100
AcDbEntity
  8
L-ZISSEN
100
AcDbLine
 10
467.5044907683957
 20
-3749.903207561873
 30
0.0
 11
477.0044907683956
 21
-3749.903207561873
 31
0.0
  0
ARC
  5
D132
330
2
100
AcDbEntity
  8
L-ZISSEN
100
AcDbCircle
 10
467.9164933361732
 20
-3743.178421046056
 30
0.0
 40
2.312215931624567
100
AcDbArc
 50
100.2640683722085
 51
180.7783719766075
  0
ARC
  5
D133
330
2
100
AcDbEntity
  8
L-ZISSEN
100
AcDbCircle
 10
467.9164933361732
 20
-3746.127994077692
 30
0.0
 40
2.312215931624567
100
AcDbArc
 50
179.2216280233924
 51
259.7359316277914
  0
LINE
  5
D134
330
2
100
AcDbEntity
  8
L-ZISSEN
100
AcDbLine
 10
465.604490768396
 20
-3746.096583234848
 30
0.0
 11
465.6044907683957
 21
-3743.2098318889
 31
0.0
  0
LINE
  5
D135
330
2
100
AcDbEntity
  8
L-ZISSEN
 48
0.3
100
AcDbLine
 10
480.8022739639124
 20
-3749.903207561873
 30
0.0
 11
482.1022739639126
 21
-3749.903207561873
 31
0.0
  0
LINE
  5
D136
330
2
100
AcDbEntity
  8
L-ZISSEN
100
AcDbLine
 10
477.0044907683974
 20
-3749.903207561873
 30
0.0
 11
480.8022739639124
 21
-3749.903207561873
 31
0.0
  0
LINE
  5
D137
330
2
100
AcDbEntity
  8
L-ZISSEN
100
AcDbLine
 10
499.8139143805448
 20
-3762.403207561874
 30
0.0
 11
518.6842489169818
 21
-3762.403207561874
 31
0.0
  0
LINE
  5
D138
330
2
100
AcDbEntity
  8
L-ZISSEN
100
AcDbLine
 10
499.8139143805444
 20
-3758.903207561874
 30
0.0
 11
518.6842489169818
 21
-3758.903207561874
 31
0.0
  0
LINE
  5
D139
330
2
100
AcDbEntity
  8
L-ZISSEN
100
AcDbLine
 10
514.981880427018
 20
-3777.404227061579
 30
0.0
 11
503.5818804270192
 21
-3777.404227061579
 31
0.0
  0
ARC
  5
D13A
330
2
100
AcDbEntity
  8
L-ZISSEN
100
AcDbCircle
 10
509.2818804270186
 20
-3783.045289735496
 30
0.0
 40
20.64106267391679
100
AcDbArc
 50
77.50558048157245
 51
102.6763186877432
  0
ARC
  5
D13B
330
2
100
AcDbEntity
  8
L-ZISSEN
100
AcDbCircle
 10
509.2818804270186
 20
-3744.763164387661
 30
0.0
 40
20.64106267391694
100
AcDbArc
 50
257.3236813122694
 51
282.4944195184275
  0
LINE
  5
D13C
330
2
100
AcDbEntity
  8
L-ZISSEN
100
AcDbLine
 10
503.7818804270168
 20
-3767.34539247207
 30
0.0
 11
512.2818804270182
 21
-3767.34539247207
 31
0.0
  0
LINE
  5
D13D
330
2
100
AcDbEntity
  8
L-ZISSEN
100
AcDbLine
 10
502.503564810514
 20
-3762.40360594676
 30
0.0
 11
515.9945984870123
 21
-3762.402809176988
 31
0.0
  0
LINE
  5
D13E
330
2
100
AcDbEntity
  8
L-ZISSEN
100
AcDbLine
 10
502.503564810514
 20
-3765.404848176398
 30
0.0
 11
515.9945984870123
 21
-3765.40564494617
 31
0.0
  0
LINE
  5
D13F
330
2
100
AcDbEntity
  8
L-ZISSEN
100
AcDbLine
 10
499.8139143805435
 20
-3758.903207561874
 30
0.0
 11
490.8570543169459
 21
-3757.854303195946
 31
0.0
  0
ARC
  5
D140
330
2
100
AcDbEntity
  8
L-ZISSEN
100
AcDbCircle
 10
502.503564810514
 20
-3767.67493611713
 30
0.0
 40
5.271330170370607
100
AcDbArc
 50
64.74766100341156
 51
114.9228807251722
  0
LINE
  5
D141
330
2
100
AcDbEntity
  8
L-ZISSEN
100
AcDbLine
 10
504.281880427021
 20
-3765.404923672706
 30
0.0
 11
504.2818804270168
 21
-3767.34539247207
 31
0.0
  0
LINE
  5
D142
330
2
100
AcDbEntity
  8
L-ZISSEN
100
AcDbLine
 10
504.7523441090001
 20
-3762.907346219527
 30
0.0
 11
504.752344109007
 21
-3764.90110790363
 31
0.0
  0
LINE
  5
D143
330
2
100
AcDbEntity
  8
L-ZISSEN
100
AcDbLine
 10
503.7818804270168
 20
-3767.34539247207
 30
0.0
 11
503.2818804270195
 21
-3767.84539247207
 31
0.0
  0
LINE
  5
D144
330
2
100
AcDbEntity
  8
L-ZISSEN
100
AcDbLine
 10
500.2822368069345
 20
-3762.894494331522
 30
0.0
 11
500.2822368069345
 21
-3764.913959791635
 31
0.0
  0
LINE
  5
D145
330
2
100
AcDbEntity
  8
L-ZISSEN
100
AcDbLine
 10
503.7818804270195
 20
-3766.84539247207
 30
0.0
 11
503.7818804270195
 21
-3765.404227061579
 31
0.0
  0
LINE
  5
D146
330
2
100
AcDbEntity
  8
L-ZISSEN
100
AcDbLine
 10
504.2818804270168
 20
-3767.34539247207
 30
0.0
 11
503.7818804270195
 21
-3766.84539247207
 31
0.0
  0
ARC
  5
D147
330
2
100
AcDbEntity
  8
L-ZISSEN
100
AcDbCircle
 10
502.503564810514
 20
-3760.133518006028
 30
0.0
 40
5.271330170370607
100
AcDbArc
 50
245.0771192748277
 51
295.2523389966474
  0
LINE
  5
D148
330
2
100
AcDbEntity
  8
L-ZISSEN
100
AcDbLine
 10
503.5818804270192
 20
-3777.404227061579
 30
0.0
 11
503.2818804270195
 21
-3777.104227061578
 31
0.0
  0
LINE
  5
D149
330
2
100
AcDbEntity
  8
L-ZISSEN
100
AcDbLine
 10
505.2818804270176
 20
-3767.34539247207
 30
0.0
 11
505.2818804270176
 21
-3777.404227061579
 31
0.0
  0
LINE
  5
D14A
330
2
100
AcDbEntity
  8
L-ZISSEN
100
AcDbLine
 10
504.2818804270186
 20
-3767.34539247207
 30
0.0
 11
504.2818804270188
 21
-3777.404227061579
 31
0.0
  0
LINE
  5
D14B
330
2
100
AcDbEntity
  8
L-ZISSEN
100
AcDbLine
 10
503.2818804270193
 20
-3777.104227061578
 30
0.0
 11
503.2818804270195
 21
-3767.84539247207
 31
0.0
  0
LINE
  5
D14C
330
2
100
AcDbEntity
  8
L-ZISSEN
100
AcDbLine
 10
511.281880427019
 20
-3767.34539247207
 30
0.0
 11
511.2818804270193
 21
-3777.404227061579
 31
0.0
  0
LINE
  5
D14D
330
2
100
AcDbEntity
  8
L-ZISSEN
100
AcDbLine
 10
510.2818804270199
 20
-3767.34539247207
 30
0.0
 11
510.2818804270202
 21
-3777.404227061579
 31
0.0
  0
LINE
  5
D14E
330
2
100
AcDbEntity
  8
L-ZISSEN
100
AcDbLine
 10
509.2818804270208
 20
-3767.34539247207
 30
0.0
 11
509.2818804270211
 21
-3777.404227061579
 31
0.0
  0
LINE
  5
D14F
330
2
100
AcDbEntity
  8
L-ZISSEN
100
AcDbLine
 10
508.2818804270195
 20
-3767.34539247207
 30
0.0
 11
508.2818804270197
 21
-3777.404227061579
 31
0.0
  0
LINE
  5
D150
330
2
100
AcDbEntity
  8
L-ZISSEN
100
AcDbLine
 10
507.2818804270204
 20
-3767.34539247207
 30
0.0
 11
507.2818804270206
 21
-3777.404227061579
 31
0.0
  0
LINE
  5
D151
330
2
100
AcDbEntity
  8
L-ZISSEN
100
AcDbLine
 10
506.281880427019
 20
-3767.34539247207
 30
0.0
 11
506.2818804270192
 21
-3777.404227061579
 31
0.0
  0
LINE
  5
D152
330
2
100
AcDbEntity
  8
L-ZISSEN
100
AcDbLine
 10
499.8139143805444
 20
-3758.903207561874
 30
0.0
 11
499.8139143805448
 21
-3762.403207561874
 31
0.0
  0
LINE
  5
D153
330
2
100
AcDbEntity
  8
L-ZISSEN
100
AcDbLine
 10
518.6842489169818
 20
-3758.903207561874
 30
0.0
 11
527.6411089805795
 21
-3757.854303195946
 31
0.0
  0
ARC
  5
D154
330
2
100
AcDbEntity
  8
L-ZISSEN
100
AcDbCircle
 10
515.9945984870123
 20
-3767.674139347359
 30
0.0
 40
5.271330170371789
100
AcDbArc
 50
64.28835488513612
 51
115.2591066834208
  0
ARC
  5
D155
330
2
100
AcDbEntity
  8
L-ZISSEN
100
AcDbCircle
 10
515.9945984870123
 20
-3760.134314775799
 30
0.0
 40
5.271330170371532
100
AcDbArc
 50
244.7408933165791
 51
295.7116451148636
  0
LINE
  5
D156
330
2
100
AcDbEntity
  8
L-ZISSEN
100
AcDbLine
 10
514.2818804270225
 20
-3765.405573324001
 30
0.0
 11
514.2818804270182
 21
-3767.34539247207
 31
0.0
  0
LINE
  5
D157
330
2
100
AcDbEntity
  8
L-ZISSEN
100
AcDbLine
 10
514.2818804270182
 20
-3767.34539247207
 30
0.0
 11
514.7818804270177
 21
-3766.84539247207
 31
0.0
  0
LINE
  5
D158
330
2
100
AcDbEntity
  8
L-ZISSEN
100
AcDbLine
 10
512.2818804270182
 20
-3767.34539247207
 30
0.0
 11
514.7818804270182
 21
-3767.34539247207
 31
0.0
  0
LINE
  5
D159
330
2
100
AcDbEntity
  8
L-ZISSEN
100
AcDbLine
 10
514.7818804270182
 20
-3767.34539247207
 30
0.0
 11
515.2818804270177
 21
-3767.84539247207
 31
0.0
  0
LINE
  5
D15A
330
2
100
AcDbEntity
  8
L-ZISSEN
100
AcDbLine
 10
513.7452560640358
 20
-3762.906815105265
 30
0.0
 11
513.7452560640358
 21
-3764.901639017892
 31
0.0
  0
LINE
  5
D15B
330
2
100
AcDbEntity
  8
L-ZISSEN
100
AcDbLine
 10
514.781880427018
 20
-3766.84539247207
 30
0.0
 11
514.7818804270177
 21
-3765.404227061579
 31
0.0
  0
LINE
  5
D15C
330
2
100
AcDbEntity
  8
L-ZISSEN
100
AcDbLine
 10
514.981880427018
 20
-3777.404227061579
 30
0.0
 11
515.2818804270177
 21
-3777.104227061578
 31
0.0
  0
LINE
  5
D15D
330
2
100
AcDbEntity
  8
L-ZISSEN
100
AcDbLine
 10
515.2818804270177
 20
-3767.84539247207
 30
0.0
 11
515.2818804270177
 21
-3777.104227061578
 31
0.0
  0
LINE
  5
D15E
330
2
100
AcDbEntity
  8
L-ZISSEN
100
AcDbLine
 10
514.2818804270209
 20
-3767.34539247207
 30
0.0
 11
514.281880427023
 21
-3777.404227061579
 31
0.0
  0
LINE
  5
D15F
330
2
100
AcDbEntity
  8
L-ZISSEN
100
AcDbLine
 10
513.2818804270218
 20
-3767.34539247207
 30
0.0
 11
513.2818804270221
 21
-3777.404227061579
 31
0.0
  0
LINE
  5
D160
330
2
100
AcDbEntity
  8
L-ZISSEN
100
AcDbLine
 10
512.2818804270182
 20
-3767.34539247207
 30
0.0
 11
512.2818804270182
 21
-3777.404227061579
 31
0.0
  0
LINE
  5
D161
330
2
100
AcDbEntity
  8
L-ZISSEN
100
AcDbLine
 10
518.2815240471049
 20
-3762.924729568485
 30
0.0
 11
518.2815240471049
 21
-3764.883724554672
 31
0.0
  0
LINE
  5
D162
330
2
100
AcDbEntity
  8
L-ZISSEN
100
AcDbLine
 10
518.6842489169818
 20
-3758.903207561874
 30
0.0
 11
518.6842489169814
 21
-3762.403207561874
 31
0.0
  0
TEXT
  5
D164
330
2
100
AcDbEntity
  8
L-ZISSEN
100
AcDbText
 10
565.2490816487627
 20
-3612.454227061578
 30
0.0
 40
4.5
  1
P.P
100
AcDbText
  0
LINE
  5
D168
330
2
100
AcDbEntity
  8
L-ZISSEN
100
AcDbLine
 10
482.7490816487631
 20
-3658.903207561874
 30
0.0
 11
490.7490816487631
 21
-3658.903207561874
 31
0.0
  0
LINE
  5
D16B
330
2
100
AcDbEntity
  8
L-TYUSIN
100
AcDbLine
 10
460.604490768396
 20
-3677.903207561874
 30
0.0
 11
485.1261654780461
 21
-3677.903207561874
 31
0.0
  0
LINE
  5
D16C
330
2
100
AcDbEntity
  8
L-ZISSEN
100
AcDbLine
 10
475.2930970485356
 20
-3672.903207561873
 30
0.0
 11
478.7490816487631
 21
-3672.903207561873
 31
0.0
  0
LINE
  5
D16D
330
2
100
AcDbEntity
  8
L-ZISSEN
100
AcDbLine
 10
467.5044907683957
 20
-3672.903207561873
 30
0.0
 11
477.0044907683956
 21
-3672.903207561873
 31
0.0
  0
LINE
  5
D16E
330
2
100
AcDbEntity
  8
L-ZISSEN
100
AcDbLine
 10
465.604490768396
 20
-3676.709831888899
 30
0.0
 11
465.6044907683957
 21
-3679.596583234848
 31
0.0
  0
ARC
  5
D16F
330
2
100
AcDbEntity
  8
L-ZISSEN
100
AcDbCircle
 10
467.9164933361732
 20
-3676.678421046055
 30
0.0
 40
2.312215931624567
100
AcDbArc
 50
100.2640683722081
 51
180.7783719766075
  0
ARC
  5
D170
330
2
100
AcDbEntity
  8
L-ZISSEN
100
AcDbCircle
 10
467.9164933361732
 20
-3679.627994077691
 30
0.0
 40
2.312215931624567
100
AcDbArc
 50
179.2216280233924
 51
259.7359316277914
  0
LINE
  5
D171
330
2
100
AcDbEntity
  8
L-ZISSEN
100
AcDbLine
 10
479.2930970485356
 20
-3668.903207561873
 30
0.0
 11
482.7490816487631
 21
-3668.903207561873
 31
0.0
  0
LINE
  5
D172
330
2
100
AcDbEntity
  8
L-ZISSEN
 48
0.3
100
AcDbLine
 10
482.1022739639126
 20
-3672.903207561873
 30
0.0
 11
480.1046083071421
 21
-3672.903207561873
 31
0.0
  0
LINE
  5
D173
330
2
100
AcDbEntity
  8
L-ZISSEN
100
AcDbLine
 10
479.0457107137287
 20
-3655.404227061579
 30
0.0
 11
479.2930970485356
 21
-3668.903207561873
 31
0.0
  0
LINE
  5
D174
330
2
100
AcDbEntity
  8
L-ZISSEN
100
AcDbLine
 10
479.9932145872823
 20
-3668.903207561873
 30
0.0
 11
480.0310683859706
 21
-3672.903207561873
 31
0.0
  0
LINE
  5
D175
330
2
100
AcDbEntity
  8
L-ZISSEN
100
AcDbLine
 10
477.0044907683956
 20
-3672.903207561873
 30
0.0
 11
480.1046083071421
 21
-3672.903207561873
 31
0.0
  0
LINE
  5
D176
330
2
100
AcDbEntity
  8
L-ZISSEN
100
AcDbLine
 10
482.7490816487631
 20
-3658.903207561874
 30
0.0
 11
482.7490816487631
 21
-3668.903207561873
 31
0.0
  0
LINE
  5
D187
330
2
100
AcDbEntity
  8
L-ZISSEN
100
AcDbLine
 10
512.1283316487643
 20
-3665.687457561872
 30
0.0
 11
509.249081648764
 21
-3670.486207561872
 31
0.0
  0
LINE
  5
D188
330
2
100
AcDbEntity
  8
L-ZISSEN
100
AcDbLine
 10
510.208831648764
 20
-3665.687457561872
 30
0.0
 11
512.1283316487643
 21
-3665.687457561872
 31
0.0
  0
LINE
  5
D189
330
2
100
AcDbEntity
  8
L-ZISSEN
100
AcDbLine
 10
509.2490816487624
 20
-3682.003207561872
 30
0.0
 11
520.0462691487607
 21
-3679.123957561873
 31
0.0
  0
LINE
  5
D18A
330
2
100
AcDbEntity
  8
L-ZISSEN
100
AcDbLine
 10
518.3969834096883
 20
-3678.119694749253
 30
0.0
 11
509.2490816487624
 21
-3680.03486280202
 31
0.0
  0
LINE
  5
D18B
330
2
100
AcDbEntity
  8
L-ZISSEN
100
AcDbLine
 10
509.2490816487624
 20
-3675.923131620972
 30
0.0
 11
518.3969834096883
 21
-3674.616288512268
 31
0.0
  0
LINE
  5
D18C
330
2
100
AcDbEntity
  8
L-ZISSEN
100
AcDbLine
 10
509.2490816487624
 20
-3675.284957561873
 30
0.0
 11
519.3264566487608
 21
-3673.845332561873
 31
0.0
  0
LINE
  5
D18D
330
2
100
AcDbEntity
  8
L-ZISSEN
100
AcDbLine
 10
521.2490816487624
 20
-3655.703207561872
 30
0.0
 11
497.2490816487624
 21
-3655.703207561872
 31
0.0
  0
LINE
  5
D18E
330
2
100
AcDbEntity
  8
L-ZISSEN
100
AcDbLine
 10
499.6490816487628
 20
-3696.003207561874
 30
0.0
 11
518.8490816487626
 21
-3696.003207561874
 31
0.0
  0
LINE
  5
D18F
330
2
100
AcDbEntity
  8
L-ZISSEN
100
AcDbLine
 10
499.2490816487622
 20
-3699.003207561872
 30
0.0
 11
519.2490816487622
 21
-3699.003207561872
 31
0.0
  0
LINE
  5
D190
330
2
100
AcDbEntity
  8
L-ZISSEN
100
AcDbLine
 10
501.6490816487627
 20
-3694.003207561873
 30
0.0
 11
516.8490816487626
 21
-3694.003207561873
 31
0.0
  0
LINE
  5
D191
330
2
100
AcDbEntity
  8
L-ZISSEN
100
AcDbLine
 10
501.6490816487627
 20
-3693.003207561872
 30
0.0
 11
516.8490816487626
 21
-3693.003207561872
 31
0.0
  0
LINE
  5
D192
330
2
100
AcDbEntity
  8
L-TYUSIN
100
AcDbLine
 10
501.6490816487627
 20
-3689.503207561873
 30
0.0
 11
516.8490816487626
 21
-3689.503207561873
 31
0.0
  0
LINE
  5
D193
330
2
100
AcDbEntity
  8
L-ZISSEN
100
AcDbLine
 10
591.7126390895678
 20
-3621.423858262249
 30
0.0
 11
578.2490816487627
 21
-3610.204227061578
 31
0.0
  0
LINE
  5
D194
330
2
100
AcDbEntity
  8
L-ZISSEN
100
AcDbLine
 10
498.7490816487622
 20
-3685.003207561873
 30
0.0
 11
501.6490816487623
 21
-3685.003207561874
 31
0.0
  0
LINE
  5
D195
330
2
100
AcDbEntity
  8
L-ZISSEN
100
AcDbLine
 10
498.4518941487605
 20
-3679.123957561873
 30
0.0
 11
500.1011798878366
 21
-3678.119694749253
 31
0.0
  0
LINE
  5
D196
330
2
100
AcDbEntity
  8
L-ZISSEN
100
AcDbLine
 10
499.6490816487628
 20
-3696.003207561872
 30
0.0
 11
499.2490816487622
 21
-3699.003207561872
 31
0.0
  0
LINE
  5
D197
330
2
100
AcDbEntity
  8
L-ZISSEN
100
AcDbLine
 10
500.1011798878366
 20
-3673.97811445317
 30
0.0
 11
499.1717066487606
 21
-3673.845332561873
 31
0.0
  0
LINE
  5
D198
330
2
100
AcDbEntity
  8
L-ZISSEN
100
AcDbLine
 10
500.1011798878366
 20
-3674.616288512268
 30
0.0
 11
499.1717066487606
 21
-3673.845332561873
 31
0.0
  0
LINE
  5
D199
330
2
100
AcDbEntity
  8
L-ZISSEN
100
AcDbLine
 10
509.2490816487624
 20
-3682.003207561872
 30
0.0
 11
498.4518941487605
 21
-3679.123957561873
 31
0.0
  0
LINE
  5
D19A
330
2
100
AcDbEntity
  8
L-ZISSEN
100
AcDbLine
 10
509.2490816487624
 20
-3675.284957561873
 30
0.0
 11
499.1717066487606
 21
-3673.845332561873
 31
0.0
  0
LINE
  5
D19B
330
2
100
AcDbEntity
  8
L-ZISSEN
100
AcDbLine
 10
578.2490816487627
 20
-3610.204227061578
 30
0.0
 11
576.2490816487627
 21
-3610.204227061578
 31
0.0
  0
LINE
  5
D19C
330
2
100
AcDbEntity
  8
L-ZISSEN
100
AcDbLine
 10
490.7490816487631
 20
-3668.903207561872
 30
0.0
 11
497.7490816487631
 21
-3668.903207561872
 31
0.0
  0
LINE
  5
D19D
330
2
100
AcDbEntity
  8
L-ZISSEN
100
AcDbLine
 10
490.7490816487631
 20
-3658.903207561874
 30
0.0
 11
490.7490816487631
 21
-3668.903207561873
 31
0.0
  0
LINE
  5
D19E
330
2
100
AcDbEntity
  8
L-ZISSEN
100
AcDbLine
 10
498.2490816487622
 20
-3655.703207561872
 30
0.0
 11
498.2490816487622
 21
-3684.503207561874
 31
0.0
  0
LINE
  5
D19F
330
2
100
AcDbEntity
  8
L-ZISSEN
100
AcDbLine
 10
498.4518941487608
 20
-3655.703207561872
 30
0.0
 11
498.4518941487605
 21
-3679.123957561873
 31
0.0
  0
LINE
  5
D1A0
330
2
100
AcDbEntity
  8
L-ZISSEN
100
AcDbLine
 10
499.2490816487622
 20
-3685.003207561873
 30
0.0
 11
499.2490816487622
 21
-3699.003207561872
 31
0.0
  0
LINE
  5
D1A1
330
2
100
AcDbEntity
  8
L-ZISSEN
100
AcDbLine
 10
499.1717066487606
 20
-3655.703207561872
 30
0.0
 11
499.1717066487606
 21
-3673.845332561873
 31
0.0
  0
LINE
  5
D1A2
330
2
100
AcDbEntity
  8
L-ZISSEN
100
AcDbLine
 10
497.2490816487627
 20
-3655.404227061579
 30
0.0
 11
497.2490816487624
 21
-3655.703207561872
 31
0.0
  0
LINE
  5
D1A3
330
2
100
AcDbEntity
  8
L-ZISSEN
100
AcDbLine
 10
496.9490816487629
 20
-3660.403207561874
 30
0.0
 11
496.9490816487629
 21
-3668.903207561872
 31
0.0
  0
LINE
  5
D1A4
330
2
100
AcDbEntity
  8
L-ZISSEN
100
AcDbLine
 10
496.9490816487629
 20
-3660.403207561874
 30
0.0
 11
498.2490816487622
 21
-3660.403207561874
 31
0.0
  0
ARC
  5
D1A5
330
2
100
AcDbEntity
  8
L-ZISSEN
100
AcDbCircle
 10
498.7490816487622
 20
-3684.503207561874
 30
0.0
 40
0.5
100
AcDbArc
 50
180.0
 51
270.0
  0
LINE
  5
D1A6
330
2
100
AcDbEntity
  8
L-ZISSEN
100
AcDbLine
 10
496.9490816487629
 20
-3668.903207561872
 30
0.0
 11
498.2490816487622
 21
-3668.903207561872
 31
0.0
  0
LINE
  5
D1A7
330
2
100
AcDbEntity
  8
L-ZISSEN
100
AcDbLine
 10
506.8497066487624
 20
-3660.888707561873
 30
0.0
 11
503.0107066487623
 21
-3660.888707561873
 31
0.0
  0
LINE
  5
D1A8
330
2
100
AcDbEntity
  8
L-ZISSEN
100
AcDbLine
 10
506.8497066487624
 20
-3660.888707561873
 30
0.0
 11
503.0107066487623
 21
-3660.888707561873
 31
0.0
  0
LINE
  5
D1A9
330
2
100
AcDbEntity
  8
L-ZISSEN
100
AcDbLine
 10
506.8497066487624
 20
-3659.928957561873
 30
0.0
 11
503.0107066487623
 21
-3659.928957561873
 31
0.0
  0
LINE
  5
D1AA
330
2
100
AcDbEntity
  8
L-ZISSEN
100
AcDbLine
 10
506.8497066487624
 20
-3659.928957561873
 30
0.0
 11
503.0107066487623
 21
-3659.928957561873
 31
0.0
  0
CIRCLE
  5
D1AB
330
2
100
AcDbEntity
  8
L-ZISSEN
100
AcDbCircle
 10
504.9990816487622
 20
-3689.503207561873
 30
0.0
 40
2.0
  0
LINE
  5
D1AC
330
2
100
AcDbEntity
  8
L-ZISSEN
100
AcDbLine
 10
500.1011798878366
 20
-3678.119694749253
 30
0.0
 11
509.2490816487624
 21
-3680.03486280202
 31
0.0
  0
LINE
  5
D1AD
330
2
100
AcDbEntity
  8
L-ZISSEN
100
AcDbLine
 10
509.2490816487624
 20
-3675.923131620972
 30
0.0
 11
500.1011798878366
 21
-3674.616288512268
 31
0.0
  0
LINE
  5
D1AE
330
2
100
AcDbEntity
  8
L-ZISSEN
100
AcDbLine
 10
503.0107066487623
 20
-3658.969207561873
 30
0.0
 11
500.6113316487623
 21
-3660.408832561873
 31
0.0
  0
LINE
  5
D1AF
330
2
100
AcDbEntity
  8
L-ZISSEN
100
AcDbLine
 10
503.0107066487623
 20
-3659.928957561873
 30
0.0
 11
503.0107066487623
 21
-3658.969207561873
 31
0.0
  0
LINE
  5
D1B0
330
2
100
AcDbEntity
  8
L-ZISSEN
100
AcDbLine
 10
503.0107066487623
 20
-3661.848457561873
 30
0.0
 11
500.6113316487623
 21
-3660.408832561873
 31
0.0
  0
LINE
  5
D1B1
330
2
100
AcDbEntity
  8
L-ZISSEN
100
AcDbLine
 10
503.0107066487623
 20
-3660.888707561873
 30
0.0
 11
503.0107066487623
 21
-3661.848457561873
 31
0.0
  0
LINE
  5
D1B2
330
2
100
AcDbEntity
  8
L-TYUSIN
100
AcDbLine
 10
504.9990816487622
 20
-3686.253207561873
 30
0.0
 11
504.9990816487622
 21
-3692.753207561873
 31
0.0
  0
LINE
  5
D1B3
330
2
100
AcDbEntity
  8
L-ZISSEN
100
AcDbLine
 10
499.6490816487618
 20
-3685.003207561873
 30
0.0
 11
499.6490816487628
 21
-3696.003207561872
 31
0.0
  0
LINE
  5
D1B4
330
2
100
AcDbEntity
  8
L-ZISSEN
100
AcDbLine
 10
501.6490816487623
 20
-3679.976540895207
 30
0.0
 11
501.6490816487627
 21
-3694.003207561873
 31
0.0
  0
LINE
  5
D1B5
330
2
100
AcDbEntity
  8
L-ZISSEN
100
AcDbLine
 10
500.1011798878366
 20
-3674.616288512268
 30
0.0
 11
500.1011798878366
 21
-3678.119694749253
 31
0.0
  0
SOLID
  5
D1B6
330
2
100
AcDbEntity
  8
L-ZISSEN
100
AcDbTrace
 10
591.4992442896796
 20
-3621.679932022115
 30
0.0
 11
591.9260338894559
 21
-3621.167784502383
 31
0.0
 12
593.2490816487625
 22
-3622.704227061578
 32
0.0
 13
593.2490816487625
 23
-3622.704227061578
 33
0.0
  0
LINE
  5
D1B7
330
2
100
AcDbEntity
  8
L-ZISSEN
100
AcDbLine
 10
510.208831648764
 20
-3658.009457561872
 30
0.0
 11
508.289331648764
 21
-3658.009457561872
 31
0.0
  0
ARC
  5
D1B8
330
2
100
AcDbEntity
  8
L-ZISSEN
100
AcDbCircle
 10
509.2490816487626
 20
-3683.753207561873
 30
0.0
 40
1.25
100
AcDbArc
 50
180.0
 51
0.0
  0
LINE
  5
D1B9
330
2
100
AcDbEntity
  8
L-ZISSEN
100
AcDbLine
 10
507.9990816487627
 20
-3683.753207561873
 30
0.0
 11
507.9990816487627
 21
-3681.669874228539
 31
0.0
  0
LINE
  5
D1BA
330
2
100
AcDbEntity
  8
L-ZISSEN
100
AcDbLine
 10
508.289331648764
 20
-3658.009457561872
 30
0.0
 11
508.289331648764
 21
-3665.687457561872
 31
0.0
  0
LINE
  5
D1BB
330
2
100
AcDbEntity
  8
L-ZISSEN
100
AcDbLine
 10
508.289331648764
 20
-3658.009457561872
 30
0.0
 11
508.289331648764
 21
-3665.687457561872
 31
0.0
  0
LINE
  5
D1BC
330
2
100
AcDbEntity
  8
L-ZISSEN
100
AcDbLine
 10
509.2490816487624
 20
-3675.284957561873
 30
0.0
 11
509.2490816487624
 21
-3675.923131620972
 31
0.0
  0
LINE
  5
D1BD
330
2
100
AcDbEntity
  8
L-ZISSEN
100
AcDbLine
 10
510.4990816487626
 20
-3683.753207561873
 30
0.0
 11
510.4990816487626
 21
-3681.669874228539
 31
0.0
  0
LINE
  5
D1BE
330
2
100
AcDbEntity
  8
L-ZISSEN
100
AcDbLine
 10
510.208831648764
 20
-3658.009457561872
 30
0.0
 11
510.208831648764
 21
-3665.687457561872
 31
0.0
  0
LINE
  5
D1BF
330
2
100
AcDbEntity
  8
L-ZISSEN
100
AcDbLine
 10
510.208831648764
 20
-3658.009457561872
 30
0.0
 11
510.208831648764
 21
-3665.687457561872
 31
0.0
  0
LINE
  5
D1C0
330
2
100
AcDbEntity
  8
L-ZISSEN
100
AcDbLine
 10
506.8497066487624
 20
-3659.928957561873
 30
0.0
 11
506.8497066487624
 21
-3660.888707561873
 31
0.0
  0
LINE
  5
D1C1
330
2
100
AcDbEntity
  8
L-ZISSEN
100
AcDbLine
 10
506.3698316487641
 20
-3665.687457561872
 30
0.0
 11
509.249081648764
 21
-3670.486207561872
 31
0.0
  0
LINE
  5
D1C2
330
2
100
AcDbEntity
  8
L-ZISSEN
100
AcDbLine
 10
508.289331648764
 20
-3665.687457561872
 30
0.0
 11
506.3698316487641
 21
-3665.687457561872
 31
0.0
  0
LINE
  5
D1C9
330
2
100
AcDbEntity
  8
L-ZISSEN
100
AcDbLine
 10
527.7490816487632
 20
-3668.903207561871
 30
0.0
 11
520.7490816487632
 21
-3668.903207561872
 31
0.0
  0
LINE
  5
D1CA
330
2
100
AcDbEntity
  8
L-ZISSEN
100
AcDbLine
 10
516.8490816487626
 20
-3685.003207561874
 30
0.0
 11
519.7490816487622
 21
-3685.003207561873
 31
0.0
  0
LINE
  5
D1CB
330
2
100
AcDbEntity
  8
L-ZISSEN
100
AcDbLine
 10
515.4874566487626
 20
-3658.969207561872
 30
0.0
 11
517.8868316487625
 21
-3660.408832561872
 31
0.0
  0
LINE
  5
D1CC
330
2
100
AcDbEntity
  8
L-ZISSEN
100
AcDbLine
 10
515.4874566487626
 20
-3661.848457561872
 30
0.0
 11
517.8868316487625
 21
-3660.408832561872
 31
0.0
  0
LINE
  5
D1CD
330
2
100
AcDbEntity
  8
L-ZISSEN
100
AcDbLine
 10
515.4874566487626
 20
-3659.928957561872
 30
0.0
 11
515.4874566487626
 21
-3658.969207561872
 31
0.0
  0
LINE
  5
D1CE
330
2
100
AcDbEntity
  8
L-ZISSEN
100
AcDbLine
 10
515.4874566487626
 20
-3660.888707561872
 30
0.0
 11
515.4874566487626
 21
-3661.848457561872
 31
0.0
  0
LINE
  5
D1CF
330
2
100
AcDbEntity
  8
L-ZISSEN
100
AcDbLine
 10
511.6484566487624
 20
-3659.928957561872
 30
0.0
 11
511.6484566487624
 21
-3660.888707561872
 31
0.0
  0
LINE
  5
D1D0
330
2
100
AcDbEntity
  8
L-ZISSEN
100
AcDbLine
 10
511.6484566487624
 20
-3660.888707561872
 30
0.0
 11
515.4874566487626
 21
-3660.888707561872
 31
0.0
  0
LINE
  5
D1D1
330
2
100
AcDbEntity
  8
L-ZISSEN
100
AcDbLine
 10
511.6484566487624
 20
-3660.888707561872
 30
0.0
 11
515.4874566487626
 21
-3660.888707561872
 31
0.0
  0
LINE
  5
D1D2
330
2
100
AcDbEntity
  8
L-ZISSEN
100
AcDbLine
 10
511.6484566487624
 20
-3659.928957561872
 30
0.0
 11
515.4874566487626
 21
-3659.928957561872
 31
0.0
  0
LINE
  5
D1D3
330
2
100
AcDbEntity
  8
L-ZISSEN
100
AcDbLine
 10
511.6484566487624
 20
-3659.928957561872
 30
0.0
 11
515.4874566487626
 21
-3659.928957561872
 31
0.0
  0
LINE
  5
D1D4
330
2
100
AcDbEntity
  8
L-ZISSEN
100
AcDbLine
 10
516.8490816487626
 20
-3679.976540895206
 30
0.0
 11
516.8490816487626
 21
-3694.003207561873
 31
0.0
  0
LINE
  5
D1D5
330
2
100
AcDbEntity
  8
L-TYUSIN
100
AcDbLine
 10
513.4990816487632
 20
-3686.253207561873
 30
0.0
 11
513.4990816487632
 21
-3692.753207561873
 31
0.0
  0
CIRCLE
  5
D1D6
330
2
100
AcDbEntity
  8
L-ZISSEN
100
AcDbCircle
 10
513.4990816487632
 20
-3689.503207561873
 30
0.0
 40
2.0
  0
LINE
  5
D1D7
330
2
100
AcDbEntity
  8
L-ZISSEN
100
AcDbLine
 10
521.2490816487623
 20
-3655.404227061579
 30
0.0
 11
521.2490816487623
 21
-3655.703207561872
 31
0.0
  0
LINE
  5
D1D8
330
2
100
AcDbEntity
  8
L-ZISSEN
100
AcDbLine
 10
521.5490816487633
 20
-3660.403207561874
 30
0.0
 11
520.2490816487623
 21
-3660.403207561874
 31
0.0
  0
LINE
  5
D1D9
330
2
100
AcDbEntity
  8
L-ZISSEN
100
AcDbLine
 10
518.8490816487626
 20
-3685.003207561873
 30
0.0
 11
518.8490816487626
 21
-3696.003207561874
 31
0.0
  0
LINE
  5
D1DA
330
2
100
AcDbEntity
  8
L-ZISSEN
100
AcDbLine
 10
519.2490816487632
 20
-3685.003207561873
 30
0.0
 11
519.2490816487632
 21
-3699.003207561872
 31
0.0
  0
LINE
  5
D1DB
330
2
100
AcDbEntity
  8
L-ZISSEN
100
AcDbLine
 10
518.8490816487626
 20
-3696.003207561874
 30
0.0
 11
519.2490816487632
 21
-3699.003207561872
 31
0.0
  0
ARC
  5
D1DC
330
2
100
AcDbEntity
  8
L-ZISSEN
100
AcDbCircle
 10
519.7490816487622
 20
-3684.503207561874
 30
0.0
 40
0.5
100
AcDbArc
 50
270.0
 51
0.0
  0
LINE
  5
D1DD
330
2
100
AcDbEntity
  8
L-ZISSEN
100
AcDbLine
 10
521.5490816487625
 20
-3668.903207561872
 30
0.0
 11
520.2490816487623
 21
-3668.903207561872
 31
0.0
  0
LINE
  5
D1DE
330
2
100
AcDbEntity
  8
L-ZISSEN
100
AcDbLine
 10
521.5490816487625
 20
-3668.903207561872
 30
0.0
 11
520.2490816487623
 21
-3668.903207561873
 31
0.0
  0
LINE
  5
D1DF
330
2
100
AcDbEntity
  8
L-ZISSEN
100
AcDbLine
 10
518.3969834096883
 20
-3674.616288512268
 30
0.0
 11
518.3969834096883
 21
-3678.119694749253
 31
0.0
  0
LINE
  5
D1E0
330
2
100
AcDbEntity
  8
L-ZISSEN
100
AcDbLine
 10
520.0462691487607
 20
-3679.123957561873
 30
0.0
 11
518.3969834096883
 21
-3678.119694749253
 31
0.0
  0
LINE
  5
D1E1
330
2
100
AcDbEntity
  8
L-ZISSEN
100
AcDbLine
 10
518.3969834096883
 20
-3674.616288512268
 30
0.0
 11
519.3264566487608
 21
-3673.845332561873
 31
0.0
  0
LINE
  5
D1E2
330
2
100
AcDbEntity
  8
L-ZISSEN
100
AcDbLine
 10
518.3969834096883
 20
-3673.97811445317
 30
0.0
 11
519.3264566487608
 21
-3673.845332561873
 31
0.0
  0
LINE
  5
D1E3
330
2
100
AcDbEntity
  8
L-ZISSEN
100
AcDbLine
 10
520.2490816487623
 20
-3655.703207561872
 30
0.0
 11
520.2490816487623
 21
-3684.503207561874
 31
0.0
  0
LINE
  5
D1E4
330
2
100
AcDbEntity
  8
L-ZISSEN
100
AcDbLine
 10
520.0462691487607
 20
-3655.703207561872
 30
0.0
 11
520.0462691487607
 21
-3679.123957561873
 31
0.0
  0
LINE
  5
D1E5
330
2
100
AcDbEntity
  8
L-ZISSEN
100
AcDbLine
 10
519.3264566487608
 20
-3655.703207561872
 30
0.0
 11
519.3264566487608
 21
-3673.845332561873
 31
0.0
  0
LINE
  5
D1E6
330
2
100
AcDbEntity
  8
L-ZISSEN
100
AcDbLine
 10
521.5490816487633
 20
-3660.403207561874
 30
0.0
 11
521.5490816487625
 21
-3668.903207561872
 31
0.0
  0
LINE
  5
D1E7
330
2
100
AcDbEntity
  8
L-ZISSEN
100
AcDbLine
 10
527.7490816487622
 20
-3658.903207561872
 30
0.0
 11
533.2604360870207
 21
-3658.903207561874
 31
0.0
  0
LINE
  5
D1E8
330
2
100
AcDbEntity
  8
L-ZISSEN
100
AcDbLine
 10
527.7490816487632
 20
-3658.903207561872
 30
0.0
 11
527.7490816487632
 21
-3668.903207561871
 31
0.0
  0
LINE
  5
D1E9
330
2
100
AcDbEntity
  8
L-ZISSEN
100
AcDbLine
 10
533.2604360870207
 20
-3658.903207561874
 30
0.0
 11
533.2604360870207
 21
-3668.903207561871
 31
0.0
  0
LINE
  5
D22E
330
2
100
AcDbEntity
  8
L-ZISSEN
100
AcDbLine
 10
538.5049487102439
 20
-3668.903207561873
 30
0.0
 11
536.789087708267
 21
-3748.148800892812
 31
0.0
  0
LINE
  5
D230
330
2
100
AcDbEntity
  8
L-ZISSEN
100
AcDbLine
 10
538.5049487102439
 20
-3668.903207561873
 30
0.0
 11
539.2050662489898
 21
-3668.903207561873
 31
0.0
  0
LINE
  5
D231
330
2
100
AcDbEntity
  8
L-ZISSEN
100
AcDbLine
 10
539.3853647641883
 20
-3655.404227061579
 30
0.0
 11
539.2050662489898
 21
-3668.903207561873
 31
0.0
  0
LINE
  5
D86A
330
2
100
AcDbEntity
  8
L-ZISSEN
100
AcDbLine
 10
-118.5492218788138
 20
-3674.742965973212
 30
0.0
 11
-126.9792218788168
 21
-3674.742965973212
 31
0.0
  0
ARC
  5
D86B
330
2
100
AcDbEntity
  8
L-ZISSEN
100
AcDbCircle
 10
-143.8292218788104
 20
-3661.951515980097
 30
0.0
 40
99.53938471878515
100
AcDbArc
 50
275.3320776948647
 51
283.9062370650462
  0
LINE
  5
D86C
330
2
100
AcDbEntity
  8
L-ZISSEN
100
AcDbLine
 10
-122.764221878813
 20
-3744.742965973212
 30
0.0
 11
-118.549221878816
 21
-3742.742965973211
 31
0.0
  0
LINE
  5
D86D
330
2
100
AcDbEntity
  8
L-ZISSEN
100
AcDbLine
 10
-117.8292218788149
 20
-3618.90422706158
 30
0.0
 11
-125.8292218788144
 21
-3618.90422706158
 31
0.0
  0
LINE
  5
D86E
330
2
100
AcDbEntity
  8
L-ZISSEN
100
AcDbLine
 10
-109.3292218788158
 20
-3642.90422706158
 30
0.0
 11
-125.8292218788144
 21
-3642.90422706158
 31
0.0
  0
LINE
  5
D86F
330
2
100
AcDbEntity
  8
L-ZISSEN
100
AcDbLine
 10
-178.8292218788139
 20
-3664.40422706158
 30
0.0
 11
-108.829221878814
 21
-3664.40422706158
 31
0.0
  0
LINE
  5
D870
330
2
100
AcDbEntity
  8
L-TYUSIN
100
AcDbLine
 10
-69.82922187881401
 20
-3631.704227061579
 30
0.0
 11
-175.3292218788137
 21
-3631.704227061581
 31
0.0
  0
LINE
  5
D871
330
2
100
AcDbEntity
  8
L-ZISSEN
100
AcDbLine
 10
-173.8292218788162
 20
-3750.807911105568
 30
0.0
 11
-173.8292218788139
 21
-3664.404227061579
 31
0.0
  0
LINE
  5
D872
330
2
100
AcDbEntity
  8
L-ZISSEN
100
AcDbLine
 10
-169.1092218788164
 20
-3674.742965973212
 30
0.0
 11
-169.1092218788142
 21
-3742.742965973211
 31
0.0
  0
LINE
  5
D873
330
2
100
AcDbEntity
  8
L-ZISSEN
100
AcDbLine
 10
-160.6792218788134
 20
-3674.742965973212
 30
0.0
 11
-160.6792218788134
 21
-3742.742965973211
 31
0.0
  0
LINE
  5
D874
330
2
100
AcDbEntity
  8
L-ZISSEN
100
AcDbLine
 10
-126.9792218788168
 20
-3674.742965973212
 30
0.0
 11
-126.9792218788168
 21
-3742.742965973211
 31
0.0
  0
LINE
  5
D875
330
2
100
AcDbEntity
  8
L-TYUSIN
100
AcDbLine
 10
-143.8292218788143
 20
-3584.901522660238
 30
0.0
 11
-143.8292218788139
 21
-3782.404227061579
 31
0.0
  0
LINE
  5
D876
330
2
100
AcDbEntity
  8
L-ZISSEN
100
AcDbLine
 10
-138.1292218788146
 20
-3777.40422706158
 30
0.0
 11
-149.5292218788133
 21
-3777.40422706158
 31
0.0
  0
LINE
  5
D877
330
2
100
AcDbEntity
  8
L-ZISSEN
100
AcDbLine
 10
-149.3292218788158
 20
-3767.345392472071
 30
0.0
 11
-140.8292218788144
 21
-3767.345392472071
 31
0.0
  0
LINE
  5
D878
330
2
100
AcDbEntity
  8
L-ZISSEN
100
AcDbLine
 10
-150.6075374953186
 20
-3765.4048481764
 30
0.0
 11
-137.1165038188203
 21
-3765.405644946171
 31
0.0
  0
LINE
  5
D879
330
2
100
AcDbEntity
  8
L-ZISSEN
100
AcDbLine
 10
-148.8292218788158
 20
-3767.345392472071
 30
0.0
 11
-149.329221878813
 21
-3766.845392472071
 31
0.0
  0
LINE
  5
D87A
330
2
100
AcDbEntity
  8
L-ZISSEN
100
AcDbLine
 10
-150.6884560766059
 20
-3762.40422706158
 30
0.0
 11
-137.8292218788135
 21
-3762.40422706158
 31
0.0
  0
ARC
  5
D87B
330
2
100
AcDbEntity
  8
L-ZISSEN
100
AcDbCircle
 10
-150.6075374953186
 20
-3760.133518006028
 30
0.0
 40
5.271330170370607
100
AcDbArc
 50
245.0771192748252
 51
295.2523389966427
  0
ARC
  5
D87C
330
2
100
AcDbEntity
  8
L-ZISSEN
100
AcDbCircle
 10
-150.6075374953173
 20
-3767.674936117131
 30
0.0
 40
5.271330170370607
100
AcDbArc
 50
64.74766100341561
 51
114.9228807251748
  0
LINE
  5
D87D
330
2
100
AcDbEntity
  8
L-ZISSEN
100
AcDbLine
 10
-137.8292218788135
 20
-3762.263778262143
 30
0.0
 11
-152.8292218788136
 21
-3762.263778262143
 31
0.0
  0
LINE
  5
D87E
330
2
100
AcDbEntity
  8
L-ZISSEN
100
AcDbLine
 10
-137.8292218788135
 20
-3762.263778262143
 30
0.0
 11
-152.8292218788136
 21
-3762.263778262143
 31
0.0
  0
LINE
  5
D87F
330
2
100
AcDbEntity
  8
L-ZISSEN
100
AcDbLine
 10
-134.8292218788117
 20
-3761.060176601631
 30
0.0
 11
-153.0792218788122
 21
-3761.060176601631
 31
0.0
  0
LINE
  5
D880
330
2
100
AcDbEntity
  8
L-ZISSEN
100
AcDbLine
 10
-160.6792218788134
 20
-3742.742965973211
 30
0.0
 11
-164.8942218788149
 21
-3744.742965973212
 31
0.0
  0
ARC
  5
D881
330
2
100
AcDbEntity
  8
L-ZISSEN
100
AcDbCircle
 10
-143.8292218788104
 20
-3661.951515980097
 30
0.0
 40
99.53938471878538
100
AcDbArc
 50
256.0937629349411
 51
264.6679223051352
  0
ARC
  5
D882
330
2
100
AcDbEntity
  8
L-ZISSEN
100
AcDbCircle
 10
-165.8292218788049
 20
-3750.807911105568
 30
0.0
 40
8.000000000000113
100
AcDbArc
 50
180.0
 51
256.0937629347642
  0
LINE
  5
D883
330
2
100
AcDbEntity
  8
L-ZISSEN
100
AcDbLine
 10
-164.8942218788149
 20
-3744.742965973212
 30
0.0
 11
-169.1092218788142
 21
-3742.742965973211
 31
0.0
  0
LINE
  5
D884
330
2
100
AcDbEntity
  8
L-ZISSEN
100
AcDbLine
 10
-152.8288654988967
 20
-3762.894494331524
 30
0.0
 11
-152.8288654988967
 21
-3764.913959791636
 31
0.0
  0
LINE
  5
D885
330
2
100
AcDbEntity
  8
L-ZISSEN
100
AcDbLine
 10
-149.8292218788131
 20
-3777.10422706158
 30
0.0
 11
-149.829221878813
 21
-3767.845392472071
 31
0.0
  0
LINE
  5
D886
330
2
100
AcDbEntity
  8
L-ZISSEN
100
AcDbLine
 10
-149.5292218788133
 20
-3777.40422706158
 30
0.0
 11
-149.829221878813
 21
-3777.10422706158
 31
0.0
  0
LINE
  5
D887
330
2
100
AcDbEntity
  8
L-ZISSEN
100
AcDbLine
 10
-149.3292218788158
 20
-3767.345392472071
 30
0.0
 11
-149.829221878813
 21
-3767.845392472071
 31
0.0
  0
LINE
  5
D888
330
2
100
AcDbEntity
  8
L-ZISSEN
100
AcDbLine
 10
-149.329221878813
 20
-3766.845392472071
 30
0.0
 11
-149.329221878813
 21
-3765.40422706158
 31
0.0
  0
LINE
  5
D889
330
2
100
AcDbEntity
  8
L-ZISSEN
100
AcDbLine
 10
-152.8292218788136
 20
-3762.263778262143
 30
0.0
 11
-152.8292218788136
 21
-3761.060176601631
 31
0.0
  0
ARC
  5
D88A
330
2
100
AcDbEntity
  8
L-ZISSEN
100
AcDbCircle
 10
-137.1165038188203
 20
-3760.1343147758
 30
0.0
 40
5.271330170371532
100
AcDbArc
 50
244.7408933165819
 51
295.711645114861
  0
LINE
  5
D88B
330
2
100
AcDbEntity
  8
L-ZISSEN
100
AcDbLine
 10
-134.8292218788117
 20
-3762.263778262143
 30
0.0
 11
-137.8292218788135
 21
-3762.263778262143
 31
0.0
  0
LINE
  5
D88C
330
2
100
AcDbEntity
  8
L-ZISSEN
100
AcDbLine
 10
-134.8292218788117
 20
-3762.263778262143
 30
0.0
 11
-137.8292218788135
 21
-3762.263778262143
 31
0.0
  0
ARC
  5
D88D
330
2
100
AcDbEntity
  8
L-ZISSEN
100
AcDbCircle
 10
-137.116503818819
 20
-3767.67413934736
 30
0.0
 40
5.271330170371789
100
AcDbArc
 50
64.28835488513906
 51
115.2591066834178
  0
LINE
  5
D88E
330
2
100
AcDbEntity
  8
L-ZISSEN
100
AcDbLine
 10
-139.3658462417955
 20
-3762.906815105266
 30
0.0
 11
-139.3658462417955
 21
-3764.901639017894
 31
0.0
  0
LINE
  5
D88F
330
2
100
AcDbEntity
  8
L-ZISSEN
100
AcDbLine
 10
-148.3587581968311
 20
-3762.907346219529
 30
0.0
 11
-148.3587581968243
 21
-3764.901107903632
 31
0.0
  0
ARC
  5
D890
330
2
100
AcDbEntity
  8
L-ZISSEN
100
AcDbCircle
 10
-143.8292218788139
 20
-3744.763164387663
 30
0.0
 40
20.64106267391694
100
AcDbArc
 50
257.3236813122661
 51
282.4944195184307
  0
LINE
  5
D891
330
2
100
AcDbEntity
  8
L-ZISSEN
100
AcDbLine
 10
-147.8292218788149
 20
-3767.345392472071
 30
0.0
 11
-147.8292218788149
 21
-3777.40422706158
 31
0.0
  0
LINE
  5
D892
330
2
100
AcDbEntity
  8
L-ZISSEN
100
AcDbLine
 10
-148.8292218788139
 20
-3767.345392472071
 30
0.0
 11
-148.8292218788138
 21
-3777.40422706158
 31
0.0
  0
LINE
  5
D893
330
2
100
AcDbEntity
  8
L-ZISSEN
100
AcDbLine
 10
-146.8292218788135
 20
-3767.345392472071
 30
0.0
 11
-146.8292218788134
 21
-3777.40422706158
 31
0.0
  0
LINE
  5
D894
330
2
100
AcDbEntity
  8
L-ZISSEN
100
AcDbLine
 10
-148.8292218788116
 20
-3765.404923672708
 30
0.0
 11
-148.8292218788158
 21
-3767.345392472071
 31
0.0
  0
LINE
  5
D895
330
2
100
AcDbEntity
  8
L-ZISSEN
100
AcDbLine
 10
-142.8292218788126
 20
-3767.345392472071
 30
0.0
 11
-142.8292218788125
 21
-3777.40422706158
 31
0.0
  0
LINE
  5
D896
330
2
100
AcDbEntity
  8
L-ZISSEN
100
AcDbLine
 10
-143.8292218788117
 20
-3767.345392472071
 30
0.0
 11
-143.8292218788116
 21
-3777.40422706158
 31
0.0
  0
LINE
  5
D897
330
2
100
AcDbEntity
  8
L-ZISSEN
100
AcDbLine
 10
-144.829221878813
 20
-3767.345392472071
 30
0.0
 11
-144.8292218788129
 21
-3777.40422706158
 31
0.0
  0
LINE
  5
D898
330
2
100
AcDbEntity
  8
L-ZISSEN
100
AcDbLine
 10
-145.8292218788121
 20
-3767.345392472071
 30
0.0
 11
-145.829221878812
 21
-3777.40422706158
 31
0.0
  0
LINE
  5
D899
330
2
100
AcDbEntity
  8
L-ZISSEN
100
AcDbLine
 10
-137.8292218788149
 20
-3767.845392472071
 30
0.0
 11
-137.8292218788149
 21
-3777.10422706158
 31
0.0
  0
LINE
  5
D89A
330
2
100
AcDbEntity
  8
L-ZISSEN
100
AcDbLine
 10
-138.8292218788117
 20
-3767.345392472071
 30
0.0
 11
-138.8292218788096
 21
-3777.40422706158
 31
0.0
  0
LINE
  5
D89B
330
2
100
AcDbEntity
  8
L-ZISSEN
100
AcDbLine
 10
-139.8292218788108
 20
-3767.345392472071
 30
0.0
 11
-139.8292218788107
 21
-3777.40422706158
 31
0.0
  0
LINE
  5
D89C
330
2
100
AcDbEntity
  8
L-ZISSEN
100
AcDbLine
 10
-140.8292218788144
 20
-3767.345392472071
 30
0.0
 11
-140.8292218788144
 21
-3777.40422706158
 31
0.0
  0
LINE
  5
D89D
330
2
100
AcDbEntity
  8
L-ZISSEN
100
AcDbLine
 10
-141.8292218788135
 20
-3767.345392472071
 30
0.0
 11
-141.8292218788134
 21
-3777.40422706158
 31
0.0
  0
LINE
  5
D89E
330
2
100
AcDbEntity
  8
L-ZISSEN
100
AcDbLine
 10
-138.1292218788146
 20
-3777.40422706158
 30
0.0
 11
-137.8292218788149
 21
-3777.10422706158
 31
0.0
  0
LINE
  5
D89F
330
2
100
AcDbEntity
  8
L-ZISSEN
100
AcDbLine
 10
-138.8292218788102
 20
-3765.405573324002
 30
0.0
 11
-138.8292218788144
 21
-3767.345392472071
 31
0.0
  0
LINE
  5
D8A0
330
2
100
AcDbEntity
  8
L-ZISSEN
100
AcDbLine
 10
-138.8292218788144
 20
-3767.345392472071
 30
0.0
 11
-138.3292218788149
 21
-3766.845392472071
 31
0.0
  0
LINE
  5
D8A1
330
2
100
AcDbEntity
  8
L-ZISSEN
100
AcDbLine
 10
-140.8292218788144
 20
-3767.345392472071
 30
0.0
 11
-138.3292218788144
 21
-3767.345392472071
 31
0.0
  0
LINE
  5
D8A2
330
2
100
AcDbEntity
  8
L-ZISSEN
100
AcDbLine
 10
-138.3292218788144
 20
-3767.345392472071
 30
0.0
 11
-137.8292218788149
 21
-3767.845392472071
 31
0.0
  0
LINE
  5
D8A3
330
2
100
AcDbEntity
  8
L-ZISSEN
100
AcDbLine
 10
-138.3292218788148
 20
-3766.845392472071
 30
0.0
 11
-138.3292218788149
 21
-3765.40422706158
 31
0.0
  0
ARC
  5
D8A4
330
2
100
AcDbEntity
  8
L-ZISSEN
100
AcDbCircle
 10
-143.8292218788126
 20
-3783.045289735497
 30
0.0
 40
20.64106267391679
100
AcDbArc
 50
77.50558048156747
 51
102.6763186877484
  0
LINE
  5
D8A5
330
2
100
AcDbEntity
  8
L-ZISSEN
100
AcDbLine
 10
-137.8292218788135
 20
-3762.40422706158
 30
0.0
 11
-136.9942488997174
 21
-3762.40422706158
 31
0.0
  0
LINE
  5
D8A6
330
2
100
AcDbEntity
  8
L-ZISSEN
100
AcDbLine
 10
-140.8292218788131
 20
-3762.40422706158
 30
0.0
 11
-140.8292218788131
 21
-3762.263778262143
 31
0.0
  0
LINE
  5
D8A7
330
2
100
AcDbEntity
  8
L-ZISSEN
100
AcDbLine
 10
-134.8295782587263
 20
-3762.924729568486
 30
0.0
 11
-134.8295782587263
 21
-3764.883724554673
 31
0.0
  0
LINE
  5
D8A8
330
2
100
AcDbEntity
  8
L-ZISSEN
100
AcDbLine
 10
-134.9542218788122
 20
-3762.263778262143
 30
0.0
 11
-134.9542218788122
 21
-3761.060176601631
 31
0.0
  0
LINE
  5
D8A9
330
2
100
AcDbEntity
  8
L-ZISSEN
100
AcDbLine
 10
-134.5792218788108
 20
-3761.060176601631
 30
0.0
 11
-134.8292218788117
 21
-3761.060176601631
 31
0.0
  0
LINE
  5
D8AA
330
2
100
AcDbEntity
  8
L-ZISSEN
100
AcDbLine
 10
-126.9792218788168
 20
-3742.742965973211
 30
0.0
 11
-122.764221878813
 21
-3744.742965973212
 31
0.0
  0
LINE
  5
D8AE
330
2
100
AcDbEntity
  8
L-ZISSEN
100
AcDbLine
 10
-178.3292218788143
 20
-3642.90422706158
 30
0.0
 11
-161.8292218788134
 21
-3642.90422706158
 31
0.0
  0
LINE
  5
D8B5
330
2
100
AcDbEntity
  8
L-ZISSEN
100
AcDbLine
 10
-178.8292218788139
 20
-3664.40422706158
 30
0.0
 11
-178.8292218788139
 21
-3643.40422706158
 31
0.0
  0
ARC
  5
D8B6
330
2
100
AcDbEntity
  8
L-ZISSEN
100
AcDbCircle
 10
-178.3292218788143
 20
-3643.40422706158
 30
0.0
 40
0.5000000000001137
100
AcDbArc
 50
90.0
 51
180.0
  0
ARC
  5
D8B7
330
2
100
AcDbEntity
  8
L-ZISSEN
100
AcDbCircle
 10
-178.3292218788143
 20
-3643.40422706158
 30
0.0
 40
0.5000000000001137
100
AcDbArc
 50
90.0
 51
180.0
  0
LINE
  5
D8B8
330
2
100
AcDbEntity
  8
L-ZISSEN
100
AcDbLine
 10
-131.3292218788139
 20
-3613.404227061581
 30
0.0
 11
-156.3292218788163
 21
-3613.404227061581
 31
0.0
  0
LINE
  5
D8B9
330
2
100
AcDbEntity
  8
L-ZISSEN
100
AcDbLine
 10
-161.8292218788134
 20
-3652.40422706158
 30
0.0
 11
-125.8292218788144
 21
-3652.40422706158
 31
0.0
  0
LINE
  5
D8BA
330
2
100
AcDbEntity
  8
L-ZISSEN
100
AcDbLine
 10
-125.8292218788144
 20
-3648.90422706158
 30
0.0
 11
-161.8292218788134
 21
-3648.90422706158
 31
0.0
  0
CIRCLE
  5
D8BB
330
2
100
AcDbEntity
  8
L-ZISSEN
100
AcDbCircle
 10
-143.8292218788139
 20
-3631.70422706158
 30
0.0
 40
9.314999999999999
  0
CIRCLE
  5
D8BC
330
2
100
AcDbEntity
  8
L-SAISEN
100
AcDbCircle
 10
-143.8292218788139
 20
-3631.70422706158
 30
0.0
 40
10.48
  0
LINE
  5
D8BD
330
2
100
AcDbEntity
  8
L-ZISSEN
100
AcDbLine
 10
-169.1092218788164
 20
-3674.742965973212
 30
0.0
 11
-160.6792218788134
 21
-3674.742965973212
 31
0.0
  0
LINE
  5
D8BE
330
2
100
AcDbEntity
  8
L-ZISSEN
100
AcDbLine
 10
-169.8292218788153
 20
-3618.90422706158
 30
0.0
 11
-161.8292218788134
 21
-3618.90422706158
 31
0.0
  0
ARC
  5
D8BF
330
2
100
AcDbEntity
  8
L-ZISSEN
100
AcDbCircle
 10
-169.8292218788153
 20
-3619.40422706158
 30
0.0
 40
0.5000000000001137
100
AcDbArc
 50
90.0
 51
180.0
  0
LINE
  5
D8C1
330
2
100
AcDbEntity
  8
L-ZISSEN
100
AcDbLine
 10
-170.3292218788148
 20
-3642.90422706158
 30
0.0
 11
-170.3292218788148
 21
-3619.40422706158
 31
0.0
  0
LINE
  5
D8C3
330
2
100
AcDbEntity
  8
L-ZISSEN
100
AcDbLine
 10
-161.8292218788134
 20
-3664.40422706158
 30
0.0
 11
-161.8292218788134
 21
-3618.90422706158
 31
0.0
  0
LINE
  5
D8C4
330
2
100
AcDbEntity
  8
L-ZISSEN
100
AcDbLine
 10
-161.8292218788134
 20
-3618.90422706158
 30
0.0
 11
-156.3292218788162
 21
-3613.404227061581
 31
0.0
  0
LINE
  5
D8C6
330
2
100
AcDbEntity
  8
L-ZISSEN
100
AcDbLine
 10
-125.8292218788144
 20
-3664.40422706158
 30
0.0
 11
-125.8292218788144
 21
-3618.90422706158
 31
0.0
  0
LINE
  5
D8C7
330
2
100
AcDbEntity
  8
L-ZISSEN
100
AcDbLine
 10
-125.8292218788144
 20
-3618.90422706158
 30
0.0
 11
-131.3292218788139
 21
-3613.404227061581
 31
0.0
  0
LINE
  5
D8C8
330
2
100
AcDbEntity
  8
L-ZISSEN
100
AcDbLine
 10
-113.829221878814
 20
-3664.404227061579
 30
0.0
 11
-113.829221878814
 21
-3705.728221515779
 31
0.0
  0
LINE
  5
D8C9
330
2
100
AcDbEntity
  8
L-ZISSEN
100
AcDbLine
 10
-113.8292218788162
 20
-3750.807911105568
 30
0.0
 11
-113.829221878814
 21
-3664.404227061579
 31
0.0
  0
LINE
  5
D8CA
330
2
100
AcDbEntity
  8
L-ZISSEN
100
AcDbLine
 10
-118.5492218788138
 20
-3674.742965973212
 30
0.0
 11
-118.549221878816
 21
-3742.742965973211
 31
0.0
  0
ARC
  5
D8CB
330
2
100
AcDbEntity
  8
L-ZISSEN
100
AcDbCircle
 10
-121.8292218788062
 20
-3750.807911105568
 30
0.0
 40
8.000000000000113
100
AcDbArc
 50
283.9062370650588
 51
0.0
  0
LINE
  5
D8CC
330
2
100
AcDbEntity
  8
L-ZISSEN
100
AcDbLine
 10
-108.829221878814
 20
-3685.40422706158
 30
0.0
 11
-104.8292218788153
 21
-3686.069164867362
 31
0.0
  0
LINE
  5
D8CD
330
2
100
AcDbEntity
  8
L-ZISSEN
100
AcDbLine
 10
-104.8292218788153
 20
-3690.353333849961
 30
0.0
 11
-110.3292218788126
 21
-3692.29371296359
 31
0.0
  0
LINE
  5
D8CE
330
2
100
AcDbEntity
  8
L-ZISSEN
100
AcDbLine
 10
-108.829221878814
 20
-3664.40422706158
 30
0.0
 11
-108.829221878814
 21
-3643.40422706158
 31
0.0
  0
LINE
  5
D8CF
330
2
100
AcDbEntity
  8
L-ZISSEN
100
AcDbLine
 10
-110.5151265542624
 20
-3688.21124935866
 30
0.0
 11
-113.829221878814
 21
-3688.21124935866
 31
0.0
  0
LINE
  5
D8D0
330
2
100
AcDbEntity
  8
L-ZISSEN
100
AcDbLine
 10
-112.0017103850184
 20
-3688.211249358662
 30
0.0
 11
-112.0017103850184
 21
-3690.047217828772
 31
0.0
  0
LINE
  5
D8D1
330
2
100
AcDbEntity
  8
L-ZISSEN
100
AcDbLine
 10
-110.5151265542624
 20
-3690.397733599595
 30
0.0
 11
-110.5151265542624
 21
-3688.21124935866
 31
0.0
  0
LINE
  5
D8D2
330
2
100
AcDbEntity
  8
L-ZISSEN
100
AcDbLine
 10
-110.3292218788126
 20
-3692.29371296359
 30
0.0
 11
-110.5151265542624
 21
-3692.29371296359
 31
0.0
  0
LINE
  5
D8D3
330
2
100
AcDbEntity
  8
L-ZISSEN
100
AcDbLine
 10
-113.7653845287902
 20
-3697.527193576216
 30
0.0
 11
-112.0017103850184
 21
-3690.047217828772
 31
0.0
  0
LINE
  5
D8D4
330
2
100
AcDbEntity
  8
L-ZISSEN
100
AcDbLine
 10
-112.2788006980342
 20
-3697.877709347039
 30
0.0
 11
-110.5151265542624
 21
-3690.397733599595
 31
0.0
  0
LINE
  5
D8D5
330
2
100
AcDbEntity
  8
L-ZISSEN
100
AcDbLine
 10
-112.2788006980342
 20
-3697.877709347039
 30
0.0
 11
-113.829221878814
 21
-3697.877709347039
 31
0.0
  0
LINE
  5
D8D6
330
2
100
AcDbEntity
  8
L-ZISSEN
100
AcDbLine
 10
-110.5151265542624
 20
-3692.29371296359
 30
0.0
 11
-110.5151265542624
 21
-3664.40422706158
 31
0.0
  0
LINE
  5
D8D7
330
2
100
AcDbEntity
  8
L-ZISSEN
100
AcDbLine
 10
-108.829221878814
 20
-3664.40422706158
 30
0.0
 11
-108.829221878814
 21
-3685.40422706158
 31
0.0
  0
ARC
  5
D8D8
330
2
100
AcDbEntity
  8
L-ZISSEN
100
AcDbCircle
 10
-117.8292218788149
 20
-3619.40422706158
 30
0.0
 40
0.5000000000001137
100
AcDbArc
 50
0.0
 51
90.0
  0
LINE
  5
D8D9
330
2
100
AcDbEntity
  8
L-ZISSEN
100
AcDbLine
 10
-117.3292218788153
 20
-3642.90422706158
 30
0.0
 11
-117.3292218788153
 21
-3619.40422706158
 31
0.0
  0
ARC
  5
D8DA
330
2
100
AcDbEntity
  8
L-ZISSEN
100
AcDbCircle
 10
-109.3292218788158
 20
-3643.40422706158
 30
0.0
 40
0.500000000001819
100
AcDbArc
 50
0.0
 51
90.0
  0
ARC
  5
D8DB
330
2
100
AcDbEntity
  8
L-ZISSEN
100
AcDbCircle
 10
-109.3292218788158
 20
-3643.40422706158
 30
0.0
 40
0.500000000001819
100
AcDbArc
 50
0.0
 51
90.0
  0
LINE
  5
D8DC
330
2
100
AcDbEntity
  8
L-ZISSEN
100
AcDbLine
 10
-104.8292218788153
 20
-3686.069164867362
 30
0.0
 11
-104.8292218788153
 21
-3690.353333849961
 31
0.0
  0
LINE
  5
D956
330
2
100
AcDbEntity
  8
L-TYUSIN
100
AcDbLine
 10
-181.4292218788139
 20
-3591.70422706158
 30
0.0
 11
-198.8292218788139
 21
-3591.704227061579
 31
0.0
  0
LINE
  5
D957
330
2
100
AcDbEntity
  8
L-TYUSIN
100
AcDbLine
 10
-181.4292218788139
 20
-3671.704227061579
 30
0.0
 11
-198.8292218788139
 21
-3671.70422706158
 31
0.0
  0
LINE
  5
D959
330
2
100
AcDbEntity
  8
L-ZISSEN
100
AcDbLine
 10
-186.4292218788138
 20
-3610.415765523118
 30
0.0
 11
-170.3292218788138
 21
-3619.704227061579
 31
0.0
  0
LINE
  5
D95A
330
2
100
AcDbEntity
  8
L-ZISSEN
100
AcDbLine
 10
-186.4292218788138
 20
-3652.992688600041
 30
0.0
 11
-178.8292218788139
 21
-3648.608073215426
 31
0.0
  0
LINE
  5
D95C
330
2
100
AcDbEntity
  8
L-ZISSEN
100
AcDbLine
 10
-132.3292218788138
 20
-3609.904227061577
 30
0.0
 11
-155.3292218788138
 21
-3609.904227061577
 31
0.0
  0
LINE
  5
D95D
330
2
100
AcDbEntity
  8
L-ZISSEN
100
AcDbLine
 10
-131.8292218788138
 20
-3612.904227061577
 30
0.0
 11
-155.8292218788138
 21
-3612.904227061577
 31
0.0
  0
LINE
  5
D967
330
2
100
AcDbEntity
  8
L-ZISSEN
100
AcDbLine
 10
-155.3292218788138
 20
-3609.904227061577
 30
0.0
 11
-155.8292218788138
 21
-3612.904227061577
 31
0.0
  0
LINE
  5
D96E
330
2
100
AcDbEntity
  8
L-ZISSEN
100
AcDbLine
 10
-132.3292218788138
 20
-3609.904227061577
 30
0.0
 11
-131.8292218788138
 21
-3612.904227061577
 31
0.0
  0
LINE
  5
D975
330
2
100
AcDbEntity
  8
L-ZISSEN
100
AcDbLine
 10
30.89077812118544
 20
-3674.74296597321
 30
0.0
 11
39.32077812118619
 21
-3674.74296597321
 31
0.0
  0
ARC
  5
D976
330
2
100
AcDbEntity
  8
L-ZISSEN
100
AcDbCircle
 10
56.17077812118695
 20
-3661.951515980096
 30
0.0
 40
99.53938471878538
100
AcDbArc
 50
256.0937629349537
 51
264.6679223051352
  0
LINE
  5
D977
330
2
100
AcDbEntity
  8
L-ZISSEN
100
AcDbLine
 10
39.32077812118619
 20
-3742.74296597321
 30
0.0
 11
35.10577812118468
 21
-3744.74296597321
 31
0.0
  0
LINE
  5
D978
330
2
100
AcDbEntity
  8
L-ZISSEN
100
AcDbLine
 10
26.20075633453903
 20
-3615.404227061579
 30
0.0
 11
86.14079990783208
 21
-3615.404227061578
 31
0.0
  0
LINE
  5
D979
330
2
100
AcDbEntity
  8
L-ZISSEN
100
AcDbLine
 10
35.6707781211861
 20
-3618.904227061578
 30
0.0
 11
56.17077812118565
 21
-3618.904227061578
 31
0.0
  0
LINE
  5
D97A
330
2
100
AcDbEntity
  8
L-ZISSEN
100
AcDbLine
 10
24.67077812118701
 20
-3643.611124180142
 30
0.0
 11
91.17077812118564
 21
-3643.611124180142
 31
0.0
  0
LINE
  5
D97B
330
2
100
AcDbEntity
  8
L-ZISSEN
100
AcDbLine
 10
91.17077812118564
 20
-3613.204227061579
 30
0.0
 11
21.17077812118564
 21
-3613.204227061579
 31
0.0
  0
LINE
  5
D97C
330
2
100
AcDbEntity
  8
L-ZISSEN
100
AcDbLine
 10
91.07077812118573
 20
-3664.404227061579
 30
0.0
 11
21.17077812118564
 21
-3664.404227061579
 31
0.0
  0
LINE
  5
D97D
330
2
100
AcDbEntity
  8
L-TYUSIN
100
AcDbLine
 10
264.1707781211854
 20
-3631.704227061578
 30
0.0
 11
16.17077812118564
 21
-3631.704227061578
 31
0.0
  0
LINE
  5
D97E
330
2
100
AcDbEntity
  8
L-ZISSEN
100
AcDbLine
 10
30.89077812118544
 20
-3674.74296597321
 30
0.0
 11
30.89077812118544
 21
-3742.74296597321
 31
0.0
  0
LINE
  5
D97F
330
2
100
AcDbEntity
  8
L-ZISSEN
100
AcDbLine
 10
26.17077812118564
 20
-3750.807911105567
 30
0.0
 11
26.17077812118564
 21
-3664.404227061579
 31
0.0
  0
ARC
  5
D980
330
2
100
AcDbEntity
  8
L-ZISSEN
100
AcDbCircle
 10
34.1707781211865
 20
-3750.807911105567
 30
0.0
 40
8.000000000000113
100
AcDbArc
 50
180.0
 51
256.0937629349411
  0
LINE
  5
D981
330
2
100
AcDbEntity
  8
L-ZISSEN
100
AcDbLine
 10
35.10577812118468
 20
-3744.74296597321
 30
0.0
 11
30.89077812118544
 21
-3742.74296597321
 31
0.0
  0
LINE
  5
D98D
330
2
100
AcDbEntity
  8
L-ZISSEN
100
AcDbLine
 10
21.17077812118564
 20
-3619.404227061579
 30
0.0
 11
24.67077812118565
 21
-3619.404227061579
 31
0.0
  0
LINE
  5
D98E
330
2
100
AcDbEntity
  8
L-ZISSEN
100
AcDbLine
 10
21.17077812118564
 20
-3648.904227061578
 30
0.0
 11
21.17077812118564
 21
-3613.204227061578
 31
0.0
  0
LINE
  5
D98F
330
2
100
AcDbEntity
  8
L-ZISSEN
100
AcDbLine
 10
23.57077812118346
 20
-3652.404227061579
 30
0.0
 11
23.57077812118346
 21
-3648.904227061578
 31
0.0
  0
LINE
  5
D990
330
2
100
AcDbEntity
  8
L-ZISSEN
100
AcDbLine
 10
21.17077812118564
 20
-3652.404227061579
 30
0.0
 11
23.57077812118346
 21
-3652.404227061579
 31
0.0
  0
LINE
  5
D991
330
2
100
AcDbEntity
  8
L-ZISSEN
100
AcDbLine
 10
21.17077812118564
 20
-3648.904227061578
 30
0.0
 11
23.57077812118346
 21
-3648.904227061578
 31
0.0
  0
LINE
  5
D992
330
2
100
AcDbEntity
  8
L-ZISSEN
100
AcDbLine
 10
21.17077812118564
 20
-3664.404227061579
 30
0.0
 11
21.17077812118564
 21
-3652.404227061579
 31
0.0
  0
LINE
  5
D995
330
2
100
AcDbEntity
  8
L-ZISSEN
100
AcDbLine
 10
24.67077812118701
 20
-3664.404227061579
 30
0.0
 11
24.67077812118701
 21
-3642.904227061579
 31
0.0
  0
LINE
  5
D996
330
2
100
AcDbEntity
  8
L-ZISSEN
100
AcDbLine
 10
28.67077812118564
 20
-3664.404227061579
 30
0.0
 11
28.67077812118564
 21
-3643.611124180142
 31
0.0
  0
LINE
  5
D99C
330
2
100
AcDbEntity
  8
L-ZISSEN
100
AcDbLine
 10
24.67077812118565
 20
-3619.404227061579
 30
0.0
 11
26.20075633453903
 21
-3615.404227061579
 31
0.0
  0
LINE
  5
D99D
330
2
100
AcDbEntity
  8
L-ZISSEN
100
AcDbLine
 10
26.20075633453903
 20
-3615.404227061579
 30
0.0
 11
26.20075633453903
 21
-3643.611124180142
 31
0.0
  0
LINE
  5
D99E
330
2
100
AcDbEntity
  8
L-ZISSEN
100
AcDbLine
 10
24.67077812118565
 20
-3619.404227061579
 30
0.0
 11
24.67077812118565
 21
-3642.904227061579
 31
0.0
  0
LINE
  5
D99F
330
2
100
AcDbEntity
  8
L-ZISSEN
100
AcDbLine
 10
35.6707781211861
 20
-3643.611124180142
 30
0.0
 11
35.6707781211861
 21
-3618.904227061578
 31
0.0
  0
LINE
  5
D9A0
330
2
100
AcDbEntity
  8
L-ZISSEN
100
AcDbLine
 10
39.32077812118619
 20
-3674.74296597321
 30
0.0
 11
39.32077812118619
 21
-3742.74296597321
 31
0.0
  0
LINE
  5
D9A1
330
2
100
AcDbEntity
  8
L-ZISSEN
100
AcDbLine
 10
81.45077812118584
 20
-3674.74296597321
 30
0.0
 11
81.45077812118584
 21
-3742.74296597321
 31
0.0
  0
LINE
  5
D9A2
330
2
100
AcDbEntity
  8
L-ZISSEN
100
AcDbLine
 10
73.0207781211851
 20
-3674.74296597321
 30
0.0
 11
73.0207781211851
 21
-3742.74296597321
 31
0.0
  0
LINE
  5
D9A3
330
2
100
AcDbEntity
  8
L-ZISSEN
100
AcDbLine
 10
86.17077812118331
 20
-3750.807911105567
 30
0.0
 11
86.17077812118564
 21
-3664.404227061577
 31
0.0
  0
LINE
  5
D9A4
330
2
100
AcDbEntity
  8
L-TYUSIN
100
AcDbLine
 10
56.17077812118565
 20
-3608.204227061579
 30
0.0
 11
56.17077812118565
 21
-3782.404227061578
 31
0.0
  0
ARC
  5
D9A5
330
2
100
AcDbEntity
  8
L-ZISSEN
100
AcDbCircle
 10
62.88349618117933
 20
-3760.134314775799
 30
0.0
 40
5.271330170371532
100
AcDbArc
 50
244.7408933165819
 51
295.711645114861
  0
LINE
  5
D9A6
330
2
100
AcDbEntity
  8
L-ZISSEN
100
AcDbLine
 10
65.17077812118786
 20
-3761.06017660163
 30
0.0
 11
46.92077812118286
 21
-3761.060176601629
 31
0.0
  0
ARC
  5
D9A7
330
2
100
AcDbEntity
  8
L-ZISSEN
100
AcDbCircle
 10
62.88349618118063
 20
-3767.674139347359
 30
0.0
 40
5.271330170371789
100
AcDbArc
 50
64.28835488513906
 51
115.2591066834178
  0
LINE
  5
D9A8
330
2
100
AcDbEntity
  8
L-ZISSEN
100
AcDbLine
 10
65.17077812118786
 20
-3762.263778262143
 30
0.0
 11
62.17077812118604
 21
-3762.263778262143
 31
0.0
  0
LINE
  5
D9A9
330
2
100
AcDbEntity
  8
L-ZISSEN
100
AcDbLine
 10
65.17077812118786
 20
-3762.263778262143
 30
0.0
 11
62.17077812118604
 21
-3762.263778262143
 31
0.0
  0
LINE
  5
D9AA
330
2
100
AcDbEntity
  8
L-ZISSEN
100
AcDbLine
 10
49.39246250468101
 20
-3765.404848176398
 30
0.0
 11
62.88349618117933
 21
-3765.40564494617
 31
0.0
  0
LINE
  5
D9AB
330
2
100
AcDbEntity
  8
L-ZISSEN
100
AcDbLine
 10
50.67077812118383
 20
-3767.34539247207
 30
0.0
 11
59.17077812118519
 21
-3767.34539247207
 31
0.0
  0
LINE
  5
D9AC
330
2
100
AcDbEntity
  8
L-ZISSEN
100
AcDbLine
 10
61.87077812118501
 20
-3777.404227061579
 30
0.0
 11
50.47077812118629
 21
-3777.404227061579
 31
0.0
  0
ARC
  5
D9AD
330
2
100
AcDbEntity
  8
L-ZISSEN
100
AcDbCircle
 10
49.39246250468101
 20
-3760.133518006028
 30
0.0
 40
5.271330170370607
100
AcDbArc
 50
245.0771192748252
 51
295.2523389966427
  0
LINE
  5
D9AE
330
2
100
AcDbEntity
  8
L-ZISSEN
100
AcDbLine
 10
51.17077812118383
 20
-3767.34539247207
 30
0.0
 11
50.67077812118656
 21
-3766.84539247207
 31
0.0
  0
LINE
  5
D9AF
330
2
100
AcDbEntity
  8
L-ZISSEN
100
AcDbLine
 10
62.17077812118604
 20
-3762.263778262143
 30
0.0
 11
47.17077812118604
 21
-3762.263778262143
 31
0.0
  0
LINE
  5
D9B0
330
2
100
AcDbEntity
  8
L-ZISSEN
100
AcDbLine
 10
49.31154392339367
 20
-3762.404227061578
 30
0.0
 11
62.17077812118604
 21
-3762.404227061578
 31
0.0
  0
LINE
  5
D9B1
330
2
100
AcDbEntity
  8
L-ZISSEN
100
AcDbLine
 10
62.17077812118604
 20
-3762.263778262143
 30
0.0
 11
47.17077812118604
 21
-3762.263778262143
 31
0.0
  0
ARC
  5
D9B2
330
2
100
AcDbEntity
  8
L-ZISSEN
100
AcDbCircle
 10
49.39246250468231
 20
-3767.67493611713
 30
0.0
 40
5.271330170370607
100
AcDbArc
 50
64.74766100341561
 51
114.9228807251748
  0
LINE
  5
D9B3
330
2
100
AcDbEntity
  8
L-ZISSEN
100
AcDbLine
 10
47.17113450110291
 20
-3762.894494331522
 30
0.0
 11
47.17113450110291
 21
-3764.913959791635
 31
0.0
  0
LINE
  5
D9B4
330
2
100
AcDbEntity
  8
L-ZISSEN
100
AcDbLine
 10
50.67077812118656
 20
-3766.84539247207
 30
0.0
 11
50.67077812118656
 21
-3765.404227061579
 31
0.0
  0
LINE
  5
D9B5
330
2
100
AcDbEntity
  8
L-ZISSEN
100
AcDbLine
 10
50.67077812118383
 20
-3767.34539247207
 30
0.0
 11
50.17077812118656
 21
-3767.84539247207
 31
0.0
  0
LINE
  5
D9B6
330
2
100
AcDbEntity
  8
L-ZISSEN
100
AcDbLine
 10
50.47077812118629
 20
-3777.404227061579
 30
0.0
 11
50.17077812118656
 21
-3777.104227061578
 31
0.0
  0
LINE
  5
D9B7
330
2
100
AcDbEntity
  8
L-ZISSEN
100
AcDbLine
 10
50.17077812118644
 20
-3777.104227061578
 30
0.0
 11
50.17077812118656
 21
-3767.84539247207
 31
0.0
  0
LINE
  5
D9B8
330
2
100
AcDbEntity
  8
L-ZISSEN
100
AcDbLine
 10
47.17077812118604
 20
-3762.263778262143
 30
0.0
 11
47.17077812118604
 21
-3761.060176601629
 31
0.0
  0
LINE
  5
D9B9
330
2
100
AcDbEntity
  8
L-ZISSEN
100
AcDbLine
 10
47.17077812118604
 20
-3762.263778262143
 30
0.0
 11
47.17077812118604
 21
-3761.060176601629
 31
0.0
  0
LINE
  5
D9BA
330
2
100
AcDbEntity
  8
L-ZISSEN
100
AcDbLine
 10
51.64124180316848
 20
-3762.907346219527
 30
0.0
 11
51.6412418031753
 21
-3764.90110790363
 31
0.0
  0
LINE
  5
D9BB
330
2
100
AcDbEntity
  8
L-ZISSEN
100
AcDbLine
 10
60.63415375820413
 20
-3762.906815105265
 30
0.0
 11
60.63415375820413
 21
-3764.901639017892
 31
0.0
  0
ARC
  5
D9BC
330
2
100
AcDbEntity
  8
L-ZISSEN
100
AcDbCircle
 10
56.17077812118565
 20
-3744.763164387661
 30
0.0
 40
20.64106267391694
100
AcDbArc
 50
257.3236813122661
 51
282.4944195184307
  0
LINE
  5
D9BD
330
2
100
AcDbEntity
  8
L-ZISSEN
100
AcDbLine
 10
51.17077812118804
 20
-3765.404923672706
 30
0.0
 11
51.17077812118383
 21
-3767.34539247207
 31
0.0
  0
LINE
  5
D9BE
330
2
100
AcDbEntity
  8
L-ZISSEN
100
AcDbLine
 10
53.1707781211861
 20
-3767.34539247207
 30
0.0
 11
53.17077812118622
 21
-3777.404227061579
 31
0.0
  0
LINE
  5
D9BF
330
2
100
AcDbEntity
  8
L-ZISSEN
100
AcDbLine
 10
51.17077812118565
 20
-3767.34539247207
 30
0.0
 11
51.17077812118576
 21
-3777.404227061579
 31
0.0
  0
LINE
  5
D9C0
330
2
100
AcDbEntity
  8
L-ZISSEN
100
AcDbLine
 10
52.17077812118474
 20
-3767.34539247207
 30
0.0
 11
52.17077812118474
 21
-3777.404227061579
 31
0.0
  0
LINE
  5
D9C1
330
2
100
AcDbEntity
  8
L-ZISSEN
100
AcDbLine
 10
54.17077812118747
 20
-3767.34539247207
 30
0.0
 11
54.17077812118758
 21
-3777.404227061579
 31
0.0
  0
LINE
  5
D9C2
330
2
100
AcDbEntity
  8
L-ZISSEN
100
AcDbLine
 10
55.17077812118656
 20
-3767.34539247207
 30
0.0
 11
55.17077812118667
 21
-3777.404227061579
 31
0.0
  0
LINE
  5
D9C3
330
2
100
AcDbEntity
  8
L-ZISSEN
100
AcDbLine
 10
56.17077812118792
 20
-3767.34539247207
 30
0.0
 11
56.17077812118804
 21
-3777.404227061579
 31
0.0
  0
LINE
  5
D9C4
330
2
100
AcDbEntity
  8
L-ZISSEN
100
AcDbLine
 10
57.17077812118701
 20
-3767.34539247207
 30
0.0
 11
57.17077812118713
 21
-3777.404227061579
 31
0.0
  0
LINE
  5
D9C5
330
2
100
AcDbEntity
  8
L-ZISSEN
100
AcDbLine
 10
61.67077812118485
 20
-3766.84539247207
 30
0.0
 11
61.67077812118474
 21
-3765.404227061579
 31
0.0
  0
LINE
  5
D9C6
330
2
100
AcDbEntity
  8
L-ZISSEN
100
AcDbLine
 10
61.67077812118519
 20
-3767.34539247207
 30
0.0
 11
62.17077812118474
 21
-3767.84539247207
 31
0.0
  0
LINE
  5
D9C7
330
2
100
AcDbEntity
  8
L-ZISSEN
100
AcDbLine
 10
59.17077812118519
 20
-3767.34539247207
 30
0.0
 11
61.67077812118519
 21
-3767.34539247207
 31
0.0
  0
LINE
  5
D9C8
330
2
100
AcDbEntity
  8
L-ZISSEN
100
AcDbLine
 10
61.1707781211852
 20
-3767.34539247207
 30
0.0
 11
61.67077812118474
 21
-3766.84539247207
 31
0.0
  0
LINE
  5
D9C9
330
2
100
AcDbEntity
  8
L-ZISSEN
100
AcDbLine
 10
61.1707781211894
 20
-3765.405573324001
 30
0.0
 11
61.1707781211852
 21
-3767.34539247207
 31
0.0
  0
LINE
  5
D9CA
330
2
100
AcDbEntity
  8
L-ZISSEN
100
AcDbLine
 10
61.87077812118501
 20
-3777.404227061579
 30
0.0
 11
62.17077812118474
 21
-3777.104227061578
 31
0.0
  0
LINE
  5
D9CB
330
2
100
AcDbEntity
  8
L-ZISSEN
100
AcDbLine
 10
58.1707781211861
 20
-3767.34539247207
 30
0.0
 11
58.17077812118622
 21
-3777.404227061579
 31
0.0
  0
LINE
  5
D9CC
330
2
100
AcDbEntity
  8
L-ZISSEN
100
AcDbLine
 10
59.17077812118519
 20
-3767.34539247207
 30
0.0
 11
59.17077812118519
 21
-3777.404227061579
 31
0.0
  0
LINE
  5
D9CD
330
2
100
AcDbEntity
  8
L-ZISSEN
100
AcDbLine
 10
60.17077812118883
 20
-3767.34539247207
 30
0.0
 11
60.17077812118895
 21
-3777.404227061579
 31
0.0
  0
LINE
  5
D9CE
330
2
100
AcDbEntity
  8
L-ZISSEN
100
AcDbLine
 10
61.17077812118792
 20
-3767.34539247207
 30
0.0
 11
61.17077812118997
 21
-3777.404227061579
 31
0.0
  0
LINE
  5
D9CF
330
2
100
AcDbEntity
  8
L-ZISSEN
100
AcDbLine
 10
62.17077812118474
 20
-3767.84539247207
 30
0.0
 11
62.17077812118474
 21
-3777.104227061578
 31
0.0
  0
ARC
  5
D9D0
330
2
100
AcDbEntity
  8
L-ZISSEN
100
AcDbCircle
 10
56.17077812118695
 20
-3783.045289735496
 30
0.0
 40
20.64106267391679
100
AcDbArc
 50
77.50558048156747
 51
102.6763186877484
  0
LINE
  5
D9D1
330
2
100
AcDbEntity
  8
L-ZISSEN
100
AcDbLine
 10
59.1707781211865
 20
-3762.404227061578
 30
0.0
 11
59.1707781211865
 21
-3762.263778262143
 31
0.0
  0
LINE
  5
D9D2
330
2
100
AcDbEntity
  8
L-ZISSEN
100
AcDbLine
 10
62.17077812118604
 20
-3762.404227061578
 30
0.0
 11
63.00575110028221
 21
-3762.404227061578
 31
0.0
  0
LINE
  5
D9D3
330
2
100
AcDbEntity
  8
L-ZISSEN
100
AcDbLine
 10
77.23577812118661
 20
-3744.74296597321
 30
0.0
 11
81.45077812118584
 21
-3742.74296597321
 31
0.0
  0
ARC
  5
D9D4
330
2
100
AcDbEntity
  8
L-ZISSEN
100
AcDbCircle
 10
56.17077812118695
 20
-3661.951515980096
 30
0.0
 40
99.53938471878553
100
AcDbArc
 50
275.3320776948647
 51
283.9062370650588
  0
LINE
  5
D9D5
330
2
100
AcDbEntity
  8
L-ZISSEN
100
AcDbLine
 10
65.17042174127327
 20
-3762.924729568485
 30
0.0
 11
65.17042174127327
 21
-3764.883724554672
 31
0.0
  0
LINE
  5
D9D6
330
2
100
AcDbEntity
  8
L-ZISSEN
100
AcDbLine
 10
65.17077812118786
 20
-3762.263778262143
 30
0.0
 11
65.17077812118786
 21
-3761.06017660163
 31
0.0
  0
LINE
  5
D9D7
330
2
100
AcDbEntity
  8
L-ZISSEN
100
AcDbLine
 10
65.17077812118786
 20
-3762.263778262143
 30
0.0
 11
65.17077812118786
 21
-3761.06017660163
 31
0.0
  0
LINE
  5
D9D8
330
2
100
AcDbEntity
  8
L-ZISSEN
100
AcDbLine
 10
65.42077812119105
 20
-3761.060176601629
 30
0.0
 11
65.17077812118786
 21
-3761.06017660163
 31
0.0
  0
LINE
  5
D9D9
330
2
100
AcDbEntity
  8
L-ZISSEN
100
AcDbLine
 10
73.0207781211851
 20
-3742.74296597321
 30
0.0
 11
77.23577812118661
 21
-3744.74296597321
 31
0.0
  0
ARC
  5
D9DA
330
2
100
AcDbEntity
  8
L-ZISSEN
100
AcDbCircle
 10
78.17077812118514
 20
-3750.807911105567
 30
0.0
 40
8.000000000000113
100
AcDbArc
 50
283.9062370652484
 51
0.0
  0
LINE
  5
D9DB
330
2
100
AcDbEntity
  8
L-ZISSEN
100
AcDbLine
 10
64.29577812118565
 20
-3673.154227061578
 30
0.0
 11
67.42077812118565
 21
-3671.279227061578
 31
0.0
  0
LINE
  5
D9DC
330
2
100
AcDbEntity
  8
L-ZISSEN
100
AcDbLine
 10
64.29577812118565
 20
-3669.404227061578
 30
0.0
 11
67.42077812118565
 21
-3671.279227061578
 31
0.0
  0
LINE
  5
D9DD
330
2
100
AcDbEntity
  8
L-ZISSEN
100
AcDbLine
 10
43.35827812118565
 20
-3704.404227061579
 30
0.0
 11
68.98327812118565
 21
-3704.404227061579
 31
0.0
  0
LINE
  5
D9DE
330
2
100
AcDbEntity
  8
L-ZISSEN
100
AcDbLine
 10
56.17077812118565
 20
-3690.654227061579
 30
0.0
 11
69.29577812118338
 21
-3688.779227061579
 31
0.0
  0
LINE
  5
D9DF
330
2
100
AcDbEntity
  8
L-ZISSEN
100
AcDbLine
 10
56.17077812118565
 20
-3691.485399318806
 30
0.0
 11
68.08521125601997
 21
-3689.783337442401
 31
0.0
  0
LINE
  5
D9E0
330
2
100
AcDbEntity
  8
L-ZISSEN
100
AcDbLine
 10
68.08521125601997
 20
-3694.346252572624
 30
0.0
 11
56.17077812118565
 21
-3696.840610547054
 31
0.0
  0
LINE
  5
D9E1
330
2
100
AcDbEntity
  8
L-ZISSEN
100
AcDbLine
 10
56.17077812118565
 20
-3699.404227061579
 30
0.0
 11
70.23327812118338
 21
-3695.654227061579
 31
0.0
  0
LINE
  5
D9E2
330
2
100
AcDbEntity
  8
L-ZISSEN
100
AcDbLine
 10
76.67077812118519
 20
-3618.904227061578
 30
0.0
 11
56.17077812118565
 21
-3618.904227061578
 31
0.0
  0
LINE
  5
D9E4
330
2
100
AcDbEntity
  8
L-ZISSEN
100
AcDbLine
 10
53.04577812118565
 20
-3670.654227061579
 30
0.0
 11
48.04577812118565
 21
-3670.654227061579
 31
0.0
  0
LINE
  5
D9E5
330
2
100
AcDbEntity
  8
L-ZISSEN
100
AcDbLine
 10
53.04577812118565
 20
-3670.654227061579
 30
0.0
 11
48.04577812118565
 21
-3670.654227061579
 31
0.0
  0
LINE
  5
D9E6
330
2
100
AcDbEntity
  8
L-ZISSEN
100
AcDbLine
 10
53.04577812118565
 20
-3671.904227061579
 30
0.0
 11
48.04577812118565
 21
-3671.904227061579
 31
0.0
  0
LINE
  5
D9E7
330
2
100
AcDbEntity
  8
L-ZISSEN
100
AcDbLine
 10
53.04577812118565
 20
-3671.904227061579
 30
0.0
 11
48.04577812118565
 21
-3671.904227061579
 31
0.0
  0
LINE
  5
D9E8
330
2
100
AcDbEntity
  8
L-ZISSEN
100
AcDbLine
 10
56.17077812118565
 20
-3691.485399318806
 30
0.0
 11
44.25634498635132
 21
-3689.783337442401
 31
0.0
  0
LINE
  5
D9E9
330
2
100
AcDbEntity
  8
L-ZISSEN
100
AcDbLine
 10
44.25634498635132
 20
-3694.346252572624
 30
0.0
 11
56.17077812118565
 21
-3696.840610547054
 31
0.0
  0
LINE
  5
D9EA
330
2
100
AcDbEntity
  8
L-ZISSEN
100
AcDbLine
 10
56.17077812118565
 20
-3690.654227061579
 30
0.0
 11
43.04577812118338
 21
-3688.779227061579
 31
0.0
  0
LINE
  5
D9EB
330
2
100
AcDbEntity
  8
L-ZISSEN
100
AcDbLine
 10
56.17077812118565
 20
-3699.404227061579
 30
0.0
 11
42.10827812118338
 21
-3695.654227061579
 31
0.0
  0
LINE
  5
D9EC
330
2
100
AcDbEntity
  8
L-ZISSEN
100
AcDbLine
 10
44.25634498635132
 20
-3689.783337442401
 30
0.0
 11
43.04577812118338
 21
-3688.779227061579
 31
0.0
  0
LINE
  5
D9ED
330
2
100
AcDbEntity
  8
L-ZISSEN
100
AcDbLine
 10
44.25634498635132
 20
-3688.952165185174
 30
0.0
 11
43.04577812118338
 21
-3688.779227061579
 31
0.0
  0
LINE
  5
D9EE
330
2
100
AcDbEntity
  8
L-ZISSEN
100
AcDbLine
 10
42.10827812118338
 20
-3695.654227061579
 30
0.0
 11
44.25634498635132
 21
-3694.346252572624
 31
0.0
  0
ARC
  5
D9EF
330
2
100
AcDbEntity
  8
L-ZISSEN
100
AcDbCircle
 10
43.35827812118565
 20
-3703.154227061579
 30
0.0
 40
1.250000000000568
100
AcDbArc
 50
180.0
 51
270.0
  0
LINE
  5
D9F0
330
2
100
AcDbEntity
  8
L-ZISSEN
100
AcDbLine
 10
43.04577812118338
 20
-3664.404227061579
 30
0.0
 11
43.04577812118338
 21
-3688.779227061579
 31
0.0
  0
LINE
  5
D9F1
330
2
100
AcDbEntity
  8
L-ZISSEN
100
AcDbLine
 10
42.10827812118338
 20
-3664.404227061579
 30
0.0
 11
42.10827812118338
 21
-3688.193502428712
 31
0.0
  0
LINE
  5
D9F2
330
2
100
AcDbEntity
  8
L-ZISSEN
100
AcDbLine
 10
42.10827812118338
 20
-3664.404227061579
 30
0.0
 11
42.10827812118338
 21
-3703.154227061579
 31
0.0
  0
LINE
  5
D9F3
330
2
100
AcDbEntity
  8
L-ZISSEN
100
AcDbLine
 10
48.04577812118565
 20
-3671.904227061579
 30
0.0
 11
48.04577812118565
 21
-3673.154227061579
 31
0.0
  0
LINE
  5
D9F4
330
2
100
AcDbEntity
  8
L-ZISSEN
100
AcDbLine
 10
48.04577812118565
 20
-3673.154227061579
 30
0.0
 11
44.92077812118565
 21
-3671.279227061579
 31
0.0
  0
LINE
  5
D9F5
330
2
100
AcDbEntity
  8
L-ZISSEN
100
AcDbLine
 10
48.04577812118565
 20
-3670.654227061579
 30
0.0
 11
48.04577812118565
 21
-3669.404227061578
 31
0.0
  0
LINE
  5
D9F6
330
2
100
AcDbEntity
  8
L-ZISSEN
100
AcDbLine
 10
48.04577812118565
 20
-3669.404227061578
 30
0.0
 11
44.92077812118565
 21
-3671.279227061579
 31
0.0
  0
LINE
  5
D9F7
330
2
100
AcDbEntity
  8
L-ZISSEN
100
AcDbLine
 10
44.25634498635132
 20
-3689.783337442401
 30
0.0
 11
44.25634498635132
 21
-3694.346252572624
 31
0.0
  0
LINE
  5
D9F8
330
2
100
AcDbEntity
  8
L-ZISSEN
100
AcDbLine
 10
46.79577812118565
 20
-3696.904227061578
 30
0.0
 11
46.79577812118338
 21
-3704.404227061579
 31
0.0
  0
LINE
  5
D9F9
330
2
100
AcDbEntity
  8
L-ZISSEN
100
AcDbLine
 10
38.1707781211861
 20
-3643.611124180142
 30
0.0
 11
38.1707781211861
 21
-3618.904227061578
 31
0.0
  0
LINE
  5
D9FA
330
2
100
AcDbEntity
  8
L-ZISSEN
100
AcDbLine
 10
59.92077812118792
 20
-3678.154227061578
 30
0.0
 11
56.17077812118792
 21
-3684.404227061578
 31
0.0
  0
LINE
  5
D9FB
330
2
100
AcDbEntity
  8
L-TYUSIN
100
AcDbLine
 10
53.98398455863058
 20
-3694.400681762752
 30
0.0
 11
58.17876453354243
 21
-3694.400681762752
 31
0.0
  0
LINE
  5
D9FC
330
2
100
AcDbEntity
  8
L-ZISSEN
100
AcDbLine
 10
57.42077812118792
 20
-3678.154227061578
 30
0.0
 11
59.92077812118792
 21
-3678.154227061578
 31
0.0
  0
LINE
  5
D9FE
330
2
100
AcDbEntity
  8
L-ZISSEN
100
AcDbLine
 10
57.42077812118792
 20
-3668.154227061577
 30
0.0
 11
54.92077812118792
 21
-3668.154227061577
 31
0.0
  0
LINE
  5
D9FF
330
2
100
AcDbEntity
  8
L-ZISSEN
100
AcDbLine
 10
53.04577812118565
 20
-3670.654227061579
 30
0.0
 11
53.04577812118565
 21
-3671.904227061579
 31
0.0
  0
LINE
  5
DA00
330
2
100
AcDbEntity
  8
L-ZISSEN
100
AcDbLine
 10
52.42077812118792
 20
-3678.154227061578
 30
0.0
 11
56.17077812118792
 21
-3684.404227061578
 31
0.0
  0
CIRCLE
  5
DA01
330
2
100
AcDbEntity
  8
L-ZISSEN
100
AcDbCircle
 10
56.17077812118565
 20
-3694.400681762752
 30
0.0
 40
1.25
  0
ARC
  5
DA02
330
2
100
AcDbEntity
  8
L-ZISSEN
100
AcDbCircle
 10
56.17077812118565
 20
-3700.654227061578
 30
0.0
 40
1.250000000000568
100
AcDbArc
 50
180.0
 51
0.0
  0
LINE
  5
DA03
330
2
100
AcDbEntity
  8
L-ZISSEN
100
AcDbLine
 10
54.92077812118338
 20
-3699.070893728245
 30
0.0
 11
54.92077812118565
 21
-3700.654227061578
 31
0.0
  0
LINE
  5
DA04
330
2
100
AcDbEntity
  8
L-ZISSEN
100
AcDbLine
 10
56.17077812118565
 20
-3690.654227061579
 30
0.0
 11
56.17077812118565
 21
-3691.485399318806
 31
0.0
  0
LINE
  5
DA05
330
2
100
AcDbEntity
  8
L-ZISSEN
100
AcDbLine
 10
56.17077812118565
 20
-3699.404227061579
 30
0.0
 11
56.17077812118565
 21
-3696.840610547054
 31
0.0
  0
LINE
  5
DA06
330
2
100
AcDbEntity
  8
L-ZISSEN
100
AcDbLine
 10
57.42077812118565
 20
-3699.070893728245
 30
0.0
 11
57.42077812118565
 21
-3700.654227061578
 31
0.0
  0
LINE
  5
DA07
330
2
100
AcDbEntity
  8
L-ZISSEN
100
AcDbLine
 10
54.92077812118792
 20
-3678.154227061578
 30
0.0
 11
52.42077812118792
 21
-3678.154227061578
 31
0.0
  0
LINE
  5
DA08
330
2
100
AcDbEntity
  8
L-ZISSEN
100
AcDbLine
 10
54.92077812118792
 20
-3668.154227061577
 30
0.0
 11
54.92077812118792
 21
-3678.154227061578
 31
0.0
  0
LINE
  5
DA09
330
2
100
AcDbEntity
  8
L-ZISSEN
100
AcDbLine
 10
54.92077812118792
 20
-3668.154227061577
 30
0.0
 11
54.92077812118792
 21
-3678.154227061578
 31
0.0
  0
LINE
  5
DA0A
330
2
100
AcDbEntity
  8
L-ZISSEN
100
AcDbLine
 10
57.42077812118792
 20
-3668.154227061577
 30
0.0
 11
57.42077812118792
 21
-3678.154227061578
 31
0.0
  0
LINE
  5
DA0B
330
2
100
AcDbEntity
  8
L-ZISSEN
100
AcDbLine
 10
57.42077812118792
 20
-3668.154227061577
 30
0.0
 11
57.42077812118792
 21
-3678.154227061578
 31
0.0
  0
LINE
  5
DA0C
330
2
100
AcDbEntity
  8
L-ZISSEN
100
AcDbLine
 10
64.29577812118565
 20
-3671.904227061578
 30
0.0
 11
64.29577812118565
 21
-3673.154227061578
 31
0.0
  0
LINE
  5
DA0D
330
2
100
AcDbEntity
  8
L-ZISSEN
100
AcDbLine
 10
64.29577812118565
 20
-3670.654227061578
 30
0.0
 11
64.29577812118565
 21
-3669.404227061578
 31
0.0
  0
LINE
  5
DA0E
330
2
100
AcDbEntity
  8
L-ZISSEN
100
AcDbLine
 10
59.29577812118565
 20
-3670.654227061578
 30
0.0
 11
59.29577812118565
 21
-3671.904227061578
 31
0.0
  0
LINE
  5
DA0F
330
2
100
AcDbEntity
  8
L-ZISSEN
100
AcDbLine
 10
59.29577812118565
 20
-3670.654227061578
 30
0.0
 11
64.29577812118565
 21
-3670.654227061578
 31
0.0
  0
LINE
  5
DA10
330
2
100
AcDbEntity
  8
L-ZISSEN
100
AcDbLine
 10
59.29577812118565
 20
-3670.654227061578
 30
0.0
 11
64.29577812118565
 21
-3670.654227061578
 31
0.0
  0
LINE
  5
DA11
330
2
100
AcDbEntity
  8
L-ZISSEN
100
AcDbLine
 10
59.29577812118565
 20
-3671.904227061578
 30
0.0
 11
64.29577812118565
 21
-3671.904227061578
 31
0.0
  0
LINE
  5
DA12
330
2
100
AcDbEntity
  8
L-ZISSEN
100
AcDbLine
 10
59.29577812118565
 20
-3671.904227061578
 30
0.0
 11
64.29577812118565
 21
-3671.904227061578
 31
0.0
  0
LINE
  5
DA15
330
2
100
AcDbEntity
  8
L-ZISSEN
100
AcDbLine
 10
81.45077812118584
 20
-3674.74296597321
 30
0.0
 11
73.0207781211851
 21
-3674.74296597321
 31
0.0
  0
ARC
  5
DA16
330
2
100
AcDbEntity
  8
L-ZISSEN
100
AcDbCircle
 10
68.98327812118565
 20
-3703.154227061579
 30
0.0
 40
1.249999999999715
100
AcDbArc
 50
270.0
 51
0.0
  0
LINE
  5
DA17
330
2
100
AcDbEntity
  8
L-ZISSEN
100
AcDbLine
 10
68.08521125601997
 20
-3689.783337442401
 30
0.0
 11
68.08521125601997
 21
-3694.346252572624
 31
0.0
  0
LINE
  5
DA18
330
2
100
AcDbEntity
  8
L-ZISSEN
100
AcDbLine
 10
68.08521125601997
 20
-3688.952165185174
 30
0.0
 11
69.29577812118338
 21
-3688.779227061579
 31
0.0
  0
LINE
  5
DA19
330
2
100
AcDbEntity
  8
L-ZISSEN
100
AcDbLine
 10
68.08521125601997
 20
-3689.783337442401
 30
0.0
 11
69.29577812118338
 21
-3688.779227061579
 31
0.0
  0
LINE
  5
DA1A
330
2
100
AcDbEntity
  8
L-ZISSEN
100
AcDbLine
 10
70.23327812118338
 20
-3695.654227061579
 30
0.0
 11
68.08521125601997
 21
-3694.346252572624
 31
0.0
  0
LINE
  5
DA1B
330
2
100
AcDbEntity
  8
L-ZISSEN
100
AcDbLine
 10
65.54577812118338
 20
-3696.904227061579
 30
0.0
 11
65.54577812118338
 21
-3704.404227061579
 31
0.0
  0
LINE
  5
DA1C
330
2
100
AcDbEntity
  8
L-ZISSEN
100
AcDbLine
 10
70.23327812118338
 20
-3664.404227061579
 30
0.0
 11
70.23327812118338
 21
-3688.193502428712
 31
0.0
  0
LINE
  5
DA1D
330
2
100
AcDbEntity
  8
L-ZISSEN
100
AcDbLine
 10
69.29577812118338
 20
-3664.404227061579
 30
0.0
 11
69.29577812118338
 21
-3688.779227061579
 31
0.0
  0
LINE
  5
DA1E
330
2
100
AcDbEntity
  8
L-ZISSEN
100
AcDbLine
 10
70.23327812118338
 20
-3664.404227061579
 30
0.0
 11
70.23327812118338
 21
-3703.154227061579
 31
0.0
  0
LINE
  5
DA1F
330
2
100
AcDbEntity
  8
L-ZISSEN
100
AcDbLine
 10
76.67077812118519
 20
-3619.704227061577
 30
0.0
 11
76.67077812118519
 21
-3618.904227061578
 31
0.0
  0
LINE
  5
DA20
330
2
100
AcDbEntity
  8
L-ZISSEN
100
AcDbLine
 10
74.17077812118519
 20
-3643.611124180142
 30
0.0
 11
74.17077812118519
 21
-3618.904227061578
 31
0.0
  0
LINE
  5
DA21
330
2
100
AcDbEntity
  8
L-ZISSEN
100
AcDbLine
 10
87.67077812118428
 20
-3664.404227061579
 30
0.0
 11
87.67077812118428
 21
-3643.611124180142
 31
0.0
  0
LINE
  5
DA22
330
2
100
AcDbEntity
  8
L-ZISSEN
100
AcDbLine
 10
91.17077812118564
 20
-3648.904227061578
 30
0.0
 11
91.17077812118564
 21
-3643.611124180142
 31
0.0
  0
LINE
  5
DA23
330
2
100
AcDbEntity
  8
L-ZISSEN
100
AcDbLine
 10
83.67077812118564
 20
-3664.404227061579
 30
0.0
 11
83.67077812118564
 21
-3643.611124180141
 31
0.0
  0
LINE
  5
DA24
330
2
100
AcDbEntity
  8
L-ZISSEN
100
AcDbLine
 10
91.17077812118564
 20
-3664.404227061579
 30
0.0
 11
91.17077812118564
 21
-3652.404227061579
 31
0.0
  0
LINE
  5
DA26
330
2
100
AcDbEntity
  8
L-ZISSEN
100
AcDbLine
 10
91.17077812118564
 20
-3652.404227061579
 30
0.0
 11
88.62967830932154
 21
-3652.404227061579
 31
0.0
  0
LINE
  5
DA27
330
2
100
AcDbEntity
  8
L-ZISSEN
100
AcDbLine
 10
88.62967830932154
 20
-3652.404227061579
 30
0.0
 11
88.62967830932154
 21
-3648.904227061578
 31
0.0
  0
LINE
  5
DA2C
330
2
100
AcDbEntity
  8
L-ZISSEN
100
AcDbLine
 10
86.14079990783226
 20
-3615.404227061579
 30
0.0
 11
86.14079990783226
 21
-3619.704227061577
 31
0.0
  0
LINE
  5
DA2D
330
2
100
AcDbEntity
  8
L-ZISSEN
100
AcDbLine
 10
87.67077812118564
 20
-3619.404227061579
 30
0.0
 11
87.67077812118564
 21
-3619.704227061577
 31
0.0
  0
LINE
  5
DA2E
330
2
100
AcDbEntity
  8
L-ZISSEN
100
AcDbLine
 10
91.17077812118564
 20
-3619.404227061579
 30
0.0
 11
87.67077812118564
 21
-3619.404227061579
 31
0.0
  0
LINE
  5
DA2F
330
2
100
AcDbEntity
  8
L-ZISSEN
100
AcDbLine
 10
87.67077812118564
 20
-3619.404227061579
 30
0.0
 11
86.14079990783226
 21
-3615.404227061579
 31
0.0
  0
ARC
  5
DEF8
330
2
100
AcDbEntity
  8
L-ZISSEN
100
AcDbCircle
 10
117.7313679854049
 20
-3693.004227061581
 30
0.0
 40
2.299999999999999
100
AcDbArc
 50
90.0
 51
180.8959352773338
  0
ARC
  5
DEFA
330
2
100
AcDbEntity
  8
L-ZISSEN
100
AcDbCircle
 10
162.6101882569733
 20
-3693.004227061581
 30
0.0
 40
2.299999999999999
100
AcDbArc
 50
359.1040647226662
 51
90.0
  0
LINE
  5
DEFB
330
2
100
AcDbEntity
  8
L-TYUSIN
100
AcDbLine
 10
140.1707781211857
 20
-3589.704227061582
 30
0.0
 11
140.1707781211854
 21
-3747.704227061582
 31
0.0
  0
LINE
  5
DEFC
330
2
100
AcDbEntity
  8
L-ZISSEN
100
AcDbLine
 10
118.9575746855889
 20
-3668.704227061581
 30
0.0
 11
161.3839815567819
 21
-3668.704227061581
 31
0.0
  0
LINE
  5
DEFD
330
2
100
AcDbEntity
  8
L-ZISSEN
100
AcDbLine
 10
118.9575746855889
 20
-3674.704227061581
 30
0.0
 11
161.3839815567819
 21
-3674.704227061581
 31
0.0
  0
LINE
  5
DEFE
330
2
100
AcDbEntity
  8
L-ZISSEN
100
AcDbLine
 10
161.6707781211854
 20
-3688.704227061581
 30
0.0
 11
118.6707781211836
 21
-3688.704227061581
 31
0.0
  0
LINE
  5
DEFF
330
2
100
AcDbEntity
  8
L-ZISSEN
100
AcDbLine
 10
162.6101882569733
 20
-3690.704227061582
 30
0.0
 11
117.7313679854048
 21
-3690.704227061582
 31
0.0
  0
CIRCLE
  5
DF00
330
2
100
AcDbEntity
  8
L-SOUZOU
100
AcDbCircle
 10
140.1707781211854
 20
-3631.704227061578
 30
0.0
 40
21.0
  0
CIRCLE
  5
DF01
330
2
100
AcDbEntity
  8
L-SOUZOU
100
AcDbCircle
 10
140.1707781211854
 20
-3631.704227061578
 30
0.0
 40
18.0
  0
LINE
  5
DF02
330
2
100
AcDbEntity
  8
L-ZISSEN
100
AcDbLine
 10
119.6707781211818
 20
-3619.704227061577
 30
0.0
 11
140.1707781211855
 21
-3619.704227061577
 31
0.0
  0
ARC
  5
DF05
330
2
100
AcDbEntity
  8
L-ZISSEN
100
AcDbCircle
 10
118.957574685589
 20
-3640.572272444094
 30
0.0
 40
34.1319546174875
100
AcDbArc
 50
255.0820176392774
 51
284.9179823607225
  0
ARC
  5
DF06
330
2
100
AcDbEntity
  8
L-ZISSEN
100
AcDbCircle
 10
118.957574685589
 20
-3702.836181679069
 30
0.0
 40
34.1319546174875
100
AcDbArc
 50
75.08201763927742
 51
104.9179823607225
  0
LINE
  5
DF07
330
2
100
AcDbEntity
  8
L-ZISSEN
100
AcDbLine
 10
116.6707781211855
 20
-3600.704227061577
 30
0.0
 11
163.6707781211837
 21
-3600.704227061577
 31
0.0
  0
LINE
  5
DF09
330
2
100
AcDbEntity
  8
L-ZISSEN
100
AcDbLine
 10
165.1707781211854
 20
-3605.704227061581
 30
0.0
 11
115.1707781211854
 21
-3605.704227061581
 31
0.0
  0
LINE
  5
DF0B
330
2
100
AcDbEntity
  8
L-ZISSEN
100
AcDbLine
 10
105.1707781211854
 20
-3654.704227061582
 30
0.0
 11
175.1707781211854
 21
-3654.704227061582
 31
0.0
  0
LINE
  5
DF0D
330
2
100
AcDbEntity
  8
L-ZISSEN
100
AcDbLine
 10
108.6707781211836
 20
-3643.611124180142
 30
0.0
 11
171.644795921717
 21
-3643.611124180141
 31
0.0
  0
LINE
  5
DF0E
330
2
100
AcDbEntity
  8
L-ZISSEN
100
AcDbLine
 10
105.1707781211854
 20
-3666.704227061581
 30
0.0
 11
175.1707781211855
 21
-3666.704227061581
 31
0.0
  0
LINE
  5
DF0F
330
2
100
AcDbEntity
  8
L-ZISSEN
100
AcDbLine
 10
164.48211939438
 20
-3678.704227061578
 30
0.0
 11
115.8594368479909
 21
-3678.704227061578
 31
0.0
  0
LINE
  5
DF15
330
2
100
AcDbEntity
  8
L-ZISSEN
100
AcDbLine
 10
160.6707781211818
 20
-3619.704227061577
 30
0.0
 11
140.1707781211855
 21
-3619.704227061577
 31
0.0
  0
ARC
  5
DF16
330
2
100
AcDbEntity
  8
L-ZISSEN
100
AcDbCircle
 10
161.3839815567819
 20
-3702.836181679069
 30
0.0
 40
34.1319546174875
100
AcDbArc
 50
75.08201763927742
 51
104.9179823607225
  0
ARC
  5
DF17
330
2
100
AcDbEntity
  8
L-ZISSEN
100
AcDbCircle
 10
161.3839815567819
 20
-3640.572272444094
 30
0.0
 40
34.1319546174875
100
AcDbArc
 50
255.0820176392774
 51
284.9179823607225
  0
ARC
  5
DF1A
330
2
100
AcDbEntity
  8
L-ZISSEN
100
AcDbCircle
 10
169.4659668947672
 20
-3662.078040673466
 30
0.0
 40
2.715501624969247
100
AcDbArc
 50
174.9022474682887
 51
271.2432652078082
  0
LINE
  5
DF1B
330
2
100
AcDbEntity
  8
L-ZISSEN
100
AcDbLine
 10
165.0939037041181
 20
-3660.693620253771
 30
0.0
 11
175.1707781211854
 21
-3660.693620253771
 31
0.0
  0
LINE
  5
DF1C
330
2
100
AcDbEntity
  8
L-ZISSEN
100
AcDbLine
 10
166.7612062963918
 20
-3660.693620253771
 30
0.0
 11
173.5034755289117
 21
-3660.693620253771
 31
0.0
  0
LINE
  5
DF1D
330
2
100
AcDbEntity
  8
L-ZISSEN
100
AcDbLine
 10
173.5034755289117
 20
-3661.836754161874
 30
0.0
 11
166.7612062963918
 21
-3661.836754161873
 31
0.0
  0
LINE
  5
DF1E
330
2
100
AcDbEntity
  8
L-ZISSEN
100
AcDbLine
 10
174.6707781211855
 20
-3613.204227061575
 30
0.0
 11
161.7275747647499
 21
-3613.204227061574
 31
0.0
  0
LINE
  5
DF1F
330
2
100
AcDbEntity
  8
L-ZISSEN
100
AcDbLine
 10
170.1707781211855
 20
-3615.212887794733
 30
0.0
 11
160.6491262882898
 21
-3615.212887794732
 31
0.0
  0
LINE
  5
DF21
330
2
100
AcDbEntity
  8
L-ZISSEN
100
AcDbLine
 10
175.1707781211853
 20
-3648.904227061577
 30
0.0
 11
175.1707781211853
 21
-3643.611124180142
 31
0.0
  0
LINE
  5
DF22
330
2
100
AcDbEntity
  8
L-ZISSEN
100
AcDbLine
 10
171.6447959217171
 20
-3618.204227061576
 30
0.0
 11
171.6447959217171
 21
-3619.704227061577
 31
0.0
  0
LINE
  5
DF23
330
2
100
AcDbEntity
  8
L-ZISSEN
100
AcDbLine
 10
170.1707781211855
 20
-3615.212887794732
 30
0.0
 11
170.1707781211855
 21
-3619.704227061577
 31
0.0
  0
ARC
  5
DF27
330
2
100
AcDbEntity
  8
L-ZISSEN
100
AcDbCircle
 10
174.6707781211855
 20
-3613.704227061575
 30
0.0
 40
0.5000000000001137
100
AcDbArc
 50
0.0
 51
90.0
  0
LINE
  5
DF2A
330
2
100
AcDbEntity
  8
L-ZISSEN
100
AcDbLine
 10
175.1707781211854
 20
-3652.404227061577
 30
0.0
 11
172.6167548577369
 21
-3652.404227061578
 31
0.0
  0
LINE
  5
DF2D
330
2
100
AcDbEntity
  8
L-ZISSEN
100
AcDbLine
 10
175.1707781211855
 20
-3666.704227061581
 30
0.0
 11
175.1707781211854
 21
-3652.404227061577
 31
0.0
  0
LINE
  5
DF2E
330
2
100
AcDbEntity
  8
L-ZISSEN
100
AcDbLine
 10
170.1707781211854
 20
-3673.553820802927
 30
0.0
 11
170.1707781211854
 21
-3669.854633320236
 31
0.0
  0
LINE
  5
DF30
330
2
100
AcDbEntity
  8
L-ZISSEN
100
AcDbLine
 10
169.5248861343472
 20
-3664.792903026958
 30
0.0
 11
169.5248861343472
 21
-3663.807889294989
 31
0.0
  0
LINE
  5
DF31
330
2
100
AcDbEntity
  8
L-ZISSEN
100
AcDbLine
 10
173.5034755289117
 20
-3660.693620253771
 30
0.0
 11
173.5034755289117
 21
-3661.836754161874
 31
0.0
  0
LINE
  5
DF32
330
2
100
AcDbEntity
  8
L-ZISSEN
100
AcDbLine
 10
170.7397956909564
 20
-3663.807889294989
 30
0.0
 11
170.7397956909564
 21
-3664.792903026958
 31
0.0
  0
ARC
  5
DF33
330
2
100
AcDbEntity
  8
L-ZISSEN
100
AcDbCircle
 10
170.7987149305347
 20
-3662.078040673466
 30
0.0
 40
2.715501624969762
100
AcDbArc
 50
268.7567347921917
 51
5.097752531711163
  0
LINE
  5
DF34
330
2
100
AcDbEntity
  8
L-ZISSEN
100
AcDbLine
 10
169.5248861343472
 20
-3663.807889294989
 30
0.0
 11
170.7397956909564
 21
-3663.807889294989
 31
0.0
  0
LINE
  5
DF35
330
2
100
AcDbEntity
  8
L-ZISSEN
100
AcDbLine
 10
172.6167548577369
 20
-3652.404227061577
 30
0.0
 11
172.6167548577369
 21
-3648.904227061577
 31
0.0
  0
LINE
  5
DF36
330
2
100
AcDbEntity
  8
L-ZISSEN
100
AcDbLine
 10
171.6707781211854
 20
-3654.704227061582
 30
0.0
 11
171.6707781211854
 21
-3643.611124180142
 31
0.0
  0
LINE
  5
DF37
330
2
100
AcDbEntity
  8
L-ZISSEN
100
AcDbLine
 10
167.6707781211854
 20
-3643.611124180141
 30
0.0
 11
167.6707781211854
 21
-3654.704227061582
 31
0.0
  0
LINE
  5
DF38
330
2
100
AcDbEntity
  8
L-ZISSEN
100
AcDbLine
 10
167.6707781211854
 20
-3654.704227061582
 30
0.0
 11
167.6707781211854
 21
-3643.704227061577
 31
0.0
  0
LINE
  5
DF39
330
2
100
AcDbEntity
  8
L-ZISSEN
100
AcDbLine
 10
160.6707781211819
 20
-3619.704227061577
 30
0.0
 11
160.6707781211819
 21
-3615.212887794732
 31
0.0
  0
LINE
  5
DF3B
330
2
100
AcDbEntity
  8
L-ZISSEN
100
AcDbLine
 10
158.1707781211836
 20
-3643.611124180141
 30
0.0
 11
158.1707781211837
 21
-3619.704227061577
 31
0.0
  0
LINE
  5
DF3C
330
2
100
AcDbEntity
  8
L-ZISSEN
100
AcDbLine
 10
160.6491262882898
 20
-3615.212887794732
 30
0.0
 11
161.7275747647501
 21
-3613.204227061575
 31
0.0
  0
LINE
  5
DF3D
330
2
100
AcDbEntity
  8
L-ZISSEN
100
AcDbLine
 10
165.1707781211855
 20
-3613.204227061575
 30
0.0
 11
165.1707781211854
 21
-3605.704227061581
 31
0.0
  0
LINE
  5
DF3E
330
2
100
AcDbEntity
  8
L-ZISSEN
100
AcDbLine
 10
165.1707781211855
 20
-3605.704227061581
 30
0.0
 11
165.1707781211855
 21
-3602.204227061577
 31
0.0
  0
LINE
  5
DF3F
330
2
100
AcDbEntity
  8
L-ZISSEN
100
AcDbLine
 10
165.1707781211855
 20
-3602.204227061577
 30
0.0
 11
163.6707781211837
 21
-3600.704227061577
 31
0.0
  0
LINE
  5
DF40
330
2
100
AcDbEntity
  8
L-ZISSEN
100
AcDbLine
 10
161.6707781211854
 20
-3688.704227061577
 30
0.0
 11
161.6707781211854
 21
-3678.704227061578
 31
0.0
  0
LINE
  5
DF41
330
2
100
AcDbEntity
  8
L-SAISEN
100
AcDbLine
 10
164.48211939438
 20
-3678.704227061578
 30
0.0
 11
164.48211939438
 21
-3674.563328149227
 31
0.0
  0
LINE
  5
DF42
330
2
100
AcDbEntity
  8
L-ZISSEN
100
AcDbLine
 10
166.1707781211836
 20
-3677.972789202543
 30
0.0
 11
166.1707781211836
 21
-3674.366900784427
 31
0.0
  0
LINE
  5
DF43
330
2
100
AcDbEntity
  8
L-ZISSEN
100
AcDbLine
 10
164.48211939438
 20
-3678.704227061578
 30
0.0
 11
166.1707781211836
 21
-3677.972789202543
 31
0.0
  0
LINE
  5
DF44
330
2
100
AcDbEntity
  8
L-ZISSEN
100
AcDbLine
 10
166.1707781211854
 20
-3669.041553338736
 30
0.0
 11
166.1707781211854
 21
-3666.704227061581
 31
0.0
  0
LINE
  5
DF45
330
2
100
AcDbEntity
  8
L-SAISEN
100
AcDbLine
 10
164.4821193943836
 20
-3668.845125973936
 30
0.0
 11
164.4821193943836
 21
-3666.704227061581
 31
0.0
  0
LINE
  5
DF47
330
2
100
AcDbEntity
  8
L-ZISSEN
100
AcDbLine
 10
166.7612062963918
 20
-3661.836754161873
 30
0.0
 11
166.7612062963918
 21
-3660.693620253771
 31
0.0
  0
LINE
  5
DF48
330
2
100
AcDbEntity
  8
L-ZISSEN
100
AcDbLine
 10
165.0939037041182
 20
-3666.704227061581
 30
0.0
 11
165.0939037041181
 21
-3660.693620253771
 31
0.0
  0
LINE
  5
DF4A
330
2
100
AcDbEntity
  8
L-ZISSEN
100
AcDbLine
 10
160.4207781211836
 20
-3690.704227061582
 30
0.0
 11
160.4207781211836
 21
-3688.704227061577
 31
0.0
  0
ARC
  5
DF4C
330
2
100
AcDbEntity
  8
L-ZISSEN
100
AcDbCircle
 10
140.1707781211855
 20
-3736.392933167229
 30
0.0
 40
67.68870610564736
100
AcDbArc
 50
79.42154710243112
 51
100.5784528975688
  0
ARC
  5
DF4D
330
2
100
AcDbEntity
  8
L-ZISSEN
100
AcDbCircle
 10
140.1707781211855
 20
-3607.015520955934
 30
0.0
 40
67.68870610564736
100
AcDbArc
 50
259.421547102431
 51
280.5784528975689
  0
CIRCLE
  5
DF4E
330
2
100
AcDbEntity
  8
L-SOUZOU
100
AcDbCircle
 10
140.1707781211854
 20
-3631.704227061578
 30
0.0
 40
1.2
  0
ARC
  5
DF4F
330
2
100
AcDbEntity
  8
L-SOUZOU
100
AcDbCircle
 10
140.1707781211854
 20
-3631.704227061578
 30
0.0
 40
2.0
100
AcDbArc
 50
73.51949999986849
 51
200.0599999999713
  0
ARC
  5
DF50
330
2
100
AcDbEntity
  8
L-SOUZOU
100
AcDbCircle
 10
140.1707781211854
 20
-3631.704227061578
 30
0.0
 40
2.0
100
AcDbArc
 50
249.9399999997831
 51
16.48050000005477
  0
CIRCLE
  5
DF51
330
2
100
AcDbEntity
  8
L-SAISEN
100
AcDbCircle
 10
140.1707781211855
 20
-3631.704227061578
 30
0.0
 40
6.58
  0
CIRCLE
  5
DF52
330
2
100
AcDbEntity
  8
L-ZISSEN
100
AcDbCircle
 10
140.1707781211855
 20
-3631.704227061578
 30
0.0
 40
5.724999999999999
  0
LINE
  5
DF53
330
2
100
AcDbEntity
  8
L-ZISSEN
100
AcDbLine
 10
152.1707781211855
 20
-3595.704227061581
 30
0.0
 11
140.1707781211855
 21
-3595.704227061581
 31
0.0
  0
LINE
  5
DF54
330
2
100
AcDbEntity
  8
L-ZISSEN
100
AcDbLine
 10
129.1707781211836
 20
-3594.704227061582
 30
0.0
 11
151.1707781211837
 21
-3594.704227061582
 31
0.0
  0
LINE
  5
DF55
330
2
100
AcDbEntity
  8
L-SOUZOU
100
AcDbLine
 10
138.292378121181
 20
-3632.389827061578
 30
0.0
 11
128.8395781211819
 21
-3642.452227061577
 31
0.0
  0
LINE
  5
DF56
330
2
100
AcDbEntity
  8
L-SOUZOU
100
AcDbLine
 10
139.4851781211825
 20
-3633.582627061577
 30
0.0
 11
129.4227781211815
 21
-3643.035427061578
 31
0.0
  0
ARC
  5
DF57
330
2
100
AcDbEntity
  8
L-SOUZOU
100
AcDbCircle
 10
129.1315781211803
 20
-3642.726627061578
 30
0.0
 40
0.4
100
AcDbArc
 50
136.789999999893
 51
225.0000000000921
  0
ARC
  5
DF58
330
2
100
AcDbEntity
  8
L-SOUZOU
100
AcDbCircle
 10
129.1483781211808
 20
-3642.743427061577
 30
0.0
 40
0.4
100
AcDbArc
 50
225.0000000000921
 51
313.2099999998256
  0
LINE
  5
DF59
330
2
100
AcDbEntity
  8
L-SOUZOU
100
AcDbLine
 10
128.8571781211798
 20
-3643.017827061577
 30
0.0
 11
128.8659781211786
 21
-3643.026627061578
 31
0.0
  0
LINE
  5
DF5A
330
2
100
AcDbEntity
  8
L-SOUZOU
100
AcDbLine
 10
128.8571781211798
 20
-3643.017827061577
 30
0.0
 11
128.8483781211809
 21
-3643.009027061577
 31
0.0
  0
LINE
  5
DF5B
330
2
100
AcDbEntity
  8
L-ZISSEN
100
AcDbLine
 10
152.1707781211855
 20
-3595.704227061581
 30
0.0
 11
151.1707781211837
 21
-3594.704227061582
 31
0.0
  0
LINE
  5
DF5C
330
2
100
AcDbEntity
  8
L-ZISSEN
100
AcDbLine
 10
152.1707781211855
 20
-3595.704227061581
 30
0.0
 11
152.1707781211855
 21
-3600.704227061582
 31
0.0
  0
LINE
  5
DF5D
330
2
100
AcDbEntity
  8
L-ZISSEN
100
AcDbLine
 10
152.5971849923783
 20
-3673.553820802927
 30
0.0
 11
152.5971849923783
 21
-3669.854633320236
 31
0.0
  0
LINE
  5
DF5E
330
2
100
AcDbEntity
  8
L-ZISSEN
100
AcDbLine
 10
140.1707781211855
 20
-3595.704227061581
 30
0.0
 11
128.1707781211855
 21
-3595.704227061582
 31
0.0
  0
LINE
  5
DF5F
330
2
100
AcDbEntity
  8
L-ZISSEN
100
AcDbLine
 10
140.1707781211855
 20
-3594.704227061582
 30
0.0
 11
140.1707781211855
 21
-3600.704227061582
 31
0.0
  0
LINE
  5
DF60
330
2
100
AcDbEntity
  8
L-ZISSEN
100
AcDbLine
 10
129.1707781211836
 20
-3594.704227061582
 30
0.0
 11
128.1707781211855
 21
-3595.704227061582
 31
0.0
  0
LINE
  5
DF61
330
2
100
AcDbEntity
  8
L-ZISSEN
100
AcDbLine
 10
128.1707781211855
 20
-3595.704227061582
 30
0.0
 11
128.1707781211855
 21
-3600.704227061582
 31
0.0
  0
LINE
  5
DF62
330
2
100
AcDbEntity
  8
L-SOUZOU
100
AcDbLine
 10
146.110778121182
 20
-3624.067427061577
 30
0.0
 11
147.8075781211813
 21
-3625.764227061577
 31
0.0
  0
LINE
  5
DF63
330
2
100
AcDbEntity
  8
L-SOUZOU
100
AcDbLine
 10
147.8075781211813
 20
-3625.764227061577
 30
0.0
 11
142.0883781211831
 21
-3631.137027061577
 31
0.0
  0
LINE
  5
DF64
330
2
100
AcDbEntity
  8
L-SOUZOU
100
AcDbLine
 10
146.110778121182
 20
-3624.067427061577
 30
0.0
 11
140.7379781211816
 21
-3629.786627061577
 31
0.0
  0
LINE
  5
DF65
330
2
100
AcDbEntity
  8
L-ZISSEN
100
AcDbLine
 10
127.7443712499926
 20
-3673.553820802927
 30
0.0
 11
127.7443712499926
 21
-3669.854633320236
 31
0.0
  0
ARC
  5
DF68
330
2
100
AcDbEntity
  8
L-ZISSEN
100
AcDbCircle
 10
110.875589347602
 20
-3662.078040673466
 30
0.0
 40
2.715501624970328
100
AcDbArc
 50
268.7567347921917
 51
5.097752531711163
  0
LINE
  5
DF6C
330
2
100
AcDbEntity
  8
L-ZISSEN
100
AcDbLine
 10
115.2476525382509
 20
-3660.693620253771
 30
0.0
 11
105.1707781211854
 21
-3660.693620253771
 31
0.0
  0
LINE
  5
DF6D
330
2
100
AcDbEntity
  8
L-ZISSEN
100
AcDbLine
 10
106.8380807134573
 20
-3660.693620253771
 30
0.0
 11
113.5803499459808
 21
-3660.693620253771
 31
0.0
  0
LINE
  5
DF6E
330
2
100
AcDbEntity
  8
L-ZISSEN
100
AcDbLine
 10
113.5803499459808
 20
-3661.836754161874
 30
0.0
 11
106.8380807134573
 21
-3661.836754161873
 31
0.0
  0
LINE
  5
DF6F
330
2
100
AcDbEntity
  8
L-ZISSEN
100
AcDbLine
 10
122.1707781211818
 20
-3643.611124180142
 30
0.0
 11
122.1707781211818
 21
-3619.704227061577
 31
0.0
  0
LINE
  5
DF70
330
2
100
AcDbEntity
  8
L-ZISSEN
100
AcDbLine
 10
119.6707781211818
 20
-3619.704227061577
 30
0.0
 11
119.6707781211818
 21
-3615.212887794732
 31
0.0
  0
LINE
  5
DF71
330
2
100
AcDbEntity
  8
L-ZISSEN
100
AcDbLine
 10
115.1707781211855
 20
-3605.704227061581
 30
0.0
 11
115.1707781211855
 21
-3613.204227061575
 31
0.0
  0
LINE
  5
DF73
330
2
100
AcDbEntity
  8
L-ZISSEN
100
AcDbLine
 10
116.6707781211855
 20
-3600.704227061577
 30
0.0
 11
115.1707781211855
 21
-3602.204227061577
 31
0.0
  0
LINE
  5
DF74
330
2
100
AcDbEntity
  8
L-ZISSEN
100
AcDbLine
 10
115.1707781211855
 20
-3602.204227061577
 30
0.0
 11
115.1707781211855
 21
-3605.704227061581
 31
0.0
  0
LINE
  5
DF75
330
2
100
AcDbEntity
  8
L-ZISSEN
100
AcDbLine
 10
119.9207781211837
 20
-3690.704227061582
 30
0.0
 11
119.9207781211836
 21
-3688.704227061577
 31
0.0
  0
LINE
  5
DF76
330
2
100
AcDbEntity
  8
L-ZISSEN
100
AcDbLine
 10
123.0109280147345
 20
-3643.611124180142
 30
0.0
 11
123.0109280147345
 21
-3654.063709579743
 31
0.0
  0
LINE
  5
DF77
330
2
100
AcDbEntity
  8
L-SAISEN
100
AcDbLine
 10
115.8594368479909
 20
-3678.704227061578
 30
0.0
 11
115.859436847991
 21
-3674.563328149227
 31
0.0
  0
LINE
  5
DF78
330
2
100
AcDbEntity
  8
L-ZISSEN
100
AcDbLine
 10
114.1707781211854
 20
-3677.972789202543
 30
0.0
 11
114.1707781211854
 21
-3674.366900784427
 31
0.0
  0
LINE
  5
DF79
330
2
100
AcDbEntity
  8
L-ZISSEN
100
AcDbLine
 10
115.8594368479909
 20
-3678.704227061578
 30
0.0
 11
114.1707781211854
 21
-3677.972789202543
 31
0.0
  0
LINE
  5
DF7A
330
2
100
AcDbEntity
  8
L-SAISEN
100
AcDbLine
 10
115.8594368479872
 20
-3668.845125973936
 30
0.0
 11
115.8594368479872
 21
-3666.704227061581
 31
0.0
  0
LINE
  5
DF7B
330
2
100
AcDbEntity
  8
L-ZISSEN
100
AcDbLine
 10
114.1707781211854
 20
-3669.041553338736
 30
0.0
 11
114.1707781211854
 21
-3666.704227061581
 31
0.0
  0
LINE
  5
DF7E
330
2
100
AcDbEntity
  8
L-ZISSEN
100
AcDbLine
 10
118.6707781211836
 20
-3688.704227061577
 30
0.0
 11
118.6707781211836
 21
-3678.704227061578
 31
0.0
  0
LINE
  5
DF7F
330
2
100
AcDbEntity
  8
L-ZISSEN
100
AcDbLine
 10
113.5803499459808
 20
-3660.693620253771
 30
0.0
 11
113.5803499459808
 21
-3661.836754161874
 31
0.0
  0
LINE
  5
DF80
330
2
100
AcDbEntity
  8
L-ZISSEN
100
AcDbLine
 10
115.2476525382509
 20
-3666.704227061581
 30
0.0
 11
115.2476525382509
 21
-3660.693620253771
 31
0.0
  0
ARC
  5
DF87
330
2
100
AcDbEntity
  8
L-ZISSEN
100
AcDbCircle
 10
109.5428413118363
 20
-3662.078040673466
 30
0.0
 40
2.715501624969247
100
AcDbArc
 50
174.9022474682887
 51
271.2432652078082
  0
LINE
  5
DF8A
330
2
100
AcDbEntity
  8
L-ZISSEN
100
AcDbLine
 10
110.1707781211854
 20
-3673.553820802927
 30
0.0
 11
110.1707781211854
 21
-3669.854633320236
 31
0.0
  0
LINE
  5
DF8B
330
2
100
AcDbEntity
  8
L-ZISSEN
100
AcDbLine
 10
106.8380807134573
 20
-3661.836754161873
 30
0.0
 11
106.8380807134573
 21
-3660.693620253771
 31
0.0
  0
LINE
  5
DF8C
330
2
100
AcDbEntity
  8
L-ZISSEN
100
AcDbLine
 10
109.6017605514145
 20
-3664.792903026958
 30
0.0
 11
109.6017605514145
 21
-3663.807889294989
 31
0.0
  0
LINE
  5
DF8D
330
2
100
AcDbEntity
  8
L-ZISSEN
100
AcDbLine
 10
108.6707781211836
 20
-3654.704227061582
 30
0.0
 11
108.6707781211836
 21
-3643.611124180142
 31
0.0
  0
LINE
  5
DF8F
330
2
100
AcDbEntity
  8
L-ZISSEN
100
AcDbLine
 10
110.8166701080218
 20
-3663.807889294989
 30
0.0
 11
110.8166701080218
 21
-3664.792903026958
 31
0.0
  0
LINE
  5
DF90
330
2
100
AcDbEntity
  8
L-ZISSEN
100
AcDbLine
 10
112.6707781211854
 20
-3654.704227061582
 30
0.0
 11
112.6707781211854
 21
-3643.611124180142
 31
0.0
  0
LINE
  5
DF92
330
2
100
AcDbEntity
  8
L-ZISSEN
100
AcDbLine
 10
109.6017605514145
 20
-3663.807889294989
 30
0.0
 11
110.8166701080218
 21
-3663.807889294989
 31
0.0
  0
LINE
  5
DF93
330
2
100
AcDbEntity
  8
L-ZISSEN
100
AcDbLine
 10
105.1707781211854
 20
-3660.693620253771
 30
0.0
 11
105.1707781211854
 21
-3665.704227061577
 31
0.0
  0
LINE
  5
DF94
330
2
100
AcDbEntity
  8
L-ZISSEN
100
AcDbLine
 10
105.1707781211854
 20
-3652.404227061577
 30
0.0
 11
105.1707781211854
 21
-3655.704227061576
 31
0.0
  0
LINE
  5
DF95
330
2
100
AcDbEntity
  8
L-ZISSEN
100
AcDbLine
 10
105.1707781211854
 20
-3666.704227061581
 30
0.0
 11
105.1707781211854
 21
-3655.704227061576
 31
0.0
  0
LINE
  5
DF96
330
2
100
AcDbEntity
  8
L-ZISSEN
100
AcDbLine
 10
118.1707781211854
 20
-3742.704227061581
 30
0.0
 11
162.1707781211872
 21
-3742.704227061581
 31
0.0
  0
LINE
  5
DF99
330
2
100
AcDbEntity
  8
L-ZISSEN
100
AcDbLine
 10
164.170778121189
 20
-3740.304227061581
 30
0.0
 11
162.1707781211872
 21
-3742.704227061581
 31
0.0
  0
LINE
  5
DF9A
330
2
100
AcDbEntity
  8
L-ZISSEN
100
AcDbLine
 10
164.170778121189
 20
-3740.304227061581
 30
0.0
 11
164.9099070688322
 21
-3693.040190743012
 31
0.0
  0
LINE
  5
DF9C
330
2
100
AcDbEntity
  8
L-ZISSEN
100
AcDbLine
 10
116.170778121189
 20
-3740.304227061581
 30
0.0
 11
118.1707781211854
 21
-3742.704227061581
 31
0.0
  0
LINE
  5
DF9D
330
2
100
AcDbEntity
  8
L-ZISSEN
100
AcDbLine
 10
116.170778121189
 20
-3740.304227061581
 30
0.0
 11
115.4316491735459
 21
-3693.040190743012
 31
0.0
  0
LINE
  5
DFAB
330
2
100
AcDbEntity
  8
L-ZISSEN
100
AcDbLine
 10
191.1707781211856
 20
-3609.904227061577
 30
0.0
 11
173.1707781211856
 21
-3609.904227061577
 31
0.0
  0
CIRCLE
  5
DFAC
330
2
100
AcDbEntity
  8
L-ZISSEN
100
AcDbCircle
 10
182.1707781211854
 20
-3631.704227061578
 30
0.0
 40
6.5
  0
LINE
  5
DFAD
330
2
100
AcDbEntity
  8
L-ZISSEN
100
AcDbLine
 10
191.1707781211856
 20
-3651.904227061578
 30
0.0
 11
173.1707781211856
 21
-3651.904227061578
 31
0.0
  0
LINE
  5
DFB1
330
2
100
AcDbEntity
  8
L-ZISSEN
100
AcDbLine
 10
172.6707781211857
 20
-3648.904227061577
 30
0.0
 11
173.1707781211856
 21
-3651.904227061578
 31
0.0
  0
LINE
  5
DFB3
330
2
100
AcDbEntity
  8
L-ZISSEN
100
AcDbLine
 10
172.6707781211857
 20
-3612.904227061577
 30
0.0
 11
173.1707781211856
 21
-3609.904227061577
 31
0.0
  0
LINE
  5
DFB4
330
2
100
AcDbEntity
  8
L-ZISSEN
100
AcDbLine
 10
172.6707781211856
 20
-3612.904227061576
 30
0.0
 11
191.6707781211856
 21
-3612.904227061577
 31
0.0
  0
LINE
  5
DFB5
330
2
100
AcDbEntity
  8
L-ZISSEN
100
AcDbLine
 10
172.6167548577369
 20
-3648.904227061577
 30
0.0
 11
191.6707781211856
 21
-3648.904227061577
 31
0.0
  0
CIRCLE
  5
DFB8
330
2
100
AcDbEntity
  8
L-ZISSEN
100
AcDbCircle
 10
182.1707781211854
 20
-3631.704227061578
 30
0.0
 40
3.0
  0
CIRCLE
  5
DFB9
330
2
100
AcDbEntity
  8
L-ZISSEN
100
AcDbCircle
 10
182.1707781211854
 20
-3631.704227061578
 30
0.0
 40
3.0
  0
CIRCLE
  5
DFBA
330
2
100
AcDbEntity
  8
L-ZISSEN
100
AcDbCircle
 10
182.1707781211854
 20
-3631.704227061578
 30
0.0
 40
3.299999999999999
  0
LINE
  5
DFBD
330
2
100
AcDbEntity
  8
L-ZISSEN
100
AcDbLine
 10
191.6707781211856
 20
-3648.904227061577
 30
0.0
 11
191.1707781211856
 21
-3651.904227061578
 31
0.0
  0
LINE
  5
DFBE
330
2
100
AcDbEntity
  8
L-ZISSEN
100
AcDbLine
 10
191.6707781211856
 20
-3612.904227061577
 30
0.0
 11
191.1707781211856
 21
-3609.904227061577
 31
0.0
  0
LINE
  5
E243
330
2
100
AcDbEntity
  8
L-ZISSEN
100
AcDbLine
 10
222.9207781211878
 20
-3668.954227061575
 30
0.0
 11
222.9207781211878
 21
-3678.954227061575
 31
0.0
  0
LINE
  5
E244
330
2
100
AcDbEntity
  8
L-ZISSEN
100
AcDbLine
 10
222.9207781211878
 20
-3668.954227061575
 30
0.0
 11
222.9207781211878
 21
-3678.954227061575
 31
0.0
  0
LINE
  5
E245
330
2
100
AcDbEntity
  8
L-ZISSEN
100
AcDbLine
 10
225.4207781211878
 20
-3668.954227061575
 30
0.0
 11
225.4207781211878
 21
-3678.954227061575
 31
0.0
  0
LINE
  5
E246
330
2
100
AcDbEntity
  8
L-ZISSEN
100
AcDbLine
 10
225.4207781211878
 20
-3668.954227061575
 30
0.0
 11
225.4207781211878
 21
-3678.954227061575
 31
0.0
  0
LINE
  5
E247
330
2
100
AcDbEntity
  8
L-ZISSEN
100
AcDbLine
 10
238.2332781211832
 20
-3665.204227061576
 30
0.0
 11
238.2332781211832
 21
-3688.993502428709
 31
0.0
  0
LINE
  5
E248
330
2
100
AcDbEntity
  8
L-ZISSEN
100
AcDbLine
 10
237.2957781211832
 20
-3665.204227061576
 30
0.0
 11
237.2957781211832
 21
-3689.579227061576
 31
0.0
  0
LINE
  5
E249
330
2
100
AcDbEntity
  8
L-ZISSEN
100
AcDbLine
 10
238.2332781211832
 20
-3665.204227061576
 30
0.0
 11
238.2332781211832
 21
-3703.954227061577
 31
0.0
  0
LINE
  5
E24A
330
2
100
AcDbEntity
  8
L-ZISSEN
100
AcDbLine
 10
211.0457781211832
 20
-3665.204227061576
 30
0.0
 11
211.0457781211832
 21
-3689.579227061576
 31
0.0
  0
LINE
  5
E24B
330
2
100
AcDbEntity
  8
L-ZISSEN
100
AcDbLine
 10
210.1082781211832
 20
-3665.204227061576
 30
0.0
 11
210.1082781211832
 21
-3688.993502428709
 31
0.0
  0
LINE
  5
E24C
330
2
100
AcDbEntity
  8
L-ZISSEN
100
AcDbLine
 10
210.1082781211832
 20
-3665.204227061576
 30
0.0
 11
210.1082781211832
 21
-3703.954227061577
 31
0.0
  0
LINE
  5
E24D
330
2
100
AcDbEntity
  8
L-ZISSEN
100
AcDbLine
 10
207.3207781211861
 20
-3675.542965973208
 30
0.0
 11
207.3207781211861
 21
-3743.542965973208
 31
0.0
  0
LINE
  5
E24E
330
2
100
AcDbEntity
  8
L-ZISSEN
100
AcDbLine
 10
198.8907781211853
 20
-3675.542965973208
 30
0.0
 11
198.8907781211853
 21
-3743.542965973207
 31
0.0
  0
LINE
  5
E24F
330
2
100
AcDbEntity
  8
L-ZISSEN
100
AcDbLine
 10
194.1707781211855
 20
-3751.607911105564
 30
0.0
 11
194.1707781211855
 21
-3665.204227061576
 31
0.0
  0
LINE
  5
E250
330
2
100
AcDbEntity
  8
L-ZISSEN
100
AcDbLine
 10
249.4507781211857
 20
-3675.542965973208
 30
0.0
 11
249.4507781211857
 21
-3743.542965973207
 31
0.0
  0
LINE
  5
E251
330
2
100
AcDbEntity
  8
L-ZISSEN
100
AcDbLine
 10
241.020778121185
 20
-3675.542965973208
 30
0.0
 11
241.020778121185
 21
-3743.542965973208
 31
0.0
  0
LINE
  5
E252
330
2
100
AcDbEntity
  8
L-ZISSEN
100
AcDbLine
 10
254.1707781211832
 20
-3751.607911105565
 30
0.0
 11
254.1707781211855
 21
-3665.204227061575
 31
0.0
  0
LINE
  5
E253
330
2
100
AcDbEntity
  8
L-TYUSIN
100
AcDbLine
 10
224.1707781211855
 20
-3774.704227449372
 30
0.0
 11
224.1707781211857
 21
-3584.948268115825
 31
0.0
  0
LINE
  5
E254
330
2
100
AcDbEntity
  8
L-ZISSEN
100
AcDbLine
 10
241.020778121185
 20
-3743.542965973208
 30
0.0
 11
245.2357781211865
 21
-3745.542965973207
 31
0.0
  0
ARC
  5
E255
330
2
100
AcDbEntity
  8
L-ZISSEN
100
AcDbCircle
 10
224.1707781211869
 20
-3662.751515980093
 30
0.0
 40
99.53938471878553
100
AcDbArc
 50
275.3320776948647
 51
283.9062370650525
  0
LINE
  5
E256
330
2
100
AcDbEntity
  8
L-ZISSEN
100
AcDbLine
 10
211.3582781211855
 20
-3705.204227061576
 30
0.0
 11
236.9832781211855
 21
-3705.204227061576
 31
0.0
  0
LINE
  5
E257
330
2
100
AcDbEntity
  8
L-ZISSEN
100
AcDbLine
 10
224.1707781211855
 20
-3692.285399318803
 30
0.0
 11
212.2563449863512
 21
-3690.583337442399
 31
0.0
  0
LINE
  5
E258
330
2
100
AcDbEntity
  8
L-ZISSEN
100
AcDbLine
 10
212.2563449863512
 20
-3695.146252572621
 30
0.0
 11
224.1707781211855
 21
-3697.640610547051
 31
0.0
  0
LINE
  5
E259
330
2
100
AcDbEntity
  8
L-ZISSEN
100
AcDbLine
 10
224.1707781211855
 20
-3691.454227061576
 30
0.0
 11
211.0457781211832
 21
-3689.579227061576
 31
0.0
  0
LINE
  5
E25A
330
2
100
AcDbEntity
  8
L-ZISSEN
100
AcDbLine
 10
224.1707781211855
 20
-3700.204227061576
 30
0.0
 11
210.1082781211832
 21
-3696.454227061576
 31
0.0
  0
LINE
  5
E25B
330
2
100
AcDbEntity
  8
L-ZISSEN
100
AcDbLine
 10
233.4207781211912
 20
-3761.860176601627
 30
0.0
 11
214.9207781211791
 21
-3761.860176601627
 31
0.0
  0
LINE
  5
E25C
330
2
100
AcDbEntity
  8
L-ZISSEN
100
AcDbLine
 10
233.1707781211878
 20
-3769.704227449372
 30
0.0
 11
215.170778121186
 21
-3769.704227449372
 31
0.0
  0
LINE
  5
E25D
330
2
100
AcDbEntity
  8
L-ZISSEN
100
AcDbLine
 10
203.1057781211845
 20
-3745.542965973207
 30
0.0
 11
198.8907781211853
 21
-3743.542965973207
 31
0.0
  0
ARC
  5
E25E
330
2
100
AcDbEntity
  8
L-ZISSEN
100
AcDbCircle
 10
224.1707781211869
 20
-3662.751515980093
 30
0.0
 40
99.53938471878538
100
AcDbArc
 50
256.0937629349537
 51
264.6679223051352
  0
ARC
  5
E25F
330
2
100
AcDbEntity
  8
L-ZISSEN
100
AcDbCircle
 10
202.1707781211864
 20
-3751.607911105564
 30
0.0
 40
8.000000000000113
100
AcDbArc
 50
180.0
 51
256.0937629349474
  0
LINE
  5
E260
330
2
100
AcDbEntity
  8
L-ZISSEN
100
AcDbLine
 10
207.3207781211861
 20
-3743.542965973208
 30
0.0
 11
203.1057781211845
 21
-3745.542965973207
 31
0.0
  0
LINE
  5
E261
330
2
100
AcDbEntity
  8
L-ZISSEN
100
AcDbLine
 10
215.170778121186
 20
-3769.704227449373
 30
0.0
 11
215.170778121186
 21
-3761.860176601627
 31
0.0
  0
LINE
  5
E262
330
2
100
AcDbEntity
  8
L-ZISSEN
100
AcDbLine
 10
214.7957781211855
 20
-3697.704227061575
 30
0.0
 11
214.7957781211832
 21
-3705.204227061576
 31
0.0
  0
LINE
  5
E263
330
2
100
AcDbEntity
  8
L-ZISSEN
100
AcDbLine
 10
212.2563449863512
 20
-3690.583337442399
 30
0.0
 11
211.0457781211832
 21
-3689.579227061576
 31
0.0
  0
LINE
  5
E264
330
2
100
AcDbEntity
  8
L-ZISSEN
100
AcDbLine
 10
212.2563449863512
 20
-3689.752165185172
 30
0.0
 11
211.0457781211832
 21
-3689.579227061576
 31
0.0
  0
LINE
  5
E265
330
2
100
AcDbEntity
  8
L-ZISSEN
100
AcDbLine
 10
210.1082781211832
 20
-3696.454227061576
 30
0.0
 11
212.2563449863512
 21
-3695.146252572621
 31
0.0
  0
LINE
  5
E266
330
2
100
AcDbEntity
  8
L-ZISSEN
100
AcDbLine
 10
212.2563449863512
 20
-3690.583337442399
 30
0.0
 11
212.2563449863512
 21
-3695.146252572621
 31
0.0
  0
ARC
  5
E267
330
2
100
AcDbEntity
  8
L-ZISSEN
100
AcDbCircle
 10
211.3582781211855
 20
-3703.954227061577
 30
0.0
 40
1.250000000000568
100
AcDbArc
 50
180.0
 51
270.0
  0
LINE
  5
E268
330
2
100
AcDbEntity
  8
L-ZISSEN
100
AcDbLine
 10
224.1707781211855
 20
-3691.454227061576
 30
0.0
 11
237.2957781211832
 21
-3689.579227061576
 31
0.0
  0
LINE
  5
E269
330
2
100
AcDbEntity
  8
L-ZISSEN
100
AcDbLine
 10
224.1707781211855
 20
-3692.285399318803
 30
0.0
 11
236.0852112560198
 21
-3690.583337442399
 31
0.0
  0
LINE
  5
E26A
330
2
100
AcDbEntity
  8
L-ZISSEN
100
AcDbLine
 10
236.0852112560198
 20
-3695.146252572621
 30
0.0
 11
224.1707781211855
 21
-3697.640610547051
 31
0.0
  0
LINE
  5
E26B
330
2
100
AcDbEntity
  8
L-ZISSEN
100
AcDbLine
 10
224.1707781211855
 20
-3700.204227061576
 30
0.0
 11
238.2332781211832
 21
-3696.454227061576
 31
0.0
  0
LINE
  5
E26C
330
2
100
AcDbEntity
  8
L-ZISSEN
100
AcDbLine
 10
220.4207781211878
 20
-3678.954227061575
 30
0.0
 11
224.1707781211878
 21
-3685.204227061575
 31
0.0
  0
LINE
  5
E26D
330
2
100
AcDbEntity
  8
L-TYUSIN
100
AcDbLine
 10
221.9839845586304
 20
-3695.20068176275
 30
0.0
 11
226.1787645335423
 21
-3695.20068176275
 31
0.0
  0
CIRCLE
  5
E26E
330
2
100
AcDbEntity
  8
L-ZISSEN
100
AcDbCircle
 10
224.1707781211855
 20
-3695.20068176275
 30
0.0
 40
1.25
  0
ARC
  5
E26F
330
2
100
AcDbEntity
  8
L-ZISSEN
100
AcDbCircle
 10
224.1707781211855
 20
-3701.454227061577
 30
0.0
 40
1.250000000000568
100
AcDbArc
 50
180.0
 51
0.0
  0
LINE
  5
E270
330
2
100
AcDbEntity
  8
L-ZISSEN
100
AcDbLine
 10
222.9207781211878
 20
-3678.954227061575
 30
0.0
 11
220.4207781211878
 21
-3678.954227061575
 31
0.0
  0
LINE
  5
E271
330
2
100
AcDbEntity
  8
L-ZISSEN
100
AcDbLine
 10
222.9207781211832
 20
-3699.870893728242
 30
0.0
 11
222.9207781211855
 21
-3701.454227061577
 31
0.0
  0
LINE
  5
E272
330
2
100
AcDbEntity
  8
L-ZISSEN
100
AcDbLine
 10
225.4207781211878
 20
-3678.954227061575
 30
0.0
 11
227.9207781211878
 21
-3678.954227061575
 31
0.0
  0
LINE
  5
E273
330
2
100
AcDbEntity
  8
L-ZISSEN
100
AcDbLine
 10
227.9207781211878
 20
-3678.954227061575
 30
0.0
 11
224.1707781211878
 21
-3685.204227061575
 31
0.0
  0
LINE
  5
E274
330
2
100
AcDbEntity
  8
L-ZISSEN
100
AcDbLine
 10
224.1707781211855
 20
-3691.454227061576
 30
0.0
 11
224.1707781211855
 21
-3692.285399318803
 31
0.0
  0
LINE
  5
E275
330
2
100
AcDbEntity
  8
L-ZISSEN
100
AcDbLine
 10
225.4207781211855
 20
-3699.870893728243
 30
0.0
 11
225.4207781211855
 21
-3701.454227061577
 31
0.0
  0
LINE
  5
E276
330
2
100
AcDbEntity
  8
L-ZISSEN
100
AcDbLine
 10
224.1707781211855
 20
-3700.204227061576
 30
0.0
 11
224.1707781211855
 21
-3697.640610547051
 31
0.0
  0
LINE
  5
E277
330
2
100
AcDbEntity
  8
L-ZISSEN
100
AcDbLine
 10
233.1707781211878
 20
-3769.704227449373
 30
0.0
 11
233.1707781211878
 21
-3761.860176601627
 31
0.0
  0
LINE
  5
E278
330
2
100
AcDbEntity
  8
L-ZISSEN
100
AcDbLine
 10
236.0852112560198
 20
-3689.752165185172
 30
0.0
 11
237.2957781211832
 21
-3689.579227061576
 31
0.0
  0
LINE
  5
E279
330
2
100
AcDbEntity
  8
L-ZISSEN
100
AcDbLine
 10
236.0852112560198
 20
-3690.583337442399
 30
0.0
 11
237.2957781211832
 21
-3689.579227061576
 31
0.0
  0
LINE
  5
E27A
330
2
100
AcDbEntity
  8
L-ZISSEN
100
AcDbLine
 10
238.2332781211832
 20
-3696.454227061576
 30
0.0
 11
236.0852112560198
 21
-3695.146252572621
 31
0.0
  0
LINE
  5
E27B
330
2
100
AcDbEntity
  8
L-ZISSEN
100
AcDbLine
 10
236.0852112560198
 20
-3690.583337442399
 30
0.0
 11
236.0852112560198
 21
-3695.146252572621
 31
0.0
  0
LINE
  5
E27C
330
2
100
AcDbEntity
  8
L-ZISSEN
100
AcDbLine
 10
233.5457781211832
 20
-3697.704227061576
 30
0.0
 11
233.5457781211832
 21
-3705.204227061576
 31
0.0
  0
ARC
  5
E27D
330
2
100
AcDbEntity
  8
L-ZISSEN
100
AcDbCircle
 10
236.9832781211855
 20
-3703.954227061577
 30
0.0
 40
1.249999999999715
100
AcDbArc
 50
270.0
 51
0.0
  0
ARC
  5
E27E
330
2
100
AcDbEntity
  8
L-ZISSEN
100
AcDbCircle
 10
246.170778121185
 20
-3751.607911105565
 30
0.0
 40
8.000000000000113
100
AcDbArc
 50
283.9062370652484
 51
0.0
  0
LINE
  5
E27F
330
2
100
AcDbEntity
  8
L-ZISSEN
100
AcDbLine
 10
245.2357781211865
 20
-3745.542965973207
 30
0.0
 11
249.4507781211857
 21
-3743.542965973207
 31
0.0
  0
LINE
  5
E281
330
2
100
AcDbEntity
  8
L-ZISSEN
100
AcDbLine
 10
255.6707781211857
 20
-3643.611124180142
 30
0.0
 11
224.1892771672753
 21
-3643.611124180142
 31
0.0
  0
LINE
  5
E282
330
2
100
AcDbEntity
  8
L-ZISSEN
100
AcDbLine
 10
249.4507781211857
 20
-3675.542965973208
 30
0.0
 11
241.020778121185
 21
-3675.542965973208
 31
0.0
  0
LINE
  5
E283
330
2
100
AcDbEntity
  8
L-ZISSEN
100
AcDbLine
 10
189.170778121186
 20
-3665.204227061577
 30
0.0
 11
259.1908399975165
 21
-3665.204227061575
 31
0.0
  0
LINE
  5
E285
330
2
100
AcDbEntity
  8
L-ZISSEN
100
AcDbLine
 10
189.1707781211855
 20
-3613.204227061575
 30
0.0
 11
259.1908399975163
 21
-3613.204227061575
 31
0.0
  0
LINE
  5
E286
330
2
100
AcDbEntity
  8
L-ZISSEN
100
AcDbLine
 10
228.4207781211857
 20
-3604.704227061576
 30
0.0
 11
208.4207781211858
 21
-3604.704227061576
 31
0.0
  0
LINE
  5
E287
330
2
100
AcDbEntity
  8
L-ZISSEN
100
AcDbLine
 10
225.4207781211857
 20
-3589.704227061576
 30
0.0
 11
211.4207781211857
 21
-3589.704227061576
 31
0.0
  0
LINE
  5
E288
330
2
100
AcDbEntity
  8
L-ZISSEN
100
AcDbLine
 10
192.6707781211857
 20
-3643.611124180142
 30
0.0
 11
224.1892771672753
 21
-3643.611124180142
 31
0.0
  0
LINE
  5
E289
330
2
100
AcDbEntity
  8
L-ZISSEN
100
AcDbLine
 10
194.1924299540778
 20
-3615.212887794732
 30
0.0
 11
217.7768774162939
 21
-3615.212887794732
 31
0.0
  0
LINE
  5
E28A
330
2
100
AcDbEntity
  8
L-ZISSEN
100
AcDbLine
 10
220.9914500246159
 20
-3619.204227061576
 30
0.0
 11
203.5104421694707
 21
-3619.204227061576
 31
0.0
  0
LINE
  5
E28B
330
2
100
AcDbEntity
  8
L-ZISSEN
100
AcDbLine
 10
223.6707781211862
 20
-3608.204227061576
 30
0.0
 11
208.1707781211857
 21
-3608.204227061576
 31
0.0
  0
LINE
  5
E28C
330
2
100
AcDbEntity
  8
L-ZISSEN
100
AcDbLine
 10
223.6707781211862
 20
-3608.204227061576
 30
0.0
 11
208.4207781211858
 21
-3608.204227061576
 31
0.0
  0
LINE
  5
E28D
330
2
100
AcDbEntity
  8
L-ZISSEN
100
AcDbLine
 10
221.0457781211855
 20
-3671.454227061576
 30
0.0
 11
216.0457781211855
 21
-3671.454227061576
 31
0.0
  0
LINE
  5
E28E
330
2
100
AcDbEntity
  8
L-ZISSEN
100
AcDbLine
 10
221.0457781211855
 20
-3671.454227061576
 30
0.0
 11
216.0457781211855
 21
-3671.454227061576
 31
0.0
  0
LINE
  5
E28F
330
2
100
AcDbEntity
  8
L-ZISSEN
100
AcDbLine
 10
221.0457781211855
 20
-3672.704227061577
 30
0.0
 11
216.0457781211855
 21
-3672.704227061577
 31
0.0
  0
LINE
  5
E290
330
2
100
AcDbEntity
  8
L-ZISSEN
100
AcDbLine
 10
221.0457781211855
 20
-3672.704227061577
 30
0.0
 11
216.0457781211855
 21
-3672.704227061577
 31
0.0
  0
LINE
  5
E292
330
2
100
AcDbEntity
  8
L-ZISSEN
100
AcDbLine
 10
198.8907781211853
 20
-3675.542965973208
 30
0.0
 11
207.3207781211861
 21
-3675.542965973208
 31
0.0
  0
LINE
  5
E293
330
2
100
AcDbEntity
  8
L-ZISSEN
100
AcDbLine
 10
192.6707781211853
 20
-3618.256191460513
 30
0.0
 11
194.1924299540778
 21
-3615.212887794732
 31
0.0
  0
LINE
  5
E294
330
2
100
AcDbEntity
  8
L-ZISSEN
100
AcDbLine
 10
194.1924299540778
 20
-3615.212887794732
 30
0.0
 11
194.1924299540778
 21
-3619.704227061577
 31
0.0
  0
LINE
  5
E295
330
2
100
AcDbEntity
  8
L-ZISSEN
100
AcDbLine
 10
189.1707781211857
 20
-3648.904227061577
 30
0.0
 11
189.1707781211857
 21
-3643.611124180141
 31
0.0
  0
LINE
  5
E297
330
2
100
AcDbEntity
  8
L-ZISSEN
100
AcDbLine
 10
189.1707781211855
 20
-3618.204227061576
 30
0.0
 11
192.6707781211853
 21
-3618.204227061576
 31
0.0
  0
LINE
  5
E298
330
2
100
AcDbEntity
  8
L-ZISSEN
100
AcDbLine
 10
191.6707781211857
 20
-3648.904227061577
 30
0.0
 11
191.6707781211857
 21
-3652.204227061577
 31
0.0
  0
LINE
  5
E299
330
2
100
AcDbEntity
  8
L-ZISSEN
100
AcDbLine
 10
189.170778121186
 20
-3652.204227061576
 30
0.0
 11
191.6707781211857
 21
-3652.204227061576
 31
0.0
  0
LINE
  5
E29B
330
2
100
AcDbEntity
  8
L-ZISSEN
100
AcDbLine
 10
192.6707781211853
 20
-3618.204227061576
 30
0.0
 11
192.6707781211852
 21
-3619.704227061577
 31
0.0
  0
LINE
  5
E29C
330
2
100
AcDbEntity
  8
L-ZISSEN
100
AcDbLine
 10
189.1707781211857
 20
-3665.204227061577
 30
0.0
 11
189.1707781211857
 21
-3652.204227061576
 31
0.0
  0
LINE
  5
E29D
330
2
100
AcDbEntity
  8
L-ZISSEN
100
AcDbLine
 10
193.2907781211856
 20
-3665.204227061577
 30
0.0
 11
193.2907781211856
 21
-3643.611124180142
 31
0.0
  0
LINE
  5
E29E
330
2
100
AcDbEntity
  8
L-ZISSEN
100
AcDbLine
 10
196.5701920863723
 20
-3665.204227061577
 30
0.0
 11
196.5701920863723
 21
-3643.611124180142
 31
0.0
  0
LINE
  5
E2A6
330
2
100
AcDbEntity
  8
L-ZISSEN
100
AcDbLine
 10
203.5104421694707
 20
-3619.204227061576
 30
0.0
 11
203.5104421694707
 21
-3619.704227061577
 31
0.0
  0
LINE
  5
E2A7
330
2
100
AcDbEntity
  8
L-ZISSEN
100
AcDbLine
 10
206.170778121186
 20
-3619.204227061576
 30
0.0
 11
206.170778121186
 21
-3643.611124180142
 31
0.0
  0
LINE
  5
E2A8
330
2
100
AcDbEntity
  8
L-ZISSEN
100
AcDbLine
 10
216.0457781211855
 20
-3671.454227061576
 30
0.0
 11
216.0457781211855
 21
-3670.204227061577
 31
0.0
  0
LINE
  5
E2A9
330
2
100
AcDbEntity
  8
L-ZISSEN
100
AcDbLine
 10
216.0457781211855
 20
-3670.204227061577
 30
0.0
 11
212.9207781211855
 21
-3672.079227061576
 31
0.0
  0
LINE
  5
E2AA
330
2
100
AcDbEntity
  8
L-ZISSEN
100
AcDbLine
 10
216.0457781211855
 20
-3672.704227061577
 30
0.0
 11
216.0457781211855
 21
-3673.954227061576
 31
0.0
  0
LINE
  5
E2AB
330
2
100
AcDbEntity
  8
L-ZISSEN
100
AcDbLine
 10
216.0457781211855
 20
-3673.954227061576
 30
0.0
 11
212.9207781211855
 21
-3672.079227061576
 31
0.0
  0
LINE
  5
E2AC
330
2
100
AcDbEntity
  8
L-ZISSEN
100
AcDbLine
 10
208.1707781211857
 20
-3608.204227061576
 30
0.0
 11
208.1707781211857
 21
-3613.204227061575
 31
0.0
  0
LINE
  5
E2AD
330
2
100
AcDbEntity
  8
L-ZISSEN
100
AcDbLine
 10
208.4207781211858
 20
-3608.204227061576
 30
0.0
 11
208.4207781211858
 21
-3604.704227061576
 31
0.0
  0
LINE
  5
E2AE
330
2
100
AcDbEntity
  8
L-ZISSEN
100
AcDbLine
 10
211.4207781211857
 20
-3604.704227061576
 30
0.0
 11
211.4207781211857
 21
-3589.704227061576
 31
0.0
  0
LINE
  5
E2AF
330
2
100
AcDbEntity
  8
L-ZISSEN
100
AcDbLine
 10
213.2246256984792
 20
-3604.704227061576
 30
0.0
 11
213.2246256984792
 21
-3608.204227061576
 31
0.0
  0
LINE
  5
E2B0
330
2
100
AcDbEntity
  8
L-ZISSEN
100
AcDbLine
 10
223.6707781211862
 20
-3605.704227061576
 30
0.0
 11
239.6707781211862
 21
-3605.704227061576
 31
0.0
  0
LINE
  5
E2B1
330
2
100
AcDbEntity
  8
L-ZISSEN
100
AcDbLine
 10
228.402828928755
 20
-3599.204227061575
 30
0.0
 11
234.9387273136171
 21
-3599.204227061575
 31
0.0
  0
LINE
  5
E2B2
330
2
100
AcDbEntity
  8
L-ZISSEN
100
AcDbLine
 10
227.2957781211855
 20
-3671.454227061575
 30
0.0
 11
232.2957781211855
 21
-3671.454227061575
 31
0.0
  0
LINE
  5
E2B3
330
2
100
AcDbEntity
  8
L-ZISSEN
100
AcDbLine
 10
227.2957781211855
 20
-3671.454227061575
 30
0.0
 11
232.2957781211855
 21
-3671.454227061575
 31
0.0
  0
LINE
  5
E2B4
330
2
100
AcDbEntity
  8
L-ZISSEN
100
AcDbLine
 10
227.2957781211855
 20
-3672.704227061575
 30
0.0
 11
232.2957781211855
 21
-3672.704227061575
 31
0.0
  0
LINE
  5
E2B5
330
2
100
AcDbEntity
  8
L-ZISSEN
100
AcDbLine
 10
227.2957781211855
 20
-3672.704227061575
 30
0.0
 11
232.2957781211855
 21
-3672.704227061575
 31
0.0
  0
LINE
  5
E2B6
330
2
100
AcDbEntity
  8
L-ZISSEN
100
AcDbLine
 10
217.7768774162939
 20
-3613.204227061575
 30
0.0
 11
217.7768774162939
 21
-3619.204227061576
 31
0.0
  0
LINE
  5
E2B7
330
2
100
AcDbEntity
  8
L-ZISSEN
100
AcDbLine
 10
220.9914500246161
 20
-3613.204227061575
 30
0.0
 11
220.9914500246161
 21
-3619.204227061576
 31
0.0
  0
LINE
  5
E2B8
330
2
100
AcDbEntity
  8
L-ZISSEN
100
AcDbLine
 10
225.4207781211878
 20
-3668.954227061575
 30
0.0
 11
222.9207781211878
 21
-3668.954227061575
 31
0.0
  0
LINE
  5
E2BA
330
2
100
AcDbEntity
  8
L-ZISSEN
100
AcDbLine
 10
221.0457781211855
 20
-3671.454227061576
 30
0.0
 11
221.0457781211855
 21
-3672.704227061577
 31
0.0
  0
LINE
  5
E2BB
330
2
100
AcDbEntity
  8
L-ZISSEN
100
AcDbLine
 10
227.2957781211855
 20
-3671.454227061575
 30
0.0
 11
227.2957781211855
 21
-3672.704227061575
 31
0.0
  0
LINE
  5
E2BC
330
2
100
AcDbEntity
  8
L-ZISSEN
100
AcDbLine
 10
218.4207781211857
 20
-3604.704227061576
 30
0.0
 11
225.4207781211857
 21
-3604.704227061576
 31
0.0
  0
LINE
  5
E2BD
330
2
100
AcDbEntity
  8
L-ZISSEN
100
AcDbLine
 10
228.4207781211857
 20
-3605.704227061576
 30
0.0
 11
228.4207781211857
 21
-3604.704227061576
 31
0.0
  0
LINE
  5
E2BE
330
2
100
AcDbEntity
  8
L-ZISSEN
100
AcDbLine
 10
226.6707781211862
 20
-3604.704227061576
 30
0.0
 11
226.6707781211862
 21
-3602.204227061575
 31
0.0
  0
LINE
  5
E2BF
330
2
100
AcDbEntity
  8
L-ZISSEN
100
AcDbLine
 10
226.6707781211862
 20
-3602.204227061575
 30
0.0
 11
228.4028289287548
 21
-3599.204227061575
 31
0.0
  0
LINE
  5
E2C0
330
2
100
AcDbEntity
  8
L-ZISSEN
100
AcDbLine
 10
225.4207781211857
 20
-3604.704227061576
 30
0.0
 11
225.4207781211857
 21
-3589.704227061576
 31
0.0
  0
LINE
  5
E2C1
330
2
100
AcDbEntity
  8
L-ZISSEN
100
AcDbLine
 10
223.6707781211862
 20
-3605.704227061576
 30
0.0
 11
223.670778121186
 21
-3613.204227061576
 31
0.0
  0
LINE
  5
E2C2
330
2
100
AcDbEntity
  8
L-ZISSEN
100
AcDbLine
 10
223.6169305438925
 20
-3604.704227061576
 30
0.0
 11
223.6169305438925
 21
-3608.204227061576
 31
0.0
  0
LINE
  5
E2C3
330
2
100
AcDbEntity
  8
L-ZISSEN
100
AcDbLine
 10
242.170778121186
 20
-3613.204227061575
 30
0.0
 11
242.170778121186
 21
-3643.611124180142
 31
0.0
  0
LINE
  5
E2C4
330
2
100
AcDbEntity
  8
L-ZISSEN
100
AcDbLine
 10
232.2957781211855
 20
-3671.454227061575
 30
0.0
 11
232.2957781211855
 21
-3670.204227061575
 31
0.0
  0
LINE
  5
E2C5
330
2
100
AcDbEntity
  8
L-ZISSEN
100
AcDbLine
 10
232.2957781211855
 20
-3672.704227061575
 30
0.0
 11
232.2957781211855
 21
-3673.954227061575
 31
0.0
  0
LINE
  5
E2C6
330
2
100
AcDbEntity
  8
L-ZISSEN
100
AcDbLine
 10
232.2957781211855
 20
-3673.954227061575
 30
0.0
 11
235.4207781211855
 21
-3672.079227061576
 31
0.0
  0
LINE
  5
E2C7
330
2
100
AcDbEntity
  8
L-ZISSEN
100
AcDbLine
 10
232.2957781211855
 20
-3670.204227061575
 30
0.0
 11
235.4207781211855
 21
-3672.079227061576
 31
0.0
  0
LINE
  5
E2C8
330
2
100
AcDbEntity
  8
L-ZISSEN
100
AcDbLine
 10
236.6707781211859
 20
-3602.204227061576
 30
0.0
 11
236.6707781211862
 21
-3605.704227061576
 31
0.0
  0
LINE
  5
E2C9
330
2
100
AcDbEntity
  8
L-ZISSEN
100
AcDbLine
 10
236.6707781211862
 20
-3602.204227061575
 30
0.0
 11
234.9387273136176
 21
-3599.204227061575
 31
0.0
  0
LINE
  5
E2CA
330
2
100
AcDbEntity
  8
L-ZISSEN
100
AcDbLine
 10
239.6707781211862
 20
-3605.704227061576
 30
0.0
 11
239.670778121186
 21
-3613.204227061577
 31
0.0
  0
LINE
  5
E2CB
330
2
100
AcDbEntity
  8
L-ZISSEN
100
AcDbLine
 10
259.1707781211853
 20
-3648.904227061577
 30
0.0
 11
256.6707781211853
 21
-3648.904227061577
 31
0.0
  0
LINE
  5
E2CC
330
2
100
AcDbEntity
  8
L-ZISSEN
100
AcDbLine
 10
259.1707781211851
 20
-3652.204227061576
 30
0.0
 11
256.6707781211853
 21
-3652.204227061576
 31
0.0
  0
LINE
  5
E2CF
330
2
100
AcDbEntity
  8
L-ZISSEN
100
AcDbLine
 10
259.1707781211855
 20
-3618.204227061576
 30
0.0
 11
255.6707781211857
 21
-3618.204227061576
 31
0.0
  0
LINE
  5
E2D0
330
2
100
AcDbEntity
  8
L-ZISSEN
100
AcDbLine
 10
255.6707781211857
 20
-3618.256191460513
 30
0.0
 11
254.1491262882932
 21
-3615.212887794732
 31
0.0
  0
LINE
  5
E2D1
330
2
100
AcDbEntity
  8
L-ZISSEN
100
AcDbLine
 10
245.3853507295082
 20
-3643.611124180142
 30
0.0
 11
245.3853507295082
 21
-3613.204227061575
 31
0.0
  0
LINE
  5
E2D2
330
2
100
AcDbEntity
  8
L-ZISSEN
100
AcDbLine
 10
254.1491262882932
 20
-3615.212887794732
 30
0.0
 11
254.1491262882932
 21
-3643.611124180142
 31
0.0
  0
LINE
  5
E2D3
330
2
100
AcDbEntity
  8
L-ZISSEN
100
AcDbLine
 10
256.6707781211853
 20
-3648.904227061577
 30
0.0
 11
256.6707781211853
 21
-3652.204227061577
 31
0.0
  0
LINE
  5
E2D4
330
2
100
AcDbEntity
  8
L-ZISSEN
100
AcDbLine
 10
255.6707781211857
 20
-3618.204227061576
 30
0.0
 11
255.6707781211855
 21
-3643.611124180142
 31
0.0
  0
LINE
  5
E2D5
330
2
100
AcDbEntity
  8
L-ZISSEN
100
AcDbLine
 10
255.0507781211854
 20
-3665.204227061577
 30
0.0
 11
255.0507781211854
 21
-3643.611124180142
 31
0.0
  0
LINE
  5
E2D6
330
2
100
AcDbEntity
  8
L-ZISSEN
100
AcDbLine
 10
251.7713641559987
 20
-3665.204227061577
 30
0.0
 11
251.7713641559987
 21
-3643.611124180142
 31
0.0
  0
LINE
  5
E2D9
330
2
100
AcDbEntity
  8
L-ZISSEN
100
AcDbLine
 10
254.1491262882932
 20
-3615.212887794732
 30
0.0
 11
245.3853507295082
 21
-3615.212887794732
 31
0.0
  0
LINE
  5
E2DD
330
2
100
AcDbEntity
  8
L-ZISSEN
100
AcDbLine
 10
259.1707781211853
 20
-3648.904227061577
 30
0.0
 11
259.1707781211855
 21
-3613.204227061575
 31
0.0
  0
LINE
  5
E2DF
330
2
100
AcDbEntity
  8
L-ZISSEN
100
AcDbLine
 10
259.1707781211853
 20
-3665.204227061577
 30
0.0
 11
259.1707781211853
 21
-3652.204227061576
 31
0.0
  0
LINE
  5
E5FC
330
2
100
AcDbEntity
  8
L-ZISSEN
100
AcDbLine
 10
171.7816254525068
 20
-3449.204227061578
 30
0.0
 11
171.5599307898637
 21
-3450.204227061578
 31
0.0
  0
LINE
  5
E5FD
330
2
100
AcDbEntity
  8
L-ZISSEN
100
AcDbLine
 10
123.3024653639869
 20
-3463.704227061578
 30
0.0
 11
119.4207781211876
 21
-3446.554227061578
 31
0.0
  0
LINE
  5
E5FE
330
2
100
AcDbEntity
  8
L-ZISSEN
100
AcDbLine
 10
108.559930789864
 20
-3449.204227061579
 30
0.0
 11
108.7816254525068
 21
-3450.204227061578
 31
0.0
  0
LINE
  5
E5FF
330
2
100
AcDbEntity
  8
L-ZISSEN
100
AcDbLine
 10
157.0390908783885
 20
-3463.704227061578
 30
0.0
 11
160.9207781211872
 21
-3446.554227061578
 31
0.0
  0
LINE
  5
E600
330
2
100
AcDbEntity
  8
L-ZISSEN
100
AcDbLine
 10
157.0390908783885
 20
-3399.704227061578
 30
0.0
 11
160.9207781211872
 21
-3416.854227061579
 31
0.0
  0
LINE
  5
E601
330
2
100
AcDbEntity
  8
L-ZISSEN
100
AcDbLine
 10
123.3024653639869
 20
-3399.704227061578
 30
0.0
 11
119.4207781211876
 21
-3416.854227061579
 31
0.0
  0
CIRCLE
  5
E605
330
2
100
AcDbEntity
  8
L-ZISSEN
100
AcDbCircle
 10
140.1707781211874
 20
-3431.704227061578
 30
0.0
 40
25.0
  0
LINE
  5
E607
330
2
100
AcDbEntity
  8
L-ZISSEN
100
AcDbLine
 10
110.5551827536507
 20
-3405.204227061578
 30
0.0
 11
112.4395873861159
 21
-3396.704227061578
 31
0.0
  0
LINE
  5
E609
330
2
100
AcDbEntity
  8
L-ZISSEN
100
AcDbLine
 10
171.7816254525068
 20
-3414.204227061578
 30
0.0
 11
171.5599307898638
 21
-3413.204227061578
 31
0.0
  0
CIRCLE
  5
E60A
330
2
100
AcDbEntity
  8
L-ZISSEN
100
AcDbCircle
 10
163.6707781211897
 20
-3401.704227061578
 30
0.0
 40
2.0
  0
CIRCLE
  5
E60B
330
2
100
AcDbEntity
  8
L-ZISSEN
100
AcDbCircle
 10
116.6707781211861
 20
-3401.704227061578
 30
0.0
 40
2.0
  0
LINE
  5
E60C
330
2
100
AcDbEntity
  8
L-ZISSEN
100
AcDbLine
 10
123.3024653639869
 20
-3399.704227061578
 30
0.0
 11
157.0390908783885
 21
-3399.704227061578
 31
0.0
  0
LINE
  5
E60D
330
2
100
AcDbEntity
  8
L-ZISSEN
100
AcDbLine
 10
167.9019688562558
 20
-3396.704227061578
 30
0.0
 11
112.4395873861159
 21
-3396.704227061578
 31
0.0
  0
POLYLINE
  5
E60F
330
2
100
AcDbEntity
  8
L-ZISSEN
100
AcDb2dPolyline
 66
     1
 10
0.0
 20
0.0
 30
0.0
 70
     1
  0
VERTEX
  5
F84E
330
E60F
100
AcDbEntity
  8
L-ZISSEN
100
AcDbVertex
100
AcDb2dVertex
 10
133.2425748909169
 20
-3419.704227061576
 30
0.0
  0
VERTEX
  5
F84F
330
E60F
100
AcDbEntity
  8
L-ZISSEN
100
AcDbVertex
100
AcDb2dVertex
 10
126.3143716606369
 20
-3431.704227061573
 30
0.0
  0
VERTEX
  5
F850
330
E60F
100
AcDbEntity
  8
L-ZISSEN
100
AcDbVertex
100
AcDb2dVertex
 10
133.2425748909078
 20
-3443.704227061576
 30
0.0
  0
VERTEX
  5
F851
330
E60F
100
AcDbEntity
  8
L-ZISSEN
100
AcDbVertex
100
AcDb2dVertex
 10
147.0989813514585
 20
-3443.704227061581
 30
0.0
  0
VERTEX
  5
F852
330
E60F
100
AcDbEntity
  8
L-ZISSEN
100
AcDbVertex
100
AcDb2dVertex
 10
154.0271845817384
 20
-3431.704227061583
 30
0.0
  0
VERTEX
  5
F853
330
E60F
100
AcDbEntity
  8
L-ZISSEN
100
AcDbVertex
100
AcDb2dVertex
 10
147.0989813514676
 20
-3419.704227061581
 30
0.0
  0
SEQEND
  5
F854
330
E60F
100
AcDbEntity
  8
L-ZISSEN
  0
LINE
  5
E610
330
2
100
AcDbEntity
  8
L-ZISSEN
100
AcDbLine
 10
120.059152130234
 20
-3416.854227061579
 30
0.0
 11
110.2007563345406
 21
-3416.854227061579
 31
0.0
  0
LINE
  5
E611
330
2
100
AcDbEntity
  8
L-ZISSEN
100
AcDbLine
 10
170.1407999078352
 20
-3416.854227061579
 30
0.0
 11
160.2824041121413
 21
-3416.854227061579
 31
0.0
  0
LINE
  5
E612
330
2
100
AcDbEntity
  8
L-ZISSEN
100
AcDbLine
 10
120.059152130234
 20
-3446.554227061578
 30
0.0
 11
110.200756334541
 21
-3446.554227061578
 31
0.0
  0
LINE
  5
E616
330
2
100
AcDbEntity
  8
L-ZISSEN
100
AcDbLine
 10
170.1407999078343
 20
-3446.554227061578
 30
0.0
 11
160.2824041121413
 21
-3446.554227061578
 31
0.0
  0
ARC
  5
E618
330
2
100
AcDbEntity
  8
L-SOUZOU
100
AcDbCircle
 10
120.6707781211897
 20
-3499.204227061579
 30
0.0
 40
1.5
100
AcDbArc
 50
180.0
 51
270.0
  0
ARC
  5
E619
330
2
100
AcDbEntity
  8
L-SOUZOU
100
AcDbCircle
 10
159.6707781211897
 20
-3499.204227061579
 30
0.0
 40
1.5
100
AcDbArc
 50
270.0
 51
0.0
  0
LINE
  5
E61A
330
2
100
AcDbEntity
  8
L-SOUZOU
100
AcDbLine
 10
119.7707781211894
 20
-3477.204227061579
 30
0.0
 11
119.7707781211894
 21
-3491.704227061578
 31
0.0
  0
LINE
  5
E61B
330
2
100
AcDbEntity
  8
L-SOUZOU
100
AcDbLine
 10
160.5707781211896
 20
-3477.204227061579
 30
0.0
 11
160.5707781211896
 21
-3491.704227061578
 31
0.0
  0
LINE
  5
E61C
330
2
100
AcDbEntity
  8
L-SOUZOU
100
AcDbLine
 10
133.3707781211888
 20
-3468.204227061583
 30
0.0
 11
133.3707781211884
 21
-3475.704227061584
 31
0.0
  0
LINE
  5
E61D
330
2
100
AcDbEntity
  8
L-SOUZOU
100
AcDbLine
 10
146.9707781211887
 20
-3468.204227061583
 30
0.0
 11
146.9707781211887
 21
-3475.704227061584
 31
0.0
  0
LINE
  5
E61E
330
2
100
AcDbEntity
  8
L-ZISSEN
100
AcDbLine
 10
123.3024653639873
 20
-3463.704227061579
 30
0.0
 11
157.0390908783885
 21
-3463.704227061578
 31
0.0
  0
CIRCLE
  5
E61F
330
2
100
AcDbEntity
  8
L-ZISSEN
100
AcDbCircle
 10
163.6707781211897
 20
-3461.704227061578
 30
0.0
 40
2.0
  0
CIRCLE
  5
E620
330
2
100
AcDbEntity
  8
L-ZISSEN
100
AcDbCircle
 10
116.6707781211861
 20
-3461.704227061578
 30
0.0
 40
2.0
  0
LINE
  5
E621
330
2
100
AcDbEntity
  8
L-SOUZOU
100
AcDbLine
 10
133.5300875133972
 20
-3463.704227061583
 30
0.0
 11
133.3894554857284
 21
-3468.204227061583
 31
0.0
  0
LINE
  5
E622
330
2
100
AcDbEntity
  8
L-SOUZOU
100
AcDbLine
 10
134.3860875133974
 20
-3463.704227061583
 30
0.0
 11
134.2923328282851
 21
-3466.704227061583
 31
0.0
  0
LINE
  5
E623
330
2
100
AcDbEntity
  8
L-SOUZOU
100
AcDbLine
 10
134.2923328282851
 20
-3466.704227061583
 30
0.0
 11
133.4087185006006
 21
-3467.587841389268
 31
0.0
  0
LINE
  5
E624
330
2
100
AcDbEntity
  8
L-SOUZOU
100
AcDbLine
 10
146.9707781211887
 20
-3468.204227061583
 30
0.0
 11
133.3707781211884
 21
-3468.204227061583
 31
0.0
  0
LINE
  5
E625
330
2
100
AcDbEntity
  8
L-SOUZOU
100
AcDbLine
 10
146.9052234140923
 20
-3466.704227061583
 30
0.0
 11
133.4363328282848
 21
-3466.704227061583
 31
0.0
  0
LINE
  5
E626
330
2
100
AcDbEntity
  8
L-SOUZOU
100
AcDbLine
 10
146.81146872898
 20
-3463.704227061583
 30
0.0
 11
146.9521007566482
 21
-3468.204227061583
 31
0.0
  0
LINE
  5
E627
330
2
100
AcDbEntity
  8
L-SOUZOU
100
AcDbLine
 10
145.9554687289797
 20
-3463.704227061583
 30
0.0
 11
146.0492234140921
 21
-3466.704227061583
 31
0.0
  0
LINE
  5
E628
330
2
100
AcDbEntity
  8
L-SOUZOU
100
AcDbLine
 10
146.0492234140921
 20
-3466.704227061583
 30
0.0
 11
146.9328377417765
 21
-3467.587841389268
 31
0.0
  0
LINE
  5
E629
330
2
100
AcDbEntity
  8
L-ZISSEN
100
AcDbLine
 10
112.4395873861159
 20
-3466.704227061578
 30
0.0
 11
167.9019688562549
 21
-3466.704227061578
 31
0.0
  0
ARC
  5
E62A
330
2
100
AcDbEntity
  8
L-SOUZOU
100
AcDbCircle
 10
121.2707781211892
 20
-3477.204227061579
 30
0.0
 40
1.5
100
AcDbArc
 50
89.99999999999998
 51
180.0
  0
LINE
  5
E62B
330
2
100
AcDbEntity
  8
L-SOUZOU
100
AcDbLine
 10
159.0707781211896
 20
-3475.704227061579
 30
0.0
 11
121.2707781211894
 21
-3475.704227061579
 31
0.0
  0
ARC
  5
E62C
330
2
100
AcDbEntity
  8
L-SOUZOU
100
AcDbCircle
 10
159.0707781211893
 20
-3477.204227061579
 30
0.0
 40
1.5
100
AcDbArc
 50
0.0
 51
89.99999999999998
  0
LINE
  5
E62D
330
2
100
AcDbEntity
  8
L-SOUZOU
100
AcDbLine
 10
119.170778121189
 20
-3491.704227061578
 30
0.0
 11
119.170778121189
 21
-3499.204227061579
 31
0.0
  0
LINE
  5
E62E
330
2
100
AcDbEntity
  8
L-SOUZOU
100
AcDbLine
 10
161.170778121189
 20
-3491.704227061578
 30
0.0
 11
119.170778121189
 21
-3491.704227061578
 31
0.0
  0
LINE
  5
E62F
330
2
100
AcDbEntity
  8
L-SOUZOU
100
AcDbLine
 10
161.170778121189
 20
-3491.704227061578
 30
0.0
 11
161.170778121189
 21
-3499.204227061579
 31
0.0
  0
LINE
  5
E630
330
2
100
AcDbEntity
  8
L-SOUZOU
100
AcDbLine
 10
159.670778121189
 20
-3500.704227061579
 30
0.0
 11
120.670778121189
 21
-3500.704227061579
 31
0.0
  0
LINE
  5
E631
330
2
100
AcDbEntity
  8
L-TYUSIN
100
AcDbLine
 10
140.17077812119
 20
-3391.704227061579
 30
0.0
 11
140.1707781211964
 21
-3505.704227061579
 31
0.0
  0
LINE
  5
E65A
330
2
100
AcDbEntity
  8
L-ZISSEN
100
AcDbLine
 10
24.67077812118958
 20
-3414.204227061578
 30
0.0
 11
26.20075633454206
 21
-3416.854227061579
 31
0.0
  0
LINE
  5
E65B
330
2
100
AcDbEntity
  8
L-ZISSEN
100
AcDbLine
 10
87.67077812118959
 20
-3414.204227061578
 30
0.0
 11
86.14079990783711
 21
-3416.854227061579
 31
0.0
  0
LINE
  5
E65D
330
2
100
AcDbEntity
  8
L-ZISSEN
100
AcDbLine
 10
21.17077812118958
 20
-3414.204227061578
 30
0.0
 11
21.17077812118958
 21
-3449.204227061578
 31
0.0
  0
LINE
  5
E65E
330
2
100
AcDbEntity
  8
L-TYUSIN
100
AcDbLine
 10
56.17077812118958
 20
-3471.704227061578
 30
0.0
 11
56.17077812118958
 21
-3391.704227061579
 31
0.0
  0
LINE
  5
E65F
330
2
100
AcDbEntity
  8
L-ZISSEN
100
AcDbLine
 10
38.17077812119004
 20
-3404.704227061578
 30
0.0
 11
35.42077812118958
 21
-3416.854227061579
 31
0.0
  0
LINE
  5
E660
330
2
100
AcDbEntity
  8
L-ZISSEN
100
AcDbLine
 10
74.17077812118913
 20
-3404.704227061578
 30
0.0
 11
76.92077812118913
 21
-3416.854227061579
 31
0.0
  0
LINE
  5
E668
330
2
100
AcDbEntity
  8
L-ZISSEN
100
AcDbLine
 10
38.17077812119004
 20
-3404.704227061578
 30
0.0
 11
74.17077812118913
 21
-3404.704227061578
 31
0.0
  0
LINE
  5
E669
330
2
100
AcDbEntity
  8
L-ZISSEN
100
AcDbLine
 10
29.17077812118822
 20
-3396.704227061578
 30
0.0
 11
83.17077812119004
 21
-3396.704227061578
 31
0.0
  0
LINE
  5
E66A
330
2
100
AcDbEntity
  8
L-ZISSEN
100
AcDbLine
 10
25.29112152493707
 20
-3414.204227061579
 30
0.0
 11
29.17077812118822
 21
-3396.704227061578
 31
0.0
  0
CIRCLE
  5
E66C
330
2
100
AcDbEntity
  8
L-ZISSEN
100
AcDbCircle
 10
32.67077812118941
 20
-3401.704227061578
 30
0.0
 40
2.0
  0
LINE
  5
E66D
330
2
100
AcDbEntity
  8
L-ZISSEN
100
AcDbLine
 10
21.17077812118958
 20
-3414.204227061578
 30
0.0
 11
25.29112152493661
 21
-3414.204227061578
 31
0.0
  0
LINE
  5
E66F
330
2
100
AcDbEntity
  8
L-ZISSEN
100
AcDbLine
 10
87.05043471744119
 20
-3414.204227061579
 30
0.0
 11
86.98802075876036
 21
-3413.922695887409
 31
0.0
  0
CIRCLE
  5
E671
330
2
100
AcDbEntity
  8
L-ZISSEN
100
AcDbCircle
 10
79.67077812118941
 20
-3401.704227061578
 30
0.0
 40
2.0
  0
LINE
  5
E672
330
2
100
AcDbEntity
  8
L-ZISSEN
100
AcDbLine
 10
91.17077812118958
 20
-3414.204227061578
 30
0.0
 11
87.05043471744119
 21
-3414.204227061578
 31
0.0
  0
LINE
  5
E674
330
2
100
AcDbEntity
  8
L-ZISSEN
100
AcDbLine
 10
38.17077812119004
 20
-3458.704227061578
 30
0.0
 11
35.42077812118958
 21
-3446.554227061578
 31
0.0
  0
LINE
  5
E675
330
2
100
AcDbEntity
  8
L-ZISSEN
100
AcDbLine
 10
74.17077812118913
 20
-3458.704227061578
 30
0.0
 11
76.92077812118913
 21
-3446.554227061578
 31
0.0
  0
LINE
  5
E676
330
2
100
AcDbEntity
  8
L-ZISSEN
100
AcDbLine
 10
25.29112152493707
 20
-3449.204227061578
 30
0.0
 11
29.17077812118822
 21
-3466.704227061578
 31
0.0
  0
LINE
  5
E677
330
2
100
AcDbEntity
  8
L-ZISSEN
100
AcDbLine
 10
87.05043471744119
 20
-3449.204227061578
 30
0.0
 11
86.9880207587604
 21
-3449.485758235746
 31
0.0
  0
LINE
  5
E678
330
2
100
AcDbEntity
  8
L-ZISSEN
100
AcDbLine
 10
86.14079990783711
 20
-3416.854227061579
 30
0.0
 11
26.20075633454252
 21
-3416.854227061579
 31
0.0
  0
LINE
  5
E67A
330
2
100
AcDbEntity
  8
L-ZISSEN
100
AcDbLine
 10
91.17077812118958
 20
-3419.204227061578
 30
0.0
 11
21.17077812118958
 21
-3419.204227061578
 31
0.0
  0
LINE
  5
E67B
330
2
100
AcDbEntity
  8
L-ZISSEN
100
AcDbLine
 10
86.1407999078362
 20
-3446.554227061578
 30
0.0
 11
26.20075633454297
 21
-3446.554227061578
 31
0.0
  0
LINE
  5
E67C
330
2
100
AcDbEntity
  8
L-ZISSEN
100
AcDbLine
 10
91.17077812118958
 20
-3444.204227061579
 30
0.0
 11
21.17077812118958
 21
-3444.204227061579
 31
0.0
  0
LINE
  5
E67D
330
2
100
AcDbEntity
  8
L-ZISSEN
100
AcDbLine
 10
24.67077812118958
 20
-3449.204227061578
 30
0.0
 11
26.20075633454252
 21
-3446.554227061578
 31
0.0
  0
LINE
  5
E67E
330
2
100
AcDbEntity
  8
L-ZISSEN
100
AcDbLine
 10
21.17077812118958
 20
-3449.204227061578
 30
0.0
 11
25.29112152493707
 21
-3449.204227061578
 31
0.0
  0
LINE
  5
E67F
330
2
100
AcDbEntity
  8
L-ZISSEN
100
AcDbLine
 10
87.67077812118959
 20
-3449.204227061578
 30
0.0
 11
86.14079990783665
 21
-3446.554227061578
 31
0.0
  0
LINE
  5
E680
330
2
100
AcDbEntity
  8
L-ZISSEN
100
AcDbLine
 10
91.17077812118958
 20
-3449.204227061578
 30
0.0
 11
87.05043471744074
 21
-3449.204227061578
 31
0.0
  0
LINE
  5
E681
330
2
100
AcDbEntity
  8
L-ZISSEN
100
AcDbLine
 10
38.17077812119004
 20
-3458.704227061578
 30
0.0
 11
74.17077812118913
 21
-3458.704227061578
 31
0.0
  0
LINE
  5
E682
330
2
100
AcDbEntity
  8
L-ZISSEN
100
AcDbLine
 10
29.17077812118867
 20
-3466.704227061578
 30
0.0
 11
83.17077812118958
 21
-3466.704227061578
 31
0.0
  0
CIRCLE
  5
E683
330
2
100
AcDbEntity
  8
L-ZISSEN
100
AcDbCircle
 10
32.67077812118941
 20
-3461.704227061578
 30
0.0
 40
2.0
  0
CIRCLE
  5
E684
330
2
100
AcDbEntity
  8
L-ZISSEN
100
AcDbCircle
 10
79.67077812118941
 20
-3461.704227061578
 30
0.0
 40
2.0
  0
LINE
  5
E685
330
2
100
AcDbEntity
  8
L-ZISSEN
100
AcDbLine
 10
242.1707781211849
 20
-3404.704227061578
 30
0.0
 11
245.4526711253012
 21
-3419.204227061578
 31
0.0
  0
LINE
  5
E686
330
2
100
AcDbEntity
  8
L-ZISSEN
100
AcDbLine
 10
217.7768774162938
 20
-3419.204227061576
 30
0.0
 11
220.991450024616
 21
-3404.704227061577
 31
0.0
  0
CIRCLE
  5
E687
330
2
100
AcDbEntity
  8
L-ZISSEN
100
AcDbCircle
 10
231.6707781211857
 20
-3414.704227061577
 30
0.0
 40
4.999999999999317
  0
LINE
  5
E68A
330
2
100
AcDbEntity
  8
L-ZISSEN
100
AcDbLine
 10
259.1707781211854
 20
-3414.204227061578
 30
0.0
 11
259.1707781211854
 21
-3449.204227061578
 31
0.0
  0
LINE
  5
E68E
330
2
100
AcDbEntity
  8
L-ZISSEN
100
AcDbLine
 10
255.050434717437
 20
-3414.204227061578
 30
0.0
 11
251.1707781211859
 21
-3396.704227061578
 31
0.0
  0
LINE
  5
E68F
330
2
100
AcDbEntity
  8
L-ZISSEN
100
AcDbLine
 10
193.2911215249329
 20
-3414.204227061578
 30
0.0
 11
193.3535354836139
 21
-3413.922695887408
 31
0.0
  0
LINE
  5
E693
330
2
100
AcDbEntity
  8
L-ZISSEN
100
AcDbLine
 10
197.170778121184
 20
-3396.704227061578
 30
0.0
 11
251.1707781211854
 21
-3396.704227061578
 31
0.0
  0
LINE
  5
E696
330
2
100
AcDbEntity
  8
L-ZISSEN
100
AcDbLine
 10
206.1707781211858
 20
-3404.704227061578
 30
0.0
 11
203.4547287384681
 21
-3416.704227061579
 31
0.0
  0
CIRCLE
  5
E697
330
2
100
AcDbEntity
  8
L-ZISSEN
100
AcDbCircle
 10
247.6707781211852
 20
-3401.704227061578
 30
0.0
 40
2.0
  0
LINE
  5
E699
330
2
100
AcDbEntity
  8
L-ZISSEN
100
AcDbLine
 10
206.1707781211858
 20
-3404.704227061578
 30
0.0
 11
242.1707781211849
 21
-3404.704227061578
 31
0.0
  0
CIRCLE
  5
E69A
330
2
100
AcDbEntity
  8
L-ZISSEN
100
AcDbCircle
 10
200.6707781211852
 20
-3401.704227061578
 30
0.0
 40
2.0
  0
LINE
  5
E69B
330
2
100
AcDbEntity
  8
L-ZISSEN
100
AcDbLine
 10
259.1707781211854
 20
-3414.204227061578
 30
0.0
 11
255.0504347174365
 21
-3414.204227061578
 31
0.0
  0
LINE
  5
E69C
330
2
100
AcDbEntity
  8
L-ZISSEN
100
AcDbLine
 10
259.1707781211854
 20
-3414.204227061578
 30
0.0
 11
256.2707781211857
 21
-3414.204227061578
 31
0.0
  0
LINE
  5
E69D
330
2
100
AcDbEntity
  8
L-ZISSEN
100
AcDbLine
 10
255.6707781211854
 20
-3414.204227061578
 30
0.0
 11
254.2274024482113
 21
-3416.704227061579
 31
0.0
  0
CIRCLE
  5
E69E
330
2
100
AcDbEntity
  8
L-ZISSEN
100
AcDbCircle
 10
231.6707781211857
 20
-3414.704227061577
 30
0.0
 40
3.267949192431387
  0
LINE
  5
E6A0
330
2
100
AcDbEntity
  8
L-ZISSEN
100
AcDbLine
 10
254.1707781211854
 20
-3416.704227061578
 30
0.0
 11
244.8868275039018
 21
-3416.704227061578
 31
0.0
  0
LINE
  5
E6A1
330
2
100
AcDbEntity
  8
L-ZISSEN
100
AcDbLine
 10
189.1707781211854
 20
-3414.204227061578
 30
0.0
 11
193.2911215249329
 21
-3414.204227061578
 31
0.0
  0
LINE
  5
E6A2
330
2
100
AcDbEntity
  8
L-ZISSEN
100
AcDbLine
 10
189.1707781211854
 20
-3414.204227061578
 30
0.0
 11
192.070778121185
 21
-3414.204227061578
 31
0.0
  0
LINE
  5
E6A3
330
2
100
AcDbEntity
  8
L-ZISSEN
100
AcDbLine
 10
192.6707781211854
 20
-3414.204227061578
 30
0.0
 11
194.1141537941595
 21
-3416.704227061579
 31
0.0
  0
LINE
  5
E6A5
330
2
100
AcDbEntity
  8
L-ZISSEN
100
AcDbLine
 10
218.3311140729007
 20
-3416.704227061579
 30
0.0
 11
194.114153794159
 21
-3416.704227061579
 31
0.0
  0
LINE
  5
E6A6
330
2
100
AcDbEntity
  8
L-TYUSIN
100
AcDbLine
 10
16.17077812118958
 20
-3431.704227061578
 30
0.0
 11
264.1707781211854
 21
-3431.704227061578
 31
0.0
  0
CIRCLE
  5
E6A7
330
2
100
AcDbEntity
  8
L-ZISSEN
100
AcDbCircle
 10
247.6707781211852
 20
-3461.704227061578
 30
0.0
 40
2.0
  0
LINE
  5
E6A8
330
2
100
AcDbEntity
  8
L-ZISSEN
100
AcDbLine
 10
255.050434717437
 20
-3449.204227061578
 30
0.0
 11
251.1707781211859
 21
-3466.704227061578
 31
0.0
  0
LINE
  5
E6A9
330
2
100
AcDbEntity
  8
L-ZISSEN
100
AcDbLine
 10
193.2911215249329
 20
-3449.204227061578
 30
0.0
 11
193.3535354836139
 21
-3449.485758235747
 31
0.0
  0
CIRCLE
  5
E6AA
330
2
100
AcDbEntity
  8
L-ZISSEN
100
AcDbCircle
 10
200.6707781211852
 20
-3461.704227061578
 30
0.0
 40
2.0
  0
CIRCLE
  5
E6AB
330
2
100
AcDbEntity
  8
L-ZISSEN
100
AcDbCircle
 10
218.4207781211852
 20
-3431.704227061578
 30
0.0
 40
10.25
  0
CIRCLE
  5
E6AC
330
2
100
AcDbEntity
  8
L-ZISSEN
100
AcDbCircle
 10
218.4207781211852
 20
-3431.704227061578
 30
0.0
 40
7.0
  0
LINE
  5
E6AD
330
2
100
AcDbEntity
  8
L-ZISSEN
100
AcDbLine
 10
259.1707781211854
 20
-3419.204227061578
 30
0.0
 11
245.4526711253012
 21
-3419.204227061578
 31
0.0
  0
LINE
  5
E6AE
330
2
100
AcDbEntity
  8
L-ZISSEN
100
AcDbLine
 10
217.7768774162933
 20
-3419.204227061578
 30
0.0
 11
189.1707781211854
 21
-3419.204227061578
 31
0.0
  0
LINE
  5
E6AF
330
2
100
AcDbEntity
  8
L-ZISSEN
100
AcDbLine
 10
245.3853507295081
 20
-3444.204227061579
 30
0.0
 11
242.1707781211858
 21
-3458.704227061578
 31
0.0
  0
LINE
  5
E6B0
330
2
100
AcDbEntity
  8
L-ZISSEN
100
AcDbLine
 10
217.7768774162938
 20
-3444.204227061579
 30
0.0
 11
220.991450024616
 21
-3458.704227061578
 31
0.0
  0
LINE
  5
E6B1
330
2
100
AcDbEntity
  8
L-ZISSEN
100
AcDbLine
 10
203.5104421694705
 20
-3446.704227061578
 30
0.0
 11
206.1707781211858
 21
-3458.704227061578
 31
0.0
  0
CIRCLE
  5
E6B2
330
2
100
AcDbEntity
  8
L-ZISSEN
100
AcDbCircle
 10
231.6707781211857
 20
-3448.704227061579
 30
0.0
 40
8.0
  0
LINE
  5
E6B3
330
2
100
AcDbEntity
  8
L-ZISSEN
100
AcDbLine
 10
259.1707781211854
 20
-3449.204227061578
 30
0.0
 11
255.050434717437
 21
-3449.204227061578
 31
0.0
  0
LINE
  5
E6B4
330
2
100
AcDbEntity
  8
L-ZISSEN
100
AcDbLine
 10
259.1707781211854
 20
-3449.204227061578
 30
0.0
 11
256.2707781211857
 21
-3449.204227061578
 31
0.0
  0
LINE
  5
E6B5
330
2
100
AcDbEntity
  8
L-ZISSEN
100
AcDbLine
 10
255.6707781211854
 20
-3449.204227061578
 30
0.0
 11
254.2274024482113
 21
-3446.704227061578
 31
0.0
  0
LINE
  5
E6B6
330
2
100
AcDbEntity
  8
L-ZISSEN
100
AcDbLine
 10
259.1707781211854
 20
-3444.204227061579
 30
0.0
 11
245.3853507295085
 21
-3444.204227061579
 31
0.0
  0
LINE
  5
E6B7
330
2
100
AcDbEntity
  8
L-ZISSEN
100
AcDbLine
 10
254.1707781211854
 20
-3446.704227061579
 30
0.0
 11
244.8311140729007
 21
-3446.704227061578
 31
0.0
  0
LINE
  5
E6B8
330
2
100
AcDbEntity
  8
L-ZISSEN
100
AcDbLine
 10
189.1707781211854
 20
-3449.204227061578
 30
0.0
 11
193.2911215249329
 21
-3449.204227061578
 31
0.0
  0
LINE
  5
E6B9
330
2
100
AcDbEntity
  8
L-ZISSEN
100
AcDbLine
 10
189.1707781211854
 20
-3449.204227061578
 30
0.0
 11
192.070778121185
 21
-3449.204227061578
 31
0.0
  0
LINE
  5
E6BA
330
2
100
AcDbEntity
  8
L-ZISSEN
100
AcDbLine
 10
192.6707781211854
 20
-3449.204227061578
 30
0.0
 11
194.1141537941595
 21
-3446.704227061578
 31
0.0
  0
LINE
  5
E6BB
330
2
100
AcDbEntity
  8
L-ZISSEN
100
AcDbLine
 10
217.7768774162938
 20
-3444.204227061579
 30
0.0
 11
189.1707781211854
 21
-3444.204227061579
 31
0.0
  0
LINE
  5
E6BC
330
2
100
AcDbEntity
  8
L-ZISSEN
100
AcDbLine
 10
218.3311140729007
 20
-3446.704227061578
 30
0.0
 11
194.114153794159
 21
-3446.704227061578
 31
0.0
  0
LINE
  5
E6BD
330
2
100
AcDbEntity
  8
L-ZISSEN
100
AcDbLine
 10
206.1707781211858
 20
-3458.704227061578
 30
0.0
 11
242.1707781211849
 21
-3458.704227061578
 31
0.0
  0
LINE
  5
E6BE
330
2
100
AcDbEntity
  8
L-ZISSEN
100
AcDbLine
 10
197.170778121184
 20
-3466.704227061578
 30
0.0
 11
251.1707781211854
 21
-3466.704227061578
 31
0.0
  0
LINE
  5
E79D
330
2
100
AcDbEntity
  8
L-ZISSEN
100
AcDbLine
 10
195.2863734887193
 20
-3405.204227061578
 30
0.0
 11
197.170778121184
 21
-3396.704227061578
 31
0.0
  0
LINE
  5
E79E
330
2
100
AcDbEntity
  8
L-ZISSEN
100
AcDbLine
 10
195.2863734887193
 20
-3458.204227061578
 30
0.0
 11
197.170778121184
 21
-3466.704227061578
 31
0.0
  0
LINE
  5
E79F
330
2
100
AcDbEntity
  8
L-ZISSEN
100
AcDbLine
 10
171.6707781211854
 20
-3414.204227061578
 30
0.0
 11
170.1407999078329
 21
-3416.854227061579
 31
0.0
  0
LINE
  5
E7A0
330
2
100
AcDbEntity
  8
L-ZISSEN
100
AcDbLine
 10
175.1707781211854
 20
-3414.204227061578
 30
0.0
 11
171.6707781211851
 21
-3414.204227061579
 31
0.0
  0
LINE
  5
E7A1
330
2
100
AcDbEntity
  8
L-ZISSEN
100
AcDbLine
 10
175.1707781211854
 20
-3449.204227061578
 30
0.0
 11
171.6707781211856
 21
-3449.204227061578
 31
0.0
  0
LINE
  5
E7A2
330
2
100
AcDbEntity
  8
L-ZISSEN
100
AcDbLine
 10
171.6707781211854
 20
-3449.204227061578
 30
0.0
 11
170.1407999078325
 21
-3446.554227061578
 31
0.0
  0
LINE
  5
E7A4
330
2
100
AcDbEntity
  8
L-ZISSEN
100
AcDbLine
 10
105.1707781211895
 20
-3449.204227061578
 30
0.0
 11
108.6707781211893
 21
-3449.204227061578
 31
0.0
  0
LINE
  5
E7A5
330
2
100
AcDbEntity
  8
L-ZISSEN
100
AcDbLine
 10
105.1707781211895
 20
-3414.204227061578
 30
0.0
 11
108.6707781211899
 21
-3414.204227061579
 31
0.0
  0
LINE
  5
E7A6
330
2
100
AcDbEntity
  8
L-ZISSEN
100
AcDbLine
 10
108.6707781211895
 20
-3449.204227061578
 30
0.0
 11
110.2007563345425
 21
-3446.554227061578
 31
0.0
  0
LINE
  5
E7A7
330
2
100
AcDbEntity
  8
L-ZISSEN
100
AcDbLine
 10
108.6707781211895
 20
-3414.204227061578
 30
0.0
 11
110.200756334542
 21
-3416.854227061579
 31
0.0
  0
LINE
  5
E7E0
330
2
100
AcDbEntity
  8
L-ZISSEN
100
AcDbLine
 10
175.1707781211895
 20
-3419.204227061578
 30
0.0
 11
161.8214132157977
 21
-3419.204227061578
 31
0.0
  0
LINE
  5
E7E1
330
2
100
AcDbEntity
  8
L-ZISSEN
100
AcDbLine
 10
175.1707781211895
 20
-3444.204227061579
 30
0.0
 11
161.8214132157982
 21
-3444.204227061579
 31
0.0
  0
LINE
  5
E7E2
330
2
100
AcDbEntity
  8
L-ZISSEN
100
AcDbLine
 10
118.5201430265772
 20
-3419.204227061578
 30
0.0
 11
105.1707781211895
 21
-3419.204227061578
 31
0.0
  0
LINE
  5
E7E3
330
2
100
AcDbEntity
  8
L-ZISSEN
100
AcDbLine
 10
118.5201430265767
 20
-3444.204227061579
 30
0.0
 11
105.1707781211895
 21
-3444.204227061579
 31
0.0
  0
LINE
  5
E7E6
330
2
100
AcDbEntity
  8
L-ZISSEN
100
AcDbLine
 10
189.1707781211854
 20
-3449.204227061578
 30
0.0
 11
175.1707781211854
 21
-3449.204227061578
 31
0.0
  0
LINE
  5
E7E9
330
2
100
AcDbEntity
  8
L-ZISSEN
100
AcDbLine
 10
191.6707781211854
 20
-3443.704227061578
 30
0.0
 11
172.6707781211854
 21
-3443.704227061578
 31
0.0
  0
LINE
  5
E7EA
330
2
100
AcDbEntity
  8
L-ZISSEN
100
AcDbLine
 10
172.6707781211854
 20
-3419.704227061578
 30
0.0
 11
191.6707781211854
 21
-3419.704227061578
 31
0.0
  0
LINE
  5
E7EB
330
2
100
AcDbEntity
  8
L-ZISSEN
100
AcDbLine
 10
175.1707781211854
 20
-3414.204227061578
 30
0.0
 11
189.1707781211854
 21
-3414.204227061578
 31
0.0
  0
LINE
  5
E7EC
330
2
100
AcDbEntity
  8
L-ZISSEN
100
AcDbLine
 10
205.6535559107411
 20
-3458.204227061578
 30
0.0
 11
158.6880003316298
 21
-3458.204227061578
 31
0.0
  0
LINE
  5
E7ED
330
2
100
AcDbEntity
  8
L-ZISSEN
100
AcDbLine
 10
193.1707781211854
 20
-3381.704227061578
 30
0.0
 11
171.1707781211854
 21
-3381.704227061578
 31
0.0
  0
LINE
  5
E7EE
330
2
100
AcDbEntity
  8
L-ZISSEN
100
AcDbLine
 10
193.1707781211854
 20
-3389.104227061578
 30
0.0
 11
171.1707781211854
 21
-3389.104227061578
 31
0.0
  0
LINE
  5
E7EF
330
2
100
AcDbEntity
  8
L-ZISSEN
100
AcDbLine
 10
159.6707781211856
 20
-3405.204227061578
 30
0.0
 11
204.6707781211854
 21
-3405.204227061578
 31
0.0
  0
LINE
  5
E7F0
330
2
100
AcDbEntity
  8
L-ZISSEN
100
AcDbLine
 10
171.1707781211854
 20
-3381.704227061578
 30
0.0
 11
171.1707781211854
 21
-3405.204227061578
 31
0.0
  0
LINE
  5
E7F3
330
2
100
AcDbEntity
  8
L-ZISSEN
100
AcDbLine
 10
159.6707781211854
 20
-3405.204227061578
 30
0.0
 11
158.8923992247742
 21
-3406.17935991737
 31
0.0
  0
LINE
  5
E7F4
330
2
100
AcDbEntity
  8
L-ZISSEN
100
AcDbLine
 10
161.3185053939127
 20
-3416.854227061579
 30
0.0
 11
158.8923992247742
 21
-3406.17935991737
 31
0.0
  0
LINE
  5
E7F5
330
2
100
AcDbEntity
  8
L-ZISSEN
100
AcDbLine
 10
176.1707781211854
 20
-3413.204227061578
 30
0.0
 11
171.4028289287545
 21
-3413.204227061578
 31
0.0
  0
LINE
  5
E7F6
330
2
100
AcDbEntity
  8
L-ZISSEN
100
AcDbLine
 10
176.1707781211854
 20
-3450.204227061578
 30
0.0
 11
171.4028289287545
 21
-3450.204227061578
 31
0.0
  0
LINE
  5
E7F8
330
2
100
AcDbEntity
  8
L-ZISSEN
100
AcDbLine
 10
171.4028289287544
 20
-3413.204227061579
 30
0.0
 11
169.2955004462119
 21
-3416.854227061579
 31
0.0
  0
LINE
  5
E7F9
330
2
100
AcDbEntity
  8
L-ZISSEN
100
AcDbLine
 10
171.4028289287544
 20
-3450.204227061578
 30
0.0
 11
169.2955004462121
 21
-3446.554227061578
 31
0.0
  0
LINE
  5
E7FA
330
2
100
AcDbEntity
  8
L-ZISSEN
100
AcDbLine
 10
176.1707781211854
 20
-3414.204227061578
 30
0.0
 11
176.1707781211854
 21
-3413.204227061578
 31
0.0
  0
LINE
  5
E7FD
330
2
100
AcDbEntity
  8
L-ZISSEN
100
AcDbLine
 10
175.1707781211854
 20
-3449.204227061578
 30
0.0
 11
175.1707781211854
 21
-3443.704227061578
 31
0.0
  0
LINE
  5
E7FF
330
2
100
AcDbEntity
  8
L-ZISSEN
100
AcDbLine
 10
172.6707781211854
 20
-3443.704227061578
 30
0.0
 11
172.6707781211854
 21
-3419.704227061578
 31
0.0
  0
LINE
  5
E800
330
2
100
AcDbEntity
  8
L-ZISSEN
100
AcDbLine
 10
175.1707781211854
 20
-3419.704227061578
 30
0.0
 11
175.1707781211854
 21
-3414.204227061578
 31
0.0
  0
LINE
  5
E801
330
2
100
AcDbEntity
  8
L-ZISSEN
100
AcDbLine
 10
176.1707781211854
 20
-3450.204227061578
 30
0.0
 11
176.1707781211854
 21
-3449.204227061578
 31
0.0
  0
LINE
  5
E802
330
2
100
AcDbEntity
  8
L-ZISSEN
100
AcDbLine
 10
193.1707781211854
 20
-3405.204227061577
 30
0.0
 11
193.1707781211854
 21
-3381.704227061578
 31
0.0
  0
LINE
  5
E803
330
2
100
AcDbEntity
  8
L-ZISSEN
100
AcDbLine
 10
203.057141757549
 20
-3416.704227061578
 30
0.0
 11
205.4491570175965
 21
-3406.17935991737
 31
0.0
  0
LINE
  5
E804
330
2
100
AcDbEntity
  8
L-ZISSEN
100
AcDbLine
 10
203.0399195471048
 20
-3446.704227061578
 30
0.0
 11
205.6535559107411
 21
-3458.204227061578
 31
0.0
  0
LINE
  5
E805
330
2
100
AcDbEntity
  8
L-ZISSEN
100
AcDbLine
 10
192.9387273136164
 20
-3413.204227061579
 30
0.0
 11
194.9594532557803
 21
-3416.704227061578
 31
0.0
  0
LINE
  5
E806
330
2
100
AcDbEntity
  8
L-ZISSEN
100
AcDbLine
 10
192.9387273136164
 20
-3450.204227061578
 30
0.0
 11
194.9594532557803
 21
-3446.704227061578
 31
0.0
  0
LINE
  5
E807
330
2
100
AcDbEntity
  8
L-ZISSEN
100
AcDbLine
 10
188.1707781211854
 20
-3413.204227061578
 30
0.0
 11
192.938727313616
 21
-3413.204227061578
 31
0.0
  0
LINE
  5
E809
330
2
100
AcDbEntity
  8
L-ZISSEN
100
AcDbLine
 10
188.1707781211854
 20
-3414.204227061578
 30
0.0
 11
188.1707781211854
 21
-3413.204227061578
 31
0.0
  0
LINE
  5
E80B
330
2
100
AcDbEntity
  8
L-ZISSEN
100
AcDbLine
 10
189.1707781211854
 20
-3443.704227061578
 30
0.0
 11
189.1707781211854
 21
-3449.204227061578
 31
0.0
  0
LINE
  5
E80D
330
2
100
AcDbEntity
  8
L-ZISSEN
100
AcDbLine
 10
191.6707781211854
 20
-3419.704227061578
 30
0.0
 11
191.6707781211854
 21
-3443.704227061578
 31
0.0
  0
LINE
  5
E80E
330
2
100
AcDbEntity
  8
L-ZISSEN
100
AcDbLine
 10
189.1707781211854
 20
-3414.204227061578
 30
0.0
 11
189.1707781211854
 21
-3419.704227061578
 31
0.0
  0
LINE
  5
E80F
330
2
100
AcDbEntity
  8
L-ZISSEN
100
AcDbLine
 10
188.1707781211854
 20
-3450.204227061578
 30
0.0
 11
192.938727313616
 21
-3450.204227061578
 31
0.0
  0
LINE
  5
E810
330
2
100
AcDbEntity
  8
L-ZISSEN
100
AcDbLine
 10
188.1707781211854
 20
-3450.204227061578
 30
0.0
 11
188.1707781211854
 21
-3449.204227061578
 31
0.0
  0
LINE
  5
E813
330
2
100
AcDbEntity
  8
L-ZISSEN
100
AcDbLine
 10
205.4491570175965
 20
-3406.17935991737
 30
0.0
 11
204.6707781211854
 21
-3405.204227061578
 31
0.0
  0
LINE
  5
E814
330
2
100
AcDbEntity
  8
L-ZISSEN
100
AcDbLine
 10
169.7863734887201
 20
-3405.204227061577
 30
0.0
 11
167.9019688562549
 21
-3396.704227061578
 31
0.0
  0
LINE
  5
E815
330
2
100
AcDbEntity
  8
L-ZISSEN
100
AcDbLine
 10
169.7863734887199
 20
-3458.204227061578
 30
0.0
 11
167.9019688562549
 21
-3466.704227061578
 31
0.0
  0
LINE
  5
E816
330
2
100
AcDbEntity
  8
L-ZISSEN
100
AcDbLine
 10
85.05518275365478
 20
-3405.204227061577
 30
0.0
 11
83.17077812119004
 21
-3396.704227061578
 31
0.0
  0
LINE
  5
E817
330
2
100
AcDbEntity
  8
L-ZISSEN
100
AcDbLine
 10
105.1707781211895
 20
-3449.204227061578
 30
0.0
 11
91.17077812118958
 21
-3449.204227061578
 31
0.0
  0
LINE
  5
E81A
330
2
100
AcDbEntity
  8
L-ZISSEN
100
AcDbLine
 10
107.6707781211895
 20
-3443.704227061578
 30
0.0
 11
88.67077812118958
 21
-3443.704227061578
 31
0.0
  0
LINE
  5
E81B
330
2
100
AcDbEntity
  8
L-ZISSEN
100
AcDbLine
 10
88.67077812118958
 20
-3419.704227061578
 30
0.0
 11
107.6707781211895
 21
-3419.704227061578
 31
0.0
  0
LINE
  5
E81C
330
2
100
AcDbEntity
  8
L-ZISSEN
100
AcDbLine
 10
91.17077812118958
 20
-3414.204227061578
 30
0.0
 11
105.1707781211895
 21
-3414.204227061578
 31
0.0
  0
LINE
  5
E81D
330
2
100
AcDbEntity
  8
L-ZISSEN
100
AcDbLine
 10
121.6535559107452
 20
-3458.204227061578
 30
0.0
 11
74.68800033163384
 21
-3458.204227061578
 31
0.0
  0
LINE
  5
E81E
330
2
100
AcDbEntity
  8
L-ZISSEN
100
AcDbLine
 10
109.1707781211895
 20
-3381.704227061578
 30
0.0
 11
87.17077812118958
 21
-3381.704227061578
 31
0.0
  0
LINE
  5
E81F
330
2
100
AcDbEntity
  8
L-ZISSEN
100
AcDbLine
 10
109.1707781211895
 20
-3389.104227061578
 30
0.0
 11
87.17077812118958
 21
-3389.104227061578
 31
0.0
  0
LINE
  5
E820
330
2
100
AcDbEntity
  8
L-ZISSEN
100
AcDbLine
 10
75.67077812118975
 20
-3405.204227061578
 30
0.0
 11
120.6707781211895
 21
-3405.204227061578
 31
0.0
  0
LINE
  5
E821
330
2
100
AcDbEntity
  8
L-ZISSEN
100
AcDbLine
 10
87.17077812118958
 20
-3381.704227061578
 30
0.0
 11
87.17077812118958
 21
-3405.204227061578
 31
0.0
  0
LINE
  5
E824
330
2
100
AcDbEntity
  8
L-ZISSEN
100
AcDbLine
 10
75.67077812118959
 20
-3405.204227061578
 30
0.0
 11
74.89239922477844
 21
-3406.17935991737
 31
0.0
  0
LINE
  5
E825
330
2
100
AcDbEntity
  8
L-ZISSEN
100
AcDbLine
 10
77.3185053939169
 20
-3416.854227061579
 30
0.0
 11
74.89239922477844
 21
-3406.17935991737
 31
0.0
  0
LINE
  5
E826
330
2
100
AcDbEntity
  8
L-ZISSEN
100
AcDbLine
 10
92.17077812118958
 20
-3413.204227061578
 30
0.0
 11
87.40282892875871
 21
-3413.204227061578
 31
0.0
  0
LINE
  5
E827
330
2
100
AcDbEntity
  8
L-ZISSEN
100
AcDbLine
 10
92.17077812118958
 20
-3450.204227061578
 30
0.0
 11
87.40282892875871
 21
-3450.204227061578
 31
0.0
  0
LINE
  5
E829
330
2
100
AcDbEntity
  8
L-ZISSEN
100
AcDbLine
 10
87.40282892875853
 20
-3413.204227061579
 30
0.0
 11
85.29550044621609
 21
-3416.854227061579
 31
0.0
  0
LINE
  5
E82A
330
2
100
AcDbEntity
  8
L-ZISSEN
100
AcDbLine
 10
87.40282892875853
 20
-3450.204227061578
 30
0.0
 11
85.29550044621601
 21
-3446.554227061578
 31
0.0
  0
LINE
  5
E82B
330
2
100
AcDbEntity
  8
L-ZISSEN
100
AcDbLine
 10
92.17077812118958
 20
-3414.204227061578
 30
0.0
 11
92.17077812118958
 21
-3413.204227061578
 31
0.0
  0
LINE
  5
E82E
330
2
100
AcDbEntity
  8
L-ZISSEN
100
AcDbLine
 10
91.17077812118958
 20
-3449.204227061578
 30
0.0
 11
91.17077812118958
 21
-3443.704227061578
 31
0.0
  0
LINE
  5
E830
330
2
100
AcDbEntity
  8
L-ZISSEN
100
AcDbLine
 10
88.67077812118958
 20
-3443.704227061578
 30
0.0
 11
88.67077812118958
 21
-3419.704227061578
 31
0.0
  0
LINE
  5
E831
330
2
100
AcDbEntity
  8
L-ZISSEN
100
AcDbLine
 10
91.17077812118958
 20
-3419.704227061578
 30
0.0
 11
91.17077812118958
 21
-3414.204227061578
 31
0.0
  0
LINE
  5
E832
330
2
100
AcDbEntity
  8
L-ZISSEN
100
AcDbLine
 10
92.17077812118958
 20
-3450.204227061578
 30
0.0
 11
92.17077812118958
 21
-3449.204227061578
 31
0.0
  0
LINE
  5
E833
330
2
100
AcDbEntity
  8
L-ZISSEN
100
AcDbLine
 10
109.1707781211895
 20
-3405.204227061577
 30
0.0
 11
109.1707781211895
 21
-3381.704227061578
 31
0.0
  0
LINE
  5
E834
330
2
100
AcDbEntity
  8
L-ZISSEN
100
AcDbLine
 10
119.0230508484624
 20
-3416.854227061579
 30
0.0
 11
121.4491570176007
 21
-3406.17935991737
 31
0.0
  0
LINE
  5
E835
330
2
100
AcDbEntity
  8
L-ZISSEN
100
AcDbLine
 10
119.0058286380179
 20
-3446.554227061579
 30
0.0
 11
121.6535559107452
 21
-3458.204227061578
 31
0.0
  0
LINE
  5
E836
330
2
100
AcDbEntity
  8
L-ZISSEN
100
AcDbLine
 10
108.9387273136206
 20
-3413.204227061579
 30
0.0
 11
111.046055796163
 21
-3416.854227061579
 31
0.0
  0
LINE
  5
E837
330
2
100
AcDbEntity
  8
L-ZISSEN
100
AcDbLine
 10
108.9387273136206
 20
-3450.204227061578
 30
0.0
 11
111.046055796163
 21
-3446.554227061578
 31
0.0
  0
LINE
  5
E838
330
2
100
AcDbEntity
  8
L-ZISSEN
100
AcDbLine
 10
104.1707781211895
 20
-3413.204227061578
 30
0.0
 11
108.9387273136201
 21
-3413.204227061578
 31
0.0
  0
LINE
  5
E83A
330
2
100
AcDbEntity
  8
L-ZISSEN
100
AcDbLine
 10
104.1707781211895
 20
-3414.204227061578
 30
0.0
 11
104.1707781211895
 21
-3413.204227061578
 31
0.0
  0
LINE
  5
E83C
330
2
100
AcDbEntity
  8
L-ZISSEN
100
AcDbLine
 10
105.1707781211895
 20
-3443.704227061578
 30
0.0
 11
105.1707781211895
 21
-3449.204227061578
 31
0.0
  0
LINE
  5
E83E
330
2
100
AcDbEntity
  8
L-ZISSEN
100
AcDbLine
 10
107.6707781211895
 20
-3419.704227061578
 30
0.0
 11
107.6707781211895
 21
-3443.704227061578
 31
0.0
  0
LINE
  5
E83F
330
2
100
AcDbEntity
  8
L-ZISSEN
100
AcDbLine
 10
105.1707781211895
 20
-3414.204227061578
 30
0.0
 11
105.1707781211895
 21
-3419.704227061578
 31
0.0
  0
LINE
  5
E840
330
2
100
AcDbEntity
  8
L-ZISSEN
100
AcDbLine
 10
104.1707781211895
 20
-3450.204227061578
 30
0.0
 11
108.9387273136201
 21
-3450.204227061578
 31
0.0
  0
LINE
  5
E841
330
2
100
AcDbEntity
  8
L-ZISSEN
100
AcDbLine
 10
104.1707781211895
 20
-3450.204227061578
 30
0.0
 11
104.1707781211895
 21
-3449.204227061578
 31
0.0
  0
LINE
  5
E844
330
2
100
AcDbEntity
  8
L-ZISSEN
100
AcDbLine
 10
121.4491570176007
 20
-3406.17935991737
 30
0.0
 11
120.6707781211895
 21
-3405.204227061578
 31
0.0
  0
LINE
  5
E845
330
2
100
AcDbEntity
  8
L-ZISSEN
100
AcDbLine
 10
85.05518275365473
 20
-3458.204227061578
 30
0.0
 11
83.17077812119004
 21
-3466.704227061578
 31
0.0
  0
LINE
  5
E846
330
2
100
AcDbEntity
  8
L-ZISSEN
100
AcDbLine
 10
110.5551827536506
 20
-3458.204227061578
 30
0.0
 11
112.4395873861159
 21
-3466.704227061578
 31
0.0
  0
LINE
  5
E847
330
2
100
AcDbEntity
  8
L-TYUSIN
100
AcDbLine
 10
182.1707781211854
 20
-3376.704227061578
 30
0.0
 11
182.1707781211854
 21
-3463.204227061578
 31
0.0
  0
LINE
  5
E848
330
2
100
AcDbEntity
  8
L-ZISSEN
100
AcDbLine
 10
161.301636695266
 20
-3446.704227061578
 30
0.0
 11
158.6880003316297
 21
-3458.204227061578
 31
0.0
  0
LINE
  5
E849
330
2
100
AcDbEntity
  8
L-ZISSEN
100
AcDbLine
 10
77.33572760436118
 20
-3446.554227061579
 30
0.0
 11
74.68800033163387
 21
-3458.204227061578
 31
0.0
  0
LINE
  5
E854
330
2
100
AcDbEntity
  8
L-TYUSIN
100
AcDbLine
 10
224.1707781211847
 20
-3391.704227061579
 30
0.0
 11
224.1707781211847
 21
-3471.704227061579
 31
0.0
  0
LINE
  5
E855
330
2
100
AcDbEntity
  8
L-ZISSEN
100
AcDbLine
 10
158.6707781211855
 20
-3619.704227061577
 30
0.0
 11
158.6707781211855
 21
-3643.611124180142
 31
0.0
  0
LINE
  5
E856
330
2
100
AcDbEntity
  8
L-ZISSEN
100
AcDbLine
 10
158.6707781211855
 20
-3643.611124180142
 30
0.0
 11
205.6707781211855
 21
-3643.611124180142
 31
0.0
  0
LINE
  5
E857
330
2
100
AcDbEntity
  8
L-ZISSEN
100
AcDbLine
 10
205.6707781211855
 20
-3643.611124180142
 30
0.0
 11
205.6707781211855
 21
-3619.704227061577
 31
0.0
  0
LINE
  5
E858
330
2
100
AcDbEntity
  8
L-ZISSEN
100
AcDbLine
 10
205.6707781211855
 20
-3619.704227061577
 30
0.0
 11
158.6707781211855
 21
-3619.704227061577
 31
0.0
  0
LINE
  5
E859
330
2
100
AcDbEntity
  8
L-ZISSEN
100
AcDbLine
 10
193.1707781211855
 20
-3613.204227061575
 30
0.0
 11
193.1707781211855
 21
-3581.704227061578
 31
0.0
  0
LINE
  5
E85A
330
2
100
AcDbEntity
  8
L-ZISSEN
100
AcDbLine
 10
193.1707781211855
 20
-3581.704227061578
 30
0.0
 11
171.1707781211855
 21
-3581.704227061578
 31
0.0
  0
LINE
  5
E85B
330
2
100
AcDbEntity
  8
L-ZISSEN
100
AcDbLine
 10
171.1707781211855
 20
-3581.704227061578
 30
0.0
 11
171.1707781211855
 21
-3613.204227061575
 31
0.0
  0
LINE
  5
E862
330
2
100
AcDbEntity
  8
L-ZISSEN
100
AcDbLine
 10
171.1707781211855
 20
-3666.704227061581
 30
0.0
 11
171.1707781211855
 21
-3681.704227061578
 31
0.0
  0
LINE
  5
E863
330
2
100
AcDbEntity
  8
L-ZISSEN
100
AcDbLine
 10
171.1707781211855
 20
-3681.704227061578
 30
0.0
 11
193.1707781211855
 21
-3681.704227061578
 31
0.0
  0
LINE
  5
E864
330
2
100
AcDbEntity
  8
L-ZISSEN
100
AcDbLine
 10
193.1707781211855
 20
-3681.704227061578
 30
0.0
 11
193.1707781211855
 21
-3665.204227061577
 31
0.0
  0
LINE
  5
E865
330
2
100
AcDbEntity
  8
L-ZISSEN
100
AcDbLine
 10
186.6707781211855
 20
-3673.704227061577
 30
0.0
 11
186.6707781211855
 21
-3669.704227061577
 31
0.0
  0
ARC
  5
E866
330
2
100
AcDbEntity
  8
L-ZISSEN
100
AcDbCircle
 10
182.1707781211855
 20
-3669.704227061577
 30
0.0
 40
4.499999999999971
100
AcDbArc
 50
0.0
 51
90.00000000000035
  0
LINE
  5
E867
330
2
100
AcDbEntity
  8
SUNPOU
100
AcDbLine
 10
182.1707781211855
 20
-3665.204227061577
 30
0.0
 11
182.1707781211855
 21
-3665.204227061577
 31
0.0
  0
ARC
  5
E868
330
2
100
AcDbEntity
  8
L-ZISSEN
100
AcDbCircle
 10
182.1707781211855
 20
-3669.704227061577
 30
0.0
 40
4.5
100
AcDbArc
 50
90.00000000000035
 51
180.0
  0
LINE
  5
E869
330
2
100
AcDbEntity
  8
L-ZISSEN
100
AcDbLine
 10
177.6707781211855
 20
-3669.704227061577
 30
0.0
 11
177.6707781211855
 21
-3673.704227061577
 31
0.0
  0
ARC
  5
E86A
330
2
100
AcDbEntity
  8
L-ZISSEN
100
AcDbCircle
 10
182.1707781211855
 20
-3673.704227061577
 30
0.0
 40
4.5
100
AcDbArc
 50
180.0
 51
270.0
  0
LINE
  5
E86B
330
2
100
AcDbEntity
  8
SUNPOU
100
AcDbLine
 10
182.1707781211855
 20
-3678.204227061577
 30
0.0
 11
182.1707781211855
 21
-3678.204227061577
 31
0.0
  0
ARC
  5
E86C
330
2
100
AcDbEntity
  8
L-ZISSEN
100
AcDbCircle
 10
182.1707781211855
 20
-3673.704227061577
 30
0.0
 40
4.5
100
AcDbArc
 50
270.0
 51
0.0
  0
LINE
  5
E86D
330
2
100
AcDbEntity
  8
L-ZISSEN
100
AcDbLine
 10
186.6707781211855
 20
-3589.704227061577
 30
0.0
 11
186.6707781211855
 21
-3593.704227061577
 31
0.0
  0
ARC
  5
E86E
330
2
100
AcDbEntity
  8
L-ZISSEN
100
AcDbCircle
 10
182.1707781211855
 20
-3593.704227061577
 30
0.0
 40
4.499999999999971
100
AcDbArc
 50
269.9999999999996
 51
0.0
  0
LINE
  5
E86F
330
2
100
AcDbEntity
  8
L-ZISSEN
100
AcDbLine
 10
182.1707781211855
 20
-3598.204227061577
 30
0.0
 11
182.1707781211855
 21
-3598.204227061577
 31
0.0
  0
ARC
  5
E870
330
2
100
AcDbEntity
  8
L-ZISSEN
100
AcDbCircle
 10
182.1707781211855
 20
-3593.704227061577
 30
0.0
 40
4.5
100
AcDbArc
 50
180.0
 51
269.9999999999996
  0
LINE
  5
E871
330
2
100
AcDbEntity
  8
L-ZISSEN
100
AcDbLine
 10
177.6707781211855
 20
-3593.704227061577
 30
0.0
 11
177.6707781211855
 21
-3589.704227061577
 31
0.0
  0
ARC
  5
E872
330
2
100
AcDbEntity
  8
L-ZISSEN
100
AcDbCircle
 10
182.1707781211855
 20
-3589.704227061577
 30
0.0
 40
4.5
100
AcDbArc
 50
90.0
 51
180.0
  0
LINE
  5
E873
330
2
100
AcDbEntity
  8
L-ZISSEN
100
AcDbLine
 10
182.1707781211855
 20
-3585.204227061577
 30
0.0
 11
182.1707781211855
 21
-3585.204227061577
 31
0.0
  0
ARC
  5
E874
330
2
100
AcDbEntity
  8
L-ZISSEN
100
AcDbCircle
 10
182.1707781211855
 20
-3589.704227061577
 30
0.0
 40
4.5
100
AcDbArc
 50
0.0
 51
90.0
  0
LINE
  5
E878
330
2
100
AcDbEntity
  8
L-ZISSEN
100
AcDbLine
 10
175.1707781211858
 20
-3618.204227061576
 30
0.0
 11
171.6447959217171
 21
-3618.204227061576
 31
0.0
  0
LINE
  5
E879
330
2
100
AcDbEntity
  8
L-ZISSEN
100
AcDbLine
 10
171.6447959217171
 20
-3618.204227061576
 30
0.0
 11
170.1707781211855
 21
-3615.256191460516
 31
0.0
  0
LINE
  5
E87B
330
2
100
AcDbEntity
  8
L-ZISSEN
100
AcDbLine
 10
105.6707781211854
 20
-3613.204227061575
 30
0.0
 11
118.5923296447219
 21
-3613.204227061574
 31
0.0
  0
LINE
  5
E87C
330
2
100
AcDbEntity
  8
L-ZISSEN
100
AcDbLine
 10
108.6967603206538
 20
-3618.204227061576
 30
0.0
 11
110.1707781211853
 21
-3615.256191460516
 31
0.0
  0
LINE
  5
E87D
330
2
100
AcDbEntity
  8
L-ZISSEN
100
AcDbLine
 10
119.6707781211818
 20
-3615.212887794732
 30
0.0
 11
118.5923296447215
 21
-3613.204227061574
 31
0.0
  0
LINE
  5
E87E
330
2
100
AcDbEntity
  8
L-ZISSEN
100
AcDbLine
 10
110.1707781211853
 20
-3615.212887794733
 30
0.0
 11
119.6707781211821
 21
-3615.212887794732
 31
0.0
  0
LINE
  5
E87F
330
2
100
AcDbEntity
  8
L-ZISSEN
100
AcDbLine
 10
105.170778121185
 20
-3618.204227061576
 30
0.0
 11
108.6967603206538
 21
-3618.204227061576
 31
0.0
  0
ARC
  5
E880
330
2
100
AcDbEntity
  8
L-ZISSEN
100
AcDbCircle
 10
105.6707781211853
 20
-3613.704227061575
 30
0.0
 40
0.5000000000001137
100
AcDbArc
 50
90.0
 51
180.0
  0
LINE
  5
E883
330
2
100
AcDbEntity
  8
L-ZISSEN
100
AcDbLine
 10
110.1707781211854
 20
-3615.212887794732
 30
0.0
 11
110.1707781211854
 21
-3619.704227061577
 31
0.0
  0
LINE
  5
E884
330
2
100
AcDbEntity
  8
L-ZISSEN
100
AcDbLine
 10
108.6967603206538
 20
-3618.204227061576
 30
0.0
 11
108.6967603206538
 21
-3619.704227061577
 31
0.0
  0
LINE
  5
E885
330
2
100
AcDbEntity
  8
L-ZISSEN
100
AcDbLine
 10
105.1707781211852
 20
-3648.904227061577
 30
0.0
 11
107.7248013846339
 21
-3648.904227061577
 31
0.0
  0
LINE
  5
E886
330
2
100
AcDbEntity
  8
L-ZISSEN
100
AcDbLine
 10
107.7248013846339
 20
-3652.404227061577
 30
0.0
 11
107.7248013846339
 21
-3648.904227061577
 31
0.0
  0
LINE
  5
E887
330
2
100
AcDbEntity
  8
L-ZISSEN
100
AcDbLine
 10
105.1707781211854
 20
-3652.404227061577
 30
0.0
 11
107.7248013846339
 21
-3652.404227061578
 31
0.0
  0
LINE
  5
E888
330
2
100
AcDbEntity
  8
L-ZISSEN
100
AcDbLine
 10
109.1707781211855
 20
-3581.704227061578
 30
0.0
 11
87.17077812118551
 21
-3581.704227061578
 31
0.0
  0
LINE
  5
E889
330
2
100
AcDbEntity
  8
L-ZISSEN
100
AcDbLine
 10
87.17077812118551
 20
-3581.704227061578
 30
0.0
 11
87.17077812118551
 21
-3613.204227061579
 31
0.0
  0
ARC
  5
E88A
330
2
100
AcDbEntity
  8
L-ZISSEN
100
AcDbCircle
 10
98.17077812118554
 20
-3593.704227061577
 30
0.0
 40
4.5
100
AcDbArc
 50
180.0
 51
269.9999999999996
  0
LINE
  5
E88B
330
2
100
AcDbEntity
  8
L-ZISSEN
100
AcDbLine
 10
109.1707781211855
 20
-3613.204227061575
 30
0.0
 11
109.1707781211855
 21
-3581.704227061578
 31
0.0
  0
LINE
  5
E88C
330
2
100
AcDbEntity
  8
L-TYUSIN
100
AcDbLine
 10
98.17077812118553
 20
-3580.204227061578
 30
0.0
 11
98.17077812118553
 21
-3683.204227061577
 31
0.0
  0
LINE
  5
E88D
330
2
100
AcDbEntity
  8
L-ZISSEN
100
AcDbLine
 10
98.17077812118553
 20
-3598.204227061577
 30
0.0
 11
98.17077812118553
 21
-3598.204227061577
 31
0.0
  0
ARC
  5
E88E
330
2
100
AcDbEntity
  8
L-ZISSEN
100
AcDbCircle
 10
98.17077812118554
 20
-3593.704227061577
 30
0.0
 40
4.499999999999971
100
AcDbArc
 50
269.9999999999996
 51
0.0
  0
LINE
  5
E88F
330
2
100
AcDbEntity
  8
L-TYUSIN
100
AcDbLine
 10
107.6707781211855
 20
-3591.704227061578
 30
0.0
 11
88.67077812118553
 21
-3591.704227061578
 31
0.0
  0
ARC
  5
E890
330
2
100
AcDbEntity
  8
L-ZISSEN
100
AcDbCircle
 10
98.17077812118553
 20
-3589.704227061577
 30
0.0
 40
4.5
100
AcDbArc
 50
90.0
 51
180.0
  0
LINE
  5
E891
330
2
100
AcDbEntity
  8
L-ZISSEN
100
AcDbLine
 10
93.67077812118552
 20
-3593.704227061577
 30
0.0
 11
93.67077812118552
 21
-3589.704227061577
 31
0.0
  0
LINE
  5
E892
330
2
100
AcDbEntity
  8
L-ZISSEN
100
AcDbLine
 10
98.17077812118553
 20
-3585.204227061577
 30
0.0
 11
98.17077812118553
 21
-3585.204227061577
 31
0.0
  0
LINE
  5
E893
330
2
100
AcDbEntity
  8
L-ZISSEN
100
AcDbLine
 10
102.6707781211855
 20
-3589.704227061577
 30
0.0
 11
102.6707781211855
 21
-3593.704227061577
 31
0.0
  0
ARC
  5
E894
330
2
100
AcDbEntity
  8
L-ZISSEN
100
AcDbCircle
 10
98.17077812118553
 20
-3589.704227061577
 30
0.0
 40
4.5
100
AcDbArc
 50
0.0
 51
90.0
  0
LINE
  5
E896
330
2
100
AcDbEntity
  8
L-ZISSEN
100
AcDbLine
 10
107.1707781211856
 20
-3609.904227061577
 30
0.0
 11
89.17077812118566
 21
-3609.904227061577
 31
0.0
  0
LINE
  5
E899
330
2
100
AcDbEntity
  8
L-ZISSEN
100
AcDbLine
 10
88.67077812118566
 20
-3612.904227061577
 30
0.0
 11
89.17077812118566
 21
-3609.904227061577
 31
0.0
  0
LINE
  5
E89A
330
2
100
AcDbEntity
  8
L-ZISSEN
100
AcDbLine
 10
88.67077812118562
 20
-3612.904227061576
 30
0.0
 11
107.6707781211856
 21
-3612.904227061577
 31
0.0
  0
LINE
  5
E89B
330
2
100
AcDbEntity
  8
L-ZISSEN
100
AcDbLine
 10
107.6707781211856
 20
-3612.904227061577
 30
0.0
 11
107.1707781211856
 21
-3609.904227061577
 31
0.0
  0
LINE
  5
E89C
330
2
100
AcDbEntity
  8
L-ZISSEN
100
AcDbLine
 10
105.1707781211856
 20
-3619.704227061577
 30
0.0
 11
105.1707781211856
 21
-3612.904227061577
 31
0.0
  0
LINE
  5
E89D
330
2
100
AcDbEntity
  8
L-ZISSEN
100
AcDbLine
 10
121.6707781211855
 20
-3619.704227061577
 30
0.0
 11
74.67077812118552
 21
-3619.704227061577
 31
0.0
  0
CIRCLE
  5
E89E
330
2
100
AcDbEntity
  8
L-ZISSEN
100
AcDbCircle
 10
98.1707781211854
 20
-3631.704227061578
 30
0.0
 40
3.0
  0
CIRCLE
  5
E89F
330
2
100
AcDbEntity
  8
L-ZISSEN
100
AcDbCircle
 10
98.1707781211854
 20
-3631.704227061578
 30
0.0
 40
3.0
  0
CIRCLE
  5
E8A0
330
2
100
AcDbEntity
  8
L-ZISSEN
100
AcDbCircle
 10
98.1707781211854
 20
-3631.704227061578
 30
0.0
 40
3.299999999999999
  0
CIRCLE
  5
E8A1
330
2
100
AcDbEntity
  8
L-ZISSEN
100
AcDbCircle
 10
98.1707781211854
 20
-3631.704227061578
 30
0.0
 40
6.5
  0
LINE
  5
E8A2
330
2
100
AcDbEntity
  8
L-ZISSEN
100
AcDbLine
 10
121.6707781211855
 20
-3643.611124180142
 30
0.0
 11
121.6707781211855
 21
-3619.704227061577
 31
0.0
  0
LINE
  5
E8A3
330
2
100
AcDbEntity
  8
L-ZISSEN
100
AcDbLine
 10
74.67077812118552
 20
-3619.704227061577
 30
0.0
 11
74.67077812118552
 21
-3643.611124180142
 31
0.0
  0
LINE
  5
E8A4
330
2
100
AcDbEntity
  8
L-ZISSEN
100
AcDbLine
 10
74.67077812118552
 20
-3643.611124180142
 30
0.0
 11
121.6707781211855
 21
-3643.611124180142
 31
0.0
  0
LINE
  5
E8A5
330
2
100
AcDbEntity
  8
L-ZISSEN
100
AcDbLine
 10
107.1707781211856
 20
-3651.904227061578
 30
0.0
 11
89.17077812118566
 21
-3651.904227061578
 31
0.0
  0
LINE
  5
E8A7
330
2
100
AcDbEntity
  8
L-ZISSEN
100
AcDbLine
 10
88.67077812118566
 20
-3648.904227061577
 30
0.0
 11
89.17077812118566
 21
-3651.904227061578
 31
0.0
  0
LINE
  5
E8A8
330
2
100
AcDbEntity
  8
L-ZISSEN
100
AcDbLine
 10
107.6707781211856
 20
-3648.904227061577
 30
0.0
 11
107.1707781211856
 21
-3651.904227061578
 31
0.0
  0
LINE
  5
E8A9
330
2
100
AcDbEntity
  8
SUNPOU
100
AcDbLine
 10
105.1707781211856
 20
-3648.904227061577
 30
0.0
 11
107.6707781211856
 21
-3648.904227061577
 31
0.0
  0
LINE
  5
E8AA
330
2
100
AcDbEntity
  8
L-ZISSEN
100
AcDbLine
 10
88.62967830932154
 20
-3648.904227061574
 30
0.0
 11
107.6707781211857
 21
-3648.904227061577
 31
0.0
  0
LINE
  5
E8AB
330
2
100
AcDbEntity
  8
L-ZISSEN
100
AcDbLine
 10
105.1707781211856
 20
-3648.904227061577
 30
0.0
 11
105.1707781211856
 21
-3643.611124180142
 31
0.0
  0
LINE
  5
E8AD
330
2
100
AcDbEntity
  8
L-ZISSEN
100
AcDbLine
 10
87.17077812118553
 20
-3664.404227061578
 30
0.0
 11
87.17077812118551
 21
-3681.704227061578
 31
0.0
  0
ARC
  5
E8AE
330
2
100
AcDbEntity
  8
L-ZISSEN
100
AcDbCircle
 10
98.17077812118553
 20
-3673.704227061577
 30
0.0
 40
4.5
100
AcDbArc
 50
180.0
 51
270.0
  0
LINE
  5
E8AF
330
2
100
AcDbEntity
  8
L-ZISSEN
100
AcDbLine
 10
87.17077812118551
 20
-3681.704227061578
 30
0.0
 11
109.1707781211855
 21
-3681.704227061578
 31
0.0
  0
ARC
  5
E8B1
330
2
100
AcDbEntity
  8
L-ZISSEN
100
AcDbCircle
 10
98.17077812118554
 20
-3669.704227061577
 30
0.0
 40
4.5
100
AcDbArc
 50
90.00000000000035
 51
180.0
  0
LINE
  5
E8B2
330
2
100
AcDbEntity
  8
L-ZISSEN
100
AcDbLine
 10
93.67077812118552
 20
-3669.704227061577
 30
0.0
 11
93.67077812118552
 21
-3673.704227061577
 31
0.0
  0
ARC
  5
E8B4
330
2
100
AcDbEntity
  8
L-ZISSEN
100
AcDbCircle
 10
98.17077812118554
 20
-3669.704227061577
 30
0.0
 40
4.499999999999971
100
AcDbArc
 50
0.0
 51
90.00000000000035
  0
LINE
  5
E8B5
330
2
100
AcDbEntity
  8
SUNPOU
100
AcDbLine
 10
98.17077812118553
 20
-3665.204227061577
 30
0.0
 11
98.17077812118553
 21
-3665.204227061577
 31
0.0
  0
LINE
  5
E8B6
330
2
100
AcDbEntity
  8
SUNPOU
100
AcDbLine
 10
98.17077812118553
 20
-3678.204227061577
 30
0.0
 11
98.17077812118553
 21
-3678.204227061577
 31
0.0
  0
ARC
  5
E8B7
330
2
100
AcDbEntity
  8
L-ZISSEN
100
AcDbCircle
 10
98.17077812118553
 20
-3673.704227061577
 30
0.0
 40
4.5
100
AcDbArc
 50
270.0
 51
0.0
  0
LINE
  5
E8B8
330
2
100
AcDbEntity
  8
L-ZISSEN
100
AcDbLine
 10
102.6707781211855
 20
-3673.704227061577
 30
0.0
 11
102.6707781211855
 21
-3669.704227061577
 31
0.0
  0
LINE
  5
E8B9
330
2
100
AcDbEntity
  8
L-ZISSEN
100
AcDbLine
 10
109.1707781211855
 20
-3681.704227061578
 30
0.0
 11
109.1707781211855
 21
-3666.704227061581
 31
0.0
  0
LINE
  5
E8BA
330
2
100
AcDbEntity
  8
L-ZISSEN
100
AcDbLine
 10
189.1707781211856
 20
-3619.704227061577
 30
0.0
 11
189.1707781211855
 21
-3612.904227061577
 31
0.0
  0
LINE
  5
E8BB
330
2
100
AcDbEntity
  8
L-ZISSEN
100
AcDbLine
 10
175.1707781211854
 20
-3619.704227061577
 30
0.0
 11
175.1707781211855
 21
-3612.904227061577
 31
0.0
  0
LINE
  5
E8D6
330
2
100
AcDbEntity
  8
L-ZISSEN
100
AcDbLine
 10
91.17077812118564
 20
-3619.704227061577
 30
0.0
 11
91.17077812118564
 21
-3612.904227061577
 31
0.0
  0
LINE
  5
E8E1
330
2
100
AcDbEntity
  8
L-ZISSEN
100
AcDbLine
 10
-193.8292218788139
 20
-3581.70422706158
 30
0.0
 11
-193.8292218788139
 21
-3681.70422706158
 31
0.0
  0
LINE
  5
E8E2
330
2
100
AcDbEntity
  8
L-ZISSEN
100
AcDbLine
 10
-193.8292218788139
 20
-3681.70422706158
 30
0.0
 11
-186.4292218788138
 21
-3681.70422706158
 31
0.0
  0
LINE
  5
E8E3
330
2
100
AcDbEntity
  8
L-ZISSEN
100
AcDbLine
 10
-186.4292218788138
 20
-3681.70422706158
 30
0.0
 11
-186.4292218788138
 21
-3581.70422706158
 31
0.0
  0
LINE
  5
E8E4
330
2
100
AcDbEntity
  8
L-ZISSEN
100
AcDbLine
 10
-186.4292218788138
 20
-3581.70422706158
 30
0.0
 11
-193.8292218788139
 21
-3581.70422706158
 31
0.0
  0
LINE
  5
E8E5
330
2
100
AcDbEntity
  8
L-ZISSEN
100
AcDbLine
 10
-167.3292218788121
 20
-3600.704227061577
 30
0.0
 11
-120.329221878814
 21
-3600.704227061577
 31
0.0
  0
LINE
  5
E8E6
330
2
100
AcDbEntity
  8
L-ZISSEN
100
AcDbLine
 10
-118.8292218788123
 20
-3605.704227061581
 30
0.0
 11
-168.8292218788122
 21
-3605.704227061581
 31
0.0
  0
LINE
  5
E8E7
330
2
100
AcDbEntity
  8
L-ZISSEN
100
AcDbLine
 10
-168.8292218788121
 20
-3605.704227061581
 30
0.0
 11
-168.8292218788121
 21
-3618.204227061584
 31
0.0
  0
LINE
  5
E8E8
330
2
100
AcDbEntity
  8
L-ZISSEN
100
AcDbLine
 10
-167.3292218788121
 20
-3600.704227061577
 30
0.0
 11
-168.8292218788121
 21
-3602.204227061577
 31
0.0
  0
LINE
  5
E8E9
330
2
100
AcDbEntity
  8
L-ZISSEN
100
AcDbLine
 10
-168.8292218788121
 20
-3602.204227061577
 30
0.0
 11
-168.8292218788121
 21
-3605.704227061581
 31
0.0
  0
LINE
  5
E8EA
330
2
100
AcDbEntity
  8
L-ZISSEN
100
AcDbLine
 10
-154.829221878814
 20
-3594.704227061582
 30
0.0
 11
-132.829221878814
 21
-3594.704227061582
 31
0.0
  0
LINE
  5
E8EB
330
2
100
AcDbEntity
  8
L-ZISSEN
100
AcDbLine
 10
-143.8292218788121
 20
-3595.704227061581
 30
0.0
 11
-155.8292218788121
 21
-3595.704227061582
 31
0.0
  0
LINE
  5
E8EC
330
2
100
AcDbEntity
  8
L-ZISSEN
100
AcDbLine
 10
-154.829221878814
 20
-3594.704227061582
 30
0.0
 11
-155.8292218788121
 21
-3595.704227061582
 31
0.0
  0
LINE
  5
E8ED
330
2
100
AcDbEntity
  8
L-ZISSEN
100
AcDbLine
 10
-155.8292218788121
 20
-3595.704227061582
 30
0.0
 11
-155.8292218788121
 21
-3600.704227061582
 31
0.0
  0
LINE
  5
E8EE
330
2
100
AcDbEntity
  8
L-ZISSEN
100
AcDbLine
 10
-131.8292218788121
 20
-3595.704227061581
 30
0.0
 11
-143.8292218788121
 21
-3595.704227061581
 31
0.0
  0
LINE
  5
E8EF
330
2
100
AcDbEntity
  8
L-ZISSEN
100
AcDbLine
 10
-143.8292218788121
 20
-3594.704227061582
 30
0.0
 11
-143.8292218788121
 21
-3600.704227061582
 31
0.0
  0
LINE
  5
E8F0
330
2
100
AcDbEntity
  8
L-ZISSEN
100
AcDbLine
 10
-131.8292218788121
 20
-3595.704227061581
 30
0.0
 11
-132.829221878814
 21
-3594.704227061582
 31
0.0
  0
LINE
  5
E8F1
330
2
100
AcDbEntity
  8
L-ZISSEN
100
AcDbLine
 10
-131.8292218788121
 20
-3595.704227061581
 30
0.0
 11
-131.8292218788121
 21
-3600.704227061582
 31
0.0
  0
LINE
  5
E8F2
330
2
100
AcDbEntity
  8
L-ZISSEN
100
AcDbLine
 10
-118.8292218788121
 20
-3618.204227061584
 30
0.0
 11
-118.8292218788123
 21
-3605.704227061581
 31
0.0
  0
LINE
  5
E8F3
330
2
100
AcDbEntity
  8
L-ZISSEN
100
AcDbLine
 10
-118.8292218788121
 20
-3605.704227061581
 30
0.0
 11
-118.8292218788121
 21
-3602.204227061577
 31
0.0
  0
LINE
  5
E8F4
330
2
100
AcDbEntity
  8
L-ZISSEN
100
AcDbLine
 10
-118.8292218788121
 20
-3602.204227061577
 30
0.0
 11
-120.329221878814
 21
-3600.704227061577
 31
0.0
  0
ARC
  5
E97C
330
2
100
AcDbEntity
  8
L-SOUZOU
100
AcDbCircle
 10
-76.32922187881401
 20
-3612.204227061583
 30
0.0
 40
1.5
100
AcDbArc
 50
0.0
 51
90.00000000000003
  0
LINE
  5
E97D
330
2
100
AcDbEntity
  8
L-SOUZOU
100
AcDbLine
 10
-98.32922187881401
 20
-3611.304227061582
 30
0.0
 11
-83.82922187881401
 21
-3611.304227061582
 31
0.0
  0
LINE
  5
E97E
330
2
100
AcDbEntity
  8
L-SOUZOU
100
AcDbLine
 10
-99.82922187881401
 20
-3650.604227061583
 30
0.0
 11
-99.82922187881401
 21
-3612.804227061582
 31
0.0
  0
LINE
  5
E97F
330
2
100
AcDbEntity
  8
L-SOUZOU
100
AcDbLine
 10
-107.329221878814
 20
-3624.904227061583
 30
0.0
 11
-99.82922187881401
 21
-3624.904227061582
 31
0.0
  0
LINE
  5
E980
330
2
100
AcDbEntity
  8
L-SOUZOU
100
AcDbLine
 10
-107.329221878814
 20
-3638.504227061583
 30
0.0
 11
-107.329221878814
 21
-3624.904227061582
 31
0.0
  0
LINE
  5
E981
330
2
100
AcDbEntity
  8
L-SOUZOU
100
AcDbLine
 10
-108.829221878814
 20
-3638.438672354486
 30
0.0
 11
-108.8292218788138
 21
-3624.969781768678
 31
0.0
  0
LINE
  5
E982
330
2
100
AcDbEntity
  8
L-SOUZOU
100
AcDbLine
 10
-111.829221878814
 20
-3625.063536453791
 30
0.0
 11
-107.3292218788141
 21
-3624.922904426123
 31
0.0
  0
LINE
  5
E983
330
2
100
AcDbEntity
  8
L-SOUZOU
100
AcDbLine
 10
-111.829221878814
 20
-3625.919536453791
 30
0.0
 11
-108.829221878814
 21
-3625.825781768678
 31
0.0
  0
LINE
  5
E984
330
2
100
AcDbEntity
  8
L-SOUZOU
100
AcDbLine
 10
-108.829221878814
 20
-3625.825781768678
 30
0.0
 11
-107.9456075511296
 21
-3624.942167440994
 31
0.0
  0
ARC
  5
E985
330
2
100
AcDbEntity
  8
L-SOUZOU
100
AcDbCircle
 10
-98.32922187881401
 20
-3612.804227061582
 30
0.0
 40
1.5
100
AcDbArc
 50
90.00000000000003
 51
180.0
  0
LINE
  5
E986
330
2
100
AcDbEntity
  8
L-SOUZOU
100
AcDbLine
 10
-83.82922187881401
 20
-3652.704227061582
 30
0.0
 11
-83.82922187881401
 21
-3610.704227061583
 31
0.0
  0
LINE
  5
E987
330
2
100
AcDbEntity
  8
L-SOUZOU
100
AcDbLine
 10
-83.82922187881401
 20
-3610.704227061583
 30
0.0
 11
-76.32922187881401
 21
-3610.704227061583
 31
0.0
  0
LINE
  5
E988
330
2
100
AcDbEntity
  8
L-SOUZOU
100
AcDbLine
 10
-74.82922187881401
 20
-3651.204227061583
 30
0.0
 11
-74.82922187881401
 21
-3612.204227061583
 31
0.0
  0
ARC
  5
E989
330
2
100
AcDbEntity
  8
L-SOUZOU
100
AcDbCircle
 10
-76.32922187881401
 20
-3651.204227061583
 30
0.0
 40
1.5
100
AcDbArc
 50
270.0
 51
0.0
  0
LINE
  5
E98A
330
2
100
AcDbEntity
  8
L-SOUZOU
100
AcDbLine
 10
-98.32922187881401
 20
-3652.104227061583
 30
0.0
 11
-83.82922187881401
 21
-3652.104227061583
 31
0.0
  0
ARC
  5
E98B
330
2
100
AcDbEntity
  8
L-SOUZOU
100
AcDbCircle
 10
-98.32922187881401
 20
-3650.604227061583
 30
0.0
 40
1.5
100
AcDbArc
 50
180.0
 51
270.0
  0
LINE
  5
E98C
330
2
100
AcDbEntity
  8
L-SOUZOU
100
AcDbLine
 10
-107.329221878814
 20
-3638.504227061583
 30
0.0
 11
-99.82922187881401
 21
-3638.504227061583
 31
0.0
  0
LINE
  5
E98D
330
2
100
AcDbEntity
  8
L-SOUZOU
100
AcDbLine
 10
-111.829221878814
 20
-3638.344917669373
 30
0.0
 11
-107.3292218788141
 21
-3638.485549697042
 31
0.0
  0
LINE
  5
E98E
330
2
100
AcDbEntity
  8
L-SOUZOU
100
AcDbLine
 10
-83.82922187881401
 20
-3652.704227061582
 30
0.0
 11
-76.32922187881401
 21
-3652.704227061582
 31
0.0
  0
LINE
  5
E98F
330
2
100
AcDbEntity
  8
L-SOUZOU
100
AcDbLine
 10
-111.829221878814
 20
-3637.488917669373
 30
0.0
 11
-108.829221878814
 21
-3637.582672354486
 31
0.0
  0
LINE
  5
E990
330
2
100
AcDbEntity
  8
L-SOUZOU
100
AcDbLine
 10
-108.829221878814
 20
-3637.582672354486
 30
0.0
 11
-107.9456075511296
 21
-3638.46628668217
 31
0.0
  0
LINE
  5
E991
330
2
100
AcDbEntity
  8
L-ZISSEN
100
AcDbLine
 10
-112.3292218788103
 20
-3618.204227061584
 30
0.0
 11
-126.5292218788115
 21
-3618.204227061583
 31
0.0
  0
ARC
  5
E992
330
2
100
AcDbEntity
  8
L-ZISSEN
100
AcDbCircle
 10
-112.3292218788103
 20
-3618.704227061583
 30
0.0
 40
0.5000000000001137
100
AcDbArc
 50
0.0
 51
90.00000000000003
  0
LINE
  5
E996
330
2
100
AcDbEntity
  8
L-ZISSEN
100
AcDbLine
 10
-111.829221878814
 20
-3642.704227061584
 30
0.0
 11
-111.829221878814
 21
-3618.704227061583
 31
0.0
  0
LINE
  5
E999
330
2
100
AcDbEntity
  8
L-ZISSEN
100
AcDbLine
 10
-172.9292218788076
 20
-3618.204227061584
 30
0.0
 11
-161.1292218788164
 21
-3618.204227061583
 31
0.0
  0
LINE
  5
EA3E
330
2
100
AcDbEntity
  8
L-TYUSIN
100
AcDbLine
 10
98.17077812118959
 20
-3376.704227061578
 30
0.0
 11
98.17077812118959
 21
-3463.204227061578
 31
0.0
  0
LINE
  5
EA40
330
2
100
AcDbEntity
  8
L-TYUSIN
100
AcDbLine
 10
107.6707781211855
 20
-3671.704227061578
 30
0.0
 11
88.67077812118553
 21
-3671.704227061578
 31
0.0
  0
LINE
  5
EA41
330
2
100
AcDbEntity
  8
L-TYUSIN
100
AcDbLine
 10
182.1707781211855
 20
-3580.204227061578
 30
0.0
 11
182.1707781211855
 21
-3683.204227061577
 31
0.0
  0
LINE
  5
EA42
330
2
100
AcDbEntity
  8
L-TYUSIN
100
AcDbLine
 10
191.6707781211855
 20
-3591.704227061578
 30
0.0
 11
172.6707781211855
 21
-3591.704227061578
 31
0.0
  0
LINE
  5
EA43
330
2
100
AcDbEntity
  8
L-TYUSIN
100
AcDbLine
 10
191.6707781211855
 20
-3671.704227061578
 30
0.0
 11
172.6707781211855
 21
-3671.704227061578
 31
0.0
  0
LINE
  5
EA44
330
2
100
AcDbEntity
  8
L-TYUSIN
100
AcDbLine
 10
304.2490816487624
 20
-3571.668297021941
 30
0.0
 11
727.6400207247779
 21
-3571.668297021941
 31
0.0
  0
LINE
  5
EA45
330
2
100
AcDbEntity
  8
L-TYUSIN
100
AcDbLine
 10
304.2490816487624
 20
-3800.560190927714
 30
0.0
 11
304.2490816487624
 21
-3350.560147700699
 31
0.0
  0
LINE
  5
EA46
330
2
100
AcDbEntity
  8
L-ZISSEN
100
AcDbLine
 10
398.2490816487614
 20
-3422.414906898424
 30
0.0
 11
392.7490816487641
 21
-3424.355286012054
 31
0.0
  0
LINE
  5
EA47
330
2
100
AcDbEntity
  8
L-ZISSEN
100
AcDbLine
 10
394.2490816487628
 20
-3417.465800110043
 30
0.0
 11
398.2490816487614
 21
-3418.130737915826
 31
0.0
  0
TEXT
  5
EA48
330
2
100
AcDbEntity
  8
L-ZISSEN
100
AcDbText
 10
326.1579979499925
 20
-3353.298574144362
 30
0.0
 40
4.5
  1
MODEL NO. CH4-*00-*02*
100
AcDbText
  0
LINE
  5
EA49
330
2
100
AcDbEntity
  8
L-ZISSEN
100
AcDbLine
 10
369.2490816487628
 20
-3542.465800110043
 30
0.0
 11
369.2490816487628
 21
-3528.965800110044
 31
0.0
  0
LINE
  5
EA4A
330
2
100
AcDbEntity
  8
L-ZISSEN
100
AcDbLine
 10
349.2490816487627
 20
-3542.465800110043
 30
0.0
 11
349.2490816487627
 21
-3528.965800110044
 31
0.0
  0
LINE
  5
EA4B
330
2
100
AcDbEntity
  8
L-ZISSEN
100
AcDbLine
 10
349.2490816487627
 20
-3542.465800110043
 30
0.0
 11
369.2490816487628
 21
-3542.465800110043
 31
0.0
  0
LINE
  5
EA4C
330
2
100
AcDbEntity
  8
L-ZISSEN
100
AcDbLine
 10
347.2490816487628
 20
-3515.765800110044
 30
0.0
 11
371.2490816487628
 21
-3515.765800110044
 31
0.0
  0
LINE
  5
EA4D
330
2
100
AcDbEntity
  8
L-ZISSEN
100
AcDbLine
 10
347.2490816487628
 20
-3511.765800110044
 30
0.0
 11
371.2490816487628
 21
-3511.765800110044
 31
0.0
  0
LINE
  5
EA4E
330
2
100
AcDbEntity
  8
L-ZISSEN
100
AcDbLine
 10
347.2490816487628
 20
-3513.265800110044
 30
0.0
 11
371.2490816487628
 21
-3513.265800110044
 31
0.0
  0
LINE
  5
EA4F
330
2
100
AcDbEntity
  8
L-ZISSEN
100
AcDbLine
 10
349.2490816487627
 20
-3528.965800110044
 30
0.0
 11
369.2490816487628
 21
-3528.965800110044
 31
0.0
  0
LINE
  5
EA50
330
2
100
AcDbEntity
  8
L-ZISSEN
100
AcDbLine
 10
349.2490816487627
 20
-3528.265800110044
 30
0.0
 11
369.2490816487628
 21
-3528.265800110044
 31
0.0
  0
LINE
  5
EA51
330
2
100
AcDbEntity
  8
L-ZISSEN
100
AcDbLine
 10
370.2490816487628
 20
-3524.765800110044
 30
0.0
 11
348.2490816487628
 21
-3524.765800110044
 31
0.0
  0
LINE
  5
EA52
330
2
100
AcDbEntity
  8
L-ZISSEN
100
AcDbLine
 10
357.712639089568
 20
-3395.185431310714
 30
0.0
 11
344.2490816487629
 21
-3383.965800110044
 31
0.0
  0
ARC
  5
EA53
330
2
100
AcDbEntity
  8
L-ZISSEN
100
AcDbCircle
 10
337.24908164876
 20
-3501.808789716857
 30
0.0
 40
8.000000000000113
100
AcDbArc
 50
180.0
 51
256.093762934765
  0
LINE
  5
EA54
330
2
100
AcDbEntity
  8
L-ZISSEN
100
AcDbLine
 10
329.24908164876
 20
-3501.808789716857
 30
0.0
 11
329.2490816487628
 21
-3396.465800110043
 31
0.0
  0
LINE
  5
EA55
330
2
100
AcDbEntity
  8
L-ZISSEN
100
AcDbLine
 10
342.3990816487633
 20
-3406.804539021676
 30
0.0
 11
342.3990816487633
 21
-3489.304539021674
 31
0.0
  0
LINE
  5
EA56
330
2
100
AcDbEntity
  8
L-ZISSEN
100
AcDbLine
 10
333.9690816487603
 20
-3406.804539021676
 30
0.0
 11
333.969081648763
 21
-3489.304539021677
 31
0.0
  0
ARC
  5
EA57
330
2
100
AcDbEntity
  8
L-ZISSEN
100
AcDbCircle
 10
359.2490816487605
 20
-3412.952394591387
 30
0.0
 40
99.53938471878538
100
AcDbArc
 50
256.0937629349463
 51
263.0758486315294
  0
LINE
  5
EA58
330
2
100
AcDbEntity
  8
L-ZISSEN
100
AcDbLine
 10
338.1840816487595
 20
-3491.304539021676
 30
0.0
 11
333.9690816487603
 21
-3489.304539021675
 31
0.0
  0
LINE
  5
EA59
330
2
100
AcDbEntity
  8
L-ZISSEN
100
AcDbLine
 10
342.399081648761
 20
-3489.304539021675
 30
0.0
 11
338.1840816487595
 21
-3491.304539021676
 31
0.0
  0
LINE
  5
EA5A
330
2
100
AcDbEntity
  8
L-ZISSEN
100
AcDbLine
 10
347.2490816487628
 20
-3515.765800110044
 30
0.0
 11
347.2490816487628
 21
-3511.765800110044
 31
0.0
  0
LINE
  5
EA5B
330
2
100
AcDbEntity
  8
L-ZISSEN
100
AcDbLine
 10
349.2490816487627
 20
-3528.265800110044
 30
0.0
 11
349.2490816487627
 21
-3524.765800110044
 31
0.0
  0
LINE
  5
EA5C
330
2
100
AcDbEntity
  8
L-ZISSEN
100
AcDbLine
 10
350.2490816487628
 20
-3528.965800110044
 30
0.0
 11
350.2490816487632
 21
-3528.265800110044
 31
0.0
  0
LINE
  5
EA5D
330
2
100
AcDbEntity
  8
L-ZISSEN
100
AcDbLine
 10
348.2490816487628
 20
-3515.765800110044
 30
0.0
 11
348.2490816487628
 21
-3524.765800110044
 31
0.0
  0
LINE
  5
EA5E
330
2
100
AcDbEntity
  8
L-ZISSEN
100
AcDbLine
 10
333.9690816487603
 20
-3406.804539021676
 30
0.0
 11
342.3990816487633
 21
-3406.804539021676
 31
0.0
  0
TEXT
  5
EA5F
330
2
100
AcDbEntity
  8
L-ZISSEN
100
AcDbText
 10
331.2490816487629
 20
-3386.215800110043
 30
0.0
 40
4.5
  1
P.P
100
AcDbText
  0
LINE
  5
EA60
330
2
100
AcDbEntity
  8
L-ZISSEN
100
AcDbLine
 10
344.2490816487629
 20
-3383.965800110044
 30
0.0
 11
342.2490816487629
 21
-3383.965800110044
 31
0.0
  0
ARC
  5
EA61
330
2
100
AcDbEntity
  8
L-ZISSEN
100
AcDbCircle
 10
359.2490816487605
 20
-3412.952394591387
 30
0.0
 40
99.53938471878515
100
AcDbArc
 50
276.9241513684729
 51
283.9062370650422
  0
LINE
  5
EA62
330
2
100
AcDbEntity
  8
L-ZISSEN
100
AcDbLine
 10
371.2490816487628
 20
-3515.765800110044
 30
0.0
 11
371.2490816487628
 21
-3511.765800110044
 31
0.0
  0
LINE
  5
EA63
330
2
100
AcDbEntity
  8
L-ZISSEN
100
AcDbLine
 10
369.2490816487628
 20
-3528.265800110044
 30
0.0
 11
369.249081648763
 21
-3524.765800110044
 31
0.0
  0
LINE
  5
EA64
330
2
100
AcDbEntity
  8
L-ZISSEN
100
AcDbLine
 10
370.2490816487628
 20
-3515.765800110044
 30
0.0
 11
370.2490816487628
 21
-3524.765800110044
 31
0.0
  0
LINE
  5
EA65
330
2
100
AcDbEntity
  8
L-ZISSEN
100
AcDbLine
 10
368.2490816487632
 20
-3528.965800110044
 30
0.0
 11
368.2490816487628
 21
-3528.265800110044
 31
0.0
  0
SOLID
  5
EA66
330
2
100
AcDbEntity
  8
L-ZISSEN
100
AcDbTrace
 10
357.4992442896799
 20
-3395.441505070581
 30
0.0
 11
357.9260338894562
 21
-3394.92935755085
 31
0.0
 12
359.2490816487627
 22
-3396.465800110044
 32
0.0
 13
359.2490816487627
 23
-3396.465800110044
 33
0.0
  0
LINE
  5
EA67
330
2
100
AcDbEntity
  8
L-ZISSEN
100
AcDbLine
 10
384.529081648763
 20
-3406.804539021676
 30
0.0
 11
384.5290816487601
 21
-3489.304539021675
 31
0.0
  0
LINE
  5
EA68
330
2
100
AcDbEntity
  8
L-ZISSEN
100
AcDbLine
 10
376.0990816487599
 20
-3406.804539021676
 30
0.0
 11
376.0990816487599
 21
-3489.304539021677
 31
0.0
  0
LINE
  5
EA69
330
2
100
AcDbEntity
  8
L-ZISSEN
100
AcDbLine
 10
389.2490816487599
 20
-3501.808789716857
 30
0.0
 11
389.2490816487628
 21
-3396.465800110043
 31
0.0
  0
ARC
  5
EA6A
330
2
100
AcDbEntity
  8
L-ZISSEN
100
AcDbCircle
 10
381.2490816487587
 20
-3501.808789716857
 30
0.0
 40
8.000000000000113
100
AcDbArc
 50
283.9062370650535
 51
0.0
  0
LINE
  5
EA6B
330
2
100
AcDbEntity
  8
L-ZISSEN
100
AcDbLine
 10
380.3140816487614
 20
-3491.304539021676
 30
0.0
 11
384.5290816487584
 21
-3489.304539021675
 31
0.0
  0
LINE
  5
EA6C
330
2
100
AcDbEntity
  8
L-ZISSEN
100
AcDbLine
 10
376.0990816487577
 20
-3489.304539021675
 30
0.0
 11
380.3140816487614
 21
-3491.304539021676
 31
0.0
  0
LINE
  5
EA6D
330
2
100
AcDbEntity
  8
L-ZISSEN
100
AcDbLine
 10
384.529081648763
 20
-3406.804539021676
 30
0.0
 11
376.0990816487599
 21
-3406.804539021676
 31
0.0
  0
LINE
  5
EA6E
330
2
100
AcDbEntity
  8
L-ZISSEN
100
AcDbLine
 10
392.7490816487641
 20
-3424.355286012054
 30
0.0
 11
392.5631769733143
 21
-3424.355286012054
 31
0.0
  0
LINE
  5
EA6F
330
2
100
AcDbEntity
  8
L-ZISSEN
100
AcDbLine
 10
392.5631769733143
 20
-3422.459306648059
 30
0.0
 11
392.5631769733143
 21
-3420.272822407124
 31
0.0
  0
LINE
  5
EA70
330
2
100
AcDbEntity
  8
L-ZISSEN
100
AcDbLine
 10
392.5631769733143
 20
-3424.355286012054
 30
0.0
 11
392.5631769733143
 21
-3396.465800110044
 31
0.0
  0
LINE
  5
EA71
330
2
100
AcDbEntity
  8
L-ZISSEN
100
AcDbLine
 10
394.2490816487628
 20
-3396.465800110044
 30
0.0
 11
394.2490816487628
 21
-3417.465800110043
 31
0.0
  0
LINE
  5
EA72
330
2
100
AcDbEntity
  8
L-ZISSEN
100
AcDbLine
 10
390.7995028295425
 20
-3429.939282395503
 30
0.0
 11
389.2490816487628
 21
-3429.939282395503
 31
0.0
  0
LINE
  5
EA73
330
2
100
AcDbEntity
  8
L-ZISSEN
100
AcDbLine
 10
389.3129189987865
 20
-3429.58876662468
 30
0.0
 11
391.0765931425583
 21
-3422.108790877236
 31
0.0
  0
LINE
  5
EA74
330
2
100
AcDbEntity
  8
L-ZISSEN
100
AcDbLine
 10
391.0765931425583
 20
-3420.272822407125
 30
0.0
 11
391.0765931425583
 21
-3422.108790877236
 31
0.0
  0
LINE
  5
EA75
330
2
100
AcDbEntity
  8
L-ZISSEN
100
AcDbLine
 10
389.2490816487628
 20
-3396.465800110043
 30
0.0
 11
389.2490816487628
 21
-3437.789794564242
 31
0.0
  0
LINE
  5
EA76
330
2
100
AcDbEntity
  8
L-ZISSEN
100
AcDbLine
 10
390.7995028295425
 20
-3429.939282395503
 30
0.0
 11
392.5631769733143
 21
-3422.459306648059
 31
0.0
  0
LINE
  5
EA77
330
2
100
AcDbEntity
  8
L-ZISSEN
100
AcDbLine
 10
392.5631769733143
 20
-3420.272822407124
 30
0.0
 11
389.2490816487628
 21
-3420.272822407124
 31
0.0
  0
LINE
  5
EA7B
330
2
100
AcDbEntity
  8
L-ZISSEN
100
AcDbLine
 10
398.2490816487614
 20
-3418.130737915826
 30
0.0
 11
398.2490816487614
 21
-3422.414906898424
 31
0.0
  0
LINE
  5
EA87
330
2
100
AcDbEntity
  8
L-ZISSEN
100
AcDbLine
 10
591.712639089568
 20
-3362.485431310714
 30
0.0
 11
578.2490816487629
 21
-3351.265800110043
 31
0.0
  0
SOLID
  5
EABE
330
2
100
AcDbEntity
  8
L-ZISSEN
100
AcDbTrace
 10
591.4992442896798
 20
-3362.74150507058
 30
0.0
 11
591.9260338894562
 21
-3362.229357550848
 31
0.0
 12
593.2490816487627
 22
-3363.765800110043
 32
0.0
 13
593.2490816487627
 23
-3363.765800110043
 33
0.0
  0
TEXT
  5
EAD0
330
2
100
AcDbEntity
  8
L-ZISSEN
100
AcDbText
 10
565.2490816487629
 20
-3353.515800110043
 30
0.0
 40
4.5
  1
P.P
100
AcDbText
  0
LINE
  5
EAD1
330
2
100
AcDbEntity
  8
L-ZISSEN
100
AcDbLine
 10
578.2490816487629
 20
-3351.265800110043
 30
0.0
 11
576.249081648763
 21
-3351.265800110043
 31
0.0
  0
TEXT
  5
EAEA
330
2
100
AcDbEntity
  8
L-ZISSEN
100
AcDbText
 10
-191.7829394585747
 20
-3695.782325044714
 30
0.0
 40
4.5
  1
P.P
100
AcDbText
  0
LINE
  5
EAEC
330
2
100
AcDbEntity
  8
L-ZISSEN
100
AcDbLine
 10
-178.7829394585747
 20
-3693.532325044714
 30
0.0
 11
-180.7829394585747
 21
-3693.532325044714
 31
0.0
  0
LINE
  5
EAEE
330
2
100
AcDbEntity
  8
L-ZISSEN
100
AcDbLine
 10
-145.365664438009
 20
-3665.684595860909
 30
0.0
 11
-178.7829394585747
 21
-3693.532325044714
 31
0.0
  0
SOLID
  5
EAEF
330
2
100
AcDbEntity
  8
L-ZISSEN
100
AcDbTrace
 10
-145.5790592378971
 20
-3665.428522101044
 30
0.0
 11
-145.1522696381208
 21
-3665.940669620775
 31
0.0
 12
-143.8292218788142
 22
-3664.40422706158
 32
0.0
 13
-143.8292218788142
 23
-3664.40422706158
 33
0.0
  0
LINE
  5
EDBC
330
2
100
AcDbEntity
  8
L-ZISSEN
100
AcDbLine
 10
174.7109108452698
 20
-3571.878962264639
 30
0.0
 11
176.7109108452698
 21
-3571.878962264639
 31
0.0
  0
TEXT
  5
EDBD
330
2
100
AcDbEntity
  8
L-ZISSEN
100
AcDbText
 10
178.4757120176821
 20
-3574.128962264639
 30
0.0
 40
4.5
  1
P.P
100
AcDbText
  0
SOLID
  5
EDBE
330
2
100
AcDbEntity
  8
L-ZISSEN
100
AcDbTrace
 10
140.8821029863344
 20
-3629.805509587248
 30
0.0
 11
141.4594532555694
 21
-3630.138842920502
 31
0.0
 12
140.1707781211856
 22
-3631.704227061578
 32
0.0
 13
140.1707781211856
 23
-3631.704227061578
 33
0.0
  0
LINE
  5
EDBF
330
2
100
AcDbEntity
  8
L-ZISSEN
100
AcDbLine
 10
141.1707781209501
 20
-3629.972176253874
 30
0.0
 11
174.7109108452698
 21
-3571.878962264639
 31
0.0
  0
LINE
  5
EFED
330
2
100
AcDbEntity
  8
L-ZISSEN
100
AcDbLine
 10
509.2490816487628
 20
-3431.465800110044
 30
0.0
 11
523.3115816487604
 21
-3427.715800110044
 31
0.0
  0
LINE
  5
EFEE
330
2
100
AcDbEntity
  8
L-ZISSEN
100
AcDbLine
 10
509.2490816487628
 20
-3422.715800110044
 30
0.0
 11
522.3740816487604
 21
-3420.840800110044
 31
0.0
  0
LINE
  5
EFEF
330
2
100
AcDbEntity
  8
L-TYUSIN
100
AcDbLine
 10
507.0622880862077
 20
-3426.462254811218
 30
0.0
 11
511.2570680611195
 21
-3426.462254811218
 31
0.0
  0
LINE
  5
EFF0
330
2
100
AcDbEntity
  8
L-ZISSEN
100
AcDbLine
 10
521.163514783597
 20
-3426.407825621089
 30
0.0
 11
509.2490816487628
 21
-3428.90218359552
 31
0.0
  0
LINE
  5
EFF1
330
2
100
AcDbEntity
  8
L-ZISSEN
100
AcDbLine
 10
509.2490816487628
 20
-3423.546972367271
 30
0.0
 11
521.163514783597
 21
-3421.844910490867
 31
0.0
  0
LINE
  5
EFF2
330
2
100
AcDbEntity
  8
L-ZISSEN
100
AcDbLine
 10
512.999081648765
 20
-3410.215800110043
 30
0.0
 11
509.249081648765
 21
-3416.465800110042
 31
0.0
  0
ARC
  5
EFF3
330
2
100
AcDbEntity
  8
L-ZISSEN
100
AcDbCircle
 10
509.2490816487628
 20
-3432.715800110044
 30
0.0
 40
1.250000000000568
100
AcDbArc
 50
180.0
 51
0.0
  0
CIRCLE
  5
EFF4
330
2
100
AcDbEntity
  8
L-ZISSEN
100
AcDbCircle
 10
509.2490816487628
 20
-3426.462254811218
 30
0.0
 40
1.25
  0
LINE
  5
EFF5
330
2
100
AcDbEntity
  8
L-ZISSEN
100
AcDbLine
 10
510.499081648765
 20
-3400.215800110042
 30
0.0
 11
507.999081648765
 21
-3400.215800110042
 31
0.0
  0
LINE
  5
EFF6
330
2
100
AcDbEntity
  8
L-ZISSEN
100
AcDbLine
 10
496.4365816487627
 20
-3436.465800110044
 30
0.0
 11
522.0615816487627
 21
-3436.465800110044
 31
0.0
  0
LINE
  5
EFF7
330
2
100
AcDbEntity
  8
L-ZISSEN
100
AcDbLine
 10
507.999081648765
 20
-3400.215800110042
 30
0.0
 11
507.999081648765
 21
-3410.215800110043
 31
0.0
  0
LINE
  5
EFF8
330
2
100
AcDbEntity
  8
L-ZISSEN
100
AcDbLine
 10
507.999081648765
 20
-3400.215800110042
 30
0.0
 11
507.999081648765
 21
-3410.215800110043
 31
0.0
  0
LINE
  5
EFF9
330
2
100
AcDbEntity
  8
L-ZISSEN
100
AcDbLine
 10
506.1240816487628
 20
-3402.715800110044
 30
0.0
 11
506.1240816487628
 21
-3403.965800110044
 31
0.0
  0
LINE
  5
EFFA
330
2
100
AcDbEntity
  8
L-ZISSEN
100
AcDbLine
 10
507.9990816487605
 20
-3431.13246677671
 30
0.0
 11
507.9990816487628
 21
-3432.715800110044
 31
0.0
  0
LINE
  5
EFFB
330
2
100
AcDbEntity
  8
L-ZISSEN
100
AcDbLine
 10
509.2490816487628
 20
-3431.465800110044
 30
0.0
 11
509.2490816487628
 21
-3428.90218359552
 31
0.0
  0
LINE
  5
EFFC
330
2
100
AcDbEntity
  8
L-ZISSEN
100
AcDbLine
 10
509.2490816487628
 20
-3422.715800110044
 30
0.0
 11
509.2490816487628
 21
-3423.546972367271
 31
0.0
  0
LINE
  5
EFFD
330
2
100
AcDbEntity
  8
L-ZISSEN
100
AcDbLine
 10
505.499081648765
 20
-3410.215800110043
 30
0.0
 11
509.249081648765
 21
-3416.465800110042
 31
0.0
  0
LINE
  5
EFFE
330
2
100
AcDbEntity
  8
L-ZISSEN
100
AcDbLine
 10
507.999081648765
 20
-3410.215800110043
 30
0.0
 11
505.499081648765
 21
-3410.215800110043
 31
0.0
  0
LINE
  5
EFFF
330
2
100
AcDbEntity
  8
L-ZISSEN
100
AcDbLine
 10
501.1240816487627
 20
-3401.465800110044
 30
0.0
 11
497.9990816487627
 21
-3403.340800110044
 31
0.0
  0
LINE
  5
F000
330
2
100
AcDbEntity
  8
L-ZISSEN
100
AcDbLine
 10
501.1240816487627
 20
-3405.215800110044
 30
0.0
 11
497.9990816487627
 21
-3403.340800110044
 31
0.0
  0
LINE
  5
F001
330
2
100
AcDbEntity
  8
L-ZISSEN
100
AcDbLine
 10
495.1865816487605
 20
-3427.715800110044
 30
0.0
 11
497.3346485139284
 21
-3426.407825621089
 31
0.0
  0
LINE
  5
F002
330
2
100
AcDbEntity
  8
L-ZISSEN
100
AcDbLine
 10
495.1865816487605
 20
-3396.465800110044
 30
0.0
 11
495.1865816487605
 21
-3435.215800110044
 31
0.0
  0
LINE
  5
F003
330
2
100
AcDbEntity
  8
L-ZISSEN
100
AcDbLine
 10
495.1865816487605
 20
-3396.465800110044
 30
0.0
 11
495.1865816487605
 21
-3420.255075477177
 31
0.0
  0
LINE
  5
F004
330
2
100
AcDbEntity
  8
L-ZISSEN
100
AcDbLine
 10
497.3346485139284
 20
-3421.013738233639
 30
0.0
 11
496.1240816487605
 21
-3420.840800110044
 31
0.0
  0
LINE
  5
F005
330
2
100
AcDbEntity
  8
L-ZISSEN
100
AcDbLine
 10
497.3346485139284
 20
-3421.844910490867
 30
0.0
 11
496.1240816487605
 21
-3420.840800110044
 31
0.0
  0
LINE
  5
F006
330
2
100
AcDbEntity
  8
L-ZISSEN
100
AcDbLine
 10
497.3346485139284
 20
-3421.844910490867
 30
0.0
 11
497.3346485139284
 21
-3426.407825621089
 31
0.0
  0
LINE
  5
F007
330
2
100
AcDbEntity
  8
L-ZISSEN
100
AcDbLine
 10
496.1240816487605
 20
-3396.465800110044
 30
0.0
 11
496.1240816487605
 21
-3420.840800110044
 31
0.0
  0
ARC
  5
F008
330
2
100
AcDbEntity
  8
L-ZISSEN
100
AcDbCircle
 10
496.4365816487627
 20
-3435.215800110044
 30
0.0
 40
1.250000000000568
100
AcDbArc
 50
180.0
 51
270.0
  0
LINE
  5
F009
330
2
100
AcDbEntity
  8
L-ZISSEN
100
AcDbLine
 10
499.8740816487628
 20
-3428.965800110043
 30
0.0
 11
499.8740816487605
 21
-3436.465800110044
 31
0.0
  0
LINE
  5
F00A
330
2
100
AcDbEntity
  8
L-ZISSEN
100
AcDbLine
 10
501.1240816487627
 20
-3402.715800110044
 30
0.0
 11
501.1240816487627
 21
-3401.465800110044
 31
0.0
  0
LINE
  5
F00B
330
2
100
AcDbEntity
  8
L-ZISSEN
100
AcDbLine
 10
501.1240816487627
 20
-3403.965800110044
 30
0.0
 11
501.1240816487627
 21
-3405.215800110044
 31
0.0
  0
LINE
  5
F00C
330
2
100
AcDbEntity
  8
L-ZISSEN
100
AcDbLine
 10
509.2490816487628
 20
-3422.715800110044
 30
0.0
 11
496.1240816487605
 21
-3420.840800110044
 31
0.0
  0
LINE
  5
F00D
330
2
100
AcDbEntity
  8
L-ZISSEN
100
AcDbLine
 10
497.3346485139284
 20
-3426.407825621089
 30
0.0
 11
509.2490816487628
 21
-3428.90218359552
 31
0.0
  0
LINE
  5
F00E
330
2
100
AcDbEntity
  8
L-ZISSEN
100
AcDbLine
 10
509.2490816487628
 20
-3423.546972367271
 30
0.0
 11
497.3346485139284
 21
-3421.844910490867
 31
0.0
  0
LINE
  5
F00F
330
2
100
AcDbEntity
  8
L-ZISSEN
100
AcDbLine
 10
509.2490816487628
 20
-3431.465800110044
 30
0.0
 11
495.1865816487605
 21
-3427.715800110044
 31
0.0
  0
LINE
  5
F010
330
2
100
AcDbEntity
  8
L-ZISSEN
100
AcDbLine
 10
506.1240816487628
 20
-3403.965800110044
 30
0.0
 11
501.1240816487627
 21
-3403.965800110044
 31
0.0
  0
LINE
  5
F011
330
2
100
AcDbEntity
  8
L-ZISSEN
100
AcDbLine
 10
506.1240816487628
 20
-3403.965800110044
 30
0.0
 11
501.1240816487627
 21
-3403.965800110044
 31
0.0
  0
LINE
  5
F012
330
2
100
AcDbEntity
  8
L-ZISSEN
100
AcDbLine
 10
506.1240816487628
 20
-3402.715800110044
 30
0.0
 11
501.1240816487627
 21
-3402.715800110044
 31
0.0
  0
LINE
  5
F013
330
2
100
AcDbEntity
  8
L-ZISSEN
100
AcDbLine
 10
506.1240816487628
 20
-3402.715800110044
 30
0.0
 11
501.1240816487627
 21
-3402.715800110044
 31
0.0
  0
LINE
  5
F014
330
2
100
AcDbEntity
  8
L-ZISSEN
100
AcDbLine
 10
521.163514783597
 20
-3421.844910490867
 30
0.0
 11
522.3740816487604
 21
-3420.840800110044
 31
0.0
  0
LINE
  5
F015
330
2
100
AcDbEntity
  8
L-ZISSEN
100
AcDbLine
 10
521.163514783597
 20
-3421.013738233639
 30
0.0
 11
522.3740816487604
 21
-3420.840800110044
 31
0.0
  0
LINE
  5
F016
330
2
100
AcDbEntity
  8
L-ZISSEN
100
AcDbLine
 10
523.3115816487604
 20
-3427.715800110044
 30
0.0
 11
521.163514783597
 21
-3426.407825621089
 31
0.0
  0
LINE
  5
F017
330
2
100
AcDbEntity
  8
L-ZISSEN
100
AcDbLine
 10
510.499081648765
 20
-3410.215800110043
 30
0.0
 11
512.999081648765
 21
-3410.215800110043
 31
0.0
  0
LINE
  5
F018
330
2
100
AcDbEntity
  8
L-ZISSEN
100
AcDbLine
 10
510.499081648765
 20
-3400.215800110042
 30
0.0
 11
510.499081648765
 21
-3410.215800110043
 31
0.0
  0
LINE
  5
F019
330
2
100
AcDbEntity
  8
L-ZISSEN
100
AcDbLine
 10
510.499081648765
 20
-3400.215800110042
 30
0.0
 11
510.499081648765
 21
-3410.215800110043
 31
0.0
  0
LINE
  5
F01A
330
2
100
AcDbEntity
  8
L-ZISSEN
100
AcDbLine
 10
510.4990816487627
 20
-3431.13246677671
 30
0.0
 11
510.4990816487627
 21
-3432.715800110044
 31
0.0
  0
LINE
  5
F01B
330
2
100
AcDbEntity
  8
L-ZISSEN
100
AcDbLine
 10
517.3740816487627
 20
-3401.465800110043
 30
0.0
 11
520.4990816487627
 21
-3403.340800110043
 31
0.0
  0
LINE
  5
F01C
330
2
100
AcDbEntity
  8
L-ZISSEN
100
AcDbLine
 10
517.3740816487627
 20
-3402.715800110043
 30
0.0
 11
517.3740816487627
 21
-3401.465800110043
 31
0.0
  0
LINE
  5
F01D
330
2
100
AcDbEntity
  8
L-ZISSEN
100
AcDbLine
 10
517.3740816487627
 20
-3405.215800110044
 30
0.0
 11
520.4990816487627
 21
-3403.340800110043
 31
0.0
  0
LINE
  5
F01E
330
2
100
AcDbEntity
  8
L-ZISSEN
100
AcDbLine
 10
517.3740816487627
 20
-3403.965800110043
 30
0.0
 11
517.3740816487627
 21
-3405.215800110044
 31
0.0
  0
LINE
  5
F01F
330
2
100
AcDbEntity
  8
L-ZISSEN
100
AcDbLine
 10
521.163514783597
 20
-3421.844910490867
 30
0.0
 11
521.163514783597
 21
-3426.407825621089
 31
0.0
  0
LINE
  5
F020
330
2
100
AcDbEntity
  8
L-ZISSEN
100
AcDbLine
 10
512.3740816487627
 20
-3402.715800110043
 30
0.0
 11
512.3740816487627
 21
-3403.965800110043
 31
0.0
  0
LINE
  5
F021
330
2
100
AcDbEntity
  8
L-ZISSEN
100
AcDbLine
 10
512.3740816487627
 20
-3403.965800110043
 30
0.0
 11
517.3740816487627
 21
-3403.965800110043
 31
0.0
  0
LINE
  5
F022
330
2
100
AcDbEntity
  8
L-ZISSEN
100
AcDbLine
 10
512.3740816487627
 20
-3403.965800110043
 30
0.0
 11
517.3740816487627
 21
-3403.965800110043
 31
0.0
  0
LINE
  5
F023
330
2
100
AcDbEntity
  8
L-ZISSEN
100
AcDbLine
 10
512.3740816487627
 20
-3402.715800110043
 30
0.0
 11
517.3740816487627
 21
-3402.715800110043
 31
0.0
  0
LINE
  5
F024
330
2
100
AcDbEntity
  8
L-ZISSEN
100
AcDbLine
 10
512.3740816487627
 20
-3402.715800110043
 30
0.0
 11
517.3740816487627
 21
-3402.715800110043
 31
0.0
  0
LINE
  5
F025
330
2
100
AcDbEntity
  8
L-ZISSEN
100
AcDbLine
 10
518.6240816487604
 20
-3428.965800110044
 30
0.0
 11
518.6240816487604
 21
-3436.465800110044
 31
0.0
  0
LINE
  5
F026
330
2
100
AcDbEntity
  8
L-ZISSEN
100
AcDbLine
 10
523.3115816487604
 20
-3396.465800110044
 30
0.0
 11
523.3115816487604
 21
-3435.215800110044
 31
0.0
  0
LINE
  5
F027
330
2
100
AcDbEntity
  8
L-ZISSEN
100
AcDbLine
 10
523.3115816487604
 20
-3396.465800110044
 30
0.0
 11
523.3115816487604
 21
-3420.255075477177
 31
0.0
  0
LINE
  5
F028
330
2
100
AcDbEntity
  8
L-ZISSEN
100
AcDbLine
 10
522.3740816487604
 20
-3396.465800110044
 30
0.0
 11
522.3740816487604
 21
-3420.840800110044
 31
0.0
  0
ARC
  5
F029
330
2
100
AcDbEntity
  8
L-ZISSEN
100
AcDbCircle
 10
522.0615816487627
 20
-3435.215800110044
 30
0.0
 40
1.249999999999715
100
AcDbArc
 50
270.0
 51
0.0
  0
LINE
  5
F02A
330
2
100
AcDbEntity
  8
L-ZISSEN
100
AcDbLine
 10
539.24908164876
 20
-3501.808789716857
 30
0.0
 11
539.2490816487627
 21
-3396.465800110043
 31
0.0
  0
LINE
  5
F02B
330
2
100
AcDbEntity
  8
L-ZISSEN
100
AcDbLine
 10
534.5290816487629
 20
-3406.804539021675
 30
0.0
 11
534.5290816487629
 21
-3489.304539021677
 31
0.0
  0
LINE
  5
F02C
330
2
100
AcDbEntity
  8
L-ZISSEN
100
AcDbLine
 10
530.3140816487637
 20
-3491.304539021676
 30
0.0
 11
534.5290816487629
 21
-3489.304539021675
 31
0.0
  0
LINE
  5
F02D
330
2
100
AcDbEntity
  8
L-ZISSEN
100
AcDbLine
 10
499.2490816487627
 20
-3542.465800110043
 30
0.0
 11
519.2490816487627
 21
-3542.465800110043
 31
0.0
  0
LINE
  5
F02E
330
2
100
AcDbEntity
  8
L-ZISSEN
100
AcDbLine
 10
499.2490816487627
 20
-3528.965800110043
 30
0.0
 11
519.2490816487627
 21
-3528.965800110043
 31
0.0
  0
LINE
  5
F02F
330
2
100
AcDbEntity
  8
L-ZISSEN
100
AcDbLine
 10
499.2490816487627
 20
-3528.265800110044
 30
0.0
 11
519.2490816487627
 21
-3528.265800110044
 31
0.0
  0
LINE
  5
F030
330
2
100
AcDbEntity
  8
L-ZISSEN
100
AcDbLine
 10
520.2490816487627
 20
-3524.765800110044
 30
0.0
 11
498.2490816487628
 21
-3524.765800110044
 31
0.0
  0
LINE
  5
F031
330
2
100
AcDbEntity
  8
L-ZISSEN
100
AcDbLine
 10
497.2490816487628
 20
-3515.765800110044
 30
0.0
 11
521.2490816487627
 21
-3515.765800110044
 31
0.0
  0
LINE
  5
F032
330
2
100
AcDbEntity
  8
L-ZISSEN
100
AcDbLine
 10
497.2490816487628
 20
-3511.765800110044
 30
0.0
 11
521.2490816487627
 21
-3511.765800110044
 31
0.0
  0
LINE
  5
F033
330
2
100
AcDbEntity
  8
L-ZISSEN
100
AcDbLine
 10
497.2490816487628
 20
-3513.265800110044
 30
0.0
 11
521.2490816487627
 21
-3513.265800110044
 31
0.0
  0
LINE
  5
F034
330
2
100
AcDbEntity
  8
L-ZISSEN
100
AcDbLine
 10
499.2490816487627
 20
-3542.465800110043
 30
0.0
 11
499.2490816487627
 21
-3528.965800110043
 31
0.0
  0
ARC
  5
F035
330
2
100
AcDbEntity
  8
L-ZISSEN
100
AcDbCircle
 10
509.2490816487605
 20
-3412.952394591387
 30
0.0
 40
99.53938471878538
100
AcDbArc
 50
256.0937629349463
 51
263.0758486315294
  0
LINE
  5
F036
330
2
100
AcDbEntity
  8
L-ZISSEN
100
AcDbLine
 10
488.1840816487618
 20
-3491.304539021676
 30
0.0
 11
483.9690816487626
 21
-3489.304539021675
 31
0.0
  0
ARC
  5
F037
330
2
100
AcDbEntity
  8
L-ZISSEN
100
AcDbCircle
 10
487.2490816487601
 20
-3501.808789716857
 30
0.0
 40
8.000000000000113
100
AcDbArc
 50
180.0
 51
256.093762934765
  0
LINE
  5
F038
330
2
100
AcDbEntity
  8
L-ZISSEN
100
AcDbLine
 10
492.3990816487633
 20
-3489.304539021677
 30
0.0
 11
488.1840816487618
 21
-3491.304539021676
 31
0.0
  0
LINE
  5
F039
330
2
100
AcDbEntity
  8
L-ZISSEN
100
AcDbLine
 10
497.2490816487628
 20
-3515.765800110044
 30
0.0
 11
497.2490816487628
 21
-3511.765800110044
 31
0.0
  0
LINE
  5
F03A
330
2
100
AcDbEntity
  8
L-ZISSEN
100
AcDbLine
 10
500.2490816487628
 20
-3528.965800110043
 30
0.0
 11
500.2490816487632
 21
-3528.265800110044
 31
0.0
  0
LINE
  5
F03B
330
2
100
AcDbEntity
  8
L-ZISSEN
100
AcDbLine
 10
499.2490816487627
 20
-3528.265800110044
 30
0.0
 11
499.2490816487627
 21
-3524.765800110044
 31
0.0
  0
LINE
  5
F03C
330
2
100
AcDbEntity
  8
L-ZISSEN
100
AcDbLine
 10
498.2490816487628
 20
-3515.765800110044
 30
0.0
 11
498.2490816487628
 21
-3524.765800110044
 31
0.0
  0
LINE
  5
F03D
330
2
100
AcDbEntity
  8
L-ZISSEN
100
AcDbLine
 10
519.2490816487627
 20
-3542.465800110043
 30
0.0
 11
519.2490816487627
 21
-3528.965800110043
 31
0.0
  0
ARC
  5
F03E
330
2
100
AcDbEntity
  8
L-ZISSEN
100
AcDbCircle
 10
509.2490816487605
 20
-3412.952394591387
 30
0.0
 40
99.53938471878515
100
AcDbArc
 50
276.9241513684729
 51
283.9062370650422
  0
LINE
  5
F03F
330
2
100
AcDbEntity
  8
L-ZISSEN
100
AcDbLine
 10
526.0990816487622
 20
-3489.304539021677
 30
0.0
 11
530.3140816487637
 21
-3491.304539021676
 31
0.0
  0
LINE
  5
F040
330
2
100
AcDbEntity
  8
L-ZISSEN
100
AcDbLine
 10
521.2490816487627
 20
-3515.765800110044
 30
0.0
 11
521.2490816487627
 21
-3511.765800110044
 31
0.0
  0
LINE
  5
F041
330
2
100
AcDbEntity
  8
L-ZISSEN
100
AcDbLine
 10
519.2490816487627
 20
-3528.265800110044
 30
0.0
 11
519.2490816487629
 21
-3524.765800110044
 31
0.0
  0
LINE
  5
F042
330
2
100
AcDbEntity
  8
L-ZISSEN
100
AcDbLine
 10
518.2490816487631
 20
-3528.965800110043
 30
0.0
 11
518.2490816487627
 21
-3528.265800110044
 31
0.0
  0
LINE
  5
F043
330
2
100
AcDbEntity
  8
L-ZISSEN
100
AcDbLine
 10
520.2490816487627
 20
-3515.765800110044
 30
0.0
 11
520.2490816487627
 21
-3524.765800110044
 31
0.0
  0
ARC
  5
F044
330
2
100
AcDbEntity
  8
L-ZISSEN
100
AcDbCircle
 10
531.2490816487586
 20
-3501.808789716857
 30
0.0
 40
8.000000000000113
100
AcDbArc
 50
283.9062370650535
 51
0.0
  0
LINE
  5
F045
330
2
100
AcDbEntity
  8
L-ZISSEN
100
AcDbLine
 10
492.3990816487633
 20
-3406.804539021675
 30
0.0
 11
492.3990816487633
 21
-3489.304539021675
 31
0.0
  0
LINE
  5
F046
330
2
100
AcDbEntity
  8
L-ZISSEN
100
AcDbLine
 10
483.9690816487626
 20
-3406.804539021675
 30
0.0
 11
483.9690816487626
 21
-3489.304539021675
 31
0.0
  0
LINE
  5
F047
330
2
100
AcDbEntity
  8
L-ZISSEN
100
AcDbLine
 10
483.9690816487626
 20
-3406.804539021675
 30
0.0
 11
492.3990816487633
 21
-3406.804539021675
 31
0.0
  0
LINE
  5
F048
330
2
100
AcDbEntity
  8
L-ZISSEN
100
AcDbLine
 10
526.0990816487622
 20
-3406.804539021675
 30
0.0
 11
526.0990816487622
 21
-3489.304539021677
 31
0.0
  0
LINE
  5
F049
330
2
100
AcDbEntity
  8
L-ZISSEN
100
AcDbLine
 10
534.5290816487629
 20
-3406.804539021675
 30
0.0
 11
526.0990816487622
 21
-3406.804539021675
 31
0.0
  0
LINE
  5
F04A
330
2
100
AcDbEntity
  8
L-ZISSEN
100
AcDbLine
 10
479.2490816487627
 20
-3501.808789716857
 30
0.0
 11
479.2490816487627
 21
-3396.465800110044
 31
0.0
  0
LINE
  5
F46D
330
2
100
AcDbEntity
  8
L-ZISSEN
100
AcDbLine
 10
686.6842489169816
 20
-3759.703207561872
 30
0.0
 11
695.6411089805792
 21
-3758.654303195943
 31
0.0
  0
LINE
  5
F46E
330
2
100
AcDbEntity
  8
L-ZISSEN
100
AcDbLine
 10
667.249081648762
 20
-3685.80320756187
 30
0.0
 11
667.249081648762
 21
-3699.80320756187
 31
0.0
  0
LINE
  5
F46F
330
2
100
AcDbEntity
  8
L-ZISSEN
100
AcDbLine
 10
667.6490816487626
 20
-3696.80320756187
 30
0.0
 11
667.249081648762
 21
-3699.80320756187
 31
0.0
  0
LINE
  5
F470
330
2
100
AcDbEntity
  8
L-ZISSEN
100
AcDbLine
 10
687.2490816487629
 20
-3685.80320756187
 30
0.0
 11
687.2490816487629
 21
-3699.80320756187
 31
0.0
  0
LINE
  5
F471
330
2
100
AcDbEntity
  8
L-ZISSEN
100
AcDbLine
 10
686.8490816487624
 20
-3696.803207561871
 30
0.0
 11
687.2490816487629
 21
-3699.80320756187
 31
0.0
  0
LINE
  5
F472
330
2
100
AcDbEntity
  8
L-ZISSEN
100
AcDbLine
 10
635.5044907683955
 20
-3673.70320756187
 30
0.0
 11
635.5044907683973
 21
-3750.703207561871
 31
0.0
  0
LINE
  5
F473
330
2
100
AcDbEntity
  8
L-ZISSEN
 48
0.3
100
AcDbLine
 10
650.1022739639124
 20
-3750.703207561871
 30
0.0
 11
650.1022739639124
 21
-3673.70320756187
 31
0.0
  0
LINE
  5
F474
330
2
100
AcDbEntity
  8
L-ZISSEN
100
AcDbLine
 10
645.0044907683954
 20
-3673.70320756187
 30
0.0
 11
645.0044907683973
 21
-3750.703207561871
 31
0.0
  0
LINE
  5
F476
330
2
100
AcDbEntity
  8
L-ZISSEN
100
AcDbLine
 10
645.0044907683973
 20
-3750.703207561871
 30
0.0
 11
648.8022739639123
 21
-3750.703207561871
 31
0.0
  0
LINE
  5
F477
330
2
100
AcDbEntity
  8
L-TYUSIN
100
AcDbLine
 10
651.6453664776122
 20
-3745.70320756187
 30
0.0
 11
628.6044907683958
 21
-3745.70320756187
 31
0.0
  0
LINE
  5
F478
330
2
100
AcDbEntity
  8
L-ZISSEN
100
AcDbLine
 10
633.6044907683958
 20
-3746.896583234845
 30
0.0
 11
633.6044907683958
 21
-3744.009831888897
 31
0.0
  0
LINE
  5
F479
330
2
100
AcDbEntity
  8
L-ZISSEN
100
AcDbLine
 10
635.5044907683955
 20
-3750.703207561871
 30
0.0
 11
645.0044907683954
 21
-3750.703207561871
 31
0.0
  0
ARC
  5
F47A
330
2
100
AcDbEntity
  8
L-ZISSEN
100
AcDbCircle
 10
635.916493336173
 20
-3746.92799407769
 30
0.0
 40
2.312215931624567
100
AcDbArc
 50
179.2216280233924
 51
259.7359316277974
  0
ARC
  5
F47B
330
2
100
AcDbEntity
  8
L-ZISSEN
100
AcDbCircle
 10
635.916493336173
 20
-3743.978421046053
 30
0.0
 40
2.312215931624567
100
AcDbArc
 50
100.2640683722025
 51
180.7783719766075
  0
LINE
  5
F47C
330
2
100
AcDbEntity
  8
L-ZISSEN
100
AcDbLine
 10
667.249081648762
 20
-3699.80320756187
 30
0.0
 11
687.249081648762
 21
-3699.80320756187
 31
0.0
  0
LINE
  5
F47D
330
2
100
AcDbEntity
  8
L-ZISSEN
100
AcDbLine
 10
667.8139143805442
 20
-3759.703207561872
 30
0.0
 11
686.6842489169816
 21
-3759.703207561872
 31
0.0
  0
LINE
  5
F47E
330
2
100
AcDbEntity
  8
L-ZISSEN
100
AcDbLine
 10
667.8139143805447
 20
-3762.703207561872
 30
0.0
 11
686.6842489169816
 21
-3762.703207561872
 31
0.0
  0
LINE
  5
F47F
330
2
100
AcDbEntity
  8
L-ZISSEN
100
AcDbLine
 10
685.9093356866075
 20
-3764.703207561872
 30
0.0
 11
668.5888276109188
 21
-3764.703207561872
 31
0.0
  0
LINE
  5
F480
330
2
100
AcDbEntity
  8
L-ZISSEN
100
AcDbLine
 10
667.8139143805433
 20
-3759.703207561872
 30
0.0
 11
658.8570543169457
 21
-3758.654303195943
 31
0.0
  0
LINE
  5
F481
330
2
100
AcDbEntity
  8
L-ZISSEN
100
AcDbLine
 10
668.5888276109188
 20
-3764.703207561872
 30
0.0
 11
668.5888276109188
 21
-3762.703207561872
 31
0.0
  0
LINE
  5
F482
330
2
100
AcDbEntity
  8
L-ZISSEN
100
AcDbLine
 10
667.8139143805442
 20
-3759.703207561872
 30
0.0
 11
667.8139143805444
 21
-3762.703207561872
 31
0.0
  0
LINE
  5
F483
330
2
100
AcDbEntity
  8
L-ZISSEN
 48
0.3
100
AcDbLine
 10
648.8022739639123
 20
-3750.703207561871
 30
0.0
 11
650.1022739639124
 21
-3750.703207561871
 31
0.0
  0
ARC
  5
F484
330
2
100
AcDbEntity
  8
L-ZISSEN
100
AcDbCircle
 10
659.7057359975028
 20
-3748.690381307195
 30
0.0
 40
10.0
100
AcDbArc
 50
191.6119735011068
 51
265.1315559371179
  0
LINE
  5
F485
330
2
100
AcDbEntity
  8
L-ZISSEN
100
AcDbLine
 10
681.5792086676854
 20
-3764.703207561872
 30
0.0
 11
681.5792086676854
 21
-3762.703207561872
 31
0.0
  0
LINE
  5
F486
330
2
100
AcDbEntity
  8
L-ZISSEN
100
AcDbLine
 10
685.9093356866075
 20
-3764.703207561872
 30
0.0
 11
685.9093356866075
 21
-3762.703207561872
 31
0.0
  0
LINE
  5
F487
330
2
100
AcDbEntity
  8
L-ZISSEN
100
AcDbLine
 10
672.9189546298409
 20
-3764.703207561872
 30
0.0
 11
672.9189546298409
 21
-3762.703207561872
 31
0.0
  0
LINE
  5
F488
330
2
100
AcDbEntity
  8
L-ZISSEN
100
AcDbLine
 10
686.6842489169816
 20
-3759.703207561872
 30
0.0
 11
686.6842489169812
 21
-3762.703207561872
 31
0.0
  0
LINE
  5
F489
330
2
100
AcDbEntity
  8
L-ZISSEN
100
AcDbLine
 10
706.5049487102437
 20
-3669.70320756187
 30
0.0
 11
704.7890877082668
 21
-3748.94880089281
 31
0.0
  0
ARC
  5
F48A
330
2
100
AcDbEntity
  8
L-ZISSEN
100
AcDbCircle
 10
694.7924273000221
 20
-3748.690381307195
 30
0.0
 40
10.0
100
AcDbArc
 50
274.868444062882
 51
358.9999999999721
  0
LINE
  5
F48B
330
2
100
AcDbEntity
  8
L-TYUSIN
100
AcDbLine
 10
628.6044907683958
 20
-3678.703207561871
 30
0.0
 11
653.1261654780459
 21
-3678.703207561871
 31
0.0
  0
LINE
  5
F48C
330
2
100
AcDbEntity
  8
L-ZISSEN
100
AcDbLine
 10
633.6044907683958
 20
-3677.509831888897
 30
0.0
 11
633.6044907683958
 21
-3680.396583234845
 31
0.0
  0
ARC
  5
F48D
330
2
100
AcDbEntity
  8
L-ZISSEN
100
AcDbCircle
 10
635.916493336173
 20
-3680.427994077688
 30
0.0
 40
2.312215931624567
100
AcDbArc
 50
179.2216280233924
 51
259.7359316277974
  0
ARC
  5
F48E
330
2
100
AcDbEntity
  8
L-ZISSEN
100
AcDbCircle
 10
635.916493336173
 20
-3677.478421046053
 30
0.0
 40
2.312215931624567
100
AcDbArc
 50
100.2640683722025
 51
180.7783719766075
  0
LINE
  5
F48F
330
2
100
AcDbEntity
  8
L-ZISSEN
100
AcDbLine
 10
645.0044907683954
 20
-3673.70320756187
 30
0.0
 11
648.1046083071419
 21
-3673.70320756187
 31
0.0
  0
LINE
  5
F490
330
2
100
AcDbEntity
  8
L-ZISSEN
100
AcDbLine
 10
647.9932145872822
 20
-3669.70320756187
 30
0.0
 11
648.0310683859706
 21
-3673.70320756187
 31
0.0
  0
LINE
  5
F491
330
2
100
AcDbEntity
  8
L-ZISSEN
 48
0.3
100
AcDbLine
 10
650.1022739639124
 20
-3673.70320756187
 30
0.0
 11
648.1046083071419
 21
-3673.70320756187
 31
0.0
  0
LINE
  5
F492
330
2
100
AcDbEntity
  8
L-ZISSEN
100
AcDbLine
 10
635.5044907683955
 20
-3673.70320756187
 30
0.0
 11
645.0044907683954
 21
-3673.70320756187
 31
0.0
  0
LINE
  5
F493
330
2
100
AcDbEntity
  8
L-ZISSEN
100
AcDbLine
 10
695.7490816487629
 20
-3669.703207561869
 30
0.0
 11
688.749081648763
 21
-3669.70320756187
 31
0.0
  0
LINE
  5
F494
330
2
100
AcDbEntity
  8
L-ZISSEN
100
AcDbLine
 10
668.1011798878366
 20
-3678.91969474925
 30
0.0
 11
677.2490816487625
 21
-3680.834862802018
 31
0.0
  0
LINE
  5
F495
330
2
100
AcDbEntity
  8
L-ZISSEN
100
AcDbLine
 10
677.2490816487625
 20
-3682.80320756187
 30
0.0
 11
666.4518941487604
 21
-3679.92395756187
 31
0.0
  0
LINE
  5
F496
330
2
100
AcDbEntity
  8
L-ZISSEN
100
AcDbLine
 10
677.2490816487625
 20
-3676.723131620969
 30
0.0
 11
668.1011798878366
 21
-3675.416288512266
 31
0.0
  0
LINE
  5
F497
330
2
100
AcDbEntity
  8
L-ZISSEN
100
AcDbLine
 10
677.2490816487625
 20
-3676.084957561871
 30
0.0
 11
667.1717066487603
 21
-3674.64533256187
 31
0.0
  0
LINE
  5
F498
330
2
100
AcDbEntity
  8
L-ZISSEN
100
AcDbLine
 10
667.6490816487626
 20
-3696.803207561871
 30
0.0
 11
686.8490816487624
 21
-3696.803207561871
 31
0.0
  0
LINE
  5
F499
330
2
100
AcDbEntity
  8
L-ZISSEN
100
AcDbLine
 10
678.2088316487638
 20
-3658.809457561869
 30
0.0
 11
678.2088316487638
 21
-3666.487457561869
 31
0.0
  0
LINE
  5
F49A
330
2
100
AcDbEntity
  8
L-ZISSEN
100
AcDbLine
 10
678.2088316487638
 20
-3658.809457561869
 30
0.0
 11
678.2088316487638
 21
-3666.487457561869
 31
0.0
  0
LINE
  5
F49B
330
2
100
AcDbEntity
  8
L-ZISSEN
100
AcDbLine
 10
680.1283316487642
 20
-3666.487457561869
 30
0.0
 11
677.2490816487638
 21
-3671.286207561869
 31
0.0
  0
LINE
  5
F49C
330
2
100
AcDbEntity
  8
L-ZISSEN
100
AcDbLine
 10
677.2490816487625
 20
-3676.084957561871
 30
0.0
 11
677.2490816487625
 21
-3676.723131620969
 31
0.0
  0
LINE
  5
F49D
330
2
100
AcDbEntity
  8
L-ZISSEN
100
AcDbLine
 10
678.2088316487638
 20
-3666.487457561869
 30
0.0
 11
680.1283316487642
 21
-3666.487457561869
 31
0.0
  0
LINE
  5
F49E
330
2
100
AcDbEntity
  8
L-ZISSEN
100
AcDbLine
 10
676.2893316487638
 20
-3658.809457561869
 30
0.0
 11
676.2893316487638
 21
-3666.487457561869
 31
0.0
  0
LINE
  5
F49F
330
2
100
AcDbEntity
  8
L-ZISSEN
100
AcDbLine
 10
676.2893316487638
 20
-3658.809457561869
 30
0.0
 11
676.2893316487638
 21
-3666.487457561869
 31
0.0
  0
LINE
  5
F4A0
330
2
100
AcDbEntity
  8
L-ZISSEN
100
AcDbLine
 10
676.2893316487638
 20
-3666.487457561869
 30
0.0
 11
674.3698316487638
 21
-3666.487457561869
 31
0.0
  0
LINE
  5
F4A1
330
2
100
AcDbEntity
  8
L-ZISSEN
100
AcDbLine
 10
674.3698316487638
 20
-3666.487457561869
 30
0.0
 11
677.2490816487638
 21
-3671.286207561869
 31
0.0
  0
CIRCLE
  5
F4A2
330
2
100
AcDbEntity
  8
L-ZISSEN
100
AcDbCircle
 10
681.4990816487629
 20
-3690.30320756187
 30
0.0
 40
2.0
  0
LINE
  5
F4A3
330
2
100
AcDbEntity
  8
L-TYUSIN
100
AcDbLine
 10
681.4990816487629
 20
-3687.05320756187
 30
0.0
 11
681.4990816487629
 21
-3693.55320756187
 31
0.0
  0
LINE
  5
F4A4
330
2
100
AcDbEntity
  8
L-ZISSEN
100
AcDbLine
 10
669.6490816487625
 20
-3693.80320756187
 30
0.0
 11
684.8490816487624
 21
-3693.80320756187
 31
0.0
  0
LINE
  5
F4A5
330
2
100
AcDbEntity
  8
L-ZISSEN
100
AcDbLine
 10
669.6490816487625
 20
-3694.80320756187
 30
0.0
 11
684.8490816487624
 21
-3694.80320756187
 31
0.0
  0
ARC
  5
F4A6
330
2
100
AcDbEntity
  8
L-ZISSEN
100
AcDbCircle
 10
677.2490816487625
 20
-3684.55320756187
 30
0.0
 40
1.25
100
AcDbArc
 50
180.0
 51
0.0
  0
LINE
  5
F4A7
330
2
100
AcDbEntity
  8
L-TYUSIN
100
AcDbLine
 10
669.6490816487625
 20
-3690.30320756187
 30
0.0
 11
684.8490816487624
 21
-3690.30320756187
 31
0.0
  0
LINE
  5
F4A8
330
2
100
AcDbEntity
  8
L-ZISSEN
100
AcDbLine
 10
684.8490816487624
 20
-3680.776540895204
 30
0.0
 11
684.8490816487624
 21
-3694.80320756187
 31
0.0
  0
LINE
  5
F4A9
330
2
100
AcDbEntity
  8
L-ZISSEN
100
AcDbLine
 10
675.9990816487625
 20
-3684.55320756187
 30
0.0
 11
675.9990816487625
 21
-3682.469874228537
 31
0.0
  0
LINE
  5
F4AA
330
2
100
AcDbEntity
  8
L-ZISSEN
100
AcDbLine
 10
678.4990816487625
 20
-3684.55320756187
 30
0.0
 11
678.4990816487625
 21
-3682.469874228537
 31
0.0
  0
LINE
  5
F4AB
330
2
100
AcDbEntity
  8
L-ZISSEN
100
AcDbLine
 10
687.3264566487605
 20
-3656.503207561871
 30
0.0
 11
687.3264566487605
 21
-3674.64533256187
 31
0.0
  0
LINE
  5
F4AC
330
2
100
AcDbEntity
  8
L-ZISSEN
100
AcDbLine
 10
688.0462691487605
 20
-3656.503207561871
 30
0.0
 11
688.0462691487605
 21
-3679.92395756187
 31
0.0
  0
LINE
  5
F4AD
330
2
100
AcDbEntity
  8
L-ZISSEN
100
AcDbLine
 10
686.3969834096883
 20
-3675.416288512266
 30
0.0
 11
686.3969834096883
 21
-3678.91969474925
 31
0.0
  0
LINE
  5
F4AE
330
2
100
AcDbEntity
  8
L-ZISSEN
100
AcDbLine
 10
677.2490816487625
 20
-3682.80320756187
 30
0.0
 11
688.0462691487605
 21
-3679.92395756187
 31
0.0
  0
LINE
  5
F4AF
330
2
100
AcDbEntity
  8
L-ZISSEN
100
AcDbLine
 10
686.3969834096883
 20
-3678.91969474925
 30
0.0
 11
677.2490816487625
 21
-3680.834862802018
 31
0.0
  0
LINE
  5
F4B0
330
2
100
AcDbEntity
  8
L-ZISSEN
100
AcDbLine
 10
688.0462691487605
 20
-3679.92395756187
 30
0.0
 11
686.3969834096883
 21
-3678.91969474925
 31
0.0
  0
LINE
  5
F4B1
330
2
100
AcDbEntity
  8
L-ZISSEN
100
AcDbLine
 10
677.2490816487625
 20
-3676.084957561871
 30
0.0
 11
687.3264566487605
 21
-3674.64533256187
 31
0.0
  0
LINE
  5
F4B2
330
2
100
AcDbEntity
  8
L-ZISSEN
100
AcDbLine
 10
677.2490816487625
 20
-3676.723131620969
 30
0.0
 11
686.3969834096883
 21
-3675.416288512266
 31
0.0
  0
LINE
  5
F4B3
330
2
100
AcDbEntity
  8
L-ZISSEN
100
AcDbLine
 10
686.3969834096883
 20
-3674.778114453167
 30
0.0
 11
687.3264566487605
 21
-3674.64533256187
 31
0.0
  0
LINE
  5
F4B4
330
2
100
AcDbEntity
  8
L-ZISSEN
100
AcDbLine
 10
686.3969834096883
 20
-3675.416288512266
 30
0.0
 11
687.3264566487605
 21
-3674.64533256187
 31
0.0
  0
LINE
  5
F4B5
330
2
100
AcDbEntity
  8
L-ZISSEN
100
AcDbLine
 10
689.5490816487631
 20
-3661.203207561872
 30
0.0
 11
689.5490816487622
 21
-3669.70320756187
 31
0.0
  0
LINE
  5
F4B6
330
2
100
AcDbEntity
  8
L-ZISSEN
100
AcDbLine
 10
689.5490816487622
 20
-3669.70320756187
 30
0.0
 11
688.249081648762
 21
-3669.70320756187
 31
0.0
  0
LINE
  5
F4B7
330
2
100
AcDbEntity
  8
L-ZISSEN
100
AcDbLine
 10
689.5490816487622
 20
-3669.70320756187
 30
0.0
 11
688.249081648762
 21
-3669.70320756187
 31
0.0
  0
ARC
  5
F4B8
330
2
100
AcDbEntity
  8
L-ZISSEN
100
AcDbCircle
 10
687.749081648762
 20
-3685.303207561871
 30
0.0
 40
0.5
100
AcDbArc
 50
270.0
 51
0.0
  0
LINE
  5
F4B9
330
2
100
AcDbEntity
  8
L-ZISSEN
100
AcDbLine
 10
686.8490816487624
 20
-3685.80320756187
 30
0.0
 11
686.8490816487624
 21
-3696.803207561871
 31
0.0
  0
LINE
  5
F4BA
330
2
100
AcDbEntity
  8
L-ZISSEN
100
AcDbLine
 10
684.8490816487624
 20
-3685.803207561871
 30
0.0
 11
687.749081648762
 21
-3685.803207561871
 31
0.0
  0
LINE
  5
F4BB
330
2
100
AcDbEntity
  8
L-ZISSEN
100
AcDbLine
 10
688.249081648762
 20
-3656.503207561871
 30
0.0
 11
688.249081648762
 21
-3685.303207561871
 31
0.0
  0
LINE
  5
F4BC
330
2
100
AcDbEntity
  8
L-ZISSEN
100
AcDbLine
 10
707.3853647641881
 20
-3656.204227061577
 30
0.0
 11
707.2050662489896
 21
-3669.70320756187
 31
0.0
  0
LINE
  5
F4BD
330
2
100
AcDbEntity
  8
L-ZISSEN
100
AcDbLine
 10
701.2604360870205
 20
-3659.703207561872
 30
0.0
 11
701.2604360870205
 21
-3669.703207561869
 31
0.0
  0
LINE
  5
F4BE
330
2
100
AcDbEntity
  8
L-ZISSEN
100
AcDbLine
 10
701.2604360870205
 20
-3669.703207561869
 30
0.0
 11
706.5049487102437
 21
-3669.703207561869
 31
0.0
  0
LINE
  5
F4BF
330
2
100
AcDbEntity
  8
L-ZISSEN
100
AcDbLine
 10
706.5049487102437
 20
-3669.70320756187
 30
0.0
 11
707.2050662489896
 21
-3669.70320756187
 31
0.0
  0
LINE
  5
F4C0
330
2
100
AcDbEntity
  8
L-ZISSEN
100
AcDbLine
 10
695.7490816487629
 20
-3659.70320756187
 30
0.0
 11
695.7490816487629
 21
-3669.703207561869
 31
0.0
  0
LINE
  5
F4C1
330
2
100
AcDbEntity
  8
L-ZISSEN
100
AcDbLine
 10
671.0107066487621
 20
-3662.64845756187
 30
0.0
 11
668.6113316487621
 21
-3661.20883256187
 31
0.0
  0
LINE
  5
F4C2
330
2
100
AcDbEntity
  8
L-ZISSEN
100
AcDbLine
 10
671.0107066487621
 20
-3659.769207561871
 30
0.0
 11
668.6113316487621
 21
-3661.20883256187
 31
0.0
  0
LINE
  5
F4C3
330
2
100
AcDbEntity
  8
L-ZISSEN
100
AcDbLine
 10
666.749081648762
 20
-3685.803207561871
 30
0.0
 11
669.6490816487621
 21
-3685.803207561871
 31
0.0
  0
LINE
  5
F4C4
330
2
100
AcDbEntity
  8
L-ZISSEN
100
AcDbLine
 10
689.2490816487625
 20
-3656.503207561871
 30
0.0
 11
665.2490816487625
 21
-3656.503207561871
 31
0.0
  0
LINE
  5
F4C5
330
2
100
AcDbEntity
  8
L-ZISSEN
100
AcDbLine
 10
664.9490816487627
 20
-3661.203207561872
 30
0.0
 11
664.9490816487627
 21
-3669.70320756187
 31
0.0
  0
LINE
  5
F4C6
330
2
100
AcDbEntity
  8
L-ZISSEN
100
AcDbLine
 10
667.1717066487603
 20
-3656.503207561871
 30
0.0
 11
667.1717066487603
 21
-3674.64533256187
 31
0.0
  0
LINE
  5
F4C7
330
2
100
AcDbEntity
  8
L-ZISSEN
100
AcDbLine
 10
666.4518941487608
 20
-3656.503207561871
 30
0.0
 11
666.4518941487604
 21
-3679.92395756187
 31
0.0
  0
LINE
  5
F4C8
330
2
100
AcDbEntity
  8
L-ZISSEN
100
AcDbLine
 10
668.1011798878366
 20
-3675.416288512266
 30
0.0
 11
668.1011798878366
 21
-3678.91969474925
 31
0.0
  0
LINE
  5
F4C9
330
2
100
AcDbEntity
  8
L-ZISSEN
100
AcDbLine
 10
666.4518941487604
 20
-3679.92395756187
 30
0.0
 11
668.1011798878366
 21
-3678.91969474925
 31
0.0
  0
LINE
  5
F4CA
330
2
100
AcDbEntity
  8
L-ZISSEN
100
AcDbLine
 10
668.1011798878366
 20
-3675.416288512266
 30
0.0
 11
667.1717066487603
 21
-3674.64533256187
 31
0.0
  0
LINE
  5
F4CB
330
2
100
AcDbEntity
  8
L-ZISSEN
100
AcDbLine
 10
668.1011798878366
 20
-3674.778114453167
 30
0.0
 11
667.1717066487603
 21
-3674.64533256187
 31
0.0
  0
LINE
  5
F4CC
330
2
100
AcDbEntity
  8
L-ZISSEN
100
AcDbLine
 10
664.9490816487627
 20
-3669.70320756187
 30
0.0
 11
666.249081648762
 21
-3669.70320756187
 31
0.0
  0
LINE
  5
F4CD
330
2
100
AcDbEntity
  8
L-ZISSEN
100
AcDbLine
 10
664.9490816487627
 20
-3661.203207561872
 30
0.0
 11
666.249081648762
 21
-3661.203207561872
 31
0.0
  0
LINE
  5
F4CE
330
2
100
AcDbEntity
  8
L-ZISSEN
100
AcDbLine
 10
665.2490816487625
 20
-3656.204227061577
 30
0.0
 11
665.2490816487625
 21
-3656.503207561871
 31
0.0
  0
LINE
  5
F4CF
330
2
100
AcDbEntity
  8
L-ZISSEN
100
AcDbLine
 10
667.6490816487617
 20
-3685.80320756187
 30
0.0
 11
667.6490816487626
 21
-3696.80320756187
 31
0.0
  0
ARC
  5
F4D0
330
2
100
AcDbEntity
  8
L-ZISSEN
100
AcDbCircle
 10
666.749081648762
 20
-3685.303207561871
 30
0.0
 40
0.5
100
AcDbArc
 50
180.0
 51
270.0
  0
LINE
  5
F4D1
330
2
100
AcDbEntity
  8
L-ZISSEN
100
AcDbLine
 10
666.249081648762
 20
-3656.503207561871
 30
0.0
 11
666.249081648762
 21
-3685.303207561871
 31
0.0
  0
LINE
  5
F4D2
330
2
100
AcDbEntity
  8
L-ZISSEN
100
AcDbLine
 10
679.6484566487625
 20
-3660.72895756187
 30
0.0
 11
683.4874566487624
 21
-3660.72895756187
 31
0.0
  0
LINE
  5
F4D3
330
2
100
AcDbEntity
  8
L-ZISSEN
100
AcDbLine
 10
679.6484566487625
 20
-3660.72895756187
 30
0.0
 11
683.4874566487624
 21
-3660.72895756187
 31
0.0
  0
LINE
  5
F4D4
330
2
100
AcDbEntity
  8
L-ZISSEN
100
AcDbLine
 10
679.6484566487625
 20
-3661.68870756187
 30
0.0
 11
683.4874566487624
 21
-3661.68870756187
 31
0.0
  0
LINE
  5
F4D5
330
2
100
AcDbEntity
  8
L-ZISSEN
100
AcDbLine
 10
679.6484566487625
 20
-3661.68870756187
 30
0.0
 11
683.4874566487624
 21
-3661.68870756187
 31
0.0
  0
LINE
  5
F4D6
330
2
100
AcDbEntity
  8
L-ZISSEN
100
AcDbLine
 10
679.6484566487625
 20
-3660.72895756187
 30
0.0
 11
679.6484566487625
 21
-3661.68870756187
 31
0.0
  0
LINE
  5
F4D7
330
2
100
AcDbEntity
  8
L-ZISSEN
100
AcDbLine
 10
683.4874566487624
 20
-3661.68870756187
 30
0.0
 11
683.4874566487624
 21
-3662.64845756187
 31
0.0
  0
LINE
  5
F4D8
330
2
100
AcDbEntity
  8
L-ZISSEN
100
AcDbLine
 10
683.4874566487624
 20
-3660.72895756187
 30
0.0
 11
683.4874566487624
 21
-3659.769207561869
 31
0.0
  0
LINE
  5
F4D9
330
2
100
AcDbEntity
  8
L-ZISSEN
100
AcDbLine
 10
674.8497066487625
 20
-3660.72895756187
 30
0.0
 11
674.8497066487625
 21
-3661.68870756187
 31
0.0
  0
LINE
  5
F4DA
330
2
100
AcDbEntity
  8
L-ZISSEN
100
AcDbLine
 10
671.0107066487621
 20
-3661.68870756187
 30
0.0
 11
671.0107066487621
 21
-3662.64845756187
 31
0.0
  0
LINE
  5
F4DB
330
2
100
AcDbEntity
  8
L-ZISSEN
100
AcDbLine
 10
671.0107066487621
 20
-3660.72895756187
 30
0.0
 11
671.0107066487621
 21
-3659.769207561871
 31
0.0
  0
LINE
  5
F4DC
330
2
100
AcDbEntity
  8
L-ZISSEN
100
AcDbLine
 10
674.8497066487625
 20
-3660.72895756187
 30
0.0
 11
671.0107066487621
 21
-3660.72895756187
 31
0.0
  0
LINE
  5
F4DD
330
2
100
AcDbEntity
  8
L-ZISSEN
100
AcDbLine
 10
674.8497066487625
 20
-3660.72895756187
 30
0.0
 11
671.0107066487621
 21
-3660.72895756187
 31
0.0
  0
LINE
  5
F4DE
330
2
100
AcDbEntity
  8
L-ZISSEN
100
AcDbLine
 10
674.8497066487625
 20
-3661.68870756187
 30
0.0
 11
671.0107066487621
 21
-3661.68870756187
 31
0.0
  0
LINE
  5
F4DF
330
2
100
AcDbEntity
  8
L-ZISSEN
100
AcDbLine
 10
674.8497066487625
 20
-3661.68870756187
 30
0.0
 11
671.0107066487621
 21
-3661.68870756187
 31
0.0
  0
LINE
  5
F4E0
330
2
100
AcDbEntity
  8
L-ZISSEN
100
AcDbLine
 10
678.2088316487638
 20
-3658.809457561869
 30
0.0
 11
676.2893316487638
 21
-3658.809457561869
 31
0.0
  0
CIRCLE
  5
F4E1
330
2
100
AcDbEntity
  8
L-ZISSEN
100
AcDbCircle
 10
672.999081648762
 20
-3690.30320756187
 30
0.0
 40
2.0
  0
LINE
  5
F4E2
330
2
100
AcDbEntity
  8
L-TYUSIN
100
AcDbLine
 10
672.999081648762
 20
-3687.05320756187
 30
0.0
 11
672.999081648762
 21
-3693.55320756187
 31
0.0
  0
LINE
  5
F4E3
330
2
100
AcDbEntity
  8
L-ZISSEN
100
AcDbLine
 10
669.6490816487621
 20
-3680.776540895204
 30
0.0
 11
669.6490816487625
 21
-3694.80320756187
 31
0.0
  0
LINE
  5
F4E4
330
2
100
AcDbEntity
  8
L-ZISSEN
100
AcDbLine
 10
683.4874566487624
 20
-3662.64845756187
 30
0.0
 11
685.8868316487623
 21
-3661.20883256187
 31
0.0
  0
LINE
  5
F4E5
330
2
100
AcDbEntity
  8
L-ZISSEN
100
AcDbLine
 10
683.4874566487624
 20
-3659.769207561869
 30
0.0
 11
685.8868316487623
 21
-3661.20883256187
 31
0.0
  0
LINE
  5
F4E6
330
2
100
AcDbEntity
  8
L-ZISSEN
100
AcDbLine
 10
689.5490816487631
 20
-3661.203207561872
 30
0.0
 11
688.249081648762
 21
-3661.203207561872
 31
0.0
  0
LINE
  5
F4E7
330
2
100
AcDbEntity
  8
L-ZISSEN
100
AcDbLine
 10
689.2490816487621
 20
-3656.204227061576
 30
0.0
 11
689.2490816487621
 21
-3656.503207561871
 31
0.0
  0
LINE
  5
F4E8
330
2
100
AcDbEntity
  8
L-ZISSEN
100
AcDbLine
 10
658.749081648763
 20
-3659.703207561872
 30
0.0
 11
658.749081648763
 21
-3669.70320756187
 31
0.0
  0
LINE
  5
F4E9
330
2
100
AcDbEntity
  8
L-ZISSEN
100
AcDbLine
 10
658.749081648763
 20
-3669.70320756187
 30
0.0
 11
665.7490816487629
 21
-3669.70320756187
 31
0.0
  0
LINE
  5
F4EA
330
2
100
AcDbEntity
  8
L-ZISSEN
100
AcDbLine
 10
650.749081648763
 20
-3659.703207561872
 30
0.0
 11
650.749081648763
 21
-3669.70320756187
 31
0.0
  0
LINE
  5
F4EB
330
2
100
AcDbEntity
  8
L-ZISSEN
100
AcDbLine
 10
647.0457107137285
 20
-3656.204227061577
 30
0.0
 11
647.2930970485354
 21
-3669.70320756187
 31
0.0
  0
LINE
  5
F4EC
330
2
100
AcDbEntity
  8
L-ZISSEN
100
AcDbLine
 10
647.2930970485354
 20
-3669.70320756187
 30
0.0
 11
650.749081648763
 21
-3669.70320756187
 31
0.0
  0
LINE
  5
F4ED
330
2
100
AcDbEntity
  8
L-ZISSEN
100
AcDbLine
 10
650.749081648763
 20
-3659.703207561872
 30
0.0
 11
658.749081648763
 21
-3659.703207561872
 31
0.0
  0
LINE
  5
F4EE
330
2
100
AcDbEntity
  8
L-ZISSEN
100
AcDbLine
 10
695.749081648762
 20
-3659.70320756187
 30
0.0
 11
701.2604360870205
 21
-3659.703207561872
 31
0.0
  0
TEXT
  5
F4F3
330
2
100
AcDbEntity
  8
L-ZISSEN
100
AcDbText
 10
-183.653752338298
 20
-3353.298574144362
 30
0.0
 40
4.5
  1
MODEL NO. CH4-*00-*01*
100
AcDbText
  0
LINE
  5
F645
330
2
100
AcDbEntity
  8
L-ZISSEN
100
AcDbLine
 10
-164.0971710712458
 20
-3599.401522660237
 30
0.0
 11
-157.5612726863837
 21
-3599.401522660238
 31
0.0
  0
LINE
  5
F649
330
2
100
AcDbEntity
  8
L-ZISSEN
100
AcDbLine
 10
-164.8492878080341
 20
-3600.704227061577
 30
0.0
 11
-164.097171071246
 21
-3599.401522660238
 31
0.0
  0
LINE
  5
F64B
330
2
100
AcDbEntity
  8
L-ZISSEN
100
AcDbLine
 10
-136.8292218788139
 20
-3589.901522660237
 30
0.0
 11
-150.829221878814
 21
-3589.901522660237
 31
0.0
  0
LINE
  5
F64F
330
2
100
AcDbEntity
  8
L-ZISSEN
100
AcDbLine
 10
-150.829221878814
 20
-3594.704227061582
 30
0.0
 11
-150.829221878814
 21
-3589.901522660237
 31
0.0
  0
LINE
  5
F655
330
2
100
AcDbEntity
  8
L-ZISSEN
100
AcDbLine
 10
-156.8091559495953
 20
-3600.704227061577
 30
0.0
 11
-157.5612726863832
 21
-3599.401522660238
 31
0.0
  0
LINE
  5
F65C
330
2
100
AcDbEntity
  8
L-ZISSEN
100
AcDbLine
 10
-136.829221878814
 20
-3594.704227061582
 30
0.0
 11
-136.8292218788139
 21
-3589.901522660237
 31
0.0
  0
VIEWPORT
  5
69B
330
F
100
AcDbEntity
 67
     1
  8
0
100
AcDbViewport
 10
0.0
 20
0.0
 30
0.0
 40
0.0
 41
0.0
 68
     1
 69
     1
1001
ACAD
1000
MVIEW
1002
{
1070
    16
1010
0.0
1020
0.0
1030
0.0
1010
0.0
1020
0.0
1030
1.0
1040
0.0
1040
0.0
1040
0.0
1040
0.0
1040
50.0
1040
0.0
1040
0.0
1070
     0
1070
   100
1070
     1
1070
     1
1070
     0
1070
     0
1070
     0
1070
     0
1040
0.0
1040
0.0
1040
0.0
1040
10.0
1040
10.0
1040
10.0
1040
10.0
1070
     0
1002
{
1002
}
1002
}
  0
VIEWPORT
  5
69D
330
F
100
AcDbEntity
 67
     1
  8
SUNPOU
100
AcDbViewport
 10
0.0
 20
0.0
 30
0.0
 40
0.0
 41
0.0
 68
    -1
 69
     2
1001
ACAD
1000
MVIEW
1002
{
1070
    16
1010
0.0
1020
0.0
1030
0.0
1010
0.0
1020
0.0
1030
1.0
1040
0.0
1040
59.8802181911947
1040
144.5109310282361
1040
-1209.648178221134
1040
50.0
1040
0.0
1040
0.0
1070
    16
1070
   100
1070
     1
1070
     0
1070
     0
1070
     0
1070
     0
1070
     0
1040
0.0
1040
0.0
1040
0.0
1040
1.0
1040
1.0
1040
4.0
1040
4.0
1070
     0
1002
{
1002
}
1002
}
  0
ENDSEC
  0
SECTION
  2
OBJECTS
  0
DICTIONARY
  5
9
330
0
100
AcDbDictionary
  3
ACAD_GROUP
350
23
  3
ACAD_LAYOUT
350
E
  3
ACAD_MLINESTYLE
350
24
  3
ACAD_PLOTSETTINGS
350
25
1001
ACAD
1000
TREAT_AS_HARD
1070
     0
  0
DICTIONARY
  5
8E1
330
15
100
AcDbDictionary
  3
ACAD_LAYERSTATES
350
8E2
1001
ACAD
1000
TREAT_AS_HARD
1070
     1
  0
DICTIONARY
  5
3
330
2
100
AcDbDictionary
  3
ACAD_LAYOUTSELFREF
350
F83E
1001
ACAD
1000
TREAT_AS_HARD
1070
     1
  0
DICTIONARY
  5
10
330
F
100
AcDbDictionary
  3
ACAD_LAYOUTSELFREF
350
F83F
1001
ACAD
1000
TREAT_AS_HARD
1070
     1
  0
DICTIONARY
  5
23
102
{ACAD_REACTORS
330
9
102
}
330
9
100
AcDbDictionary
1001
ACAD
1000
TREAT_AS_HARD
1070
     0
  0
DICTIONARY
  5
E
102
{ACAD_REACTORS
330
9
102
}
330
9
100
AcDbDictionary
1001
ACAD
1000
TREAT_AS_HARD
1070
     0
  0
DICTIONARY
  5
24
102
{ACAD_REACTORS
330
9
102
}
330
9
100
AcDbDictionary
  3
STANDARD
350
27
1001
ACAD
1000
TREAT_AS_HARD
1070
     0
  0
DICTIONARY
  5
25
102
{ACAD_REACTORS
330
9
102
}
330
9
100
AcDbDictionary
1001
ACAD
1000
TREAT_AS_HARD
1070
     0
  0
DICTIONARY
  5
8E2
102
{ACAD_REACTORS
330
8E1
102
}
330
8E1
100
AcDbDictionary
1001
ACAD
1000
TREAT_AS_HARD
1070
     0
  0
XRECORD
  5
F83E
102
{ACAD_REACTORS
330
3
102
}
330
3
100
AcDbXrecord
340
2
  0
XRECORD
  5
F83F
102
{ACAD_REACTORS
330
10
102
}
330
10
100
AcDbXrecord
340
F
  0
MLINESTYLE
  5
27
102
{ACAD_REACTORS
330
24
102
}
330
24
100
AcDbMlineStyle
  2
STANDARD
 70
     0
  3

 62
   256
 51
90.0
 52
90.0
 71
     2
 49
0.5
 62
   256
  6
BYLAYER
 49
-0.5
 62
   256
  6
BYLAYER
  0
ENDSEC
  0
EOF
