  0
SECTION
  2
HEADER
  9
$ACADVER
  1
AC1012
  9
$DWGCODEPAGE
  3
dos932
  9
$INSBASE
 10
0.0
 20
0.0
 30
0.0
  9
$EXTMIN
 10
111.9210112575163
 20
-260.9710984636762
 30
-0.0000000000000058
  9
$EXTMAX
 10
382.0460246370519
 20
-3.905786158355113
 30
0.0000000000000104
  9
$LIMMIN
 10
0.0
 20
0.0
  9
$LIMMAX
 10
12.0
 20
9.0
  9
$ORTHOMODE
 70
     1
  9
$REGENMODE
 70
     1
  9
$FILLMODE
 70
     1
  9
$QTEXTMODE
 70
     0
  9
$MIRRTEXT
 70
     1
  9
$DRAGMODE
 70
     2
  9
$LTSCALE
 40
1.0
  9
$OSMODE
 70
    39
  9
$ATTMODE
 70
     1
  9
$TEXTSIZE
 40
4.5
  9
$TRACEWID
 40
0.05
  9
$TEXTSTYLE
  7
STANDARD
  9
$CLAYER
  8
L-TYUSIN
  9
$CELTYPE
  6
BYLAYER
  9
$CECOLOR
 62
   256
  9
$CELTSCALE
 40
1.0
  9
$DELOBJ
 70
     1
  9
$DISPSILH
 70
     0
  9
$DIMSCALE
 40
0.0
  9
$DIMASZ
 40
2.0
  9
$DIMEXO
 40
1.0
  9
$DIMDLI
 40
8.0
  9
$DIMRND
 40
0.0
  9
$DIMDLE
 40
0.0
  9
$DIMEXE
 40
1.0
  9
$DIMTP
 40
0.0
  9
$DIMTM
 40
0.0
  9
$DIMTXT
 40
4.5
  9
$DIMCEN
 40
1.5
  9
$DIMTSZ
 40
0.0
  9
$DIMTOL
 70
     0
  9
$DIMLIM
 70
     0
  9
$DIMTIH
 70
     0
  9
$DIMTOH
 70
     0
  9
$DIMSE1
 70
     0
  9
$DIMSE2
 70
     0
  9
$DIMTAD
 70
     1
  9
$DIMZIN
 70
     8
  9
$DIMBLK
  1

  9
$DIMASO
 70
     1
  9
$DIMSHO
 70
     0
  9
$DIMPOST
  1

  9
$DIMAPOST
  1

  9
$DIMALT
 70
     0
  9
$DIMALTD
 70
     2
  9
$DIMALTF
 40
25.4
  9
$DIMLFAC
 40
1.0
  9
$DIMTOFL
 70
     1
  9
$DIMTVP
 40
0.0
  9
$DIMTIX
 70
     1
  9
$DIMSOXD
 70
     0
  9
$DIMSAH
 70
     0
  9
$DIMBLK1
  1

  9
$DIMBLK2
  1

  9
$DIMSTYLE
  2
STANDARD
  9
$DIMCLRD
 70
     0
  9
$DIMCLRE
 70
     0
  9
$DIMCLRT
 70
     0
  9
$DIMTFAC
 40
1.0
  9
$DIMGAP
 40
1.399999999999999
  9
$DIMJUST
 70
     0
  9
$DIMSD1
 70
     0
  9
$DIMSD2
 70
     0
  9
$DIMTOLJ
 70
     1
  9
$DIMTZIN
 70
     8
  9
$DIMALTZ
 70
     0
  9
$DIMALTTZ
 70
     0
  9
$DIMFIT
 70
     3
  9
$DIMUPT
 70
     0
  9
$DIMUNIT
 70
     2
  9
$DIMDEC
 70
     4
  9
$DIMTDEC
 70
     4
  9
$DIMALTU
 70
     2
  9
$DIMALTTD
 70
     2
  9
$DIMTXSTY
  7
STANDARD
  9
$DIMAUNIT
 70
     0
  9
$LUNITS
 70
     2
  9
$LUPREC
 70
     4
  9
$SKETCHINC
 40
0.1
  9
$FILLETRAD
 40
0.0
  9
$AUNITS
 70
     0
  9
$AUPREC
 70
     0
  9
$MENU
  1
acad
  9
$ELEVATION
 40
0.0
  9
$PELEVATION
 40
0.0
  9
$THICKNESS
 40
0.0
  9
$LIMCHECK
 70
     0
  9
$BLIPMODE
 70
     0
  9
$CHAMFERA
 40
1.0
  9
$CHAMFERB
 40
1.0
  9
$CHAMFERC
 40
0.0
  9
$CHAMFERD
 40
0.0
  9
$SKPOLY
 70
     0
  9
$TDCREATE
 40
2450178.569598264
  9
$TDUPDATE
 40
2455065.642405590
  9
$TDINDWG
 40
0.9706222106
  9
$TDUSRTIMER
 40
0.9706222106
  9
$USRTIMER
 70
     1
  9
$ANGBASE
 50
0.0
  9
$ANGDIR
 70
     0
  9
$PDMODE
 70
     0
  9
$PDSIZE
 40
0.0
  9
$PLINEWID
 40
0.0
  9
$COORDS
 70
     2
  9
$SPLFRAME
 70
     0
  9
$SPLINETYPE
 70
     6
  9
$SPLINESEGS
 70
     8
  9
$ATTDIA
 70
     0
  9
$ATTREQ
 70
     1
  9
$HANDLING
 70
-16383
  9
$HANDSEED
  5
1DAE
  9
$SURFTAB1
 70
     6
  9
$SURFTAB2
 70
     6
  9
$SURFTYPE
 70
     6
  9
$SURFU
 70
     6
  9
$SURFV
 70
     6
  9
$UCSNAME
  2

  9
$UCSORG
 10
0.0
 20
0.0
 30
0.0
  9
$UCSXDIR
 10
1.0
 20
0.0
 30
0.0
  9
$UCSYDIR
 10
0.0
 20
1.0
 30
0.0
  9
$PUCSNAME
  2

  9
$PUCSORG
 10
0.0
 20
0.0
 30
0.0
  9
$PUCSXDIR
 10
1.0
 20
0.0
 30
0.0
  9
$PUCSYDIR
 10
0.0
 20
1.0
 30
0.0
  9
$USERI1
 70
     0
  9
$USERI2
 70
     0
  9
$USERI3
 70
     0
  9
$USERI4
 70
     0
  9
$USERI5
 70
     0
  9
$USERR1
 40
0.0
  9
$USERR2
 40
0.0
  9
$USERR3
 40
0.0
  9
$USERR4
 40
0.0
  9
$USERR5
 40
0.0
  9
$WORLDVIEW
 70
     1
  9
$SHADEDGE
 70
     3
  9
$SHADEDIF
 70
    70
  9
$TILEMODE
 70
     1
  9
$MAXACTVP
 70
    16
  9
$PINSBASE
 10
0.0
 20
0.0
 30
0.0
  9
$PLIMCHECK
 70
     0
  9
$PEXTMIN
 10
1.000000000000000E+20
 20
1.000000000000000E+20
 30
1.000000000000000E+20
  9
$PEXTMAX
 10
-1.000000000000000E+20
 20
-1.000000000000000E+20
 30
-1.000000000000000E+20
  9
$PLIMMIN
 10
0.0
 20
0.0
  9
$PLIMMAX
 10
12.0
 20
9.0
  9
$UNITMODE
 70
     0
  9
$VISRETAIN
 70
     0
  9
$PLINEGEN
 70
     0
  9
$PSLTSCALE
 70
     0
  9
$TREEDEPTH
 70
  3020
  9
$PICKSTYLE
 70
     1
  9
$CMLSTYLE
  2
STANDARD
  9
$CMLJUST
 70
     0
  9
$CMLSCALE
 40
1.0
  9
$SAVEIMAGES
 70
     1
  0
ENDSEC
  0
SECTION
  2
CLASSES
  0
CLASS
  1
ACDBDICTIONARYWDFLT
  2
AcDbDictionaryWithDefault
  3
AutoCAD 2000
 90
    32768
280
     0
281
     0
  0
CLASS
  1
ACDBPLACEHOLDER
  2
AcDbPlaceHolder
  3
AutoCAD 2000
 90
    32768
280
     0
281
     0
  0
CLASS
  1
LAYOUT
  2
AcDbLayout
  3
AutoCAD 2000
 90
    32768
280
     0
281
     0
  0
CLASS
  1
LONG_TRANSACTION
  2
AcDbLongTransaction
  3
AutoCAD 2000
 90
    32768
280
     0
281
     0
  0
CLASS
  1
LWPOLYLINE
  2
AcDbPolyline
  3
AutoCAD 2000
 90
    32768
280
     0
281
     1
  0
CLASS
  1
HATCH
  2
AcDbHatch
  3
AutoCAD 2000
 90
    32768
280
     0
281
     1
  0
CLASS
  1
XRECORD
  2
AcDbXrecord
  3
AutoCAD 2000
 90
    32768
280
     0
281
     0
  0
CLASS
  1
LONG_TRANSACTION
  2
AcDbLongTransaction
  3
AutoCAD 2000
 90
    32768
280
     0
281
     0
  0
CLASS
  1
LWPOLYLINE
  2
AcDbPolyline
  3
AutoCAD 2000
 90
    32768
280
     0
281
     1
  0
CLASS
  1
HATCH
  2
AcDbHatch
  3
AutoCAD 2000
 90
    32768
280
     0
281
     1
  0
CLASS
  1
XRECORD
  2
AcDbXrecord
  3
AutoCAD 2000
 90
    32768
280
     0
281
     0
  0
CLASS
  1
LONG_TRANSACTION
  2
AcDbLongTransaction
  3
AutoCAD 2000
 90
    32768
280
     0
281
     0
  0
CLASS
  1
LWPOLYLINE
  2
AcDbPolyline
  3
AutoCAD 2000
 90
    32768
280
     0
281
     1
  0
CLASS
  1
HATCH
  2
AcDbHatch
  3
AutoCAD 2000
 90
    32768
280
     0
281
     1
  0
CLASS
  1
XRECORD
  2
AcDbXrecord
  3
AutoCAD 2000
 90
    32768
280
     0
281
     0
  0
CLASS
  1
LONG_TRANSACTION
  2
AcDbLongTransaction
  3
AutoCAD 2000
 90
    32768
280
     0
281
     0
  0
CLASS
  1
LWPOLYLINE
  2
AcDbPolyline
  3
AutoCAD 2000
 90
    32768
280
     0
281
     1
  0
CLASS
  1
HATCH
  2
AcDbHatch
  3
AutoCAD 2000
 90
    32768
280
     0
281
     1
  0
CLASS
  1
XRECORD
  2
AcDbXrecord
  3
AutoCAD 2000
 90
    32768
280
     0
281
     0
  0
CLASS
  1
LONG_TRANSACTION
  2
AcDbLongTransaction
  3
AutoCAD 2000
 90
    32768
280
     0
281
     0
  0
CLASS
  1
LWPOLYLINE
  2
AcDbPolyline
  3
AutoCAD 2000
 90
    32768
280
     0
281
     1
  0
CLASS
  1
HATCH
  2
AcDbHatch
  3
AutoCAD 2000
 90
    32768
280
     0
281
     1
  0
CLASS
  1
XRECORD
  2
AcDbXrecord
  3
AutoCAD 2000
 90
    32768
280
     0
281
     0
  0
CLASS
  1
LONG_TRANSACTION
  2
AcDbLongTransaction
  3
AutoCAD 2000
 90
    32768
280
     0
281
     0
  0
CLASS
  1
LWPOLYLINE
  2
AcDbPolyline
  3
AutoCAD 2000
 90
    32768
280
     0
281
     1
  0
CLASS
  1
HATCH
  2
AcDbHatch
  3
AutoCAD 2000
 90
    32768
280
     0
281
     1
  0
CLASS
  1
XRECORD
  2
AcDbXrecord
  3
AutoCAD 2000
 90
    32768
280
     0
281
     0
  0
CLASS
  1
LONG_TRANSACTION
  2
AcDbLongTransaction
  3
AutoCAD 2000
 90
    32768
280
     0
281
     0
  0
CLASS
  1
LWPOLYLINE
  2
AcDbPolyline
  3
AutoCAD 2000
 90
    32768
280
     0
281
     1
  0
CLASS
  1
HATCH
  2
AcDbHatch
  3
AutoCAD 2000
 90
    32768
280
     0
281
     1
  0
CLASS
  1
XRECORD
  2
AcDbXrecord
  3
AutoCAD 2000
 90
    32768
280
     0
281
     0
  0
CLASS
  1
LONG_TRANSACTION
  2
AcDbLongTransaction
  3
AutoCAD 2000
 90
    32768
280
     0
281
     0
  0
CLASS
  1
LWPOLYLINE
  2
AcDbPolyline
  3
AutoCAD 2000
 90
    32768
280
     0
281
     1
  0
CLASS
  1
HATCH
  2
AcDbHatch
  3
AutoCAD 2000
 90
    32768
280
     0
281
     1
  0
CLASS
  1
XRECORD
  2
AcDbXrecord
  3
AutoCAD 2000
 90
    32768
280
     0
281
     0
  0
CLASS
  1
LONG_TRANSACTION
  2
AcDbLongTransaction
  3
AutoCAD 2000
 90
    32768
280
     0
281
     0
  0
CLASS
  1
LWPOLYLINE
  2
AcDbPolyline
  3
AutoCAD 2000
 90
    32768
280
     0
281
     1
  0
CLASS
  1
HATCH
  2
AcDbHatch
  3
AutoCAD 2000
 90
    32768
280
     0
281
     1
  0
CLASS
  1
XRECORD
  2
AcDbXrecord
  3
AutoCAD 2000
 90
    32768
280
     0
281
     0
  0
CLASS
  1
LONG_TRANSACTION
  2
AcDbLongTransaction
  3
AutoCAD 2000
 90
    32768
280
     0
281
     0
  0
CLASS
  1
LWPOLYLINE
  2
AcDbPolyline
  3
AutoCAD 2000
 90
    32768
280
     0
281
     1
  0
CLASS
  1
HATCH
  2
AcDbHatch
  3
AutoCAD 2000
 90
    32768
280
     0
281
     1
  0
CLASS
  1
XRECORD
  2
AcDbXrecord
  3
AutoCAD 2000
 90
    32768
280
     0
281
     0
  0
CLASS
  1
LONG_TRANSACTION
  2
AcDbLongTransaction
  3
AutoCAD 2000
 90
    32768
280
     0
281
     0
  0
CLASS
  1
LWPOLYLINE
  2
AcDbPolyline
  3
AutoCAD 2000
 90
    32768
280
     0
281
     1
  0
CLASS
  1
HATCH
  2
AcDbHatch
  3
AutoCAD 2000
 90
    32768
280
     0
281
     1
  0
CLASS
  1
XRECORD
  2
AcDbXrecord
  3
AutoCAD 2000
 90
    32768
280
     0
281
     0
  0
CLASS
  1
LONG_TRANSACTION
  2
AcDbLongTransaction
  3
AutoCAD 2000
 90
    32768
280
     0
281
     0
  0
CLASS
  1
LWPOLYLINE
  2
AcDbPolyline
  3
AutoCAD 2000
 90
    32768
280
     0
281
     1
  0
CLASS
  1
HATCH
  2
AcDbHatch
  3
AutoCAD 2000
 90
    32768
280
     0
281
     1
  0
CLASS
  1
XRECORD
  2
AcDbXrecord
  3
AutoCAD 2000
 90
    32768
280
     0
281
     0
  0
CLASS
  1
LONG_TRANSACTION
  2
AcDbLongTransaction
  3
AutoCAD 2000
 90
    32768
280
     0
281
     0
  0
CLASS
  1
LWPOLYLINE
  2
AcDbPolyline
  3
AutoCAD 2000
 90
    32768
280
     0
281
     1
  0
CLASS
  1
HATCH
  2
AcDbHatch
  3
AutoCAD 2000
 90
    32768
280
     0
281
     1
  0
CLASS
  1
XRECORD
  2
AcDbXrecord
  3
AutoCAD 2000
 90
    32768
280
     0
281
     0
  0
CLASS
  1
LONG_TRANSACTION
  2
AcDbLongTransaction
  3
AutoCAD 2000
 90
    32768
280
     0
281
     0
  0
CLASS
  1
LWPOLYLINE
  2
AcDbPolyline
  3
AutoCAD 2000
 90
    32768
280
     0
281
     1
  0
CLASS
  1
HATCH
  2
AcDbHatch
  3
AutoCAD 2000
 90
    32768
280
     0
281
     1
  0
CLASS
  1
XRECORD
  2
AcDbXrecord
  3
AutoCAD 2000
 90
    32768
280
     0
281
     0
  0
CLASS
  1
LONG_TRANSACTION
  2
AcDbLongTransaction
  3
AutoCAD 2000
 90
    32768
280
     0
281
     0
  0
CLASS
  1
LWPOLYLINE
  2
AcDbPolyline
  3
AutoCAD 2000
 90
    32768
280
     0
281
     1
  0
CLASS
  1
HATCH
  2
AcDbHatch
  3
AutoCAD 2000
 90
    32768
280
     0
281
     1
  0
CLASS
  1
XRECORD
  2
AcDbXrecord
  3
AutoCAD 2000
 90
    32768
280
     0
281
     0
  0
CLASS
  1
LONG_TRANSACTION
  2
AcDbLongTransaction
  3
AutoCAD 2000
 90
    32768
280
     0
281
     0
  0
CLASS
  1
LWPOLYLINE
  2
AcDbPolyline
  3
AutoCAD 2000
 90
    32768
280
     0
281
     1
  0
CLASS
  1
HATCH
  2
AcDbHatch
  3
AutoCAD 2000
 90
    32768
280
     0
281
     1
  0
CLASS
  1
XRECORD
  2
AcDbXrecord
  3
AutoCAD 2000
 90
    32768
280
     0
281
     0
  0
CLASS
  1
LONG_TRANSACTION
  2
AcDbLongTransaction
  3
AutoCAD 2000
 90
    32768
280
     0
281
     0
  0
CLASS
  1
LWPOLYLINE
  2
AcDbPolyline
  3
AutoCAD 2000
 90
    32768
280
     0
281
     1
  0
CLASS
  1
HATCH
  2
AcDbHatch
  3
AutoCAD 2000
 90
    32768
280
     0
281
     1
  0
CLASS
  1
XRECORD
  2
AcDbXrecord
  3
AutoCAD 2000
 90
    32768
280
     0
281
     0
  0
CLASS
  1
LONG_TRANSACTION
  2
AcDbLongTransaction
  3
AutoCAD 2000
 90
    32768
280
     0
281
     0
  0
CLASS
  1
LWPOLYLINE
  2
AcDbPolyline
  3
AutoCAD 2000
 90
    32768
280
     0
281
     1
  0
CLASS
  1
HATCH
  2
AcDbHatch
  3
AutoCAD 2000
 90
    32768
280
     0
281
     1
  0
CLASS
  1
XRECORD
  2
AcDbXrecord
  3
AutoCAD 2000
 90
    32768
280
     0
281
     0
  0
CLASS
  1
LONG_TRANSACTION
  2
AcDbLongTransaction
  3
AutoCAD 2000
 90
    32768
280
     0
281
     0
  0
CLASS
  1
LWPOLYLINE
  2
AcDbPolyline
  3
AutoCAD 2000
 90
    32768
280
     0
281
     1
  0
CLASS
  1
HATCH
  2
AcDbHatch
  3
AutoCAD 2000
 90
    32768
280
     0
281
     1
  0
CLASS
  1
XRECORD
  2
AcDbXrecord
  3
AutoCAD 2000
 90
    32768
280
     0
281
     0
  0
CLASS
  1
LONG_TRANSACTION
  2
AcDbLongTransaction
  3
AutoCAD 2000
 90
    32768
280
     0
281
     0
  0
CLASS
  1
LWPOLYLINE
  2
AcDbPolyline
  3
AutoCAD 2000
 90
    32768
280
     0
281
     1
  0
CLASS
  1
HATCH
  2
AcDbHatch
  3
AutoCAD 2000
 90
    32768
280
     0
281
     1
  0
CLASS
  1
XRECORD
  2
AcDbXrecord
  3
AutoCAD 2000
 90
    32768
280
     0
281
     0
  0
CLASS
  1
LONG_TRANSACTION
  2
AcDbLongTransaction
  3
AutoCAD 2000
 90
    32768
280
     0
281
     0
  0
CLASS
  1
LWPOLYLINE
  2
AcDbPolyline
  3
AutoCAD 2000
 90
    32768
280
     0
281
     1
  0
CLASS
  1
HATCH
  2
AcDbHatch
  3
AutoCAD 2000
 90
    32768
280
     0
281
     1
  0
CLASS
  1
XRECORD
  2
AcDbXrecord
  3
AutoCAD 2000
 90
    32768
280
     0
281
     0
  0
CLASS
  1
LONG_TRANSACTION
  2
AcDbLongTransaction
  3
AutoCAD 2000
 90
    32768
280
     0
281
     0
  0
CLASS
  1
LWPOLYLINE
  2
AcDbPolyline
  3
AutoCAD 2000
 90
    32768
280
     0
281
     1
  0
CLASS
  1
HATCH
  2
AcDbHatch
  3
AutoCAD 2000
 90
    32768
280
     0
281
     1
  0
CLASS
  1
XRECORD
  2
AcDbXrecord
  3
AutoCAD 2000
 90
    32768
280
     0
281
     0
  0
CLASS
  1
LONG_TRANSACTION
  2
AcDbLongTransaction
  3
AutoCAD 2000
 90
    32768
280
     0
281
     0
  0
CLASS
  1
LWPOLYLINE
  2
AcDbPolyline
  3
AutoCAD 2000
 90
    32768
280
     0
281
     1
  0
CLASS
  1
HATCH
  2
AcDbHatch
  3
AutoCAD 2000
 90
    32768
280
     0
281
     1
  0
CLASS
  1
XRECORD
  2
AcDbXrecord
  3
AutoCAD 2000
 90
    32768
280
     0
281
     0
  0
ENDSEC
  0
SECTION
  2
TABLES
  0
TABLE
  2
VPORT
  5
1F
330
0
100
AcDbSymbolTable
 70
     3
  0
VPORT
  5
1D93
330
1F
100
AcDbSymbolTableRecord
100
AcDbViewportTableRecord
  2
*ACTIVE
 70
     0
 10
0.0
 20
0.0
 11
1.0
 21
1.0
 12
246.9835179472841
 22
-132.4384423110157
 13
0.0
 23
0.0
 14
1.0
 24
1.0
 15
0.0
 25
0.0
 16
0.0
 26
0.0
 36
1.0
 17
0.0
 27
0.0
 37
0.0
 40
258.6905935211609
 41
1.60759493670886
 42
50.0
 43
0.0
 44
0.0
 50
0.0
 51
0.0
 71
     0
 72
   100
 73
     1
 74
     0
 75
     0
 76
     0
 77
     0
 78
     0
  0
ENDTAB
  0
TABLE
  2
LTYPE
  5
1A
330
0
100
AcDbSymbolTable
 70
     3
  0
LTYPE
  5
1B
330
1A
100
AcDbSymbolTableRecord
100
AcDbLinetypeTableRecord
  2
BYBLOCK
 70
     0
  3

 72
    65
 73
     0
 40
0.0
  0
LTYPE
  5
1C
330
1A
100
AcDbSymbolTableRecord
100
AcDbLinetypeTableRecord
  2
BYLAYER
 70
     0
  3

 72
    65
 73
     0
 40
0.0
  0
LTYPE
  5
A
330
1A
100
AcDbSymbolTableRecord
100
AcDbLinetypeTableRecord
  2
CONTINUOUS
 70
     0
  3
Solid line
 72
    65
 73
     0
 40
0.0
  0
LTYPE
  5
2D
330
1A
100
AcDbSymbolTableRecord
100
AcDbLinetypeTableRecord
  2
CENTER
 70
     0
  3
----- - ----- - ----- - ----- - -----
 72
    65
 73
     4
 40
35.0
 49
30.0
 74
     0
 49
-1.5
 74
     0
 49
2.0
 74
     0
 49
-1.5
 74
     0
  0
LTYPE
  5
33
330
1A
100
AcDbSymbolTableRecord
100
AcDbLinetypeTableRecord
  2
PHANTOM
 70
     0
  3
----- - - ----- - - ----- - - ----- - - -----
 72
    65
 73
     6
 40
22.5
 49
15.0
 74
     0
 49
-1.5
 74
     0
 49
1.5
 74
     0
 49
-1.5
 74
     0
 49
1.5
 74
     0
 49
-1.5
 74
     0
  0
ENDTAB
  0
TABLE
  2
LAYER
  5
14
102
{ACAD_XDICTIONARY
360
15
102
}
330
0
100
AcDbSymbolTable
 70
     6
  0
LAYER
  5
6
330
14
100
AcDbSymbolTableRecord
100
AcDbLayerTableRecord
  2
0
 70
     0
 62
     7
  6
CONTINUOUS
  0
LAYER
  5
29
330
14
100
AcDbSymbolTableRecord
100
AcDbLayerTableRecord
  2
L-ZISSEN
 70
     0
 62
     7
  6
CONTINUOUS
  0
LAYER
  5
2C
330
14
100
AcDbSymbolTableRecord
100
AcDbLayerTableRecord
  2
L-TYUSIN
 70
     0
 62
     1
  6
CENTER
  0
LAYER
  5
49
330
14
100
AcDbSymbolTableRecord
100
AcDbLayerTableRecord
  2
L-SAISEN
 70
     0
 62
     6
  6
CONTINUOUS
  0
LAYER
  5
32
330
14
100
AcDbSymbolTableRecord
100
AcDbLayerTableRecord
  2
L-SOUZOU
 70
     0
 62
     2
  6
PHANTOM
  0
LAYER
  5
2F9
330
14
100
AcDbSymbolTableRecord
100
AcDbLayerTableRecord
  2
SUNPOU
 70
     0
 62
     3
  6
CONTINUOUS
  0
ENDTAB
  0
TABLE
  2
STYLE
  5
17
330
0
100
AcDbSymbolTable
 70
     1
  0
STYLE
  5
18
330
17
100
AcDbSymbolTableRecord
100
AcDbTextStyleTableRecord
  2
STANDARD
 70
     0
 40
4.5
 41
1.0
 50
0.0
 71
     0
 42
4.5
  3
txt.shx
  4

  0
ENDTAB
  0
TABLE
  2
VIEW
  5
1D
330
0
100
AcDbSymbolTable
 70
     0
  0
ENDTAB
  0
TABLE
  2
UCS
  5
1E
330
0
100
AcDbSymbolTable
 70
     0
  0
ENDTAB
  0
TABLE
  2
APPID
  5
21
330
0
100
AcDbSymbolTable
 70
     2
  0
APPID
  5
22
330
21
100
AcDbSymbolTableRecord
100
AcDbRegAppTableRecord
  2
ACAD
 70
     0
  0
APPID
  5
11CA
330
21
100
AcDbSymbolTableRecord
100
AcDbRegAppTableRecord
  2
CONTENTBLOCKICON
 70
     0
  0
ENDTAB
  0
TABLE
  2
DIMSTYLE
  5
23
330
0
100
AcDbSymbolTable
 70
     1
  0
DIMSTYLE
105
24
330
23
100
AcDbSymbolTableRecord
100
AcDbDimStyleTableRecord
  2
STANDARD
 70
     0
  3

  4

  5

  6

  7

 40
1.0
 41
0.18
 42
0.0625
 43
0.38
 44
0.18
 45
0.0
 46
0.0
 47
0.0
 48
0.0
140
0.18
141
0.09
142
0.0
143
25.4
144
1.0
145
0.0
146
1.0
147
0.09
 71
     0
 72
     0
 73
     1
 74
     1
 75
     0
 76
     0
 77
     0
 78
     0
170
     0
171
     2
172
     0
173
     0
174
     0
175
     0
176
     0
177
     0
178
     0
270
     2
271
     4
272
     4
273
     2
274
     2
340
18
275
     0
280
     0
281
     0
282
     0
283
     1
284
     0
285
     0
286
     0
287
     3
288
     0
  0
ENDTAB
  0
TABLE
  2
BLOCK_RECORD
  5
1
330
0
100
AcDbSymbolTable
 70
     0
  0
BLOCK_RECORD
  5
2
102
{ACAD_XDICTIONARY
360
3
102
}
330
1
100
AcDbSymbolTableRecord
100
AcDbBlockTableRecord
  2
*MODEL_SPACE
  0
BLOCK_RECORD
  5
E
102
{ACAD_XDICTIONARY
360
F
102
}
330
1
100
AcDbSymbolTableRecord
100
AcDbBlockTableRecord
  2
*PAPER_SPACE
  0
ENDTAB
  0
ENDSEC
  0
SECTION
  2
BLOCKS
  0
BLOCK
  5
5
330
2
100
AcDbEntity
  8
0
100
AcDbBlockBegin
  2
*MODEL_SPACE
 70
     0
 10
0.0
 20
0.0
 30
0.0
  3
*MODEL_SPACE
  1

  0
ENDBLK
  5
B
330
2
100
AcDbEntity
  8
0
100
AcDbBlockEnd
  0
BLOCK
  5
11
330
E
100
AcDbEntity
 67
     1
  8
0
100
AcDbBlockBegin
  2
*PAPER_SPACE
 70
     0
 10
0.0
 20
0.0
 30
0.0
  3
*PAPER_SPACE
  1

  0
ENDBLK
  5
12
330
E
100
AcDbEntity
 67
     1
  8
0
100
AcDbBlockEnd
  0
ENDSEC
  0
SECTION
  2
ENTITIES
  0
LINE
  5
5F2
330
2
100
AcDbEntity
  8
L-ZISSEN
100
AcDbLine
 10
292.0453942512967
 20
-191.2173036102137
 30
0.0
 11
290.5453942512967
 21
-189.7173036102128
 31
0.0
  0
LINE
  5
5F5
330
2
100
AcDbEntity
  8
L-ZISSEN
100
AcDbLine
 10
322.0453942512949
 20
-191.2173036102138
 30
0.0
 11
323.5453942512967
 21
-189.7173036102129
 31
0.0
  0
LINE
  5
5F7
330
2
100
AcDbEntity
  8
L-TYUSIN
100
AcDbLine
 10
307.0453942512949
 20
-132.5598970468261
 30
0.0
 11
307.0453942512967
 21
-229.9955436088169
 31
0.0
  0
ARC
  5
5F8
330
2
100
AcDbEntity
  8
L-ZISSEN
100
AcDbCircle
 10
321.1875298750246
 20
-157.3477323870276
 30
0.0
 40
28.86952396152828
100
AcDbArc
 50
258.2929230975659
 51
270.0
  0
ARC
  5
5F9
330
2
100
AcDbEntity
  8
L-ZISSEN
100
AcDbCircle
 10
322.3790202334139
 20
-173.1017240299068
 30
0.0
 40
2.715501624968706
100
AcDbArc
 50
174.9022474682887
 51
271.2432652078082
  0
ARC
  5
5FA
330
2
100
AcDbEntity
  8
L-ZISSEN
100
AcDbCircle
 10
321.1875298750283
 20
-208.0867803100488
 30
0.0
 40
28.86952396149382
100
AcDbArc
 50
90.0
 51
101.707076902434
  0
LINE
  5
5FB
330
2
100
AcDbEntity
  8
L-ZISSEN
100
AcDbLine
 10
319.6742596350368
 20
-172.8604375183156
 30
0.0
 11
326.4165288675603
 21
-172.8604375183156
 31
0.0
  0
LINE
  5
5FC
330
2
100
AcDbEntity
  8
L-ZISSEN
100
AcDbLine
 10
326.4165288675603
 20
-171.7173036102119
 30
0.0
 11
319.6742596350368
 21
-171.7173036102119
 31
0.0
  0
LINE
  5
5FD
330
2
100
AcDbEntity
  8
L-ZISSEN
100
AcDbLine
 10
327.0453942512967
 20
-171.7173036102119
 30
0.0
 11
319.0453942512967
 21
-171.7173036102119
 31
0.0
  0
LINE
  5
5FE
330
2
100
AcDbEntity
  8
L-ZISSEN
100
AcDbLine
 10
325.3953942512989
 20
-186.2172563485558
 30
0.0
 11
288.6953942513
 21
-186.2172563485557
 31
0.0
  0
LINE
  5
601
330
2
100
AcDbEntity
  8
L-ZISSEN
100
AcDbLine
 10
287.0453942512968
 20
-166.2173036102133
 30
0.0
 11
327.0453942512967
 21
-166.2173036102133
 31
0.0
  0
LINE
  5
602
330
2
100
AcDbEntity
  8
L-ZISSEN
100
AcDbLine
 10
326.0453942512985
 20
-166.2173036102133
 30
0.0
 11
288.0453942512967
 21
-166.2173036102133
 31
0.0
  0
LINE
  5
603
330
2
100
AcDbEntity
  8
L-ZISSEN
100
AcDbLine
 10
287.0453942512968
 20
-166.2173036102133
 30
0.0
 11
327.0453942512967
 21
-166.2173036102133
 31
0.0
  0
LINE
  5
604
330
2
100
AcDbEntity
  8
L-SAISEN
100
AcDbLine
 10
290.5453942512967
 20
-189.7173036102128
 30
0.0
 11
323.5453942512967
 21
-189.7173036102129
 31
0.0
  0
LINE
  5
605
330
2
100
AcDbEntity
  8
L-ZISSEN
100
AcDbLine
 10
323.5453942512967
 20
-166.2173036102133
 30
0.0
 11
290.5453942512967
 21
-166.2173036102133
 31
0.0
  0
LINE
  5
606
330
2
100
AcDbEntity
  8
L-TYUSIN
100
AcDbLine
 10
232.0453942512967
 20
-151.9595740749366
 30
0.0
 11
382.0453942512967
 21
-151.9595740749367
 31
0.0
  0
LINE
  5
607
330
2
100
AcDbEntity
  8
L-ZISSEN
100
AcDbLine
 10
327.0453942512967
 20
-157.2173036102128
 30
0.0
 11
287.0453942512968
 21
-157.2173036102128
 31
0.0
  0
LINE
  5
608
330
2
100
AcDbEntity
  8
L-ZISSEN
100
AcDbLine
 10
325.6453942512971
 20
-142.278114188857
 30
0.0
 11
288.4453942512964
 21
-142.2781141888569
 31
0.0
  0
LINE
  5
609
330
2
100
AcDbEntity
  8
L-ZISSEN
100
AcDbLine
 10
325.1453942512971
 20
-140.9781141888559
 30
0.0
 11
288.9453942512982
 21
-140.9781141888559
 31
0.0
  0
CIRCLE
  5
60A
330
2
100
AcDbEntity
  8
L-SOUZOU
100
AcDbCircle
 10
307.0453942512949
 20
-151.9595740749366
 30
0.0
 40
18.0
  0
LINE
  5
60C
330
2
100
AcDbEntity
  8
L-ZISSEN
100
AcDbLine
 10
327.0453942512967
 20
-166.2173036102133
 30
0.0
 11
327.0453942512967
 21
-156.9595740749366
 31
0.0
  0
LINE
  5
60D
330
2
100
AcDbEntity
  8
L-ZISSEN
100
AcDbLine
 10
324.7774450588649
 20
-157.2173036102128
 30
0.0
 11
324.7774450588649
 21
-156.9595740749366
 31
0.0
  0
LINE
  5
60E
330
2
100
AcDbEntity
  8
L-ZISSEN
100
AcDbLine
 10
323.0453942512967
 20
-157.2173036102128
 30
0.0
 11
323.0453942512967
 21
-156.9595740749366
 31
0.0
  0
LINE
  5
60F
330
2
100
AcDbEntity
  8
L-ZISSEN
100
AcDbLine
 10
324.7774450588649
 20
-144.0101649964251
 30
0.0
 11
327.0453942512967
 21
-144.0101649964251
 31
0.0
  0
LINE
  5
610
330
2
100
AcDbEntity
  8
L-ZISSEN
100
AcDbLine
 10
325.6453942512971
 20
-142.278114188857
 30
0.0
 11
326.5453942512968
 21
-142.278114188857
 31
0.0
  0
ARC
  5
611
330
2
100
AcDbEntity
  8
L-ZISSEN
100
AcDbCircle
 10
326.5453942512968
 20
-142.778114188856
 30
0.0
 40
0.5000000000001137
100
AcDbArc
 50
0.0
 51
90.0
  0
LINE
  5
612
330
2
100
AcDbEntity
  8
L-ZISSEN
100
AcDbLine
 10
325.6453942512971
 20
-141.4781141888563
 30
0.0
 11
325.6453942512971
 21
-142.278114188857
 31
0.0
  0
ARC
  5
613
330
2
100
AcDbEntity
  8
L-ZISSEN
100
AcDbCircle
 10
325.1453942512971
 20
-141.4781141888563
 30
0.0
 40
0.5000000000001137
100
AcDbArc
 50
0.0
 51
90.0
  0
LINE
  5
614
330
2
100
AcDbEntity
  8
L-ZISSEN
100
AcDbLine
 10
323.0453942512967
 20
-142.2781141888569
 30
0.0
 11
324.7774450588649
 21
-144.0101649964251
 31
0.0
  0
LINE
  5
619
330
2
100
AcDbEntity
  8
L-ZISSEN
100
AcDbLine
 10
327.0453942512967
 20
-177.2173036102129
 30
0.0
 11
327.0453942512967
 21
-166.2173036102133
 31
0.0
  0
LINE
  5
61B
330
2
100
AcDbEntity
  8
L-ZISSEN
100
AcDbLine
 10
324.2867086147407
 20
-166.2173036102133
 30
0.0
 11
324.2867086147407
 21
-157.7173036102129
 31
0.0
  0
LINE
  5
61C
330
2
100
AcDbEntity
  8
L-ZISSEN
100
AcDbLine
 10
327.0453942512967
 20
-166.2173036102133
 30
0.0
 11
327.0453942512967
 21
-156.9595740749366
 31
0.0
  0
ARC
  5
61E
330
2
100
AcDbEntity
  8
L-ZISSEN
100
AcDbCircle
 10
323.7867086147407
 20
-157.7173036102128
 30
0.0
 40
0.5000000000001137
100
AcDbArc
 50
0.0
 51
90.0
  0
LINE
  5
61F
330
2
100
AcDbEntity
  8
L-ZISSEN
100
AcDbLine
 10
324.0453942512967
 20
-166.2173036102133
 30
0.0
 11
327.0453942512967
 21
-166.2173036102133
 31
0.0
  0
LINE
  5
622
330
2
100
AcDbEntity
  8
L-ZISSEN
100
AcDbLine
 10
327.0453942512967
 20
-179.8178072350945
 30
0.0
 11
327.0453942512967
 21
-185.6167054620171
 31
0.0
  0
ARC
  5
623
330
2
100
AcDbEntity
  8
L-ZISSEN
100
AcDbCircle
 10
323.7117682691814
 20
-173.1017240299068
 30
0.0
 40
2.7155016249693
100
AcDbArc
 50
268.7567347921917
 51
5.097752531711163
  0
LINE
  5
624
330
2
100
AcDbEntity
  8
L-ZISSEN
100
AcDbLine
 10
325.3953942513007
 20
-179.2172563485558
 30
0.0
 11
327.0453942512967
 21
-179.8178072350945
 31
0.0
  0
LINE
  5
625
330
2
100
AcDbEntity
  8
L-ZISSEN
100
AcDbLine
 10
326.4165288675603
 20
-172.8604375183156
 30
0.0
 11
326.4165288675603
 21
-171.7173036102119
 31
0.0
  0
LINE
  5
626
330
2
100
AcDbEntity
  8
L-ZISSEN
100
AcDbLine
 10
323.6528490296032
 20
-174.8315726514299
 30
0.0
 11
322.4379394729903
 21
-174.8315726514299
 31
0.0
  0
LINE
  5
627
330
2
100
AcDbEntity
  8
L-ZISSEN
100
AcDbLine
 10
323.6528490296032
 20
-175.8165863834008
 30
0.0
 11
323.6528490296032
 21
-174.8315726514299
 31
0.0
  0
LINE
  5
628
330
2
100
AcDbEntity
  8
L-ZISSEN
100
AcDbLine
 10
322.4379394729903
 20
-174.8315726514299
 30
0.0
 11
322.4379394729903
 21
-175.8165863834008
 31
0.0
  0
LINE
  5
629
330
2
100
AcDbEntity
  8
L-ZISSEN
100
AcDbLine
 10
325.3953942512989
 20
-186.2172563485558
 30
0.0
 11
327.0453942512967
 21
-185.6167054620171
 31
0.0
  0
LINE
  5
62A
330
2
100
AcDbEntity
  8
L-ZISSEN
100
AcDbLine
 10
323.5453942512967
 20
-189.7173036102129
 30
0.0
 11
323.5453942512967
 21
-186.2172563485558
 31
0.0
  0
LINE
  5
62B
330
2
100
AcDbEntity
  8
L-SAISEN
100
AcDbLine
 10
322.7605668640362
 20
-190.5021309974734
 30
0.0
 11
322.760566864038
 21
-186.2172563485558
 31
0.0
  0
LINE
  5
62C
330
2
100
AcDbEntity
  8
L-ZISSEN
100
AcDbLine
 10
287.0453942512968
 20
-142.778114188856
 30
0.0
 11
287.0453942512968
 21
-146.9595740749366
 31
0.0
  0
LINE
  5
62D
330
2
100
AcDbEntity
  8
L-ZISSEN
100
AcDbLine
 10
291.0453942512986
 20
-157.2173036102128
 30
0.0
 11
291.0453942512986
 21
-156.9595740749366
 31
0.0
  0
LINE
  5
62E
330
2
100
AcDbEntity
  8
L-ZISSEN
100
AcDbLine
 10
289.3133434437286
 20
-157.2173036102128
 30
0.0
 11
289.3133434437286
 21
-156.9595740749366
 31
0.0
  0
LINE
  5
62F
330
2
100
AcDbEntity
  8
L-SOUZOU
100
AcDbLine
 10
306.3597942512921
 20
-153.8379740749367
 30
0.0
 11
296.297394251291
 21
-163.2907740749365
 31
0.0
  0
LINE
  5
630
330
2
100
AcDbEntity
  8
L-SOUZOU
100
AcDbLine
 10
305.1669942512905
 20
-152.6451740749366
 30
0.0
 11
295.7141942512914
 21
-162.7075740749362
 31
0.0
  0
CIRCLE
  5
631
330
2
100
AcDbEntity
  8
L-SAISEN
100
AcDbCircle
 10
307.0453942512949
 20
-151.9595740749366
 30
0.0
 40
4.865
  0
LINE
  5
632
330
2
100
AcDbEntity
  8
L-ZISSEN
100
AcDbLine
 10
319.5453942512967
 20
-142.2781141888569
 30
0.0
 11
319.5453942512967
 21
-157.2173036102128
 31
0.0
  0
LINE
  5
633
330
2
100
AcDbEntity
  8
L-ZISSEN
100
AcDbLine
 10
316.0453942512968
 20
-142.2781141888569
 30
0.0
 11
316.0453942512968
 21
-157.2173036102128
 31
0.0
  0
LINE
  5
634
330
2
100
AcDbEntity
  8
L-ZISSEN
100
AcDbLine
 10
294.5453942512967
 20
-142.2781141888569
 30
0.0
 11
294.5453942512967
 21
-157.2173036102128
 31
0.0
  0
LINE
  5
635
330
2
100
AcDbEntity
  8
L-ZISSEN
100
AcDbLine
 10
298.0453942512967
 20
-142.2781141888569
 30
0.0
 11
298.0453942512967
 21
-157.2173036102128
 31
0.0
  0
LINE
  5
636
330
2
100
AcDbEntity
  8
L-SOUZOU
100
AcDbLine
 10
315.4669942512906
 20
-143.5379740749365
 30
0.0
 11
294.7437942512888
 21
-164.2611740749362
 31
0.0
  0
LINE
  5
637
330
2
100
AcDbEntity
  8
L-ZISSEN
100
AcDbLine
 10
318.2639037159269
 20
-138.9595740749371
 30
0.0
 11
295.8268847866684
 21
-138.9595740749371
 31
0.0
  0
ARC
  5
638
330
2
100
AcDbEntity
  8
L-ZISSEN
100
AcDbCircle
 10
307.0453942512967
 20
-159.0636837138915
 30
0.0
 40
24.10410963895663
100
AcDbArc
 50
78.14226127422994
 51
101.85773872577
  0
LINE
  5
639
330
2
100
AcDbEntity
  8
L-ZISSEN
100
AcDbLine
 10
299.3229785730063
 20
-134.9595740749366
 30
0.0
 11
314.7678099295871
 21
-134.9595740749366
 31
0.0
  0
LINE
  5
63A
330
2
100
AcDbEntity
  8
L-ZISSEN
100
AcDbLine
 10
311.998364133401
 20
-138.9595740749371
 30
0.0
 11
311.998364133401
 21
-135.4739361350441
 31
0.0
  0
LINE
  5
63B
330
2
100
AcDbEntity
  8
L-ZISSEN
100
AcDbLine
 10
316.9513340155017
 20
-135.3652810200503
 30
0.0
 11
316.9513340155017
 21
-138.9595740749371
 31
0.0
  0
ARC
  5
63C
330
2
100
AcDbEntity
  8
L-ZISSEN
100
AcDbCircle
 10
314.6160290866637
 20
-141.8552038873924
 30
0.0
 40
6.89730004673613
100
AcDbArc
 50
70.20946562402973
 51
112.3039682475823
  0
LINE
  5
63D
330
2
100
AcDbEntity
  8
L-ZISSEN
100
AcDbLine
 10
318.2639037159269
 20
-138.9595740749371
 30
0.0
 11
318.2639037159269
 21
-140.9781141888559
 31
0.0
  0
ARC
  5
63E
330
2
100
AcDbEntity
  8
L-SOUZOU
100
AcDbCircle
 10
296.0061942512899
 20
-162.9819740749369
 30
0.0
 40
0.4
100
AcDbArc
 50
136.7899999998975
 51
225.0000000001013
  0
ARC
  5
641
330
2
100
AcDbEntity
  8
L-SOUZOU
100
AcDbCircle
 10
296.0229942512903
 20
-162.9987740749365
 30
0.0
 40
0.4
100
AcDbArc
 50
225.0000000001013
 51
313.2099999998256
  0
LINE
  5
642
330
2
100
AcDbEntity
  8
L-ZISSEN
100
AcDbLine
 10
302.0924243691961
 20
-138.9595740749371
 30
0.0
 11
302.0924243691961
 21
-135.4368559072042
 31
0.0
  0
LINE
  5
643
330
2
100
AcDbEntity
  8
L-ZISSEN
100
AcDbLine
 10
297.1394544870918
 20
-138.9595740749371
 30
0.0
 11
297.1394544870918
 21
-135.3652810200517
 31
0.0
  0
ARC
  5
644
330
2
100
AcDbEntity
  8
L-ZISSEN
100
AcDbCircle
 10
299.4747594159334
 20
-141.8552038873892
 30
0.0
 40
6.897300046733692
100
AcDbArc
 50
67.69603175241766
 51
109.7905343759702
  0
LINE
  5
645
330
2
100
AcDbEntity
  8
L-ZISSEN
100
AcDbLine
 10
291.0453942512986
 20
-142.2781141888569
 30
0.0
 11
289.3133434437286
 21
-144.0101649964251
 31
0.0
  0
LINE
  5
646
330
2
100
AcDbEntity
  8
L-ZISSEN
100
AcDbLine
 10
295.8268847866684
 20
-138.9595740749371
 30
0.0
 11
295.8268847866684
 21
-140.9781141888559
 31
0.0
  0
LINE
  5
647
330
2
100
AcDbEntity
  8
L-ZISSEN
100
AcDbLine
 10
288.4453942512964
 20
-141.4781141888563
 30
0.0
 11
288.4453942512964
 21
-142.2781141888569
 31
0.0
  0
ARC
  5
648
330
2
100
AcDbEntity
  8
L-ZISSEN
100
AcDbCircle
 10
288.9453942512982
 20
-141.4781141888563
 30
0.0
 40
0.5000000000001137
100
AcDbArc
 50
90.0
 51
180.0
  0
LINE
  5
649
330
2
100
AcDbEntity
  8
L-ZISSEN
100
AcDbLine
 10
289.3133434437286
 20
-144.0101649964251
 30
0.0
 11
287.0453942512968
 21
-144.0101649964251
 31
0.0
  0
ARC
  5
64A
330
2
100
AcDbEntity
  8
L-ZISSEN
100
AcDbCircle
 10
287.5453942512949
 20
-142.778114188856
 30
0.0
 40
0.4999999999995453
100
AcDbArc
 50
90.0
 51
180.0
  0
LINE
  5
64B
330
2
100
AcDbEntity
  8
L-ZISSEN
100
AcDbLine
 10
288.4453942512964
 20
-142.2781141888569
 30
0.0
 11
287.5453942512949
 21
-142.2781141888569
 31
0.0
  0
ARC
  5
64C
330
2
100
AcDbEntity
  8
L-ZISSEN
100
AcDbCircle
 10
292.903258627567
 20
-157.3477323870499
 30
0.0
 40
28.86952396150588
100
AcDbArc
 50
270.0
 51
281.707076902434
  0
ARC
  5
64D
330
2
100
AcDbEntity
  8
L-ZISSEN
100
AcDbCircle
 10
292.903258627567
 20
-208.0867803100443
 30
0.0
 40
28.86952396148853
100
AcDbArc
 50
78.29292309756586
 51
90.0
  0
CIRCLE
  5
64E
330
2
100
AcDbEntity
  8
L-ZISSEN
100
AcDbCircle
 10
307.0453942512949
 20
-151.9595740749366
 30
0.0
 40
4.285
  0
ARC
  5
64F
330
2
100
AcDbEntity
  8
L-SOUZOU
100
AcDbCircle
 10
307.0453942512949
 20
-151.9595740749366
 30
0.0
 40
2.0
100
AcDbArc
 50
73.51949999986482
 51
200.0599999999713
  0
CIRCLE
  5
650
330
2
100
AcDbEntity
  8
L-SOUZOU
100
AcDbCircle
 10
307.0453942512949
 20
-151.9595740749366
 30
0.0
 40
1.2
  0
LINE
  5
651
330
2
100
AcDbEntity
  8
L-SOUZOU
100
AcDbLine
 10
312.9853942512915
 20
-144.3227740749364
 30
0.0
 11
314.6821942512908
 21
-146.0195740749365
 31
0.0
  0
LINE
  5
652
330
2
100
AcDbEntity
  8
L-SOUZOU
100
AcDbLine
 10
312.9853942512915
 20
-144.3227740749364
 30
0.0
 11
307.6125942512911
 21
-150.0419740749366
 31
0.0
  0
LINE
  5
653
330
2
100
AcDbEntity
  8
L-SOUZOU
100
AcDbLine
 10
314.6821942512908
 20
-146.0195740749365
 30
0.0
 11
308.9629942512926
 21
-151.3923740749367
 31
0.0
  0
ARC
  5
654
330
2
100
AcDbEntity
  8
L-SOUZOU
100
AcDbCircle
 10
307.0453942512949
 20
-151.9595740749366
 30
0.0
 40
2.0
100
AcDbArc
 50
249.9399999997831
 51
16.48050000006724
  0
ARC
  5
655
330
2
100
AcDbEntity
  8
L-ZISSEN
100
AcDbCircle
 10
307.0453942512967
 20
-236.6605494512557
 30
0.0
 40
57.4432458410422
100
AcDbArc
 50
81.70808147793067
 51
98.29191852206932
  0
ARC
  5
656
330
2
100
AcDbEntity
  8
L-ZISSEN
100
AcDbCircle
 10
307.0453942512949
 20
-128.7739632458358
 30
0.0
 40
57.44324584106249
100
AcDbArc
 50
261.7080814779307
 51
278.2919185220693
  0
LINE
  5
657
330
2
100
AcDbEntity
  8
L-ZISSEN
100
AcDbLine
 10
315.3296654987598
 20
-179.8178072350945
 30
0.0
 11
315.3296654987525
 21
-185.6167054620171
 31
0.0
  0
LINE
  5
658
330
2
100
AcDbEntity
  8
L-ZISSEN
100
AcDbLine
 10
319.0453942512967
 20
-177.2173036102129
 30
0.0
 11
319.0453942512967
 21
-171.7173036102119
 31
0.0
  0
LINE
  5
659
330
2
100
AcDbEntity
  8
L-ZISSEN
100
AcDbLine
 10
319.6742596350368
 20
-171.7173036102119
 30
0.0
 11
319.6742596350368
 21
-172.8604375183156
 31
0.0
  0
LINE
  5
65A
330
2
100
AcDbEntity
  8
L-ZISSEN
100
AcDbLine
 10
298.7611230038355
 20
-179.8178072350945
 30
0.0
 11
298.7611230038355
 21
-185.6167054620171
 31
0.0
  0
LINE
  5
65B
330
2
100
AcDbEntity
  8
L-ZISSEN
100
AcDbLine
 10
287.0453942512968
 20
-177.2173036102128
 30
0.0
 11
287.0453942512968
 21
-166.2173036102133
 31
0.0
  0
LINE
  5
65C
330
2
100
AcDbEntity
  8
L-ZISSEN
100
AcDbLine
 10
289.8040798878546
 20
-166.2173036102133
 30
0.0
 11
289.8040798878546
 21
-157.7173036102128
 31
0.0
  0
ARC
  5
65D
330
2
100
AcDbEntity
  8
L-ZISSEN
100
AcDbCircle
 10
290.3040798878528
 20
-157.7173036102128
 30
0.0
 40
0.5000000000001137
100
AcDbArc
 50
90.0
 51
180.0
  0
LINE
  5
65E
330
2
100
AcDbEntity
  8
L-ZISSEN
100
AcDbLine
 10
287.0453942512968
 20
-185.616705462017
 30
0.0
 11
287.0453942512968
 21
-179.8178072350945
 31
0.0
  0
ARC
  5
65F
330
2
100
AcDbEntity
  8
L-ZISSEN
100
AcDbCircle
 10
290.3790202334139
 20
-173.1017240299068
 30
0.0
 40
2.715501624969275
100
AcDbArc
 50
174.9022474682887
 51
271.2432652078082
  0
LINE
  5
660
330
2
100
AcDbEntity
  8
L-ZISSEN
100
AcDbLine
 10
294.4165288675603
 20
-172.8604375183156
 30
0.0
 11
287.6742596350368
 21
-172.8604375183156
 31
0.0
  0
LINE
  5
661
330
2
100
AcDbEntity
  8
L-ZISSEN
100
AcDbLine
 10
287.6742596350368
 20
-171.7173036102119
 30
0.0
 11
294.4165288675603
 21
-171.7173036102119
 31
0.0
  0
LINE
  5
662
330
2
100
AcDbEntity
  8
L-ZISSEN
100
AcDbLine
 10
287.0453942512968
 20
-171.7173036102119
 30
0.0
 11
295.0453942512949
 21
-171.7173036102119
 31
0.0
  0
LINE
  5
663
330
2
100
AcDbEntity
  8
L-ZISSEN
100
AcDbLine
 10
295.0453942512949
 20
-177.2173036102129
 30
0.0
 11
295.0453942512949
 21
-171.7173036102119
 31
0.0
  0
ARC
  5
664
330
2
100
AcDbEntity
  8
L-ZISSEN
100
AcDbCircle
 10
291.7117682691814
 20
-173.1017240299068
 30
0.0
 40
2.715501624969221
100
AcDbArc
 50
268.7567347921917
 51
5.097752531711163
  0
LINE
  5
665
330
2
100
AcDbEntity
  8
L-ZISSEN
100
AcDbLine
 10
294.4165288675603
 20
-171.7173036102119
 30
0.0
 11
294.4165288675603
 21
-172.8604375183156
 31
0.0
  0
LINE
  5
666
330
2
100
AcDbEntity
  8
L-ZISSEN
100
AcDbLine
 10
290.4379394729939
 20
-174.8315726514299
 30
0.0
 11
291.6528490296014
 21
-174.8315726514299
 31
0.0
  0
LINE
  5
667
330
2
100
AcDbEntity
  8
L-ZISSEN
100
AcDbLine
 10
291.6528490296014
 20
-174.8315726514299
 30
0.0
 11
291.6528490296014
 21
-175.8165863834008
 31
0.0
  0
LINE
  5
668
330
2
100
AcDbEntity
  8
L-ZISSEN
100
AcDbLine
 10
290.4379394729939
 20
-175.8165863834008
 30
0.0
 11
290.4379394729939
 21
-174.8315726514299
 31
0.0
  0
LINE
  5
669
330
2
100
AcDbEntity
  8
L-ZISSEN
100
AcDbLine
 10
287.6742596350368
 20
-172.8604375183156
 30
0.0
 11
287.6742596350368
 21
-171.7173036102119
 31
0.0
  0
LINE
  5
66A
330
2
100
AcDbEntity
  8
L-ZISSEN
100
AcDbLine
 10
288.6953942512946
 20
-179.2172563485557
 30
0.0
 11
287.0453942512968
 21
-179.8178072350945
 31
0.0
  0
LINE
  5
66B
330
2
100
AcDbEntity
  8
L-SAISEN
100
AcDbLine
 10
291.3302216385573
 20
-190.5021309974733
 30
0.0
 11
291.3302216385591
 21
-186.2172563485557
 31
0.0
  0
LINE
  5
66C
330
2
100
AcDbEntity
  8
L-ZISSEN
100
AcDbLine
 10
290.5453942512967
 20
-189.7173036102128
 30
0.0
 11
290.5453942512967
 21
-186.2172563485557
 31
0.0
  0
LINE
  5
66D
330
2
100
AcDbEntity
  8
L-ZISSEN
100
AcDbLine
 10
288.6953942513
 20
-186.2172563485557
 30
0.0
 11
287.0453942512968
 21
-185.616705462017
 31
0.0
  0
LINE
  5
66F
330
2
100
AcDbEntity
  8
L-ZISSEN
100
AcDbLine
 10
318.5453942512967
 20
-191.2173036102138
 30
0.0
 11
322.0453942512949
 21
-191.2173036102138
 31
0.0
  0
LINE
  5
671
330
2
100
AcDbEntity
  8
L-ZISSEN
100
AcDbLine
 10
322.455127975375
 20
-192.9673036102133
 30
0.0
 11
291.6356605272204
 21
-192.9673036102133
 31
0.0
  0
LINE
  5
672
330
2
100
AcDbEntity
  8
L-ZISSEN
100
AcDbLine
 10
320.4338836930446
 20
-225.959562610213
 30
0.0
 11
293.6569048087794
 21
-225.959562610213
 31
0.0
  0
LINE
  5
673
330
2
100
AcDbEntity
  8
L-ZISSEN
100
AcDbLine
 10
321.9336785335281
 20
-224.4921116021494
 30
0.0
 11
322.455127975375
 21
-192.9673036102133
 31
0.0
  0
ARC
  5
679
330
2
100
AcDbEntity
  8
L-ZISSEN
100
AcDbCircle
 10
320.4338836930428
 20
-224.459562610212
 30
0.0
 40
1.500000000003391
100
AcDbArc
 50
270.0000000001042
 51
359.0523613050255
  0
LINE
  5
67A
330
2
100
AcDbEntity
  8
L-ZISSEN
100
AcDbLine
 10
295.5453942512967
 20
-191.2173036102138
 30
0.0
 11
318.5453942512967
 21
-191.2173036102138
 31
0.0
  0
LINE
  5
67C
330
2
100
AcDbEntity
  8
L-ZISSEN
100
AcDbLine
 10
318.5453942512967
 20
-192.9673036102133
 30
0.0
 11
318.5453942512967
 21
-191.2173036102138
 31
0.0
  0
LINE
  5
67D
330
2
100
AcDbEntity
  8
L-ZISSEN
100
AcDbLine
 10
292.1571099690691
 20
-224.4921116021494
 30
0.0
 11
291.6356605272203
 21
-192.9673036102133
 31
0.0
  0
LINE
  5
682
330
2
100
AcDbEntity
  8
L-ZISSEN
100
AcDbLine
 10
292.0453942512967
 20
-191.2173036102137
 30
0.0
 11
295.5453942512967
 21
-191.2173036102138
 31
0.0
  0
LINE
  5
683
330
2
100
AcDbEntity
  8
L-ZISSEN
100
AcDbLine
 10
295.5453942512967
 20
-192.9673036102133
 30
0.0
 11
295.5453942512967
 21
-191.2173036102138
 31
0.0
  0
LINE
  5
684
330
2
100
AcDbEntity
  8
L-ZISSEN
100
AcDbLine
 10
295.5453942512967
 20
-192.9673036102133
 30
0.0
 11
295.5453942512967
 21
-191.2173036102138
 31
0.0
  0
ARC
  5
686
330
2
100
AcDbEntity
  8
L-ZISSEN
100
AcDbCircle
 10
293.6570112948747
 20
-224.4593024949897
 30
0.0
 40
1.500260119002053
100
AcDbArc
 50
181.2530981901898
 51
269.9959332652815
  0
LINE
  5
687
330
2
100
AcDbEntity
  8
L-ZISSEN
100
AcDbLine
 10
287.0453942512968
 20
-177.2173036102128
 30
0.0
 11
327.0453942512967
 21
-177.2173036102129
 31
0.0
  0
ARC
  5
AE5
330
2
100
AcDbEntity
  8
L-ZISSEN
100
AcDbCircle
 10
251.6993942512917
 20
-225.1655740749363
 30
0.0
 40
12.15000000000001
100
AcDbArc
 50
180.0
 51
261.379094767461
  0
ARC
  5
AE6
330
2
100
AcDbEntity
  8
L-ZISSEN
100
AcDbCircle
 10
262.3913942512963
 20
-225.1655740749363
 30
0.0
 40
12.14999999999984
100
AcDbArc
 50
278.6209052325389
 51
0.0
  0
LINE
  5
AE7
330
2
100
AcDbEntity
  8
L-TYUSIN
100
AcDbLine
 10
257.0453942512931
 20
-137.2552309814384
 30
0.0
 11
257.0453942512931
 21
-260.9595740749367
 31
0.0
  0
LINE
  5
AE8
330
2
100
AcDbEntity
  8
L-ZISSEN
100
AcDbLine
 10
249.8781566822699
 20
-240.8054207618404
 30
0.0
 11
264.2126318203163
 21
-240.8054207618404
 31
0.0
  0
LINE
  5
AE9
330
2
100
AcDbEntity
  8
L-ZISSEN
100
AcDbLine
 10
248.7953942512967
 20
-243.9595740749362
 30
0.0
 11
265.2953942512949
 21
-243.9595740749362
 31
0.0
  0
LINE
  5
AEA
330
2
100
AcDbEntity
  8
L-ZISSEN
100
AcDbLine
 10
248.7953942512967
 20
-249.4595740749371
 30
0.0
 11
265.2953942512949
 21
-249.4595740749371
 31
0.0
  0
LINE
  5
AEB
330
2
100
AcDbEntity
  8
L-ZISSEN
100
AcDbLine
 10
253.3374011080823
 20
-237.3155740749373
 30
0.0
 11
260.3476940379359
 21
-237.3155740749373
 31
0.0
  0
LINE
  5
AEC
330
2
100
AcDbEntity
  8
L-ZISSEN
100
AcDbLine
 10
251.6993942512954
 20
-243.9595740749362
 30
0.0
 11
262.3913942512963
 21
-243.9595740749362
 31
0.0
  0
LINE
  5
AED
330
2
100
AcDbEntity
  8
L-ZISSEN
100
AcDbLine
 10
252.0453942512931
 20
-251.959574074937
 30
0.0
 11
262.0453942512931
 21
-251.959574074937
 31
0.0
  0
LINE
  5
AEE
330
2
100
AcDbEntity
  8
L-ZISSEN
100
AcDbLine
 10
252.5453942512967
 20
-255.9595740749366
 30
0.0
 11
261.5453942512949
 21
-255.9595740749366
 31
0.0
  0
LINE
  5
AEF
330
2
100
AcDbEntity
  8
L-ZISSEN
100
AcDbLine
 10
248.7953942512967
 20
-243.9595740749362
 30
0.0
 11
248.7953942512967
 21
-249.4595740749371
 31
0.0
  0
LINE
  5
AF0
330
2
100
AcDbEntity
  8
L-ZISSEN
100
AcDbLine
 10
252.0453942512931
 20
-251.959574074937
 30
0.0
 11
252.0453942512931
 21
-255.4595740749371
 31
0.0
  0
ARC
  5
AF1
330
2
100
AcDbEntity
  8
L-ZISSEN
100
AcDbCircle
 10
252.5453942512967
 20
-255.4595740749371
 30
0.0
 40
0.5000000000001137
100
AcDbArc
 50
180.0
 51
270.0
  0
LINE
  5
AF2
330
2
100
AcDbEntity
  8
L-ZISSEN
100
AcDbLine
 10
248.7953942512967
 20
-249.4595740749371
 30
0.0
 11
252.0453942512931
 21
-251.959574074937
 31
0.0
  0
LINE
  5
AF3
330
2
100
AcDbEntity
  8
L-ZISSEN
100
AcDbLine
 10
249.8781566822699
 20
-237.1783003981815
 30
0.0
 11
249.8781566822699
 21
-240.8054207618404
 31
0.0
  0
LINE
  5
AF4
330
2
100
AcDbEntity
  8
L-ZISSEN
100
AcDbLine
 10
251.6993942512954
 20
-240.8054207618413
 30
0.0
 11
251.6993942512954
 21
-243.9595740749362
 31
0.0
  0
LINE
  5
AF5
330
2
100
AcDbEntity
  8
L-ZISSEN
100
AcDbLine
 10
265.2953942512949
 20
-249.4595740749371
 30
0.0
 11
265.2953942512949
 21
-243.9595740749362
 31
0.0
  0
LINE
  5
AF6
330
2
100
AcDbEntity
  8
L-ZISSEN
100
AcDbLine
 10
262.0453942512931
 20
-251.959574074937
 30
0.0
 11
262.0453942512931
 21
-255.4595740749371
 31
0.0
  0
ARC
  5
AF7
330
2
100
AcDbEntity
  8
L-ZISSEN
100
AcDbCircle
 10
261.5453942512949
 20
-255.4595740749371
 30
0.0
 40
0.5000000000001137
100
AcDbArc
 50
270.0
 51
0.0
  0
LINE
  5
AF8
330
2
100
AcDbEntity
  8
L-ZISSEN
100
AcDbLine
 10
265.2953942512949
 20
-249.4595740749371
 30
0.0
 11
262.0453942512931
 21
-251.959574074937
 31
0.0
  0
LINE
  5
AF9
330
2
100
AcDbEntity
  8
L-ZISSEN
100
AcDbLine
 10
262.3913942512963
 20
-243.9595740749362
 30
0.0
 11
262.3913942512963
 21
-240.8054207618413
 31
0.0
  0
LINE
  5
AFA
330
2
100
AcDbEntity
  8
L-ZISSEN
100
AcDbLine
 10
264.2126318203163
 20
-237.1783003981815
 30
0.0
 11
264.2126318203163
 21
-240.8054207618404
 31
0.0
  0
LINE
  5
AFB
330
2
100
AcDbEntity
  8
L-ZISSEN
100
AcDbLine
 10
237.0453942512968
 20
-174.4595740749371
 30
0.0
 11
237.0453942512968
 21
-140.9595740749366
 31
0.0
  0
LINE
  5
AFC
330
2
100
AcDbEntity
  8
L-ZISSEN
100
AcDbLine
 10
239.5453942512943
 20
-174.4595740749371
 30
0.0
 11
239.5453942512943
 21
-156.9595740749375
 31
0.0
  0
LINE
  5
AFD
330
2
100
AcDbEntity
  8
L-ZISSEN
100
AcDbLine
 10
240.8755622271519
 20
-174.4595740749375
 30
0.0
 11
240.8755622271519
 21
-156.9595740749375
 31
0.0
  0
LINE
  5
AFE
330
2
100
AcDbEntity
  8
L-ZISSEN
100
AcDbLine
 10
277.0453942512967
 20
-174.4595740749371
 30
0.0
 11
277.0453942512967
 21
-156.9595740749366
 31
0.0
  0
LINE
  5
AFF
330
2
100
AcDbEntity
  8
L-ZISSEN
100
AcDbLine
 10
274.5453942512922
 20
-174.4595740749371
 30
0.0
 11
274.5453942512922
 21
-156.9595740749366
 31
0.0
  0
LINE
  5
B00
330
2
100
AcDbEntity
  8
L-ZISSEN
100
AcDbLine
 10
273.2152262754343
 20
-174.4595740749375
 30
0.0
 11
273.2152262754343
 21
-156.9595740749367
 31
0.0
  0
LINE
  5
B01
330
2
100
AcDbEntity
  8
L-ZISSEN
100
AcDbLine
 10
255.0284217702419
 20
-186.5995126122263
 30
0.0
 11
259.0623667323443
 21
-186.5995126122263
 31
0.0
  0
LINE
  5
B02
330
2
100
AcDbEntity
  8
L-ZISSEN
100
AcDbLine
 10
254.2184217702406
 20
-187.4095126122258
 30
0.0
 11
259.8723667323456
 21
-187.4095126122258
 31
0.0
  0
LINE
  5
B03
330
2
100
AcDbEntity
  8
L-ZISSEN
100
AcDbLine
 10
237.0453942512968
 20
-174.4595740749371
 30
0.0
 11
277.0453942512931
 21
-174.4595740749371
 31
0.0
  0
LINE
  5
B04
330
2
100
AcDbEntity
  8
L-ZISSEN
100
AcDbLine
 10
239.5493942512939
 20
-177.0332697344035
 30
0.0
 11
239.5493942512939
 21
-225.1655740749363
 31
0.0
  0
LINE
  5
B05
330
2
100
AcDbEntity
  8
L-ZISSEN
100
AcDbLine
 10
254.2184217702406
 20
-187.4095126122258
 30
0.0
 11
254.2184217702406
 21
-177.0332697344035
 31
0.0
  0
LINE
  5
B06
330
2
100
AcDbEntity
  8
L-ZISSEN
100
AcDbLine
 10
254.2184217702406
 20
-187.4095126122258
 30
0.0
 11
254.2184217702406
 21
-177.0332697344035
 31
0.0
  0
LINE
  5
B07
330
2
100
AcDbEntity
  8
L-ZISSEN
100
AcDbLine
 10
255.0284217702419
 20
-186.5995126122263
 30
0.0
 11
255.0284217702419
 21
-176.2232697344031
 31
0.0
  0
LINE
  5
B08
330
2
100
AcDbEntity
  8
L-ZISSEN
100
AcDbLine
 10
246.3074866773959
 20
-187.4095126122258
 30
0.0
 11
246.3074866773959
 21
-177.0332697344035
 31
0.0
  0
LINE
  5
B09
330
2
100
AcDbEntity
  8
L-ZISSEN
100
AcDbLine
 10
242.5910056098246
 20
-187.4095126122258
 30
0.0
 11
242.5910056098246
 21
-176.2232697344031
 31
0.0
  0
LINE
  5
B0A
330
2
100
AcDbEntity
  8
L-ZISSEN
100
AcDbLine
 10
244.9317512319967
 20
-186.5995126122263
 30
0.0
 11
244.9317512319967
 21
-176.2232697344031
 31
0.0
  0
LINE
  5
B0B
330
2
100
AcDbEntity
  8
L-ZISSEN
100
AcDbLine
 10
238.7393942512944
 20
-174.4595740749371
 30
0.0
 11
238.7393942512944
 21
-186.919265575588
 31
0.0
  0
LINE
  5
B0C
330
2
100
AcDbEntity
  8
L-ZISSEN
100
AcDbLine
 10
239.5493942512939
 20
-187.4095126122258
 30
0.0
 11
238.7393942512944
 21
-186.919265575588
 31
0.0
  0
LINE
  5
B0D
330
2
100
AcDbEntity
  8
L-ZISSEN
100
AcDbLine
 10
242.5910056098246
 20
-186.5995126122263
 30
0.0
 11
244.9317512319967
 21
-186.5995126122263
 31
0.0
  0
LINE
  5
B0E
330
2
100
AcDbEntity
  8
L-ZISSEN
100
AcDbLine
 10
244.9317512319967
 20
-186.5995126122263
 30
0.0
 11
246.3074866773959
 21
-187.4095126122258
 31
0.0
  0
LINE
  5
B0F
330
2
100
AcDbEntity
  8
L-ZISSEN
100
AcDbLine
 10
242.5910056098246
 20
-187.4095126122258
 30
0.0
 11
246.3074866773959
 21
-187.4095126122258
 31
0.0
  0
LINE
  5
B10
330
2
100
AcDbEntity
  8
L-ZISSEN
100
AcDbLine
 10
254.2184217702406
 20
-187.4095126122258
 30
0.0
 11
255.0284217702419
 21
-186.5995126122263
 31
0.0
  0
LINE
  5
B11
330
2
100
AcDbEntity
  8
L-ZISSEN
100
AcDbLine
 10
246.3074866773959
 20
-177.0332697344035
 30
0.0
 11
254.2184217702406
 21
-177.0332697344035
 31
0.0
  0
LINE
  5
B12
330
2
100
AcDbEntity
  8
L-ZISSEN
100
AcDbLine
 10
244.9317512319967
 20
-176.2232697344031
 30
0.0
 11
255.0284217702419
 21
-176.2232697344031
 31
0.0
  0
LINE
  5
B13
330
2
100
AcDbEntity
  8
L-ZISSEN
100
AcDbLine
 10
239.5493942512939
 20
-177.0332697344035
 30
0.0
 11
242.5910056098246
 21
-177.0332697344035
 31
0.0
  0
LINE
  5
B14
330
2
100
AcDbEntity
  8
L-ZISSEN
100
AcDbLine
 10
239.5493942512939
 20
-176.2232697344031
 30
0.0
 11
242.5910056098246
 21
-176.2232697344031
 31
0.0
  0
LINE
  5
B15
330
2
100
AcDbEntity
  8
L-ZISSEN
100
AcDbLine
 10
239.5493942512939
 20
-177.0332697344035
 30
0.0
 11
238.7393942512944
 21
-176.2232697344031
 31
0.0
  0
LINE
  5
B16
330
2
100
AcDbEntity
  8
L-ZISSEN
100
AcDbLine
 10
244.9317512319967
 20
-176.2232697344031
 30
0.0
 11
246.3074866773959
 21
-177.0332697344035
 31
0.0
  0
LINE
  5
B17
330
2
100
AcDbEntity
  8
L-ZISSEN
100
AcDbLine
 10
254.2184217702406
 20
-177.0332697344035
 30
0.0
 11
255.0284217702419
 21
-176.2232697344031
 31
0.0
  0
LINE
  5
B18
330
2
100
AcDbEntity
  8
L-ZISSEN
100
AcDbLine
 10
274.5413942512959
 20
-177.0332697344035
 30
0.0
 11
274.5413942512959
 21
-225.1655740749363
 31
0.0
  0
LINE
  5
B19
330
2
100
AcDbEntity
  8
L-ZISSEN
100
AcDbLine
 10
275.3513942512918
 20
-174.4595740749371
 30
0.0
 11
275.3513942512918
 21
-186.919265575588
 31
0.0
  0
LINE
  5
B1A
330
2
100
AcDbEntity
  8
L-ZISSEN
100
AcDbLine
 10
259.8723667323456
 20
-187.4095126122258
 30
0.0
 11
259.8723667323456
 21
-177.0332697344035
 31
0.0
  0
LINE
  5
B1B
330
2
100
AcDbEntity
  8
L-ZISSEN
100
AcDbLine
 10
259.8723667323456
 20
-187.4095126122258
 30
0.0
 11
259.8723667323456
 21
-177.0332697344035
 31
0.0
  0
LINE
  5
B1C
330
2
100
AcDbEntity
  8
L-ZISSEN
100
AcDbLine
 10
259.0623667323443
 20
-186.5995126122263
 30
0.0
 11
259.0623667323443
 21
-176.2232697344031
 31
0.0
  0
LINE
  5
B1D
330
2
100
AcDbEntity
  8
L-ZISSEN
100
AcDbLine
 10
271.4997828927617
 20
-187.4095126122258
 30
0.0
 11
271.4997828927617
 21
-176.2232697344031
 31
0.0
  0
LINE
  5
B1E
330
2
100
AcDbEntity
  8
L-ZISSEN
100
AcDbLine
 10
267.7833018251904
 20
-187.4095126122258
 30
0.0
 11
267.7833018251904
 21
-177.0332697344035
 31
0.0
  0
LINE
  5
B1F
330
2
100
AcDbEntity
  8
L-ZISSEN
100
AcDbLine
 10
269.1590372705895
 20
-186.5995126122263
 30
0.0
 11
269.1590372705895
 21
-176.2232697344031
 31
0.0
  0
LINE
  5
B20
330
2
100
AcDbEntity
  8
L-ZISSEN
100
AcDbLine
 10
269.1590372705895
 20
-186.5995126122263
 30
0.0
 11
267.7833018251904
 21
-187.4095126122258
 31
0.0
  0
LINE
  5
B21
330
2
100
AcDbEntity
  8
L-ZISSEN
100
AcDbLine
 10
271.4997828927617
 20
-187.4095126122258
 30
0.0
 11
267.7833018251904
 21
-187.4095126122258
 31
0.0
  0
LINE
  5
B22
330
2
100
AcDbEntity
  8
L-ZISSEN
100
AcDbLine
 10
259.8723667323456
 20
-187.4095126122258
 30
0.0
 11
259.0623667323443
 21
-186.5995126122263
 31
0.0
  0
LINE
  5
B23
330
2
100
AcDbEntity
  8
L-ZISSEN
100
AcDbLine
 10
271.4997828927617
 20
-186.5995126122263
 30
0.0
 11
269.1590372705895
 21
-186.5995126122263
 31
0.0
  0
LINE
  5
B24
330
2
100
AcDbEntity
  8
L-ZISSEN
100
AcDbLine
 10
274.5413942512959
 20
-187.4095126122258
 30
0.0
 11
275.3513942512918
 21
-186.919265575588
 31
0.0
  0
LINE
  5
B25
330
2
100
AcDbEntity
  8
L-ZISSEN
100
AcDbLine
 10
269.1590372705895
 20
-176.2232697344031
 30
0.0
 11
259.0623667323443
 21
-176.2232697344031
 31
0.0
  0
LINE
  5
B26
330
2
100
AcDbEntity
  8
L-ZISSEN
100
AcDbLine
 10
269.1590372705895
 20
-176.2232697344031
 30
0.0
 11
267.7833018251904
 21
-177.0332697344035
 31
0.0
  0
LINE
  5
B27
330
2
100
AcDbEntity
  8
L-ZISSEN
100
AcDbLine
 10
267.7833018251904
 20
-177.0332697344035
 30
0.0
 11
259.8723667323456
 21
-177.0332697344035
 31
0.0
  0
LINE
  5
B28
330
2
100
AcDbEntity
  8
L-ZISSEN
100
AcDbLine
 10
259.8723667323456
 20
-177.0332697344035
 30
0.0
 11
259.0623667323443
 21
-176.2232697344031
 31
0.0
  0
LINE
  5
B29
330
2
100
AcDbEntity
  8
L-ZISSEN
100
AcDbLine
 10
274.5413942512959
 20
-176.2232697344031
 30
0.0
 11
271.4997828927617
 21
-176.2232697344031
 31
0.0
  0
LINE
  5
B2A
330
2
100
AcDbEntity
  8
L-ZISSEN
100
AcDbLine
 10
274.5413942512959
 20
-177.0332697344035
 30
0.0
 11
271.4997828927617
 21
-177.0332697344035
 31
0.0
  0
LINE
  5
B2B
330
2
100
AcDbEntity
  8
L-ZISSEN
100
AcDbLine
 10
274.5413942512959
 20
-176.2232697344031
 30
0.0
 11
275.3513942512918
 21
-176.2232697344031
 31
0.0
  0
LINE
  5
B2C
330
2
100
AcDbEntity
  8
L-ZISSEN
100
AcDbLine
 10
274.5413942512959
 20
-177.0332697344035
 30
0.0
 11
275.3513942512918
 21
-176.2232697344031
 31
0.0
  0
LINE
  5
B2D
330
2
100
AcDbEntity
  8
L-ZISSEN
100
AcDbLine
 10
274.0453942512967
 20
-142.1595740749369
 30
0.0
 11
257.0453942512967
 21
-142.1595740749369
 31
0.0
  0
LINE
  5
B2F
330
2
100
AcDbEntity
  8
L-ZISSEN
100
AcDbLine
 10
275.2453942512957
 20
-156.9595740749366
 30
0.0
 11
238.8453942512942
 21
-156.9595740749375
 31
0.0
  0
LINE
  5
B30
330
2
100
AcDbEntity
  8
L-ZISSEN
100
AcDbLine
 10
237.0453942512968
 20
-140.9595740749366
 30
0.0
 11
275.5453942512966
 21
-140.9595740749366
 31
0.0
  0
LINE
  5
B37
330
2
100
AcDbEntity
  8
L-ZISSEN
100
AcDbLine
 10
238.8453942512942
 20
-144.559574074937
 30
0.0
 11
240.0453942512967
 21
-142.1595740749369
 31
0.0
  0
LINE
  5
B38
330
2
100
AcDbEntity
  8
L-ZISSEN
100
AcDbLine
 10
240.0453942512967
 20
-142.1595740749369
 30
0.0
 11
240.0453942512968
 21
-156.9595740749375
 31
0.0
  0
LINE
  5
B39
330
2
100
AcDbEntity
  8
L-ZISSEN
100
AcDbLine
 10
238.8453942512942
 20
-144.559574074937
 30
0.0
 11
238.8453942512942
 21
-156.9595740749375
 31
0.0
  0
LINE
  5
B3A
330
2
100
AcDbEntity
  8
L-ZISSEN
100
AcDbLine
 10
237.0453942512968
 20
-144.559574074937
 30
0.0
 11
238.8453942512942
 21
-144.559574074937
 31
0.0
  0
LINE
  5
B3D
330
2
100
AcDbEntity
  8
L-ZISSEN
100
AcDbLine
 10
240.0453942512967
 20
-142.1595740749369
 30
0.0
 11
257.0453942512967
 21
-142.1595740749369
 31
0.0
  0
LINE
  5
B44
330
2
100
AcDbEntity
  8
L-ZISSEN
100
AcDbLine
 10
274.0453942512967
 20
-142.1595740749369
 30
0.0
 11
274.0453942512967
 21
-146.9595740749366
 31
0.0
  0
LINE
  5
B45
330
2
100
AcDbEntity
  8
L-ZISSEN
100
AcDbLine
 10
275.2453942512957
 20
-144.559574074937
 30
0.0
 11
274.0453942512967
 21
-142.1595740749369
 31
0.0
  0
LINE
  5
B46
330
2
100
AcDbEntity
  8
L-ZISSEN
100
AcDbLine
 10
275.2453942512957
 20
-144.559574074937
 30
0.0
 11
275.2453942512957
 21
-146.9595740749366
 31
0.0
  0
LINE
  5
B47
330
2
100
AcDbEntity
  8
L-ZISSEN
100
AcDbLine
 10
277.0453942512967
 20
-144.559574074937
 30
0.0
 11
275.2453942512957
 21
-144.559574074937
 31
0.0
  0
LINE
  5
B48
330
2
100
AcDbEntity
  8
L-ZISSEN
100
AcDbLine
 10
277.0453942512967
 20
-144.559574074937
 30
0.0
 11
276.2453942512938
 21
-144.559574074937
 31
0.0
  0
ARC
  5
E0C
330
2
100
AcDbEntity
  8
L-ZISSEN
100
AcDbCircle
 10
159.0159866344588
 20
-225.1655740749363
 30
0.0
 40
12.15000000000031
100
AcDbArc
 50
278.6209052325389
 51
0.0
  0
ARC
  5
E0D
330
2
100
AcDbEntity
  8
L-ZISSEN
100
AcDbCircle
 10
148.3239866344579
 20
-225.1655740749363
 30
0.0
 40
12.15000000000001
100
AcDbArc
 50
180.0
 51
261.379094767461
  0
LINE
  5
E0E
330
2
100
AcDbEntity
  8
L-TYUSIN
100
AcDbLine
 10
153.6699866344574
 20
-109.5356805027396
 30
0.0
 11
153.6699866344574
 21
-260.9595740749366
 31
0.0
  0
LINE
  5
E0F
330
2
100
AcDbEntity
  8
L-ZISSEN
100
AcDbLine
 10
145.4199866344556
 20
-249.4595740749371
 30
0.0
 11
148.6699866344556
 21
-251.959574074937
 31
0.0
  0
LINE
  5
E10
330
2
100
AcDbEntity
  8
L-ZISSEN
100
AcDbLine
 10
146.5027490654342
 20
-240.8054207618404
 30
0.0
 11
160.8372242034788
 21
-240.8054207618404
 31
0.0
  0
LINE
  5
E11
330
2
100
AcDbEntity
  8
L-ZISSEN
100
AcDbLine
 10
145.4199866344556
 20
-243.9595740749362
 30
0.0
 11
161.9199866344574
 21
-243.9595740749362
 31
0.0
  0
LINE
  5
E12
330
2
100
AcDbEntity
  8
L-ZISSEN
100
AcDbLine
 10
145.4199866344556
 20
-249.4595740749371
 30
0.0
 11
161.9199866344574
 21
-249.4595740749371
 31
0.0
  0
LINE
  5
E13
330
2
100
AcDbEntity
  8
L-ZISSEN
100
AcDbLine
 10
145.4199866344556
 20
-243.9595740749362
 30
0.0
 11
145.4199866344556
 21
-249.4595740749371
 31
0.0
  0
LINE
  5
E14
330
2
100
AcDbEntity
  8
L-ZISSEN
100
AcDbLine
 10
146.5027490654342
 20
-237.1783003981815
 30
0.0
 11
146.5027490654342
 21
-240.8054207618404
 31
0.0
  0
LINE
  5
E15
330
2
100
AcDbEntity
  8
L-ZISSEN
100
AcDbLine
 10
161.9199866344574
 20
-249.4595740749371
 30
0.0
 11
161.9199866344574
 21
-243.9595740749362
 31
0.0
  0
LINE
  5
E16
330
2
100
AcDbEntity
  8
L-ZISSEN
100
AcDbLine
 10
148.6699866344556
 20
-251.959574074937
 30
0.0
 11
158.6699866344556
 21
-251.959574074937
 31
0.0
  0
LINE
  5
E17
330
2
100
AcDbEntity
  8
L-ZISSEN
100
AcDbLine
 10
149.1699866344556
 20
-255.9595740749366
 30
0.0
 11
158.1699866344574
 21
-255.9595740749366
 31
0.0
  0
LINE
  5
E18
330
2
100
AcDbEntity
  8
L-ZISSEN
100
AcDbLine
 10
148.6699866344556
 20
-251.959574074937
 30
0.0
 11
148.6699866344556
 21
-255.4595740749371
 31
0.0
  0
ARC
  5
E19
330
2
100
AcDbEntity
  8
L-ZISSEN
100
AcDbCircle
 10
149.1699866344556
 20
-255.4595740749371
 30
0.0
 40
0.5000000000001137
100
AcDbArc
 50
180.0
 51
270.0
  0
LINE
  5
E1A
330
2
100
AcDbEntity
  8
L-ZISSEN
100
AcDbLine
 10
158.6699866344556
 20
-251.959574074937
 30
0.0
 11
158.6699866344556
 21
-255.4595740749371
 31
0.0
  0
ARC
  5
E1B
330
2
100
AcDbEntity
  8
L-ZISSEN
100
AcDbCircle
 10
158.1699866344574
 20
-255.4595740749371
 30
0.0
 40
0.4999999999998295
100
AcDbArc
 50
270.0
 51
0.0
  0
LINE
  5
E1C
330
2
100
AcDbEntity
  8
L-ZISSEN
100
AcDbLine
 10
161.9199866344574
 20
-249.4595740749371
 30
0.0
 11
158.6699866344556
 21
-251.959574074937
 31
0.0
  0
LINE
  5
E1D
330
2
100
AcDbEntity
  8
L-ZISSEN
100
AcDbLine
 10
148.3239866344579
 20
-243.9595740749362
 30
0.0
 11
159.0159866344588
 21
-243.9595740749362
 31
0.0
  0
LINE
  5
E1E
330
2
100
AcDbEntity
  8
L-ZISSEN
100
AcDbLine
 10
149.9619934912466
 20
-237.3155740749373
 30
0.0
 11
156.9722864210984
 21
-237.3155740749373
 31
0.0
  0
LINE
  5
E1F
330
2
100
AcDbEntity
  8
L-ZISSEN
100
AcDbLine
 10
148.3239866344579
 20
-240.8054207618413
 30
0.0
 11
148.3239866344579
 21
-243.9595740749362
 31
0.0
  0
LINE
  5
E20
330
2
100
AcDbEntity
  8
L-ZISSEN
100
AcDbLine
 10
160.8372242034788
 20
-237.1783003981815
 30
0.0
 11
160.8372242034788
 21
-240.8054207618404
 31
0.0
  0
LINE
  5
E21
330
2
100
AcDbEntity
  8
L-ZISSEN
100
AcDbLine
 10
159.0159866344588
 20
-243.9595740749362
 30
0.0
 11
159.0159866344588
 21
-240.8054207618413
 31
0.0
  0
LINE
  5
E23
330
2
100
AcDbEntity
  8
L-ZISSEN
100
AcDbLine
 10
139.6699866344592
 20
-174.4595740749371
 30
0.0
 11
139.6699866344592
 21
-144.559574074937
 31
0.0
  0
LINE
  5
E24
330
2
100
AcDbEntity
  8
L-ZISSEN
100
AcDbLine
 10
133.6699866344574
 20
-174.4595740749371
 30
0.0
 11
133.6699866344574
 21
-156.959574074937
 31
0.0
  0
LINE
  5
E25
330
2
100
AcDbEntity
  8
L-ZISSEN
100
AcDbLine
 10
173.6699866344574
 20
-174.4595740749371
 30
0.0
 11
173.6699866344574
 21
-142.278114188857
 31
0.0
  0
LINE
  5
E26
330
2
100
AcDbEntity
  8
L-ZISSEN
100
AcDbLine
 10
167.6699866344574
 20
-144.559574074937
 30
0.0
 11
167.6699866344574
 21
-174.4595740749371
 31
0.0
  0
LINE
  5
E27
330
2
100
AcDbEntity
  8
L-ZISSEN
100
AcDbLine
 10
171.1659866344584
 20
-176.2232697344031
 30
0.0
 11
168.1243752759241
 21
-176.2232697344031
 31
0.0
  0
LINE
  5
E28
330
2
100
AcDbEntity
  8
L-ZISSEN
100
AcDbLine
 10
171.1659866344584
 20
-177.0332697344035
 30
0.0
 11
168.1243752759241
 21
-177.0332697344035
 31
0.0
  0
LINE
  5
E29
330
2
100
AcDbEntity
  8
L-ZISSEN
100
AcDbLine
 10
133.6699866344574
 20
-174.4595740749371
 30
0.0
 11
173.6699866344556
 21
-174.4595740749371
 31
0.0
  0
LINE
  5
E2A
330
2
100
AcDbEntity
  8
L-ZISSEN
100
AcDbLine
 10
136.1739866344564
 20
-177.0332697344035
 30
0.0
 11
136.1739866344582
 21
-225.1655740749363
 31
0.0
  0
LINE
  5
E2B
330
2
100
AcDbEntity
  8
L-ZISSEN
100
AcDbLine
 10
141.8199866344566
 20
-161.4595740749371
 30
0.0
 11
165.5199866344564
 21
-161.4595740749371
 31
0.0
  0
LINE
  5
E2C
330
2
100
AcDbEntity
  8
L-ZISSEN
100
AcDbLine
 10
165.5199866344564
 20
-162.9595740749371
 30
0.0
 11
141.8199866344566
 21
-162.9595740749371
 31
0.0
  0
LINE
  5
E2D
330
2
100
AcDbEntity
  8
L-ZISSEN
100
AcDbLine
 10
141.5563436151592
 20
-176.2232697344031
 30
0.0
 11
151.6530141534062
 21
-176.2232697344031
 31
0.0
  0
LINE
  5
E2E
330
2
100
AcDbEntity
  8
L-ZISSEN
100
AcDbLine
 10
142.932079060562
 20
-177.0332697344035
 30
0.0
 11
150.8430141534049
 21
-177.0332697344035
 31
0.0
  0
LINE
  5
E2F
330
2
100
AcDbEntity
  8
L-ZISSEN
100
AcDbLine
 10
139.6699866344592
 20
-174.4595740749371
 30
0.0
 11
167.6699866344574
 21
-174.4595740749371
 31
0.0
  0
LINE
  5
E30
330
2
100
AcDbEntity
  8
L-ZISSEN
100
AcDbLine
 10
139.2155979929871
 20
-187.4095126122258
 30
0.0
 11
139.2155979929871
 21
-176.2232697344031
 31
0.0
  0
LINE
  5
E31
330
2
100
AcDbEntity
  8
L-ZISSEN
100
AcDbLine
 10
142.932079060562
 20
-187.4095126122258
 30
0.0
 11
142.932079060562
 21
-177.0332697344035
 31
0.0
  0
LINE
  5
E32
330
2
100
AcDbEntity
  8
L-ZISSEN
100
AcDbLine
 10
141.5563436151592
 20
-186.5995126122263
 30
0.0
 11
141.5563436151592
 21
-176.2232697344031
 31
0.0
  0
LINE
  5
E33
330
2
100
AcDbEntity
  8
L-ZISSEN
100
AcDbLine
 10
135.3639866344569
 20
-174.4595740749371
 30
0.0
 11
135.3639866344569
 21
-186.919265575588
 31
0.0
  0
LINE
  5
E34
330
2
100
AcDbEntity
  8
L-ZISSEN
100
AcDbLine
 10
136.1739866344564
 20
-187.4095126122258
 30
0.0
 11
135.3639866344569
 21
-186.919265575588
 31
0.0
  0
LINE
  5
E35
330
2
100
AcDbEntity
  8
L-ZISSEN
100
AcDbLine
 10
141.5563436151592
 20
-186.5995126122263
 30
0.0
 11
142.932079060562
 21
-187.4095126122258
 31
0.0
  0
LINE
  5
E36
330
2
100
AcDbEntity
  8
L-ZISSEN
100
AcDbLine
 10
139.2155979929871
 20
-187.4095126122258
 30
0.0
 11
142.932079060562
 21
-187.4095126122258
 31
0.0
  0
LINE
  5
E37
330
2
100
AcDbEntity
  8
L-ZISSEN
100
AcDbLine
 10
139.2155979929871
 20
-186.5995126122263
 30
0.0
 11
141.5563436151592
 21
-186.5995126122263
 31
0.0
  0
LINE
  5
E38
330
2
100
AcDbEntity
  8
L-ZISSEN
100
AcDbLine
 10
136.1739866344564
 20
-177.0332697344035
 30
0.0
 11
139.2155979929871
 21
-177.0332697344035
 31
0.0
  0
LINE
  5
E39
330
2
100
AcDbEntity
  8
L-ZISSEN
100
AcDbLine
 10
136.1739866344564
 20
-176.2232697344031
 30
0.0
 11
139.2155979929871
 21
-176.2232697344031
 31
0.0
  0
LINE
  5
E3A
330
2
100
AcDbEntity
  8
L-ZISSEN
100
AcDbLine
 10
136.1739866344564
 20
-177.0332697344035
 30
0.0
 11
135.3639866344569
 21
-176.2232697344031
 31
0.0
  0
LINE
  5
E3B
330
2
100
AcDbEntity
  8
L-ZISSEN
100
AcDbLine
 10
141.5563436151592
 20
-176.2232697344031
 30
0.0
 11
142.932079060562
 21
-177.0332697344035
 31
0.0
  0
LINE
  5
E3C
330
2
100
AcDbEntity
  8
L-ZISSEN
100
AcDbLine
 10
141.8199866344566
 20
-162.9595740749371
 30
0.0
 11
141.8199866344566
 21
-161.4595740749371
 31
0.0
  0
LINE
  5
E3D
330
2
100
AcDbEntity
  8
L-ZISSEN
100
AcDbLine
 10
168.1243752759241
 20
-187.4095126122258
 30
0.0
 11
168.1243752759241
 21
-176.2232697344031
 31
0.0
  0
LINE
  5
E3E
330
2
100
AcDbEntity
  8
L-ZISSEN
100
AcDbLine
 10
164.4078942083529
 20
-187.4095126122258
 30
0.0
 11
164.4078942083529
 21
-177.0332697344035
 31
0.0
  0
LINE
  5
E3F
330
2
100
AcDbEntity
  8
L-ZISSEN
100
AcDbLine
 10
165.7836296537539
 20
-186.5995126122263
 30
0.0
 11
165.7836296537539
 21
-176.2232697344031
 31
0.0
  0
LINE
  5
E40
330
2
100
AcDbEntity
  8
L-ZISSEN
100
AcDbLine
 10
156.4969591155081
 20
-187.4095126122258
 30
0.0
 11
156.4969591155081
 21
-177.0332697344035
 31
0.0
  0
LINE
  5
E41
330
2
100
AcDbEntity
  8
L-ZISSEN
100
AcDbLine
 10
156.4969591155081
 20
-187.4095126122258
 30
0.0
 11
156.4969591155081
 21
-177.0332697344035
 31
0.0
  0
LINE
  5
E42
330
2
100
AcDbEntity
  8
L-ZISSEN
100
AcDbLine
 10
150.8430141534049
 20
-187.4095126122258
 30
0.0
 11
150.8430141534049
 21
-177.0332697344035
 31
0.0
  0
LINE
  5
E43
330
2
100
AcDbEntity
  8
L-ZISSEN
100
AcDbLine
 10
150.8430141534049
 20
-187.4095126122258
 30
0.0
 11
150.8430141534049
 21
-177.0332697344035
 31
0.0
  0
LINE
  5
E44
330
2
100
AcDbEntity
  8
L-ZISSEN
100
AcDbLine
 10
155.6869591155086
 20
-186.5995126122263
 30
0.0
 11
155.6869591155086
 21
-176.2232697344031
 31
0.0
  0
LINE
  5
E45
330
2
100
AcDbEntity
  8
L-ZISSEN
100
AcDbLine
 10
151.6530141534062
 20
-186.5995126122263
 30
0.0
 11
151.6530141534062
 21
-176.2232697344031
 31
0.0
  0
LINE
  5
E46
330
2
100
AcDbEntity
  8
L-ZISSEN
100
AcDbLine
 10
150.8430141534049
 20
-187.4095126122258
 30
0.0
 11
156.4969591155081
 21
-187.4095126122258
 31
0.0
  0
LINE
  5
E47
330
2
100
AcDbEntity
  8
L-ZISSEN
100
AcDbLine
 10
151.6530141534062
 20
-186.5995126122263
 30
0.0
 11
155.6869591155086
 21
-186.5995126122263
 31
0.0
  0
LINE
  5
E48
330
2
100
AcDbEntity
  8
L-ZISSEN
100
AcDbLine
 10
150.8430141534049
 20
-187.4095126122258
 30
0.0
 11
151.6530141534062
 21
-186.5995126122263
 31
0.0
  0
LINE
  5
E49
330
2
100
AcDbEntity
  8
L-ZISSEN
100
AcDbLine
 10
156.4969591155081
 20
-187.4095126122258
 30
0.0
 11
155.6869591155086
 21
-186.5995126122263
 31
0.0
  0
LINE
  5
E4A
330
2
100
AcDbEntity
  8
L-ZISSEN
100
AcDbLine
 10
165.7836296537539
 20
-186.5995126122263
 30
0.0
 11
164.4078942083529
 21
-187.4095126122258
 31
0.0
  0
LINE
  5
E4B
330
2
100
AcDbEntity
  8
L-ZISSEN
100
AcDbLine
 10
168.1243752759241
 20
-187.4095126122258
 30
0.0
 11
164.4078942083529
 21
-187.4095126122258
 31
0.0
  0
LINE
  5
E4C
330
2
100
AcDbEntity
  8
L-ZISSEN
100
AcDbLine
 10
168.1243752759241
 20
-186.5995126122263
 30
0.0
 11
165.7836296537539
 21
-186.5995126122263
 31
0.0
  0
LINE
  5
E4D
330
2
100
AcDbEntity
  8
L-ZISSEN
100
AcDbLine
 10
165.7836296537539
 20
-176.2232697344031
 30
0.0
 11
155.6869591155086
 21
-176.2232697344031
 31
0.0
  0
LINE
  5
E4E
330
2
100
AcDbEntity
  8
L-ZISSEN
100
AcDbLine
 10
164.4078942083529
 20
-177.0332697344035
 30
0.0
 11
156.4969591155081
 21
-177.0332697344035
 31
0.0
  0
LINE
  5
E4F
330
2
100
AcDbEntity
  8
L-ZISSEN
100
AcDbLine
 10
150.8430141534049
 20
-177.0332697344035
 30
0.0
 11
151.6530141534062
 21
-176.2232697344031
 31
0.0
  0
LINE
  5
E50
330
2
100
AcDbEntity
  8
L-ZISSEN
100
AcDbLine
 10
156.4969591155081
 20
-177.0332697344035
 30
0.0
 11
155.6869591155086
 21
-176.2232697344031
 31
0.0
  0
LINE
  5
E51
330
2
100
AcDbEntity
  8
L-ZISSEN
100
AcDbLine
 10
165.7836296537539
 20
-176.2232697344031
 30
0.0
 11
164.4078942083529
 21
-177.0332697344035
 31
0.0
  0
LINE
  5
E52
330
2
100
AcDbEntity
  8
L-ZISSEN
100
AcDbLine
 10
165.5199866344564
 20
-161.4595740749371
 30
0.0
 11
165.5199866344564
 21
-162.9595740749371
 31
0.0
  0
LINE
  5
E53
330
2
100
AcDbEntity
  8
L-ZISSEN
100
AcDbLine
 10
171.1659866344584
 20
-177.0332697344035
 30
0.0
 11
171.1659866344584
 21
-225.1655740749363
 31
0.0
  0
LINE
  5
E54
330
2
100
AcDbEntity
  8
L-ZISSEN
100
AcDbLine
 10
171.9759866344543
 20
-174.4595740749371
 30
0.0
 11
171.9759866344543
 21
-186.919265575588
 31
0.0
  0
LINE
  5
E55
330
2
100
AcDbEntity
  8
L-ZISSEN
100
AcDbLine
 10
171.1659866344584
 20
-187.4095126122258
 30
0.0
 11
171.9759866344543
 21
-186.919265575588
 31
0.0
  0
LINE
  5
E56
330
2
100
AcDbEntity
  8
L-ZISSEN
100
AcDbLine
 10
171.1659866344584
 20
-176.2232697344031
 30
0.0
 11
171.9759866344543
 21
-176.2232697344031
 31
0.0
  0
LINE
  5
E57
330
2
100
AcDbEntity
  8
L-ZISSEN
100
AcDbLine
 10
171.1659866344584
 20
-177.0332697344035
 30
0.0
 11
171.9759866344543
 21
-176.2232697344031
 31
0.0
  0
LINE
  5
E58
330
2
100
AcDbEntity
  8
L-ZISSEN
100
AcDbLine
 10
173.6699866344556
 20
-156.9595740749375
 30
0.0
 11
167.6699866344574
 21
-156.9595740749375
 31
0.0
  0
LINE
  5
E5B
330
2
100
AcDbEntity
  8
L-ZISSEN
100
AcDbLine
 10
142.3235764729438
 20
-142.1595740749369
 30
0.0
 11
165.0163967959711
 21
-142.1595740749369
 31
0.0
  0
LINE
  5
E5C
330
2
100
AcDbEntity
  8
L-ZISSEN
100
AcDbLine
 10
143.6699866344574
 20
-140.9595740749366
 30
0.0
 11
163.6699866344574
 21
-140.9595740749366
 31
0.0
  0
LINE
  5
E5D
330
2
100
AcDbEntity
  8
L-ZISSEN
100
AcDbLine
 10
143.6503713921852
 20
-140.9595740749366
 30
0.0
 11
163.6896018767279
 21
-140.9595740749366
 31
0.0
  0
LINE
  5
E5E
330
2
100
AcDbEntity
  8
L-TYUSIN
100
AcDbLine
 10
143.6699866344574
 20
-151.9595740749366
 30
0.0
 11
163.6699866344574
 21
-151.9595740749366
 31
0.0
  0
LINE
  5
E5F
330
2
100
AcDbEntity
  8
L-ZISSEN
100
AcDbLine
 10
139.6699866344592
 20
-144.559574074937
 30
0.0
 11
142.3235764729438
 21
-142.1595740749369
 31
0.0
  0
LINE
  5
E60
330
2
100
AcDbEntity
  8
L-ZISSEN
100
AcDbLine
 10
139.6699866344592
 20
-156.9595740749375
 30
0.0
 11
133.6699866344574
 21
-156.959574074937
 31
0.0
  0
LINE
  5
E63
330
2
100
AcDbEntity
  8
L-ZISSEN
100
AcDbLine
 10
142.3235764729438
 20
-142.1595740749369
 30
0.0
 11
143.6503713921852
 21
-140.9595740749366
 31
0.0
  0
LINE
  5
E64
330
2
100
AcDbEntity
  8
L-ZISSEN
100
AcDbLine
 10
167.6699866344574
 20
-144.559574074937
 30
0.0
 11
165.0163967959711
 21
-142.1595740749369
 31
0.0
  0
CIRCLE
  5
E65
330
2
100
AcDbEntity
  8
L-ZISSEN
100
AcDbCircle
 10
153.6699866344574
 20
-151.9595740749366
 30
0.0
 40
5.724999999999999
  0
LINE
  5
E66
330
2
100
AcDbEntity
  8
L-ZISSEN
100
AcDbLine
 10
165.0163967959711
 20
-142.1595740749369
 30
0.0
 11
163.6896018767279
 21
-140.9595740749366
 31
0.0
  0
LINE
  5
F27
330
2
100
AcDbEntity
  8
L-ZISSEN
100
AcDbLine
 10
290.5453942512967
 20
-177.2173036102128
 30
0.0
 11
290.5453942512967
 21
-179.2172563485557
 31
0.0
  0
LINE
  5
F28
330
2
100
AcDbEntity
  8
L-SAISEN
100
AcDbLine
 10
291.3302216385582
 20
-177.2173036102128
 30
0.0
 11
291.3302216385591
 21
-179.2172563485557
 31
0.0
  0
LINE
  5
F29
330
2
100
AcDbEntity
  8
L-ZISSEN
100
AcDbLine
 10
323.5453942512967
 20
-177.2173036102129
 30
0.0
 11
323.5453942512967
 21
-179.2172563485557
 31
0.0
  0
LINE
  5
F2A
330
2
100
AcDbEntity
  8
L-SAISEN
100
AcDbLine
 10
322.7605668640372
 20
-177.2173036102128
 30
0.0
 11
322.760566864038
 21
-179.2172563485557
 31
0.0
  0
LINE
  5
F2B
330
2
100
AcDbEntity
  8
L-ZISSEN
100
AcDbLine
 10
325.3953942512989
 20
-179.2172563485557
 30
0.0
 11
288.6953942513
 21
-179.2172563485557
 31
0.0
  0
LINE
  5
F2D
330
2
100
AcDbEntity
  8
L-ZISSEN
100
AcDbLine
 10
339.5493942512956
 20
-177.0332697344036
 30
0.0
 11
339.5493942512974
 21
-225.1655740749364
 31
0.0
  0
LINE
  5
F2E
330
2
100
AcDbEntity
  8
L-ZISSEN
100
AcDbLine
 10
374.5413942512976
 20
-177.0332697344036
 30
0.0
 11
374.5413942512976
 21
-225.1655740749364
 31
0.0
  0
LINE
  5
F2F
330
2
100
AcDbEntity
  8
L-TYUSIN
100
AcDbLine
 10
357.0453942512966
 20
-250.4595740749371
 30
0.0
 11
357.0453942512966
 21
-114.4355565489275
 31
0.0
  0
LINE
  5
F30
330
2
100
AcDbEntity
  8
L-ZISSEN
100
AcDbLine
 10
364.212631820318
 20
-245.4595740749371
 30
0.0
 11
349.8781566822734
 21
-245.4595740749371
 31
0.0
  0
LINE
  5
F31
330
2
100
AcDbEntity
  8
L-ZISSEN
100
AcDbLine
 10
353.3374011080858
 20
-237.3155740749373
 30
0.0
 11
360.3476940379376
 21
-237.3155740749373
 31
0.0
  0
ARC
  5
F32
330
2
100
AcDbEntity
  8
L-ZISSEN
100
AcDbCircle
 10
351.6993942512971
 20
-225.1655740749364
 30
0.0
 40
12.15000000000001
100
AcDbArc
 50
180.0
 51
261.3790947674609
  0
LINE
  5
F33
330
2
100
AcDbEntity
  8
L-ZISSEN
100
AcDbLine
 10
349.8781566822734
 20
-237.1783003981816
 30
0.0
 11
349.8781566822734
 21
-245.4595740749371
 31
0.0
  0
ARC
  5
F34
330
2
100
AcDbEntity
  8
L-ZISSEN
100
AcDbCircle
 10
362.391394251298
 20
-225.1655740749364
 30
0.0
 40
12.15000000000031
100
AcDbArc
 50
278.620905232539
 51
0.0
  0
LINE
  5
F35
330
2
100
AcDbEntity
  8
L-ZISSEN
100
AcDbLine
 10
364.212631820318
 20
-237.1783003981816
 30
0.0
 11
364.212631820318
 21
-245.4595740749371
 31
0.0
  0
ARC
  5
F37
330
2
100
AcDbEntity
  8
L-ZISSEN
100
AcDbCircle
 10
351.0353942512932
 20
-122.0356805027406
 30
0.0
 40
7.000000000001023
100
AcDbArc
 50
0.0
 51
180.0
  0
LINE
  5
F38
330
2
100
AcDbEntity
  8
L-ZISSEN
100
AcDbLine
 10
353.0302917516422
 20
-135.0310587214337
 30
0.0
 11
361.0604967509466
 21
-135.0310587214337
 31
0.0
  0
LINE
  5
F39
330
2
100
AcDbEntity
  8
L-ZISSEN
100
AcDbLine
 10
360.5366511428286
 20
-129.7635491427675
 30
0.0
 11
353.5541373597601
 21
-129.7635491427675
 31
0.0
  0
LINE
  5
F3A
330
2
100
AcDbEntity
  8
L-ZISSEN
100
AcDbLine
 10
353.2840228271237
 20
-135.0310587214337
 30
0.0
 11
360.8067656754673
 21
-135.0310587214337
 31
0.0
  0
LINE
  5
F3B
330
2
100
AcDbEntity
  8
L-ZISSEN
100
AcDbLine
 10
341.0353942512955
 20
-136.0356805027415
 30
0.0
 11
362.7884967509447
 21
-136.0356805027415
 31
0.0
  0
LINE
  5
F3C
330
2
100
AcDbEntity
  8
L-ZISSEN
100
AcDbLine
 10
355.0284217702454
 20
-186.5995126122264
 30
0.0
 11
359.0623667323478
 21
-186.5995126122264
 31
0.0
  0
LINE
  5
F3D
330
2
100
AcDbEntity
  8
L-ZISSEN
100
AcDbLine
 10
354.2184217702441
 20
-187.4095126122259
 30
0.0
 11
359.8723667323473
 21
-187.4095126122259
 31
0.0
  0
LINE
  5
F3E
330
2
100
AcDbEntity
  8
L-ZISSEN
100
AcDbLine
 10
375.2453942512968
 20
-156.9595740749376
 30
0.0
 11
338.8453942512966
 21
-156.9595740749376
 31
0.0
  0
LINE
  5
F3F
330
2
100
AcDbEntity
  8
L-ZISSEN
100
AcDbLine
 10
377.0553942512964
 20
-174.4595740749371
 30
0.0
 11
337.0411797923281
 21
-174.4595740749371
 31
0.0
  0
LINE
  5
F40
330
2
100
AcDbEntity
  8
L-ZISSEN
100
AcDbLine
 10
353.0302917516422
 20
-135.1310587214327
 30
0.0
 11
353.0302917516443
 21
-156.9595740749375
 31
0.0
  0
LINE
  5
F41
330
2
100
AcDbEntity
  8
L-ZISSEN
100
AcDbLine
 10
351.302291751644
 20
-136.1356805027406
 30
0.0
 11
351.302291751644
 21
-156.9595740749376
 31
0.0
  0
LINE
  5
F42
330
2
100
AcDbEntity
  8
L-ZISSEN
100
AcDbLine
 10
337.0453942512968
 20
-142.2595740749355
 30
0.0
 11
337.0453942512968
 21
-146.9595740749366
 31
0.0
  0
LINE
  5
F43
330
2
100
AcDbEntity
  8
L-ZISSEN
100
AcDbLine
 10
340.3453942512966
 20
-142.4595740749366
 30
0.0
 11
340.3453942512966
 21
-146.9595740749366
 31
0.0
  0
LINE
  5
F44
330
2
100
AcDbEntity
  8
L-ZISSEN
100
AcDbLine
 10
338.8453942512966
 20
-143.9595740749366
 30
0.0
 11
338.8453942512966
 21
-146.9595740749366
 31
0.0
  0
LINE
  5
F45
330
2
100
AcDbEntity
  8
L-ZISSEN
100
AcDbLine
 10
338.7393942512961
 20
-174.4595740749371
 30
0.0
 11
338.7393942512961
 21
-186.9192655755881
 31
0.0
  0
LINE
  5
F46
330
2
100
AcDbEntity
  8
L-ZISSEN
100
AcDbLine
 10
344.9317512319984
 20
-186.5995126122264
 30
0.0
 11
344.9317512319984
 21
-176.2232697344032
 31
0.0
  0
LINE
  5
F47
330
2
100
AcDbEntity
  8
L-ZISSEN
100
AcDbLine
 10
346.3074866774012
 20
-187.4095126122259
 30
0.0
 11
346.3074866774012
 21
-177.0332697344036
 31
0.0
  0
LINE
  5
F48
330
2
100
AcDbEntity
  8
L-ZISSEN
100
AcDbLine
 10
342.5910056098263
 20
-187.4095126122259
 30
0.0
 11
342.5910056098263
 21
-176.2232697344032
 31
0.0
  0
LINE
  5
F49
330
2
100
AcDbEntity
  8
L-ZISSEN
100
AcDbLine
 10
355.0284217702454
 20
-186.5995126122264
 30
0.0
 11
355.0284217702454
 21
-176.2232697344032
 31
0.0
  0
LINE
  5
F4A
330
2
100
AcDbEntity
  8
L-ZISSEN
100
AcDbLine
 10
354.2184217702441
 20
-187.4095126122259
 30
0.0
 11
354.2184217702441
 21
-177.0332697344036
 31
0.0
  0
LINE
  5
F4B
330
2
100
AcDbEntity
  8
L-ZISSEN
100
AcDbLine
 10
354.2184217702441
 20
-187.4095126122259
 30
0.0
 11
354.2184217702441
 21
-177.0332697344036
 31
0.0
  0
LINE
  5
F4C
330
2
100
AcDbEntity
  8
L-ZISSEN
100
AcDbLine
 10
342.5910056098263
 20
-187.4095126122259
 30
0.0
 11
346.3074866774012
 21
-187.4095126122259
 31
0.0
  0
LINE
  5
F4D
330
2
100
AcDbEntity
  8
L-ZISSEN
100
AcDbLine
 10
344.9317512319984
 20
-186.5995126122264
 30
0.0
 11
346.3074866774012
 21
-187.4095126122259
 31
0.0
  0
LINE
  5
F4E
330
2
100
AcDbEntity
  8
L-ZISSEN
100
AcDbLine
 10
339.5493942512956
 20
-187.4095126122259
 30
0.0
 11
338.7393942512961
 21
-186.9192655755881
 31
0.0
  0
LINE
  5
F4F
330
2
100
AcDbEntity
  8
L-ZISSEN
100
AcDbLine
 10
342.5910056098263
 20
-186.5995126122264
 30
0.0
 11
344.9317512319984
 21
-186.5995126122264
 31
0.0
  0
LINE
  5
F50
330
2
100
AcDbEntity
  8
L-ZISSEN
100
AcDbLine
 10
354.2184217702441
 20
-187.4095126122259
 30
0.0
 11
355.0284217702454
 21
-186.5995126122264
 31
0.0
  0
LINE
  5
F51
330
2
100
AcDbEntity
  8
L-ZISSEN
100
AcDbLine
 10
341.2104007569733
 20
-174.4595740749371
 30
0.0
 11
341.2104007569733
 21
-156.9595740749366
 31
0.0
  0
LINE
  5
F52
330
2
100
AcDbEntity
  8
L-ZISSEN
100
AcDbLine
 10
344.9317512319984
 20
-176.2232697344032
 30
0.0
 11
355.0284217702454
 21
-176.2232697344032
 31
0.0
  0
LINE
  5
F53
330
2
100
AcDbEntity
  8
L-ZISSEN
100
AcDbLine
 10
344.9317512319984
 20
-176.2232697344032
 30
0.0
 11
346.3074866774012
 21
-177.0332697344036
 31
0.0
  0
LINE
  5
F54
330
2
100
AcDbEntity
  8
L-ZISSEN
100
AcDbLine
 10
339.5493942512956
 20
-177.0332697344036
 30
0.0
 11
342.5910056098263
 21
-177.0332697344036
 31
0.0
  0
LINE
  5
F55
330
2
100
AcDbEntity
  8
L-ZISSEN
100
AcDbLine
 10
338.7393942512961
 20
-176.2232697344032
 30
0.0
 11
342.5910056098263
 21
-176.2232697344032
 31
0.0
  0
LINE
  5
F56
330
2
100
AcDbEntity
  8
L-ZISSEN
100
AcDbLine
 10
339.5493942512956
 20
-177.0332697344036
 30
0.0
 11
338.7393942512961
 21
-176.2232697344032
 31
0.0
  0
LINE
  5
F57
330
2
100
AcDbEntity
  8
L-ZISSEN
100
AcDbLine
 10
346.3074866774012
 20
-177.0332697344036
 30
0.0
 11
354.2184217702441
 21
-177.0332697344036
 31
0.0
  0
LINE
  5
F58
330
2
100
AcDbEntity
  8
L-ZISSEN
100
AcDbLine
 10
354.2184217702441
 20
-177.0332697344036
 30
0.0
 11
355.0284217702454
 21
-176.2232697344032
 31
0.0
  0
LINE
  5
F59
330
2
100
AcDbEntity
  8
L-TYUSIN
100
AcDbLine
 10
350.8709913109663
 20
-111.8963188326527
 30
0.0
 11
350.8709913109663
 21
-140.7396837654835
 31
0.0
  0
LINE
  5
F5A
330
2
100
AcDbEntity
  8
L-ZISSEN
100
AcDbLine
 10
344.035394251295
 20
-122.0356805027406
 30
0.0
 11
344.035394251295
 21
-136.0356805027415
 31
0.0
  0
LINE
  5
F5B
330
2
100
AcDbEntity
  8
L-ZISSEN
100
AcDbLine
 10
344.035394251295
 20
-132.8946827609709
 30
0.0
 11
344.035394251295
 21
-122.0356805027406
 31
0.0
  0
LINE
  5
F5C
330
2
100
AcDbEntity
  8
L-ZISSEN
100
AcDbLine
 10
353.2840228271238
 20
-130.2358729117297
 30
0.0
 11
353.2840228271237
 21
-135.0310587214337
 31
0.0
  0
LINE
  5
F5D
330
2
100
AcDbEntity
  8
L-ZISSEN
100
AcDbLine
 10
344.035394251295
 20
-132.8946827609709
 30
0.0
 11
348.3829297187793
 21
-132.8946827609709
 31
0.0
  0
LINE
  5
F5E
330
2
100
AcDbEntity
  8
L-ZISSEN
100
AcDbLine
 10
351.302291751644
 20
-140.9595740749357
 30
0.0
 11
338.5453942512967
 21
-140.9595740749366
 31
0.0
  0
LINE
  5
F5F
330
2
100
AcDbEntity
  8
L-ZISSEN
100
AcDbLine
 10
340.3453942512966
 20
-142.4595740749366
 30
0.0
 11
351.3022917516485
 21
-142.4595740749357
 31
0.0
  0
LINE
  5
F60
330
2
100
AcDbEntity
  8
L-ZISSEN
100
AcDbLine
 10
341.0353942512955
 20
-136.0356805027415
 30
0.0
 11
341.0353942512955
 21
-140.9595740749366
 31
0.0
  0
LINE
  5
F61
330
2
100
AcDbEntity
  8
L-ZISSEN
100
AcDbLine
 10
338.5453942512969
 20
-140.9595740749367
 30
0.0
 11
338.5453942512969
 21
-142.2595740749355
 31
0.0
  0
LINE
  5
F62
330
2
100
AcDbEntity
  8
L-ZISSEN
100
AcDbLine
 10
338.5453942512969
 20
-142.2595740749355
 30
0.0
 11
337.0453942512965
 21
-142.2595740749355
 31
0.0
  0
LINE
  5
F63
330
2
100
AcDbEntity
  8
L-ZISSEN
100
AcDbLine
 10
338.8453942512966
 20
-143.9595740749366
 30
0.0
 11
338.8453942512966
 21
-144.0210195221014
 31
0.0
  0
LINE
  5
F64
330
2
100
AcDbEntity
  8
L-ZISSEN
100
AcDbLine
 10
338.8453942512966
 20
-143.9595740749366
 30
0.0
 11
340.3453942512965
 21
-142.4595740749362
 31
0.0
  0
LINE
  5
F65
330
2
100
AcDbEntity
  8
L-ZISSEN
100
AcDbLine
 10
337.0453942512966
 20
-143.9595740749366
 30
0.0
 11
338.8453942512966
 21
-143.9595740749366
 31
0.0
  0
LINE
  5
F66
330
2
100
AcDbEntity
  8
L-ZISSEN
100
AcDbLine
 10
348.3829297187793
 20
-132.8946827609709
 30
0.0
 11
348.3829297187793
 21
-136.0356805027415
 31
0.0
  0
LINE
  5
F67
330
2
100
AcDbEntity
  8
L-ZISSEN
100
AcDbLine
 10
351.302291751644
 20
-139.2036805027421
 30
0.0
 11
351.302291751644
 21
-136.0356805027415
 31
0.0
  0
LINE
  5
F68
330
2
100
AcDbEntity
  8
L-ZISSEN
100
AcDbLine
 10
355.4540440967406
 20
-135.0310587214337
 30
0.0
 11
356.4667209771136
 21
-135.0310587214337
 31
0.0
  0
LINE
  5
F69
330
2
100
AcDbEntity
  8
L-ZISSEN
100
AcDbLine
 10
353.2840228271237
 20
-130.2358729117297
 30
0.0
 11
353.5541373597601
 21
-129.7635491427675
 31
0.0
  0
LINE
  5
F6A
330
2
100
AcDbEntity
  8
L-ZISSEN
100
AcDbLine
 10
362.7884967509448
 20
-156.9595740749375
 30
0.0
 11
362.7884967509446
 21
-136.0356805027415
 31
0.0
  0
LINE
  5
F6B
330
2
100
AcDbEntity
  8
L-ZISSEN
100
AcDbLine
 10
377.0453942512967
 20
-142.2595740749355
 30
0.0
 11
377.0453942512967
 21
-174.4595740749371
 31
0.0
  0
LINE
  5
F6C
330
2
100
AcDbEntity
  8
L-ZISSEN
100
AcDbLine
 10
361.0604967509466
 20
-135.0310587214337
 30
0.0
 11
361.0604967509465
 21
-156.9595740749376
 31
0.0
  0
LINE
  5
F6D
330
2
100
AcDbEntity
  8
L-ZISSEN
100
AcDbLine
 10
373.7453942512967
 20
-142.4595740749366
 30
0.0
 11
373.7453942512966
 21
-156.9595740749376
 31
0.0
  0
LINE
  5
F6E
330
2
100
AcDbEntity
  8
L-ZISSEN
100
AcDbLine
 10
375.2453942512967
 20
-143.9595740749366
 30
0.0
 11
375.2453942512965
 21
-174.4595740749371
 31
0.0
  0
LINE
  5
F6F
330
2
100
AcDbEntity
  8
L-ZISSEN
100
AcDbLine
 10
375.3513942512935
 20
-174.4595740749371
 30
0.0
 11
375.3513942512935
 21
-186.9192655755881
 31
0.0
  0
LINE
  5
F70
330
2
100
AcDbEntity
  8
L-ZISSEN
100
AcDbLine
 10
359.0623667323478
 20
-186.5995126122264
 30
0.0
 11
359.0623667323478
 21
-176.2232697344032
 31
0.0
  0
LINE
  5
F71
330
2
100
AcDbEntity
  8
L-ZISSEN
100
AcDbLine
 10
359.8723667323473
 20
-187.4095126122259
 30
0.0
 11
359.8723667323473
 21
-177.0332697344036
 31
0.0
  0
LINE
  5
F72
330
2
100
AcDbEntity
  8
L-ZISSEN
100
AcDbLine
 10
359.8723667323473
 20
-187.4095126122259
 30
0.0
 11
359.8723667323473
 21
-177.0332697344036
 31
0.0
  0
LINE
  5
F73
330
2
100
AcDbEntity
  8
L-ZISSEN
100
AcDbLine
 10
369.1590372705931
 20
-186.5995126122264
 30
0.0
 11
369.1590372705931
 21
-176.2232697344032
 31
0.0
  0
LINE
  5
F74
330
2
100
AcDbEntity
  8
L-ZISSEN
100
AcDbLine
 10
367.783301825192
 20
-187.4095126122259
 30
0.0
 11
367.783301825192
 21
-177.0332697344036
 31
0.0
  0
LINE
  5
F75
330
2
100
AcDbEntity
  8
L-ZISSEN
100
AcDbLine
 10
371.4997828927633
 20
-187.4095126122259
 30
0.0
 11
371.4997828927633
 21
-176.2232697344032
 31
0.0
  0
LINE
  5
F76
330
2
100
AcDbEntity
  8
L-ZISSEN
100
AcDbLine
 10
359.8723667323473
 20
-187.4095126122259
 30
0.0
 11
359.0623667323478
 21
-186.5995126122264
 31
0.0
  0
LINE
  5
F77
330
2
100
AcDbEntity
  8
L-ZISSEN
100
AcDbLine
 10
371.4997828927633
 20
-186.5995126122264
 30
0.0
 11
369.1590372705931
 21
-186.5995126122264
 31
0.0
  0
LINE
  5
F78
330
2
100
AcDbEntity
  8
L-ZISSEN
100
AcDbLine
 10
371.4997828927633
 20
-187.4095126122259
 30
0.0
 11
367.783301825192
 21
-187.4095126122259
 31
0.0
  0
LINE
  5
F79
330
2
100
AcDbEntity
  8
L-ZISSEN
100
AcDbLine
 10
369.1590372705931
 20
-186.5995126122264
 30
0.0
 11
367.783301825192
 21
-187.4095126122259
 31
0.0
  0
LINE
  5
F7A
330
2
100
AcDbEntity
  8
L-ZISSEN
100
AcDbLine
 10
374.5413942512976
 20
-187.4095126122259
 30
0.0
 11
375.3513942512935
 21
-186.9192655755881
 31
0.0
  0
LINE
  5
F7B
330
2
100
AcDbEntity
  8
L-ZISSEN
100
AcDbLine
 10
372.8753942512929
 20
-174.4595740749371
 30
0.0
 11
372.8753942512929
 21
-156.9595740749376
 31
0.0
  0
LINE
  5
F7C
330
2
100
AcDbEntity
  8
L-ZISSEN
100
AcDbLine
 10
367.783301825192
 20
-177.0332697344036
 30
0.0
 11
359.8723667323473
 21
-177.0332697344036
 31
0.0
  0
LINE
  5
F7D
330
2
100
AcDbEntity
  8
L-ZISSEN
100
AcDbLine
 10
369.1590372705931
 20
-176.2232697344032
 30
0.0
 11
359.0623667323478
 21
-176.2232697344032
 31
0.0
  0
LINE
  5
F7E
330
2
100
AcDbEntity
  8
L-ZISSEN
100
AcDbLine
 10
359.8723667323473
 20
-177.0332697344036
 30
0.0
 11
359.0623667323478
 21
-176.2232697344032
 31
0.0
  0
LINE
  5
F7F
330
2
100
AcDbEntity
  8
L-ZISSEN
100
AcDbLine
 10
374.5413942512976
 20
-177.0332697344036
 30
0.0
 11
371.4997828927633
 21
-177.0332697344036
 31
0.0
  0
LINE
  5
F80
330
2
100
AcDbEntity
  8
L-ZISSEN
100
AcDbLine
 10
374.5413942512976
 20
-176.2232697344032
 30
0.0
 11
371.4997828927633
 21
-176.2232697344032
 31
0.0
  0
LINE
  5
F81
330
2
100
AcDbEntity
  8
L-ZISSEN
100
AcDbLine
 10
369.1590372705931
 20
-176.2232697344032
 30
0.0
 11
367.783301825192
 21
-177.0332697344036
 31
0.0
  0
LINE
  5
F82
330
2
100
AcDbEntity
  8
L-ZISSEN
100
AcDbLine
 10
374.5413942512976
 20
-177.0332697344036
 30
0.0
 11
375.3513942512935
 21
-176.2232697344032
 31
0.0
  0
LINE
  5
F83
330
2
100
AcDbEntity
  8
L-ZISSEN
100
AcDbLine
 10
374.5413942512976
 20
-176.2232697344032
 30
0.0
 11
375.3513942512935
 21
-176.2232697344032
 31
0.0
  0
LINE
  5
F84
330
2
100
AcDbEntity
  8
L-ZISSEN
100
AcDbLine
 10
360.8067656754673
 20
-132.7056974355107
 30
0.0
 11
360.8067656754673
 21
-130.2358729117297
 31
0.0
  0
LINE
  5
F85
330
2
100
AcDbEntity
  8
L-ZISSEN
100
AcDbLine
 10
375.5453942512964
 20
-140.9595740749362
 30
0.0
 11
362.7884967509447
 21
-140.9595740749357
 31
0.0
  0
LINE
  5
F86
330
2
100
AcDbEntity
  8
L-ZISSEN
100
AcDbLine
 10
373.7453942512967
 20
-142.4595740749366
 30
0.0
 11
362.7884967509447
 21
-142.4595740749357
 31
0.0
  0
LINE
  5
F87
330
2
100
AcDbEntity
  8
L-ZISSEN
100
AcDbLine
 10
360.8067656754673
 20
-135.0310587214337
 30
0.0
 11
360.8067656754673
 21
-132.7056974355107
 31
0.0
  0
LINE
  5
F88
330
2
100
AcDbEntity
  8
L-ZISSEN
100
AcDbLine
 10
362.7884967509447
 20
-136.1356805027406
 30
0.0
 11
362.7884967509447
 21
-139.2036805027421
 31
0.0
  0
LINE
  5
F89
330
2
100
AcDbEntity
  8
L-ZISSEN
100
AcDbLine
 10
375.5453942512964
 20
-140.9595740749362
 30
0.0
 11
375.5453942512964
 21
-142.2595740749355
 31
0.0
  0
LINE
  5
F8A
330
2
100
AcDbEntity
  8
L-ZISSEN
100
AcDbLine
 10
375.5453942512964
 20
-142.2595740749355
 30
0.0
 11
377.0453942512967
 21
-142.2595740749355
 31
0.0
  0
LINE
  5
F8B
330
2
100
AcDbEntity
  8
L-ZISSEN
100
AcDbLine
 10
377.0453942512966
 20
-143.9595740749366
 30
0.0
 11
375.2453942512967
 21
-143.9595740749366
 31
0.0
  0
LINE
  5
F8C
330
2
100
AcDbEntity
  8
L-ZISSEN
100
AcDbLine
 10
375.2453942512967
 20
-143.9595740749366
 30
0.0
 11
375.2453942512967
 21
-144.0210195221014
 31
0.0
  0
LINE
  5
F8D
330
2
100
AcDbEntity
  8
L-ZISSEN
100
AcDbLine
 10
375.2453942512967
 20
-143.9595740749366
 30
0.0
 11
373.7453942512968
 21
-142.4595740749362
 31
0.0
  0
LINE
  5
F8E
330
2
100
AcDbEntity
  8
L-ZISSEN
100
AcDbLine
 10
358.035394251296
 20
-122.0356805027406
 30
0.0
 11
358.035394251296
 21
-129.7635491427675
 31
0.0
  0
LINE
  5
F8F
330
2
100
AcDbEntity
  8
L-ZISSEN
100
AcDbLine
 10
360.8067656754673
 20
-130.2358729117297
 30
0.0
 11
360.5366511428286
 21
-129.7635491427675
 31
0.0
  0
LINE
  5
F90
330
2
100
AcDbEntity
  8
L-ZISSEN
100
AcDbLine
 10
277.0453942512967
 20
-146.9595740749366
 30
0.0
 11
277.0453942512967
 21
-142.2595740749355
 31
0.0
  0
LINE
  5
F91
330
2
100
AcDbEntity
  8
L-ZISSEN
100
AcDbLine
 10
287.0453942512968
 20
-156.9595740749366
 30
0.0
 11
287.0453942512968
 21
-166.2173036102133
 31
0.0
  0
LINE
  5
F92
330
2
100
AcDbEntity
  8
L-ZISSEN
100
AcDbLine
 10
289.3133434437286
 20
-146.9595740749366
 30
0.0
 11
289.3133434437286
 21
-144.0101649964251
 31
0.0
  0
LINE
  5
F93
330
2
100
AcDbEntity
  8
L-ZISSEN
100
AcDbLine
 10
291.0453942512986
 20
-146.9595740749366
 30
0.0
 11
291.0453942512986
 21
-142.2781141888569
 31
0.0
  0
CIRCLE
  5
F98
330
2
100
AcDbEntity
  8
L-ZISSEN
100
AcDbCircle
 10
282.0453942512967
 20
-151.9595740749366
 30
0.0
 40
4.0
  0
CIRCLE
  5
F99
330
2
100
AcDbEntity
  8
L-ZISSEN
100
AcDbCircle
 10
282.0453942512967
 20
-151.9595740749366
 30
0.0
 40
2.0
  0
LINE
  5
F9C
330
2
100
AcDbEntity
  8
L-TYUSIN
100
AcDbLine
 10
282.0453942512967
 20
-169.116081572974
 30
0.0
 11
282.0453942512967
 21
-181.7697037082229
 31
0.0
  0
LINE
  5
F9D
330
2
100
AcDbEntity
  8
L-TYUSIN
100
AcDbLine
 10
287.8405687221319
 20
-175.9595740749366
 30
0.0
 11
276.2560848375111
 21
-175.9595740749366
 31
0.0
  0
LINE
  5
F9F
330
2
100
AcDbEntity
  8
L-ZISSEN
100
AcDbLine
 10
277.0453942512967
 20
-160.4595740749366
 30
0.0
 11
287.0453942512968
 21
-160.4595740749366
 31
0.0
  0
LINE
  5
FA8
330
2
100
AcDbEntity
  8
L-ZISSEN
100
AcDbLine
 10
277.0453942512967
 20
-162.9595740749366
 30
0.0
 11
287.0453942512968
 21
-162.9595740749366
 31
0.0
  0
LINE
  5
FAD
330
2
100
AcDbEntity
  8
L-ZISSEN
100
AcDbLine
 10
277.0453942512967
 20
-143.4595740749366
 30
0.0
 11
287.0453942512968
 21
-143.4595740749366
 31
0.0
  0
LINE
  5
FAE
330
2
100
AcDbEntity
  8
L-ZISSEN
100
AcDbLine
 10
288.0453942512967
 20
-140.9595740749366
 30
0.0
 11
276.0453942512967
 21
-140.9595740749366
 31
0.0
  0
LINE
  5
FB0
330
2
100
AcDbEntity
  8
L-ZISSEN
100
AcDbLine
 10
277.0453942512967
 20
-140.9595740749366
 30
0.0
 11
277.0453942512967
 21
-146.9595740749366
 31
0.0
  0
LINE
  5
FB2
330
2
100
AcDbEntity
  8
L-ZISSEN
100
AcDbLine
 10
276.0453942512967
 20
-141.9595740749366
 30
0.0
 11
277.0453942512967
 21
-141.9595740749366
 31
0.0
  0
LINE
  5
FB3
330
2
100
AcDbEntity
  8
L-ZISSEN
100
AcDbLine
 10
276.0453942512967
 20
-140.9595740749366
 30
0.0
 11
276.0453942512967
 21
-141.9595740749366
 31
0.0
  0
LINE
  5
FB4
330
2
100
AcDbEntity
  8
L-ZISSEN
100
AcDbLine
 10
287.0453942512968
 20
-140.9595740749366
 30
0.0
 11
287.0453942512968
 21
-146.9595740749366
 31
0.0
  0
LINE
  5
FB7
330
2
100
AcDbEntity
  8
L-ZISSEN
100
AcDbLine
 10
287.0453942512968
 20
-142.4595740749366
 30
0.0
 11
287.1599955021743
 21
-142.4595740749366
 31
0.0
  0
LINE
  5
FB8
330
2
100
AcDbEntity
  8
L-ZISSEN
100
AcDbLine
 10
288.0453942512967
 20
-141.9595740749366
 30
0.0
 11
287.0453942512968
 21
-141.9595740749366
 31
0.0
  0
LINE
  5
FB9
330
2
100
AcDbEntity
  8
L-ZISSEN
100
AcDbLine
 10
288.0453942512967
 20
-140.9595740749366
 30
0.0
 11
288.0453942512967
 21
-141.9595740749366
 31
0.0
  0
LINE
  5
FBA
330
2
100
AcDbEntity
  8
L-TYUSIN
100
AcDbLine
 10
287.8405687221319
 20
-127.9595740749366
 30
0.0
 11
276.2560848375111
 21
-127.9595740749366
 31
0.0
  0
LINE
  5
FBC
330
2
100
AcDbEntity
  8
L-TYUSIN
100
AcDbLine
 10
282.0453942512967
 20
-133.7705373947833
 30
0.0
 11
282.0453942512967
 21
-122.06831572655
 31
0.0
  0
LINE
  5
FBE
330
2
100
AcDbEntity
  8
L-ZISSEN
100
AcDbLine
 10
287.0453942512968
 20
-184.9595740749366
 30
0.0
 11
275.3513942512918
 21
-184.9595740749366
 31
0.0
  0
LINE
  5
FC2
330
2
100
AcDbEntity
  8
L-ZISSEN
100
AcDbLine
 10
275.5453942512966
 20
-140.9595740749362
 30
0.0
 11
275.5453942512966
 21
-142.2595740749355
 31
0.0
  0
LINE
  5
FC3
330
2
100
AcDbEntity
  8
L-ZISSEN
100
AcDbLine
 10
275.5453942512966
 20
-142.2595740749355
 30
0.0
 11
277.045394251297
 21
-142.2595740749355
 31
0.0
  0
LINE
  5
FC4
330
2
100
AcDbEntity
  8
L-ZISSEN
100
AcDbLine
 10
238.545394251297
 20
-140.9595740749367
 30
0.0
 11
238.545394251297
 21
-142.2595740749355
 31
0.0
  0
LINE
  5
FC5
330
2
100
AcDbEntity
  8
L-ZISSEN
100
AcDbLine
 10
238.545394251297
 20
-142.2595740749355
 30
0.0
 11
237.0453942512967
 21
-142.2595740749355
 31
0.0
  0
CIRCLE
  5
FC6
330
2
100
AcDbEntity
  8
L-SOUZOU
100
AcDbCircle
 10
307.0453942512949
 20
-151.9595740749366
 30
0.0
 40
20.99999999999818
  0
LINE
  5
FC7
330
2
100
AcDbEntity
  8
L-ZISSEN
100
AcDbLine
 10
323.0453942512967
 20
-146.9595740749366
 30
0.0
 11
323.0453942512967
 21
-142.2781141888569
 31
0.0
  0
LINE
  5
FC8
330
2
100
AcDbEntity
  8
L-ZISSEN
100
AcDbLine
 10
324.7774450588649
 20
-146.9595740749366
 30
0.0
 11
324.7774450588649
 21
-144.0101649964251
 31
0.0
  0
LINE
  5
FC9
330
2
100
AcDbEntity
  8
L-ZISSEN
100
AcDbLine
 10
327.0453942512967
 20
-146.9595740749366
 30
0.0
 11
327.0453942512967
 21
-142.7781141888561
 31
0.0
  0
LINE
  5
FCA
330
2
100
AcDbEntity
  8
L-ZISSEN
100
AcDbLine
 10
337.0453942512968
 20
-156.9595740749366
 30
0.0
 11
337.0453942512968
 21
-174.4595740749371
 31
0.0
  0
LINE
  5
FCB
330
2
100
AcDbEntity
  8
L-ZISSEN
100
AcDbLine
 10
338.8453942512966
 20
-156.9595740749366
 30
0.0
 11
338.8453942512966
 21
-174.4595740749371
 31
0.0
  0
LINE
  5
FCC
330
2
100
AcDbEntity
  8
L-ZISSEN
100
AcDbLine
 10
274.5453942512968
 20
-140.9595740749366
 30
0.0
 11
274.5453942512968
 21
-118.9595740749366
 31
0.0
  0
LINE
  5
FCD
330
2
100
AcDbEntity
  8
L-ZISSEN
100
AcDbLine
 10
274.5453942512968
 20
-118.9595740749366
 30
0.0
 11
289.5453942512967
 21
-118.9595740749366
 31
0.0
  0
LINE
  5
FCE
330
2
100
AcDbEntity
  8
L-ZISSEN
100
AcDbLine
 10
289.5453942512967
 20
-118.9595740749366
 30
0.0
 11
289.5453942512967
 21
-140.9781141888559
 31
0.0
  0
LINE
  5
FCF
330
2
100
AcDbEntity
  8
L-ZISSEN
100
AcDbLine
 10
284.5453942512967
 20
-125.9595740749366
 30
0.0
 11
284.5453942512967
 21
-129.9595740749366
 31
0.0
  0
ARC
  5
FD0
330
2
100
AcDbEntity
  8
L-ZISSEN
100
AcDbCircle
 10
282.0453942512967
 20
-129.9595740749366
 30
0.0
 40
2.5
100
AcDbArc
 50
270.0
 51
359.9999999999998
  0
LINE
  5
FD1
330
2
100
AcDbEntity
  8
SUNPOU
100
AcDbLine
 10
282.0453942512967
 20
-132.4595740749366
 30
0.0
 11
282.0453942512967
 21
-132.4595740749366
 31
0.0
  0
ARC
  5
FD2
330
2
100
AcDbEntity
  8
L-ZISSEN
100
AcDbCircle
 10
282.0453942512967
 20
-129.9595740749366
 30
0.0
 40
2.500000000000007
100
AcDbArc
 50
179.9999999999998
 51
270.0
  0
LINE
  5
FD3
330
2
100
AcDbEntity
  8
L-ZISSEN
100
AcDbLine
 10
279.5453942512967
 20
-129.9595740749366
 30
0.0
 11
279.5453942512967
 21
-125.9595740749366
 31
0.0
  0
ARC
  5
FD4
330
2
100
AcDbEntity
  8
L-ZISSEN
100
AcDbCircle
 10
282.0453942512967
 20
-125.9595740749366
 30
0.0
 40
2.5
100
AcDbArc
 50
90.0
 51
180.0
  0
LINE
  5
FD5
330
2
100
AcDbEntity
  8
SUNPOU
100
AcDbLine
 10
282.0453942512967
 20
-123.4595740749366
 30
0.0
 11
282.0453942512967
 21
-123.4595740749366
 31
0.0
  0
ARC
  5
FD6
330
2
100
AcDbEntity
  8
L-ZISSEN
100
AcDbCircle
 10
282.0453942512967
 20
-125.9595740749366
 30
0.0
 40
2.500000000000014
100
AcDbArc
 50
359.9999999999997
 51
90.0
  0
LINE
  5
FD7
330
2
100
AcDbEntity
  8
L-ZISSEN
100
AcDbLine
 10
284.5453942512967
 20
-177.9595740749366
 30
0.0
 11
284.5453942512967
 21
-173.9595740749366
 31
0.0
  0
ARC
  5
FD8
330
2
100
AcDbEntity
  8
L-ZISSEN
100
AcDbCircle
 10
282.0453942512967
 20
-173.9595740749366
 30
0.0
 40
2.5
100
AcDbArc
 50
0.0
 51
90.0
  0
LINE
  5
FD9
330
2
100
AcDbEntity
  8
SUNPOU
100
AcDbLine
 10
282.0453942512967
 20
-171.4595740749366
 30
0.0
 11
282.0453942512967
 21
-171.4595740749366
 31
0.0
  0
ARC
  5
FDA
330
2
100
AcDbEntity
  8
L-ZISSEN
100
AcDbCircle
 10
282.0453942512967
 20
-173.9595740749366
 30
0.0
 40
2.5
100
AcDbArc
 50
90.0
 51
180.0
  0
LINE
  5
FDB
330
2
100
AcDbEntity
  8
L-ZISSEN
100
AcDbLine
 10
279.5453942512967
 20
-173.9595740749366
 30
0.0
 11
279.5453942512967
 21
-177.9595740749366
 31
0.0
  0
ARC
  5
FDC
330
2
100
AcDbEntity
  8
L-ZISSEN
100
AcDbCircle
 10
282.0453942512967
 20
-177.9595740749366
 30
0.0
 40
2.5
100
AcDbArc
 50
180.0
 51
270.0
  0
LINE
  5
FDD
330
2
100
AcDbEntity
  8
SUNPOU
100
AcDbLine
 10
282.0453942512967
 20
-180.4595740749366
 30
0.0
 11
282.0453942512967
 21
-180.4595740749366
 31
0.0
  0
ARC
  5
FDE
330
2
100
AcDbEntity
  8
L-ZISSEN
100
AcDbCircle
 10
282.0453942512967
 20
-177.9595740749366
 30
0.0
 40
2.5
100
AcDbArc
 50
270.0
 51
0.0
  0
LINE
  5
FDF
330
2
100
AcDbEntity
  8
L-ZISSEN
100
AcDbLine
 10
271.5453942512967
 20
-146.9595740749366
 30
0.0
 11
271.5453942512967
 21
-156.9595740749366
 31
0.0
  0
LINE
  5
FE0
330
2
100
AcDbEntity
  8
L-ZISSEN
100
AcDbLine
 10
271.5453942512967
 20
-156.9595740749366
 30
0.0
 11
292.5453942512967
 21
-156.9595740749366
 31
0.0
  0
LINE
  5
FE1
330
2
100
AcDbEntity
  8
L-ZISSEN
100
AcDbLine
 10
292.5453942512967
 20
-156.9595740749366
 30
0.0
 11
292.5453942512967
 21
-146.9595740749366
 31
0.0
  0
LINE
  5
FE2
330
2
100
AcDbEntity
  8
L-ZISSEN
100
AcDbLine
 10
292.5453942512967
 20
-146.9595740749366
 30
0.0
 11
271.5453942512967
 21
-146.9595740749366
 31
0.0
  0
LINE
  5
FEB
330
2
100
AcDbEntity
  8
L-TYUSIN
100
AcDbLine
 10
332.0453942512967
 20
-142.1527666102724
 30
0.0
 11
332.0453942512967
 21
-161.795904684423
 31
0.0
  0
POLYLINE
  5
FED
330
2
100
AcDbEntity
  8
L-ZISSEN
100
AcDb2dPolyline
 66
     1
 10
0.0
 20
0.0
 30
0.0
  0
VERTEX
  5
1D96
330
FED
100
AcDbEntity
  8
L-ZISSEN
100
AcDbVertex
100
AcDb2dVertex
 10
327.0453942512967
 20
-156.9595740749366
 30
0.0
  0
VERTEX
  5
1D97
330
FED
100
AcDbEntity
  8
L-ZISSEN
100
AcDbVertex
100
AcDb2dVertex
 10
321.5453942512967
 20
-156.9595740749366
 30
0.0
  0
VERTEX
  5
1D98
330
FED
100
AcDbEntity
  8
L-ZISSEN
100
AcDbVertex
100
AcDb2dVertex
 10
321.5453942512967
 20
-146.9595740749366
 30
0.0
  0
VERTEX
  5
1D99
330
FED
100
AcDbEntity
  8
L-ZISSEN
100
AcDbVertex
100
AcDb2dVertex
 10
327.0453942512967
 20
-146.9595740749366
 30
0.0
  0
SEQEND
  5
1D9A
330
FED
100
AcDbEntity
  8
L-ZISSEN
  0
CIRCLE
  5
FEE
330
2
100
AcDbEntity
  8
L-ZISSEN
100
AcDbCircle
 10
332.0453942512967
 20
-151.9595740749366
 30
0.0
 40
4.0
  0
CIRCLE
  5
FEF
330
2
100
AcDbEntity
  8
L-ZISSEN
100
AcDbCircle
 10
332.0453942512967
 20
-151.9595740749366
 30
0.0
 40
2.0
  0
POLYLINE
  5
FF0
330
2
100
AcDbEntity
  8
L-ZISSEN
100
AcDb2dPolyline
 66
     1
 10
0.0
 20
0.0
 30
0.0
  0
VERTEX
  5
1D9B
330
FF0
100
AcDbEntity
  8
L-ZISSEN
100
AcDbVertex
100
AcDb2dVertex
 10
337.0453942512968
 20
-146.9595740749366
 30
0.0
  0
VERTEX
  5
1D9C
330
FF0
100
AcDbEntity
  8
L-ZISSEN
100
AcDbVertex
100
AcDb2dVertex
 10
342.5453942512967
 20
-146.9595740749366
 30
0.0
  0
VERTEX
  5
1D9D
330
FF0
100
AcDbEntity
  8
L-ZISSEN
100
AcDbVertex
100
AcDb2dVertex
 10
342.5453942512967
 20
-156.9595740749366
 30
0.0
  0
VERTEX
  5
1D9E
330
FF0
100
AcDbEntity
  8
L-ZISSEN
100
AcDbVertex
100
AcDb2dVertex
 10
337.0453942512968
 20
-156.9595740749366
 30
0.0
  0
SEQEND
  5
1D9F
330
FF0
100
AcDbEntity
  8
L-ZISSEN
  0
LINE
  5
FF2
330
2
100
AcDbEntity
  8
L-TYUSIN
100
AcDbLine
 10
332.0453942512967
 20
-169.116081572974
 30
0.0
 11
332.0453942512967
 21
-181.7697037082229
 31
0.0
  0
LINE
  5
FF3
330
2
100
AcDbEntity
  8
L-TYUSIN
100
AcDbLine
 10
337.8405687221319
 20
-175.9595740749366
 30
0.0
 11
326.2560848375111
 21
-175.9595740749366
 31
0.0
  0
LINE
  5
FF5
330
2
100
AcDbEntity
  8
L-ZISSEN
100
AcDbLine
 10
327.0453942512967
 20
-160.4595740749366
 30
0.0
 11
337.0453942512968
 21
-160.4595740749366
 31
0.0
  0
LINE
  5
FF6
330
2
100
AcDbEntity
  8
L-ZISSEN
100
AcDbLine
 10
337.0453942512968
 20
-162.9595740749366
 30
0.0
 11
327.0453942512968
 21
-162.9595740749366
 31
0.0
  0
LINE
  5
1003
330
2
100
AcDbEntity
  8
L-ZISSEN
100
AcDbLine
 10
327.0453942512967
 20
-143.4595740749366
 30
0.0
 11
337.0453942512968
 21
-143.4595740749366
 31
0.0
  0
LINE
  5
1006
330
2
100
AcDbEntity
  8
L-ZISSEN
100
AcDbLine
 10
327.0453942512967
 20
-140.9595740749366
 30
0.0
 11
327.0453942512967
 21
-146.9595740749366
 31
0.0
  0
LINE
  5
1007
330
2
100
AcDbEntity
  8
SUNPOU
100
AcDbLine
 10
326.9307930004181
 20
-142.4595740749366
 30
0.0
 11
327.0453942512967
 21
-142.4595740749366
 31
0.0
  0
LINE
  5
1008
330
2
100
AcDbEntity
  8
L-ZISSEN
100
AcDbLine
 10
326.0453942512967
 20
-141.9595740749366
 30
0.0
 11
327.0453942512967
 21
-141.9595740749366
 31
0.0
  0
LINE
  5
1009
330
2
100
AcDbEntity
  8
L-ZISSEN
100
AcDbLine
 10
326.0453942512967
 20
-140.9595740749366
 30
0.0
 11
326.0453942512967
 21
-141.9595740749366
 31
0.0
  0
LINE
  5
100A
330
2
100
AcDbEntity
  8
L-ZISSEN
100
AcDbLine
 10
337.0453942512968
 20
-140.9595740749366
 30
0.0
 11
337.0453942512968
 21
-146.9595740749366
 31
0.0
  0
LINE
  5
100C
330
2
100
AcDbEntity
  8
L-ZISSEN
100
AcDbLine
 10
326.0453942512967
 20
-140.9595740749366
 30
0.0
 11
338.0453942512967
 21
-140.9595740749366
 31
0.0
  0
LINE
  5
100E
330
2
100
AcDbEntity
  8
L-ZISSEN
100
AcDbLine
 10
338.0453942512967
 20
-141.9595740749366
 30
0.0
 11
337.0453942512968
 21
-141.9595740749366
 31
0.0
  0
LINE
  5
100F
330
2
100
AcDbEntity
  8
L-ZISSEN
100
AcDbLine
 10
338.0453942512967
 20
-140.9595740749366
 30
0.0
 11
338.0453942512967
 21
-141.9595740749366
 31
0.0
  0
LINE
  5
1010
330
2
100
AcDbEntity
  8
L-TYUSIN
100
AcDbLine
 10
337.8405687221319
 20
-127.9595740749366
 30
0.0
 11
326.2560848375111
 21
-127.9595740749366
 31
0.0
  0
LINE
  5
1012
330
2
100
AcDbEntity
  8
L-TYUSIN
100
AcDbLine
 10
332.0453942512967
 20
-133.7705373947833
 30
0.0
 11
332.0453942512967
 21
-122.06831572655
 31
0.0
  0
LINE
  5
1014
330
2
100
AcDbEntity
  8
L-ZISSEN
100
AcDbLine
 10
338.7393942512961
 20
-184.9595740749366
 30
0.0
 11
327.0453942512967
 21
-184.9595740749366
 31
0.0
  0
LINE
  5
1015
330
2
100
AcDbEntity
  8
L-ZISSEN
100
AcDbLine
 10
324.5453942512967
 20
-179.2172563485557
 30
0.0
 11
324.5453942512967
 21
-177.2173036102129
 31
0.0
  0
LINE
  5
1016
330
2
100
AcDbEntity
  8
L-ZISSEN
100
AcDbLine
 10
289.5453942512968
 20
-177.2173036102128
 30
0.0
 11
289.5453942512967
 21
-179.2172563485557
 31
0.0
  0
LINE
  5
1017
330
2
100
AcDbEntity
  8
L-ZISSEN
100
AcDbLine
 10
334.5453942512968
 20
-177.9595740749366
 30
0.0
 11
334.5453942512968
 21
-173.9595740749366
 31
0.0
  0
ARC
  5
1018
330
2
100
AcDbEntity
  8
L-ZISSEN
100
AcDbCircle
 10
332.0453942512967
 20
-173.9595740749366
 30
0.0
 40
2.5
100
AcDbArc
 50
0.0
 51
90.0
  0
LINE
  5
1019
330
2
100
AcDbEntity
  8
SUNPOU
100
AcDbLine
 10
332.0453942512967
 20
-171.4595740749366
 30
0.0
 11
332.0453942512967
 21
-171.4595740749366
 31
0.0
  0
ARC
  5
101A
330
2
100
AcDbEntity
  8
L-ZISSEN
100
AcDbCircle
 10
332.0453942512967
 20
-173.9595740749366
 30
0.0
 40
2.5
100
AcDbArc
 50
90.0
 51
180.0
  0
LINE
  5
101B
330
2
100
AcDbEntity
  8
L-ZISSEN
100
AcDbLine
 10
329.5453942512967
 20
-173.9595740749366
 30
0.0
 11
329.5453942512967
 21
-177.9595740749366
 31
0.0
  0
ARC
  5
101C
330
2
100
AcDbEntity
  8
L-ZISSEN
100
AcDbCircle
 10
332.0453942512967
 20
-177.9595740749366
 30
0.0
 40
2.5
100
AcDbArc
 50
180.0
 51
270.0
  0
LINE
  5
101D
330
2
100
AcDbEntity
  8
SUNPOU
100
AcDbLine
 10
332.0453942512967
 20
-180.4595740749366
 30
0.0
 11
332.0453942512967
 21
-180.4595740749366
 31
0.0
  0
ARC
  5
101E
330
2
100
AcDbEntity
  8
L-ZISSEN
100
AcDbCircle
 10
332.0453942512967
 20
-177.9595740749366
 30
0.0
 40
2.5
100
AcDbArc
 50
270.0
 51
0.0
  0
LINE
  5
101F
330
2
100
AcDbEntity
  8
L-ZISSEN
100
AcDbLine
 10
324.5453942512968
 20
-140.9781141888559
 30
0.0
 11
324.5453942512968
 21
-118.9595740749366
 31
0.0
  0
LINE
  5
1020
330
2
100
AcDbEntity
  8
L-ZISSEN
100
AcDbLine
 10
324.5453942512968
 20
-118.9595740749366
 30
0.0
 11
339.5453942512967
 21
-118.9595740749366
 31
0.0
  0
LINE
  5
1021
330
2
100
AcDbEntity
  8
L-ZISSEN
100
AcDbLine
 10
339.5453942512967
 20
-118.9595740749366
 30
0.0
 11
339.5453942512967
 21
-140.9595740749366
 31
0.0
  0
LINE
  5
1022
330
2
100
AcDbEntity
  8
L-ZISSEN
100
AcDbLine
 10
334.5453942512968
 20
-125.9595740749366
 30
0.0
 11
334.5453942512968
 21
-129.9595740749366
 31
0.0
  0
ARC
  5
1023
330
2
100
AcDbEntity
  8
L-ZISSEN
100
AcDbCircle
 10
332.0453942512967
 20
-129.9595740749366
 30
0.0
 40
2.5
100
AcDbArc
 50
270.0
 51
359.9999999999998
  0
LINE
  5
1024
330
2
100
AcDbEntity
  8
SUNPOU
100
AcDbLine
 10
332.0453942512967
 20
-132.4595740749366
 30
0.0
 11
332.0453942512967
 21
-132.4595740749366
 31
0.0
  0
ARC
  5
1025
330
2
100
AcDbEntity
  8
L-ZISSEN
100
AcDbCircle
 10
332.0453942512967
 20
-129.9595740749366
 30
0.0
 40
2.500000000000007
100
AcDbArc
 50
179.9999999999998
 51
270.0
  0
LINE
  5
1026
330
2
100
AcDbEntity
  8
L-ZISSEN
100
AcDbLine
 10
329.5453942512967
 20
-129.9595740749366
 30
0.0
 11
329.5453942512967
 21
-125.9595740749366
 31
0.0
  0
ARC
  5
1027
330
2
100
AcDbEntity
  8
L-ZISSEN
100
AcDbCircle
 10
332.0453942512967
 20
-125.9595740749366
 30
0.0
 40
2.5
100
AcDbArc
 50
90.0
 51
180.0
  0
LINE
  5
1028
330
2
100
AcDbEntity
  8
SUNPOU
100
AcDbLine
 10
332.0453942512967
 20
-123.4595740749366
 30
0.0
 11
332.0453942512967
 21
-123.4595740749366
 31
0.0
  0
ARC
  5
1029
330
2
100
AcDbEntity
  8
L-ZISSEN
100
AcDbCircle
 10
332.0453942512967
 20
-125.9595740749366
 30
0.0
 40
2.500000000000014
100
AcDbArc
 50
359.9999999999997
 51
90.0
  0
LINE
  5
102B
330
2
100
AcDbEntity
  8
L-ZISSEN
100
AcDbLine
 10
321.5453942512967
 20
-156.9595740749366
 30
0.0
 11
342.5453942512967
 21
-156.9595740749366
 31
0.0
  0
LINE
  5
102D
330
2
100
AcDbEntity
  8
L-ZISSEN
100
AcDbLine
 10
342.5453942512967
 20
-146.9595740749366
 30
0.0
 11
321.5453942512967
 21
-146.9595740749366
 31
0.0
  0
LINE
  5
124F
330
2
100
AcDbEntity
  8
L-ZISSEN
100
AcDbLine
 10
237.0453942512949
 20
-54.92151496892574
 30
0.0
 11
237.0453942512949
 21
-26.92151496892575
 31
0.0
  0
LINE
  5
1251
330
2
100
AcDbEntity
  8
L-TYUSIN
100
AcDbLine
 10
257.0453942512949
 20
-65.92151496892575
 30
0.0
 11
257.0453942512949
 21
-15.92151496892574
 31
0.0
  0
LINE
  5
1252
330
2
100
AcDbEntity
  8
L-ZISSEN
100
AcDbLine
 10
275.695394251295
 20
-50.67151496892575
 30
0.0
 11
275.695394251295
 21
-31.17151496892574
 31
0.0
  0
LINE
  5
1253
330
2
100
AcDbEntity
  8
L-ZISSEN
100
AcDbLine
 10
238.3953942512949
 20
-50.67151496892575
 30
0.0
 11
238.3953942512949
 21
-31.17151496892574
 31
0.0
  0
CIRCLE
  5
1254
330
2
100
AcDbEntity
  8
L-ZISSEN
100
AcDbCircle
 10
244.0453942512949
 20
-24.92151496892573
 30
0.0
 40
1.649999999999999
  0
LINE
  5
1256
330
2
100
AcDbEntity
  8
L-ZISSEN
100
AcDbLine
 10
238.3953942512949
 20
-31.17151496892574
 30
0.0
 11
275.695394251295
 21
-31.17151496892574
 31
0.0
  0
LINE
  5
1257
330
2
100
AcDbEntity
  8
L-ZISSEN
100
AcDbLine
 10
277.0453942512949
 20
-29.92151496892574
 30
0.0
 11
237.0453942512949
 21
-29.92151496892574
 31
0.0
  0
LINE
  5
1258
330
2
100
AcDbEntity
  8
L-ZISSEN
100
AcDbLine
 10
271.5453942512949
 20
-20.92151496892574
 30
0.0
 11
241.0453942512949
 21
-20.92151496892574
 31
0.0
  0
LINE
  5
1259
330
2
100
AcDbEntity
  8
L-ZISSEN
100
AcDbLine
 10
240.8755622271537
 20
-20.92151496892552
 30
0.0
 11
271.5453942512949
 21
-20.92151496892552
 31
0.0
  0
LINE
  5
125C
330
2
100
AcDbEntity
  8
L-ZISSEN
100
AcDbLine
 10
239.5453942512958
 20
-26.92151496892597
 30
0.0
 11
240.8755622271537
 21
-20.92151496892552
 31
0.0
  0
LINE
  5
125F
330
2
100
AcDbEntity
  8
L-ZISSEN
100
AcDbLine
 10
237.0453942512958
 20
-26.92151496892597
 30
0.0
 11
239.5453942512958
 21
-26.92151496892597
 31
0.0
  0
LINE
  5
1260
330
2
100
AcDbEntity
  8
L-ZISSEN
100
AcDbLine
 10
238.8453942512951
 20
-26.92151496892597
 30
0.0
 11
240.5453942512949
 21
-29.92151496892552
 31
0.0
  0
LINE
  5
1267
330
2
100
AcDbEntity
  8
L-ZISSEN
100
AcDbLine
 10
277.045394251294
 20
-26.92151496892597
 30
0.0
 11
275.0938901060131
 21
-26.92151496892562
 31
0.0
  0
LINE
  5
1268
330
2
100
AcDbEntity
  8
L-ZISSEN
100
AcDbLine
 10
275.2453942512947
 20
-26.92151496892597
 30
0.0
 11
273.5453942512949
 21
-29.92151496892552
 31
0.0
  0
ARC
  5
1269
330
2
100
AcDbEntity
  8
L-ZISSEN
100
AcDbCircle
 10
270.0453942512949
 20
-24.92151496892574
 30
0.0
 40
1.649999999999999
100
AcDbArc
 50
24.61997732866106
 51
335.3800226713396
  0
CIRCLE
  5
126B
330
2
100
AcDbEntity
  8
L-ZISSEN
100
AcDbCircle
 10
244.0453942512949
 20
-56.92151496892574
 30
0.0
 40
1.649999999999999
  0
LINE
  5
126D
330
2
100
AcDbEntity
  8
L-ZISSEN
100
AcDbLine
 10
238.3953942512949
 20
-50.67151496892575
 30
0.0
 11
275.695394251295
 21
-50.67151496892575
 31
0.0
  0
LINE
  5
126E
330
2
100
AcDbEntity
  8
L-ZISSEN
100
AcDbLine
 10
277.0453942512949
 20
-51.92151496892575
 30
0.0
 11
237.0453942512949
 21
-51.92151496892575
 31
0.0
  0
LINE
  5
126F
330
2
100
AcDbEntity
  8
L-ZISSEN
100
AcDbLine
 10
273.0453942512949
 20
-60.92151496892575
 30
0.0
 11
241.0453942512949
 21
-60.92151496892575
 31
0.0
  0
LINE
  5
1270
330
2
100
AcDbEntity
  8
L-ZISSEN
100
AcDbLine
 10
240.8755622271537
 20
-60.92151496892597
 30
0.0
 11
273.2152262754361
 21
-60.92151496892597
 31
0.0
  0
LINE
  5
1271
330
2
100
AcDbEntity
  8
L-ZISSEN
100
AcDbLine
 10
239.5453942512958
 20
-54.92151496892507
 30
0.0
 11
240.8755622271537
 21
-60.92151496892597
 31
0.0
  0
LINE
  5
1272
330
2
100
AcDbEntity
  8
L-ZISSEN
100
AcDbLine
 10
237.0453942512949
 20
-54.92151496892574
 30
0.0
 11
239.2953942512954
 21
-54.92151496892574
 31
0.0
  0
LINE
  5
1273
330
2
100
AcDbEntity
  8
L-ZISSEN
100
AcDbLine
 10
237.0453942512958
 20
-54.92151496892507
 30
0.0
 11
239.5453942512949
 21
-54.92151496892552
 31
0.0
  0
LINE
  5
1274
330
2
100
AcDbEntity
  8
L-ZISSEN
100
AcDbLine
 10
238.8453942512951
 20
-54.92151496892552
 30
0.0
 11
240.5453942512949
 21
-51.92151496892552
 31
0.0
  0
LINE
  5
1275
330
2
100
AcDbEntity
  8
L-ZISSEN
100
AcDbLine
 10
273.2551313147119
 20
-60.74151496892574
 30
0.0
 11
273.2152262754361
 21
-60.92151496892597
 31
0.0
  0
ARC
  5
1276
330
2
100
AcDbEntity
  8
L-ZISSEN
100
AcDbCircle
 10
270.0453942512949
 20
-56.92151496892574
 30
0.0
 40
1.649999999999999
100
AcDbArc
 50
24.61997732865392
 51
335.380022671346
  0
LINE
  5
1277
330
2
100
AcDbEntity
  8
L-ZISSEN
100
AcDbLine
 10
277.0453942512949
 20
-54.92151496892574
 30
0.0
 11
275.0938901060131
 21
-54.92151496892574
 31
0.0
  0
LINE
  5
1278
330
2
100
AcDbEntity
  8
L-ZISSEN
100
AcDbLine
 10
277.045394251294
 20
-54.92151496892507
 30
0.0
 11
275.0938901060127
 21
-54.92151496892507
 31
0.0
  0
LINE
  5
1279
330
2
100
AcDbEntity
  8
L-ZISSEN
100
AcDbLine
 10
277.045394251294
 20
-54.92151496892507
 30
0.0
 11
275.2453942512938
 21
-54.92151496892552
 31
0.0
  0
LINE
  5
127A
330
2
100
AcDbEntity
  8
L-ZISSEN
100
AcDbLine
 10
275.2453942512947
 20
-54.92151496892552
 30
0.0
 11
273.5453942512949
 21
-51.92151496892552
 31
0.0
  0
LINE
  5
1378
330
2
100
AcDbEntity
  8
L-SOUZOU
100
AcDbLine
 10
326.5453942512949
 20
-96.42151496892575
 30
0.0
 11
287.5453942512949
 21
-96.42151496892575
 31
0.0
  0
LINE
  5
1379
330
2
100
AcDbEntity
  8
L-SOUZOU
100
AcDbLine
 10
328.0453942512949
 20
-87.42151496892574
 30
0.0
 11
286.0453942512949
 21
-87.42151496892574
 31
0.0
  0
ARC
  5
137A
330
2
100
AcDbEntity
  8
L-SOUZOU
100
AcDbCircle
 10
325.945394251295
 20
-72.92151496892575
 30
0.0
 40
1.5
100
AcDbArc
 50
0.0
 51
89.99999999999998
  0
LINE
  5
137D
330
2
100
AcDbEntity
  8
L-ZISSEN
100
AcDbLine
 10
321.5453942512949
 20
-20.92151496892574
 30
0.0
 11
292.5453942512949
 21
-20.92151496892576
 31
0.0
  0
LINE
  5
1386
330
2
100
AcDbEntity
  8
L-TYUSIN
100
AcDbLine
 10
307.0453942512949
 20
-15.92151496892576
 30
0.0
 11
307.0453942512949
 21
-101.4215149689257
 31
0.0
  0
LINE
  5
138B
330
2
100
AcDbEntity
  8
L-ZISSEN
100
AcDbLine
 10
287.0453942512949
 20
-60.74151496892574
 30
0.0
 11
287.0453942512949
 21
-60.92151496892575
 31
0.0
  0
LINE
  5
1390
330
2
100
AcDbEntity
  8
L-SOUZOU
100
AcDbLine
 10
286.0453942512949
 20
-87.42151496892574
 30
0.0
 11
286.0453942512949
 21
-94.92151496892574
 31
0.0
  0
LINE
  5
1391
330
2
100
AcDbEntity
  8
L-SOUZOU
100
AcDbLine
 10
312.3953942512948
 20
-65.42151496892575
 30
0.0
 11
301.695394251295
 21
-65.42151496892575
 31
0.0
  0
LINE
  5
1392
330
2
100
AcDbEntity
  8
L-SOUZOU
100
AcDbLine
 10
312.0353380449623
 20
-63.92151496892575
 30
0.0
 11
302.0554504576275
 21
-63.92151496892563
 31
0.0
  0
LINE
  5
1393
330
2
100
AcDbEntity
  8
L-SOUZOU
100
AcDbLine
 10
325.945394251295
 20
-71.42151496892575
 30
0.0
 11
288.1453942512948
 21
-71.42151496892575
 31
0.0
  0
LINE
  5
1394
330
2
100
AcDbEntity
  8
L-SOUZOU
100
AcDbLine
 10
286.6453942512949
 20
-72.92151496892575
 30
0.0
 11
286.6453942512949
 21
-87.42151496892574
 31
0.0
  0
LINE
  5
1395
330
2
100
AcDbEntity
  8
L-ZISSEN
100
AcDbLine
 10
287.0453942512949
 20
-60.92151496892575
 30
0.0
 11
327.0453942512949
 21
-60.92151496892575
 31
0.0
  0
ARC
  5
1396
330
2
100
AcDbEntity
  8
L-SOUZOU
100
AcDbCircle
 10
288.1453942512948
 20
-72.92151496892575
 30
0.0
 40
1.5
100
AcDbArc
 50
89.99999999999998
 51
180.0
  0
LINE
  5
1397
330
2
100
AcDbEntity
  8
L-SOUZOU
100
AcDbLine
 10
301.695394251295
 20
-65.42151496892575
 30
0.0
 11
301.695394251295
 21
-71.42151496892575
 31
0.0
  0
LINE
  5
1398
330
2
100
AcDbEntity
  8
L-SOUZOU
100
AcDbLine
 10
302.1492051427396
 20
-60.92151496892575
 30
0.0
 11
302.0085731150711
 21
-65.42151496892575
 31
0.0
  0
LINE
  5
1399
330
2
100
AcDbEntity
  8
L-SOUZOU
100
AcDbLine
 10
302.7352051427396
 20
-60.92151496892575
 30
0.0
 11
302.6414504576273
 21
-63.92151496892575
 31
0.0
  0
LINE
  5
139A
330
2
100
AcDbEntity
  8
L-SOUZOU
100
AcDbLine
 10
302.6414504576273
 20
-63.92151496892575
 30
0.0
 11
302.036546256666
 21
-64.52641916988705
 31
0.0
  0
LINE
  5
139B
330
2
100
AcDbEntity
  8
L-SOUZOU
100
AcDbLine
 10
312.3953942512948
 20
-71.42151496892575
 30
0.0
 11
312.3953942512948
 21
-65.42151496892575
 31
0.0
  0
LINE
  5
139C
330
2
100
AcDbEntity
  8
L-SOUZOU
100
AcDbLine
 10
311.9415833598502
 20
-60.92151496892575
 30
0.0
 11
312.0822153875187
 21
-65.42151496892575
 31
0.0
  0
LINE
  5
139D
330
2
100
AcDbEntity
  8
L-SOUZOU
100
AcDbLine
 10
311.3555833598502
 20
-60.92151496892575
 30
0.0
 11
311.4493380449625
 21
-63.92151496892575
 31
0.0
  0
LINE
  5
139E
330
2
100
AcDbEntity
  8
L-SOUZOU
100
AcDbLine
 10
311.4493380449625
 20
-63.92151496892575
 30
0.0
 11
312.0542422459239
 21
-64.52641916988705
 31
0.0
  0
ARC
  5
139F
330
2
100
AcDbEntity
  8
L-SOUZOU
100
AcDbCircle
 10
287.5453942512949
 20
-94.92151496892574
 30
0.0
 40
1.5
100
AcDbArc
 50
180.0
 51
270.0
  0
LINE
  5
13A0
330
2
100
AcDbEntity
  8
L-ZISSEN
100
AcDbLine
 10
327.0453942512949
 20
-60.92151496892575
 30
0.0
 11
327.0453942512949
 21
-60.74151496892574
 31
0.0
  0
LINE
  5
13A4
330
2
100
AcDbEntity
  8
L-SOUZOU
100
AcDbLine
 10
328.0453942512949
 20
-87.42151496892574
 30
0.0
 11
328.0453942512949
 21
-94.92151496892574
 31
0.0
  0
LINE
  5
13A5
330
2
100
AcDbEntity
  8
L-SOUZOU
100
AcDbLine
 10
327.445394251295
 20
-72.92151496892575
 30
0.0
 11
327.445394251295
 21
-87.42151496892574
 31
0.0
  0
ARC
  5
13A6
330
2
100
AcDbEntity
  8
L-SOUZOU
100
AcDbCircle
 10
326.5453942512949
 20
-94.92151496892574
 30
0.0
 40
1.5
100
AcDbArc
 50
270.0
 51
0.0
  0
LINE
  5
13AA
330
2
100
AcDbEntity
  8
L-ZISSEN
100
AcDbLine
 10
287.0453942512958
 20
-26.9215149689262
 30
0.0
 11
288.996898396577
 21
-26.9215149689262
 31
0.0
  0
LINE
  5
13AB
330
2
100
AcDbEntity
  8
L-ZISSEN
100
AcDbLine
 10
288.8453942512951
 20
-26.9215149689262
 30
0.0
 11
290.5453942512949
 21
-29.92151496892574
 31
0.0
  0
LINE
  5
13AD
330
2
100
AcDbEntity
  8
L-ZISSEN
100
AcDbLine
 10
323.5453942512947
 20
-29.92151496892597
 30
0.0
 11
309.2487904044918
 21
-29.92151496892597
 31
0.0
  0
LINE
  5
13AE
330
2
100
AcDbEntity
  8
L-ZISSEN
100
AcDbLine
 10
323.545394251295
 20
-51.92151496892598
 30
0.0
 11
309.2487904044896
 21
-51.92151496892598
 31
0.0
  0
LINE
  5
13AF
330
2
100
AcDbEntity
  8
L-ZISSEN
100
AcDbLine
 10
288.8453942512951
 20
-54.92151496892574
 30
0.0
 11
290.5453942512949
 21
-51.92151496892575
 31
0.0
  0
LINE
  5
13B0
330
2
100
AcDbEntity
  8
L-ZISSEN
100
AcDbLine
 10
325.2453942512947
 20
-54.92151496892574
 30
0.0
 11
323.5453942512949
 21
-51.92151496892575
 31
0.0
  0
LINE
  5
13B1
330
2
100
AcDbEntity
  8
L-ZISSEN
100
AcDbLine
 10
323.255131314712
 20
-60.74151496892574
 30
0.0
 11
323.2152262754361
 21
-60.9215149689262
 31
0.0
  0
LINE
  5
13B2
330
2
100
AcDbEntity
  8
L-ZISSEN
100
AcDbLine
 10
290.8356571878779
 20
-60.74151496892574
 30
0.0
 11
290.8755622271537
 21
-60.9215149689262
 31
0.0
  0
LINE
  5
13B3
330
2
100
AcDbEntity
  8
L-ZISSEN
100
AcDbLine
 10
287.0453942512958
 20
-54.92151496892529
 30
0.0
 11
288.9968983965768
 21
-54.92151496892565
 31
0.0
  0
LINE
  5
13B5
330
2
100
AcDbEntity
  8
L-ZISSEN
100
AcDbLine
 10
325.2453942512947
 20
-26.9215149689262
 30
0.0
 11
323.5453942512949
 21
-29.92151496892574
 31
0.0
  0
LINE
  5
13B7
330
2
100
AcDbEntity
  8
L-ZISSEN
100
AcDbLine
 10
327.045394251294
 20
-26.9215149689262
 30
0.0
 11
325.0938901060127
 21
-26.9215149689262
 31
0.0
  0
LINE
  5
13B8
330
2
100
AcDbEntity
  8
L-ZISSEN
100
AcDbLine
 10
327.0453942512949
 20
-54.92151496892597
 30
0.0
 11
325.0938901060132
 21
-54.92151496892597
 31
0.0
  0
LINE
  5
13B9
330
2
100
AcDbEntity
  8
L-ZISSEN
100
AcDbLine
 10
327.045394251294
 20
-54.92151496892529
 30
0.0
 11
325.0938901060131
 21
-54.92151496892565
 31
0.0
  0
CIRCLE
  5
13BA
330
2
100
AcDbEntity
  8
L-ZISSEN
100
AcDbCircle
 10
307.0453942512949
 20
-40.92151496892575
 30
0.0
 40
11.21850946462666
  0
POLYLINE
  5
13BB
330
2
100
AcDbEntity
  8
L-ZISSEN
100
AcDb2dPolyline
 66
     1
 10
0.0
 20
0.0
 30
0.0
 70
     1
  0
VERTEX
  5
1DA0
330
13BB
100
AcDbEntity
  8
L-ZISSEN
100
AcDbVertex
100
AcDb2dVertex
 10
297.1394544870917
 20
-40.92151496892575
 30
0.0
  0
VERTEX
  5
1DA1
330
13BB
100
AcDbEntity
  8
L-ZISSEN
100
AcDbVertex
100
AcDb2dVertex
 10
302.0924243691933
 20
-49.50031045308418
 30
0.0
  0
VERTEX
  5
1DA2
330
13BB
100
AcDbEntity
  8
L-ZISSEN
100
AcDbVertex
100
AcDb2dVertex
 10
311.9983641333965
 20
-49.50031045308421
 30
0.0
  0
VERTEX
  5
1DA3
330
13BB
100
AcDbEntity
  8
L-ZISSEN
100
AcDbVertex
100
AcDb2dVertex
 10
316.9513340154982
 20
-40.92151496892575
 30
0.0
  0
VERTEX
  5
1DA4
330
13BB
100
AcDbEntity
  8
L-ZISSEN
100
AcDbVertex
100
AcDb2dVertex
 10
311.9983641333965
 20
-32.34271948476731
 30
0.0
  0
VERTEX
  5
1DA5
330
13BB
100
AcDbEntity
  8
L-ZISSEN
100
AcDbVertex
100
AcDb2dVertex
 10
302.0924243691933
 20
-32.34271948476728
 30
0.0
  0
SEQEND
  5
1DA6
330
13BB
100
AcDbEntity
  8
L-ZISSEN
  0
LINE
  5
13BC
330
2
100
AcDbEntity
  8
L-ZISSEN
100
AcDbLine
 10
304.841998098098
 20
-29.92151496892597
 30
0.0
 11
290.5453942512951
 21
-29.92151496892597
 31
0.0
  0
LINE
  5
13BD
330
2
100
AcDbEntity
  8
L-ZISSEN
100
AcDbLine
 10
304.8419980981003
 20
-51.92151496892598
 30
0.0
 11
290.5453942512948
 21
-51.92151496892598
 31
0.0
  0
CIRCLE
  5
13BE
330
2
100
AcDbEntity
  8
L-ZISSEN
100
AcDbCircle
 10
358.0453942512944
 20
-26.92151496892576
 30
0.0
 40
4.0
  0
ARC
  5
13BF
330
2
100
AcDbEntity
  8
L-ZISSEN
100
AcDbCircle
 10
344.0453942512944
 20
-24.92151496892576
 30
0.0
 40
1.649999999999999
100
AcDbArc
 50
204.6199773286982
 51
155.3800226713017
  0
LINE
  5
13C0
330
2
100
AcDbEntity
  8
L-ZISSEN
100
AcDbLine
 10
353.0453942512949
 20
-20.92151496892586
 30
0.0
 11
351.0453942512949
 21
-29.92151496892574
 31
0.0
  0
CIRCLE
  5
13C1
330
2
100
AcDbEntity
  8
L-ZISSEN
100
AcDbCircle
 10
370.0453942512944
 20
-24.92151496892577
 30
0.0
 40
1.649999999999999
  0
LINE
  5
13C2
330
2
100
AcDbEntity
  8
L-ZISSEN
100
AcDbLine
 10
374.5453942512935
 20
-26.92151496892609
 30
0.0
 11
373.2152262754356
 21
-20.92151496892552
 31
0.0
  0
LINE
  5
13C3
330
2
100
AcDbEntity
  8
L-ZISSEN
100
AcDbLine
 10
363.0453942512949
 20
-20.92151496892574
 30
0.0
 11
365.0453942512949
 21
-29.92151496892563
 31
0.0
  0
LINE
  5
13C9
330
2
100
AcDbEntity
  8
L-TYUSIN
100
AcDbLine
 10
357.0453942512944
 20
-65.92151496892575
 30
0.0
 11
357.0453942512944
 21
-15.92151496892574
 31
0.0
  0
LINE
  5
13CA
330
2
100
AcDbEntity
  8
L-ZISSEN
100
AcDbLine
 10
342.5453942512949
 20
-20.92151496892552
 30
0.0
 11
373.2152262754361
 21
-20.92151496892552
 31
0.0
  0
LINE
  5
13D0
330
2
100
AcDbEntity
  8
L-ZISSEN
100
AcDbLine
 10
340.8755622271532
 20
-60.92151496892597
 30
0.0
 11
373.2152262754361
 21
-60.92151496892597
 31
0.0
  0
CIRCLE
  5
13D1
330
2
100
AcDbEntity
  8
L-ZISSEN
100
AcDbCircle
 10
370.0453942512944
 20
-56.92151496892576
 30
0.0
 40
1.649999999999999
  0
LINE
  5
13D2
330
2
100
AcDbEntity
  8
L-ZISSEN
100
AcDbLine
 10
373.5453942512944
 20
-51.92151496892586
 30
0.0
 11
365.0453942512949
 21
-51.92151496892575
 31
0.0
  0
LINE
  5
13D3
330
2
100
AcDbEntity
  8
L-ZISSEN
100
AcDbLine
 10
365.0453942512949
 20
-29.92151496892563
 30
0.0
 11
373.5453942512944
 21
-29.92151496892563
 31
0.0
  0
LINE
  5
13D5
330
2
100
AcDbEntity
  8
L-TYUSIN
100
AcDbLine
 10
232.0453942512949
 20
-40.92151496892575
 30
0.0
 11
382.0453942512944
 21
-40.92151496892575
 31
0.0
  0
ARC
  5
13D6
330
2
100
AcDbEntity
  8
L-ZISSEN
100
AcDbCircle
 10
344.0453942512944
 20
-56.92151496892576
 30
0.0
 40
1.649999999999999
100
AcDbArc
 50
204.6199773286986
 51
155.3800226713036
  0
CIRCLE
  5
13D7
330
2
100
AcDbEntity
  8
L-ZISSEN
100
AcDbCircle
 10
358.0453942512944
 20
-54.92151496892576
 30
0.0
 40
5.0
  0
LINE
  5
13D8
330
2
100
AcDbEntity
  8
L-ZISSEN
100
AcDbLine
 10
353.0453942512949
 20
-60.92151496892586
 30
0.0
 11
351.0453942512949
 21
-51.92151496892598
 31
0.0
  0
LINE
  5
13D9
330
2
100
AcDbEntity
  8
L-ZISSEN
100
AcDbLine
 10
340.8356571878774
 20
-60.74151496892574
 30
0.0
 11
340.8755622271532
 21
-60.92151496892597
 31
0.0
  0
LINE
  5
13DA
330
2
100
AcDbEntity
  8
L-ZISSEN
100
AcDbLine
 10
363.0453942512949
 20
-60.92151496892597
 30
0.0
 11
365.0453942512949
 21
-51.92151496892609
 31
0.0
  0
LINE
  5
13DB
330
2
100
AcDbEntity
  8
L-ZISSEN
100
AcDbLine
 10
351.0453942512949
 20
-51.92151496892563
 30
0.0
 11
340.5453942512949
 21
-51.92151496892563
 31
0.0
  0
LINE
  5
13DD
330
2
100
AcDbEntity
  8
L-ZISSEN
100
AcDbLine
 10
340.5453942512949
 20
-29.92151496892574
 30
0.0
 11
351.0453942512944
 21
-29.92151496892563
 31
0.0
  0
ARC
  5
13DE
330
2
100
AcDbEntity
  8
L-ZISSEN
100
AcDbCircle
 10
351.0453942512949
 20
-40.92151496892576
 30
0.0
 40
10.99999999999988
100
AcDbArc
 50
89.99999999999998
 51
270.0
  0
POLYLINE
  5
13DF
330
2
100
AcDbEntity
  8
L-ZISSEN
100
AcDb2dPolyline
 66
     1
 10
0.0
 20
0.0
 30
0.0
 70
     1
  0
VERTEX
  5
1DA7
330
13DF
100
AcDbEntity
  8
L-ZISSEN
100
AcDbVertex
100
AcDb2dVertex
 10
358.0453942512949
 20
-36.88006308459842
 30
0.0
  0
VERTEX
  5
1DA8
330
13DF
100
AcDbEntity
  8
L-ZISSEN
100
AcDbVertex
100
AcDb2dVertex
 10
351.0453942512949
 20
-32.83861120027097
 30
0.0
  0
VERTEX
  5
1DA9
330
13DF
100
AcDbEntity
  8
L-ZISSEN
100
AcDbVertex
100
AcDb2dVertex
 10
344.0453942512949
 20
-36.88006308459842
 30
0.0
  0
VERTEX
  5
1DAA
330
13DF
100
AcDbEntity
  8
L-ZISSEN
100
AcDbVertex
100
AcDb2dVertex
 10
344.0453942512949
 20
-44.96296685325307
 30
0.0
  0
VERTEX
  5
1DAB
330
13DF
100
AcDbEntity
  8
L-ZISSEN
100
AcDbVertex
100
AcDb2dVertex
 10
351.0453942512949
 20
-49.00441873758052
 30
0.0
  0
VERTEX
  5
1DAC
330
13DF
100
AcDbEntity
  8
L-ZISSEN
100
AcDbVertex
100
AcDb2dVertex
 10
358.0453942512949
 20
-44.96296685325319
 30
0.0
  0
SEQEND
  5
1DAD
330
13DF
100
AcDbEntity
  8
L-ZISSEN
  0
CIRCLE
  5
13E0
330
2
100
AcDbEntity
  8
L-ZISSEN
100
AcDbCircle
 10
351.0453942512949
 20
-40.92151496892576
 30
0.0
 40
7.0
  0
LINE
  5
13E1
330
2
100
AcDbEntity
  8
L-ZISSEN
100
AcDbLine
 10
338.8453942512942
 20
-54.92151496892541
 30
0.0
 11
338.8453942512946
 21
-26.92151496892586
 31
0.0
  0
LINE
  5
13E3
330
2
100
AcDbEntity
  8
L-ZISSEN
100
AcDbLine
 10
337.0453942512953
 20
-26.92151496892609
 30
0.0
 11
338.996898396577
 21
-26.921514968926
 31
0.0
  0
LINE
  5
13E4
330
2
100
AcDbEntity
  8
L-ZISSEN
100
AcDbLine
 10
338.8453942512946
 20
-26.92151496892597
 30
0.0
 11
340.5453942512944
 21
-29.92151496892563
 31
0.0
  0
LINE
  5
13E5
330
2
100
AcDbEntity
  8
L-ZISSEN
100
AcDbLine
 10
337.0453942512953
 20
-54.92151496892541
 30
0.0
 11
338.996898396577
 21
-54.9215149689255
 31
0.0
  0
LINE
  5
13E6
330
2
100
AcDbEntity
  8
L-ZISSEN
100
AcDbLine
 10
338.8453942512946
 20
-54.92151496892552
 30
0.0
 11
340.5453942512944
 21
-51.92151496892586
 31
0.0
  0
LINE
  5
13E7
330
2
100
AcDbEntity
  8
L-ZISSEN
100
AcDbLine
 10
365.0453942512949
 20
-51.92151496892711
 30
0.0
 11
365.0453942512944
 21
-29.92151496892563
 31
0.0
  0
LINE
  5
13E8
330
2
100
AcDbEntity
  8
L-ZISSEN
100
AcDbLine
 10
356.6668968343191
 20
-24.8359107707638
 30
0.0
 11
360.1309984494564
 21
-28.30001238590103
 31
0.0
  0
CIRCLE
  5
13E9
330
2
100
AcDbEntity
  8
L-ZISSEN
100
AcDbCircle
 10
358.0453942512944
 20
-26.92151496892576
 30
0.0
 40
2.5
  0
LINE
  5
13EA
330
2
100
AcDbEntity
  8
L-ZISSEN
100
AcDbLine
 10
355.9597900531329
 20
-25.54301755195047
 30
0.0
 11
359.4238916682702
 21
-29.00711916708769
 31
0.0
  0
LINE
  5
13EB
330
2
100
AcDbEntity
  8
L-ZISSEN
100
AcDbLine
 10
374.5453942512935
 20
-54.92151496892541
 30
0.0
 11
373.2152262754356
 21
-60.92151496892597
 31
0.0
  0
LINE
  5
13EC
330
2
100
AcDbEntity
  8
L-ZISSEN
100
AcDbLine
 10
377.0453942512939
 20
-54.92151496892541
 30
0.0
 11
377.0453942512939
 21
-26.92151496892586
 31
0.0
  0
LINE
  5
13ED
330
2
100
AcDbEntity
  8
L-ZISSEN
100
AcDbLine
 10
375.2453942512947
 20
-54.92151496892541
 30
0.0
 11
375.2453942512942
 21
-26.92151496892586
 31
0.0
  0
LINE
  5
13EE
330
2
100
AcDbEntity
  8
L-ZISSEN
100
AcDbLine
 10
375.2453942512942
 20
-26.92151496892597
 30
0.0
 11
373.5453942512944
 21
-29.92151496892563
 31
0.0
  0
LINE
  5
13EF
330
2
100
AcDbEntity
  8
L-ZISSEN
100
AcDbLine
 10
377.0453942512935
 20
-26.92151496892609
 30
0.0
 11
374.545394251294
 21
-26.92151496892575
 31
0.0
  0
LINE
  5
13F0
330
2
100
AcDbEntity
  8
L-ZISSEN
100
AcDbLine
 10
377.0453942512935
 20
-54.92151496892541
 30
0.0
 11
375.2453942512938
 21
-54.92151496892552
 31
0.0
  0
LINE
  5
13F1
330
2
100
AcDbEntity
  8
L-ZISSEN
100
AcDbLine
 10
375.2453942512942
 20
-54.92151496892552
 30
0.0
 11
373.5453942512944
 21
-51.92151496892586
 31
0.0
  0
LINE
  5
13F2
330
2
100
AcDbEntity
  8
L-ZISSEN
100
AcDbLine
 10
377.0453942512935
 20
-54.92151496892541
 30
0.0
 11
374.5453942512935
 21
-54.92151496892541
 31
0.0
  0
LINE
  5
1436
330
2
100
AcDbEntity
  8
L-ZISSEN
100
AcDbLine
 10
326.0453942512949
 20
-31.42151496892575
 30
0.0
 11
326.0453942512949
 21
-50.42151496892575
 31
0.0
  0
LINE
  5
1437
330
2
100
AcDbEntity
  8
L-ZISSEN
100
AcDbLine
 10
338.0453942512949
 20
-50.42151496892575
 30
0.0
 11
338.0453942512949
 21
-31.42151496892575
 31
0.0
  0
LINE
  5
1438
330
2
100
AcDbEntity
  8
L-ZISSEN
100
AcDbLine
 10
338.545394251295
 20
-55.83680908657199
 30
0.0
 11
325.545394251295
 21
-55.83680908657197
 31
0.0
  0
LINE
  5
1439
330
2
100
AcDbEntity
  8
L-ZISSEN
100
AcDbLine
 10
342.5453942512949
 20
-60.74151496892574
 30
0.0
 11
321.5453942512949
 21
-60.74151496892574
 31
0.0
  0
LINE
  5
143A
330
2
100
AcDbEntity
  8
L-ZISSEN
100
AcDbLine
 10
327.0453942512949
 20
-54.92151496892574
 30
0.0
 11
337.0453942512949
 21
-54.92151496892574
 31
0.0
  0
LINE
  5
143B
330
2
100
AcDbEntity
  8
L-ZISSEN
100
AcDbLine
 10
321.5453942512949
 20
-60.74151496892574
 30
0.0
 11
321.5453942512949
 21
-52.85680908657197
 31
0.0
  0
LINE
  5
143D
330
2
100
AcDbEntity
  8
L-ZISSEN
100
AcDbLine
 10
327.0453942512949
 20
-50.42151496892575
 30
0.0
 11
327.0453942512949
 21
-54.92151496892574
 31
0.0
  0
LINE
  5
143F
330
2
100
AcDbEntity
  8
L-ZISSEN
100
AcDbLine
 10
326.0453942512949
 20
-50.42151496892575
 30
0.0
 11
327.0453942512949
 21
-50.42151496892575
 31
0.0
  0
LINE
  5
1440
330
2
100
AcDbEntity
  8
L-ZISSEN
100
AcDbLine
 10
342.5453942512948
 20
-52.85680908657197
 30
0.0
 11
342.5453942512949
 21
-60.74151496892574
 31
0.0
  0
LINE
  5
1441
330
2
100
AcDbEntity
  8
L-ZISSEN
100
AcDbLine
 10
337.0453942512949
 20
-50.42151496892575
 30
0.0
 11
338.0453942512949
 21
-50.42151496892575
 31
0.0
  0
LINE
  5
1442
330
2
100
AcDbEntity
  8
L-ZISSEN
100
AcDbLine
 10
337.0453942512949
 20
-54.92151496892574
 30
0.0
 11
337.0453942512949
 21
-50.42151496892575
 31
0.0
  0
LINE
  5
1445
330
2
100
AcDbEntity
  8
L-ZISSEN
100
AcDbLine
 10
342.5453942512949
 20
-20.91151496892577
 30
0.0
 11
321.5453942512949
 21
-20.91151496892577
 31
0.0
  0
LINE
  5
1446
330
2
100
AcDbEntity
  8
L-ZISSEN
100
AcDbLine
 10
339.5453942512949
 20
-13.92151496892575
 30
0.0
 11
324.5453942512949
 21
-13.92151496892575
 31
0.0
  0
LINE
  5
1447
330
2
100
AcDbEntity
  8
L-ZISSEN
100
AcDbLine
 10
324.5453942512949
 20
-8.921514968925748
 30
0.0
 11
339.5453942512949
 21
-8.921514968925748
 31
0.0
  0
LINE
  5
1449
330
2
100
AcDbEntity
  8
L-ZISSEN
100
AcDbLine
 10
337.0453942512949
 20
-26.92151496892575
 30
0.0
 11
327.0453942512949
 21
-26.92151496892575
 31
0.0
  0
LINE
  5
144A
330
2
100
AcDbEntity
  8
L-ZISSEN
100
AcDbLine
 10
328.5453942512949
 20
-26.92151496892575
 30
0.0
 11
328.5453942512949
 21
-25.53151496892576
 31
0.0
  0
LINE
  5
144B
330
2
100
AcDbEntity
  8
L-ZISSEN
100
AcDbLine
 10
325.7795612469526
 20
-25.53151496892576
 30
0.0
 11
324.0753942512949
 21
-28.98622085127954
 31
0.0
  0
LINE
  5
144C
330
2
100
AcDbEntity
  8
L-ZISSEN
100
AcDbLine
 10
321.5453942512949
 20
-20.91151496892577
 30
0.0
 11
321.545394251295
 21
-28.98622085127954
 31
0.0
  0
LINE
  5
144D
330
2
100
AcDbEntity
  8
L-ZISSEN
100
AcDbLine
 10
321.5453942512949
 20
-28.98622085127954
 30
0.0
 11
324.0453942512949
 21
-28.98622085127954
 31
0.0
  0
LINE
  5
144E
330
2
100
AcDbEntity
  8
L-ZISSEN
100
AcDbLine
 10
327.0453942512949
 20
-26.92151496892575
 30
0.0
 11
327.0453942512949
 21
-31.42151496892575
 31
0.0
  0
LINE
  5
144F
330
2
100
AcDbEntity
  8
L-ZISSEN
100
AcDbLine
 10
327.0453942512949
 20
-31.42151496892575
 30
0.0
 11
326.0453942512949
 21
-31.42151496892575
 31
0.0
  0
LINE
  5
1450
330
2
100
AcDbEntity
  8
L-ZISSEN
100
AcDbLine
 10
323.7687275846282
 20
-20.91151496892577
 30
0.0
 11
324.5453942512949
 21
-13.92151496892575
 31
0.0
  0
LINE
  5
1451
330
2
100
AcDbEntity
  8
L-ZISSEN
100
AcDbLine
 10
328.5453942512949
 20
-25.53151496892576
 30
0.0
 11
325.7795612469527
 21
-25.53151496892576
 31
0.0
  0
LINE
  5
1452
330
2
100
AcDbEntity
  8
L-ZISSEN
100
AcDbLine
 10
324.5453942512949
 20
-13.92151496892575
 30
0.0
 11
324.5453942512949
 21
-8.921514968925748
 31
0.0
  0
LINE
  5
1453
330
2
100
AcDbEntity
  8
L-ZISSEN
100
AcDbLine
 10
335.5453942512949
 20
-26.92151496892575
 30
0.0
 11
335.545394251295
 21
-25.53151496892576
 31
0.0
  0
LINE
  5
1454
330
2
100
AcDbEntity
  8
L-ZISSEN
100
AcDbLine
 10
338.3112272556372
 20
-25.53151496892576
 30
0.0
 11
340.0153942512949
 21
-28.98622085127954
 31
0.0
  0
LINE
  5
1455
330
2
100
AcDbEntity
  8
L-ZISSEN
100
AcDbLine
 10
342.5453942512949
 20
-28.98622085127954
 30
0.0
 11
342.5453942512949
 21
-20.91151496892577
 31
0.0
  0
LINE
  5
1456
330
2
100
AcDbEntity
  8
L-ZISSEN
100
AcDbLine
 10
338.0453942512949
 20
-31.42151496892575
 30
0.0
 11
337.0453942512949
 21
-31.42151496892575
 31
0.0
  0
LINE
  5
1457
330
2
100
AcDbEntity
  8
L-ZISSEN
100
AcDbLine
 10
337.0453942512949
 20
-31.42151496892575
 30
0.0
 11
337.0453942512949
 21
-26.92151496892575
 31
0.0
  0
LINE
  5
1459
330
2
100
AcDbEntity
  8
L-ZISSEN
100
AcDbLine
 10
342.5453942512949
 20
-28.98622085127954
 30
0.0
 11
340.0153942512949
 21
-28.98622085127954
 31
0.0
  0
LINE
  5
145A
330
2
100
AcDbEntity
  8
L-ZISSEN
100
AcDbLine
 10
340.3220609179616
 20
-20.91151496892577
 30
0.0
 11
339.5453942512949
 21
-13.92151496892575
 31
0.0
  0
LINE
  5
145B
330
2
100
AcDbEntity
  8
L-ZISSEN
100
AcDbLine
 10
338.3112272556372
 20
-25.53151496892576
 30
0.0
 11
335.5453942512949
 21
-25.53151496892576
 31
0.0
  0
LINE
  5
145C
330
2
100
AcDbEntity
  8
L-ZISSEN
100
AcDbLine
 10
339.5453942512949
 20
-8.921514968925748
 30
0.0
 11
339.5453942512949
 21
-13.92151496892575
 31
0.0
  0
LINE
  5
1465
330
2
100
AcDbEntity
  8
L-ZISSEN
100
AcDbLine
 10
342.5453942512949
 20
-52.85680908657197
 30
0.0
 11
340.0153942512949
 21
-52.85680908657197
 31
0.0
  0
LINE
  5
1466
330
2
100
AcDbEntity
  8
L-ZISSEN
100
AcDbLine
 10
338.545394251295
 20
-55.83680908657199
 30
0.0
 11
340.0153942512949
 21
-52.85680908657197
 31
0.0
  0
LINE
  5
1467
330
2
100
AcDbEntity
  8
L-ZISSEN
100
AcDbLine
 10
321.5453942512949
 20
-52.85680908657197
 30
0.0
 11
324.0453942512949
 21
-52.85680908657197
 31
0.0
  0
LINE
  5
1468
330
2
100
AcDbEntity
  8
L-ZISSEN
100
AcDbLine
 10
325.545394251295
 20
-55.83680908657199
 30
0.0
 11
324.0753942512949
 21
-52.85680908657197
 31
0.0
  0
LINE
  5
146B
330
2
100
AcDbEntity
  8
L-ZISSEN
100
AcDbLine
 10
334.0453942512949
 20
-54.92151496892574
 30
0.0
 11
334.0453942512949
 21
-55.83680908657199
 31
0.0
  0
LINE
  5
146C
330
2
100
AcDbEntity
  8
L-ZISSEN
100
AcDbLine
 10
330.0453942512949
 20
-54.92151496892574
 30
0.0
 11
330.0453942512949
 21
-55.83680908657199
 31
0.0
  0
LINE
  5
14C1
330
2
100
AcDbEntity
  8
L-ZISSEN
100
AcDbLine
 10
274.5453942512949
 20
-8.921514968925748
 30
0.0
 11
289.5453942512949
 21
-8.921514968925748
 31
0.0
  0
LINE
  5
14C2
330
2
100
AcDbEntity
  8
L-ZISSEN
100
AcDbLine
 10
289.5453942512949
 20
-13.92151496892575
 30
0.0
 11
274.5453942512949
 21
-13.92151496892575
 31
0.0
  0
LINE
  5
14C3
330
2
100
AcDbEntity
  8
L-ZISSEN
100
AcDbLine
 10
273.7687275846282
 20
-20.91151496892577
 30
0.0
 11
274.5453942512949
 21
-13.92151496892575
 31
0.0
  0
LINE
  5
14C4
330
2
100
AcDbEntity
  8
L-ZISSEN
100
AcDbLine
 10
274.5453942512949
 20
-13.92151496892575
 30
0.0
 11
274.5453942512949
 21
-8.921514968925748
 31
0.0
  0
LINE
  5
14C5
330
2
100
AcDbEntity
  8
L-ZISSEN
100
AcDbLine
 10
290.3220609179616
 20
-20.91151496892577
 30
0.0
 11
289.5453942512949
 21
-13.92151496892575
 31
0.0
  0
LINE
  5
14C6
330
2
100
AcDbEntity
  8
L-ZISSEN
100
AcDbLine
 10
289.5453942512949
 20
-8.921514968925748
 30
0.0
 11
289.5453942512949
 21
-13.92151496892575
 31
0.0
  0
LINE
  5
14C7
330
2
100
AcDbEntity
  8
L-ZISSEN
100
AcDbLine
 10
287.0453942512949
 20
-26.92151496892575
 30
0.0
 11
277.0453942512949
 21
-26.92151496892575
 31
0.0
  0
LINE
  5
14C8
330
2
100
AcDbEntity
  8
L-ZISSEN
100
AcDbLine
 10
292.5453942512949
 20
-20.91151496892577
 30
0.0
 11
271.5453942512949
 21
-20.91151496892577
 31
0.0
  0
LINE
  5
14C9
330
2
100
AcDbEntity
  8
L-ZISSEN
100
AcDbLine
 10
278.5453942512949
 20
-25.53151496892576
 30
0.0
 11
275.7795612469527
 21
-25.53151496892576
 31
0.0
  0
LINE
  5
14CA
330
2
100
AcDbEntity
  8
L-ZISSEN
100
AcDbLine
 10
275.7795612469526
 20
-25.53151496892576
 30
0.0
 11
274.0753942512949
 21
-28.98622085127954
 31
0.0
  0
LINE
  5
14CB
330
2
100
AcDbEntity
  8
L-ZISSEN
100
AcDbLine
 10
278.5453942512949
 20
-26.92151496892575
 30
0.0
 11
278.5453942512949
 21
-25.53151496892576
 31
0.0
  0
LINE
  5
14CC
330
2
100
AcDbEntity
  8
L-ZISSEN
100
AcDbLine
 10
271.5453942512949
 20
-28.98622085127954
 30
0.0
 11
274.0453942512949
 21
-28.98622085127954
 31
0.0
  0
LINE
  5
14CD
330
2
100
AcDbEntity
  8
L-ZISSEN
100
AcDbLine
 10
271.5453942512949
 20
-20.91151496892577
 30
0.0
 11
271.545394251295
 21
-28.98622085127954
 31
0.0
  0
LINE
  5
14CE
330
2
100
AcDbEntity
  8
L-ZISSEN
100
AcDbLine
 10
292.5453942512949
 20
-28.98622085127954
 30
0.0
 11
290.0153942512949
 21
-28.98622085127954
 31
0.0
  0
LINE
  5
14CF
330
2
100
AcDbEntity
  8
L-ZISSEN
100
AcDbLine
 10
292.5453942512949
 20
-28.98622085127954
 30
0.0
 11
292.5453942512949
 21
-20.91151496892577
 31
0.0
  0
LINE
  5
14D0
330
2
100
AcDbEntity
  8
L-ZISSEN
100
AcDbLine
 10
288.3112272556372
 20
-25.53151496892576
 30
0.0
 11
285.5453942512949
 21
-25.53151496892576
 31
0.0
  0
LINE
  5
14D1
330
2
100
AcDbEntity
  8
L-ZISSEN
100
AcDbLine
 10
285.5453942512949
 20
-26.92151496892575
 30
0.0
 11
285.545394251295
 21
-25.53151496892576
 31
0.0
  0
LINE
  5
14D2
330
2
100
AcDbEntity
  8
L-ZISSEN
100
AcDbLine
 10
288.3112272556372
 20
-25.53151496892576
 30
0.0
 11
290.0153942512949
 21
-28.98622085127954
 31
0.0
  0
LINE
  5
14D3
330
2
100
AcDbEntity
  8
L-ZISSEN
100
AcDbLine
 10
287.0453942512949
 20
-31.42151496892575
 30
0.0
 11
287.0453942512949
 21
-26.92151496892575
 31
0.0
  0
LINE
  5
14D4
330
2
100
AcDbEntity
  8
L-ZISSEN
100
AcDbLine
 10
277.0453942512949
 20
-26.92151496892575
 30
0.0
 11
277.0453942512949
 21
-31.42151496892575
 31
0.0
  0
LINE
  5
14D5
330
2
100
AcDbEntity
  8
L-ZISSEN
100
AcDbLine
 10
276.0453942512949
 20
-31.42151496892575
 30
0.0
 11
276.0453942512949
 21
-50.42151496892575
 31
0.0
  0
LINE
  5
14D6
330
2
100
AcDbEntity
  8
L-ZISSEN
100
AcDbLine
 10
277.0453942512949
 20
-31.42151496892575
 30
0.0
 11
276.0453942512949
 21
-31.42151496892575
 31
0.0
  0
LINE
  5
14D7
330
2
100
AcDbEntity
  8
L-ZISSEN
100
AcDbLine
 10
288.0453942512949
 20
-50.42151496892575
 30
0.0
 11
288.0453942512949
 21
-31.42151496892575
 31
0.0
  0
LINE
  5
14D8
330
2
100
AcDbEntity
  8
L-ZISSEN
100
AcDbLine
 10
288.0453942512949
 20
-31.42151496892575
 30
0.0
 11
287.0453942512949
 21
-31.42151496892575
 31
0.0
  0
LINE
  5
14D9
330
2
100
AcDbEntity
  8
L-ZISSEN
100
AcDbLine
 10
277.0453942512949
 20
-50.42151496892575
 30
0.0
 11
277.0453942512949
 21
-54.92151496892574
 31
0.0
  0
LINE
  5
14DA
330
2
100
AcDbEntity
  8
L-ZISSEN
100
AcDbLine
 10
287.0453942512949
 20
-54.92151496892574
 30
0.0
 11
287.0453942512949
 21
-50.42151496892575
 31
0.0
  0
LINE
  5
14DB
330
2
100
AcDbEntity
  8
L-ZISSEN
100
AcDbLine
 10
276.0453942512949
 20
-50.42151496892575
 30
0.0
 11
277.0453942512949
 21
-50.42151496892575
 31
0.0
  0
LINE
  5
14DC
330
2
100
AcDbEntity
  8
L-ZISSEN
100
AcDbLine
 10
287.0453942512949
 20
-50.42151496892575
 30
0.0
 11
288.0453942512949
 21
-50.42151496892575
 31
0.0
  0
LINE
  5
14DD
330
2
100
AcDbEntity
  8
L-ZISSEN
100
AcDbLine
 10
288.545394251295
 20
-55.83680908657199
 30
0.0
 11
275.545394251295
 21
-55.83680908657197
 31
0.0
  0
LINE
  5
14DE
330
2
100
AcDbEntity
  8
L-ZISSEN
100
AcDbLine
 10
275.545394251295
 20
-55.83680908657199
 30
0.0
 11
274.0753942512949
 21
-52.85680908657197
 31
0.0
  0
LINE
  5
14DF
330
2
100
AcDbEntity
  8
L-ZISSEN
100
AcDbLine
 10
284.0453942512949
 20
-54.92151496892574
 30
0.0
 11
284.0453942512949
 21
-55.83680908657199
 31
0.0
  0
LINE
  5
14E0
330
2
100
AcDbEntity
  8
L-ZISSEN
100
AcDbLine
 10
280.0453942512949
 20
-54.92151496892574
 30
0.0
 11
280.0453942512949
 21
-55.83680908657199
 31
0.0
  0
LINE
  5
14E1
330
2
100
AcDbEntity
  8
L-ZISSEN
100
AcDbLine
 10
288.545394251295
 20
-55.83680908657199
 30
0.0
 11
290.0153942512949
 21
-52.85680908657197
 31
0.0
  0
LINE
  5
14E2
330
2
100
AcDbEntity
  8
L-ZISSEN
100
AcDbLine
 10
292.5453942512949
 20
-52.85680908657197
 30
0.0
 11
290.0153942512949
 21
-52.85680908657197
 31
0.0
  0
LINE
  5
14E3
330
2
100
AcDbEntity
  8
L-ZISSEN
100
AcDbLine
 10
292.5453942512948
 20
-52.85680908657197
 30
0.0
 11
292.5453942512949
 21
-60.74151496892574
 31
0.0
  0
LINE
  5
14E4
330
2
100
AcDbEntity
  8
L-ZISSEN
100
AcDbLine
 10
271.5453942512949
 20
-52.85680908657197
 30
0.0
 11
274.0453942512949
 21
-52.85680908657197
 31
0.0
  0
LINE
  5
14E5
330
2
100
AcDbEntity
  8
L-ZISSEN
100
AcDbLine
 10
271.5453942512949
 20
-60.74151496892574
 30
0.0
 11
271.5453942512949
 21
-52.85680908657197
 31
0.0
  0
LINE
  5
14E6
330
2
100
AcDbEntity
  8
L-ZISSEN
100
AcDbLine
 10
292.5453942512949
 20
-60.74151496892574
 30
0.0
 11
271.5453942512949
 21
-60.74151496892574
 31
0.0
  0
LINE
  5
14E7
330
2
100
AcDbEntity
  8
L-ZISSEN
100
AcDbLine
 10
287.0453942512949
 20
-54.92151496892574
 30
0.0
 11
277.0453942512949
 21
-54.92151496892574
 31
0.0
  0
LINE
  5
14FD
330
2
100
AcDbEntity
  8
L-TYUSIN
100
AcDbLine
 10
131.6699866344574
 20
-175.9595740749366
 30
0.0
 11
116.6699866344574
 21
-175.9595740749366
 31
0.0
  0
LINE
  5
14FF
330
2
100
AcDbEntity
  8
L-ZISSEN
100
AcDbLine
 10
139.6699866344574
 20
-143.4595740749366
 30
0.0
 11
142.8229366113277
 21
-141.7079351988976
 31
0.0
  0
LINE
  5
1501
330
2
100
AcDbEntity
  8
L-ZISSEN
100
AcDbLine
 10
139.6699866344574
 20
-143.4595740749366
 30
0.0
 11
139.6699866344574
 21
-146.9595740749366
 31
0.0
  0
LINE
  5
1502
330
2
100
AcDbEntity
  8
L-ZISSEN
100
AcDbLine
 10
126.6699866344574
 20
-141.9595740749366
 30
0.0
 11
133.6699866344574
 21
-146.9595740749366
 31
0.0
  0
LINE
  5
1503
330
2
100
AcDbEntity
  8
L-ZISSEN
100
AcDbLine
 10
133.6699866344574
 20
-146.9595740749366
 30
0.0
 11
133.6699866344574
 21
-156.9595740749366
 31
0.0
  0
LINE
  5
1505
330
2
100
AcDbEntity
  8
L-ZISSEN
100
AcDbLine
 10
139.6699866344592
 20
-156.9595740749366
 30
0.0
 11
133.6699866344574
 21
-156.9595740749366
 31
0.0
  0
LINE
  5
1506
330
2
100
AcDbEntity
  8
L-ZISSEN
100
AcDbLine
 10
126.6699866344574
 20
-161.9595740749366
 30
0.0
 11
133.6699866344574
 21
-156.959574074937
 31
0.0
  0
LINE
  5
1508
330
2
100
AcDbEntity
  8
L-ZISSEN
100
AcDbLine
 10
139.6699866344592
 20
-146.9595740749366
 30
0.0
 11
133.6699866344574
 21
-146.9595740749366
 31
0.0
  0
LINE
  5
150A
330
2
100
AcDbEntity
  8
L-TYUSIN
100
AcDbLine
 10
131.6699866344574
 20
-127.9595740749366
 30
0.0
 11
116.6699866344574
 21
-127.9595740749366
 31
0.0
  0
LINE
  5
150B
330
2
100
AcDbEntity
  8
L-ZISSEN
100
AcDbLine
 10
167.6699866344574
 20
-143.4595740749366
 30
0.0
 11
167.6699866344574
 21
-146.9595740749366
 31
0.0
  0
LINE
  5
151C
330
2
100
AcDbEntity
  8
L-ZISSEN
100
AcDbLine
 10
167.6699866344574
 20
-143.4595740749366
 30
0.0
 11
164.5170366575854
 21
-141.7079351988965
 31
0.0
  0
LINE
  5
1574
330
2
100
AcDbEntity
  8
L-ZISSEN
100
AcDbLine
 10
126.6699866344574
 20
-118.9595740749366
 30
0.0
 11
126.6699866344574
 21
-184.9595740749366
 31
0.0
  0
LINE
  5
1575
330
2
100
AcDbEntity
  8
L-ZISSEN
100
AcDbLine
 10
126.6699866344574
 20
-184.9595740749366
 30
0.0
 11
121.6699866344574
 21
-184.9595740749366
 31
0.0
  0
LINE
  5
1576
330
2
100
AcDbEntity
  8
L-ZISSEN
100
AcDbLine
 10
121.6699866344574
 20
-184.9595740749366
 30
0.0
 11
121.6699866344574
 21
-118.9595740749366
 31
0.0
  0
LINE
  5
1577
330
2
100
AcDbEntity
  8
L-ZISSEN
100
AcDbLine
 10
121.6699866344574
 20
-118.9595740749366
 30
0.0
 11
126.6699866344574
 21
-118.9595740749366
 31
0.0
  0
LINE
  5
157B
330
2
100
AcDbEntity
  8
L-ZISSEN
100
AcDbLine
 10
167.6699866344574
 20
-146.9595740749366
 30
0.0
 11
173.6699866344574
 21
-146.9595740749366
 31
0.0
  0
LINE
  5
19EA
330
2
100
AcDbEntity
  8
L-ZISSEN
100
AcDbLine
 10
164.8884960990893
 20
-138.9595740749371
 30
0.0
 11
142.4514771698307
 21
-138.9595740749371
 31
0.0
  0
LINE
  5
19EB
330
2
100
AcDbEntity
  8
L-ZISSEN
100
AcDbLine
 10
142.4514771698307
 20
-138.9595740749371
 30
0.0
 11
142.4514771698307
 21
-141.9143015552848
 31
0.0
  0
LINE
  5
19EC
330
2
100
AcDbEntity
  8
L-ZISSEN
100
AcDbLine
 10
145.0911911502922
 20
-138.9595740749371
 30
0.0
 11
145.0911911502922
 21
-135.3652810200517
 31
0.0
  0
LINE
  5
19ED
330
2
100
AcDbEntity
  8
L-ZISSEN
100
AcDbLine
 10
153.6699866344591
 20
-138.4822922426677
 30
0.0
 11
153.6699866344591
 21
-135.4739361350444
 31
0.0
  0
LINE
  5
19EF
330
2
100
AcDbEntity
  8
L-ZISSEN
100
AcDbLine
 10
162.2487821186159
 20
-135.3652810200503
 30
0.0
 11
162.2487821186159
 21
-138.9595740749371
 31
0.0
  0
LINE
  5
19F0
330
2
100
AcDbEntity
  8
L-ZISSEN
100
AcDbLine
 10
164.8884960990893
 20
-138.9595740749371
 30
0.0
 11
164.8884960990893
 21
-141.9143015552877
 31
0.0
  0
ARC
  5
19F1
330
2
100
AcDbEntity
  8
L-ZISSEN
100
AcDbCircle
 10
158.2097420054372
 20
-155.1864359038853
 30
0.0
 40
20.22849539547803
100
AcDbArc
 50
78.48229028503542
 51
102.9689965923317
  0
LINE
  5
19F3
330
2
100
AcDbEntity
  8
L-ZISSEN
100
AcDbLine
 10
148.8731582826061
 20
-134.9595740749366
 30
0.0
 11
158.4668149863133
 21
-134.9595740749366
 31
0.0
  0
ARC
  5
19F7
330
2
100
AcDbEntity
  8
L-ZISSEN
100
AcDbCircle
 10
149.1302312634809
 20
-155.1864359038853
 30
0.0
 40
20.22849539547803
100
AcDbArc
 50
77.03100340766827
 51
101.5177097149645
  0
LINE
  5
19F9
330
2
100
AcDbEntity
  8
L-SOUZOU
100
AcDbLine
 10
209.1699866344574
 20
-132.4595740749366
 30
0.0
 11
209.1699866344574
 21
-171.4595740749366
 31
0.0
  0
LINE
  5
19FA
330
2
100
AcDbEntity
  8
L-SOUZOU
100
AcDbLine
 10
200.1699866344574
 20
-130.9595740749366
 30
0.0
 11
200.1699866344574
 21
-172.9595740749366
 31
0.0
  0
LINE
  5
19FB
330
2
100
AcDbEntity
  8
L-SOUZOU
100
AcDbLine
 10
184.1699866344574
 20
-133.0595740749365
 30
0.0
 11
184.1699866344574
 21
-170.8595740749367
 31
0.0
  0
ARC
  5
19FC
330
2
100
AcDbEntity
  8
L-SOUZOU
100
AcDbCircle
 10
185.6699866344575
 20
-170.8595740749367
 30
0.0
 40
1.5
100
AcDbArc
 50
180.0
 51
270.0
  0
LINE
  5
19FD
330
2
100
AcDbEntity
  8
L-SOUZOU
100
AcDbLine
 10
200.1699866344574
 20
-172.9595740749366
 30
0.0
 11
207.6699866344574
 21
-172.9595740749366
 31
0.0
  0
ARC
  5
19FE
330
2
100
AcDbEntity
  8
L-SOUZOU
100
AcDbCircle
 10
207.6699866344575
 20
-171.4595740749366
 30
0.0
 40
1.5
100
AcDbArc
 50
270.0
 51
0.0
  0
LINE
  5
19FF
330
2
100
AcDbEntity
  8
L-SOUZOU
100
AcDbLine
 10
185.6699866344574
 20
-172.3595740749367
 30
0.0
 11
200.1699866344574
 21
-172.3595740749367
 31
0.0
  0
LINE
  5
1A02
330
2
100
AcDbEntity
  8
L-SOUZOU
100
AcDbLine
 10
173.6699866344574
 20
-147.0633849663813
 30
0.0
 11
178.1699866344574
 21
-146.9227529387128
 31
0.0
  0
LINE
  5
1A03
330
2
100
AcDbEntity
  8
L-SOUZOU
100
AcDbLine
 10
173.6699866344574
 20
-156.8557631834919
 30
0.0
 11
178.1699866344574
 21
-156.9963952111604
 31
0.0
  0
LINE
  5
1A04
330
2
100
AcDbEntity
  8
L-SOUZOU
100
AcDbLine
 10
173.6699866344574
 20
-156.2697631834919
 30
0.0
 11
176.6699866344574
 21
-156.3635178686042
 31
0.0
  0
LINE
  5
1A05
330
2
100
AcDbEntity
  8
L-SOUZOU
100
AcDbLine
 10
173.6699866344574
 20
-147.6493849663812
 30
0.0
 11
176.6699866344574
 21
-147.555630281269
 31
0.0
  0
LINE
  5
1A06
330
2
100
AcDbEntity
  8
L-SOUZOU
100
AcDbLine
 10
178.1699866344574
 20
-146.6095740749367
 30
0.0
 11
178.1699866344574
 21
-157.3095740749365
 31
0.0
  0
LINE
  5
1A07
330
2
100
AcDbEntity
  8
L-SOUZOU
100
AcDbLine
 10
176.6699866344574
 20
-146.9696302812692
 30
0.0
 11
176.6699866344573
 21
-156.949517868604
 31
0.0
  0
LINE
  5
1A08
330
2
100
AcDbEntity
  8
L-SOUZOU
100
AcDbLine
 10
178.1699866344574
 20
-157.3095740749365
 30
0.0
 11
184.1699866344574
 21
-157.3095740749365
 31
0.0
  0
LINE
  5
1A09
330
2
100
AcDbEntity
  8
L-SOUZOU
100
AcDbLine
 10
176.6699866344574
 20
-156.3635178686042
 30
0.0
 11
177.2748908354187
 21
-156.9684220695655
 31
0.0
  0
LINE
  5
1A0A
330
2
100
AcDbEntity
  8
L-SOUZOU
100
AcDbLine
 10
184.1699866344574
 20
-146.6095740749367
 30
0.0
 11
178.1699866344574
 21
-146.6095740749367
 31
0.0
  0
LINE
  5
1A0B
330
2
100
AcDbEntity
  8
L-SOUZOU
100
AcDbLine
 10
176.6699866344574
 20
-147.555630281269
 30
0.0
 11
177.2748908354187
 21
-146.9507260803077
 31
0.0
  0
ARC
  5
1A0C
330
2
100
AcDbEntity
  8
L-SOUZOU
100
AcDbCircle
 10
185.6699866344575
 20
-133.0595740749365
 30
0.0
 40
1.5
100
AcDbArc
 50
90.0
 51
180.0
  0
LINE
  5
1A0D
330
2
100
AcDbEntity
  8
L-SOUZOU
100
AcDbLine
 10
200.1699866344574
 20
-130.9595740749366
 30
0.0
 11
207.6699866344574
 21
-130.9595740749366
 31
0.0
  0
ARC
  5
1A0E
330
2
100
AcDbEntity
  8
L-SOUZOU
100
AcDbCircle
 10
207.6699866344575
 20
-132.4595740749366
 30
0.0
 40
1.5
100
AcDbArc
 50
0.0
 51
90.0
  0
LINE
  5
1A0F
330
2
100
AcDbEntity
  8
L-SOUZOU
100
AcDbLine
 10
185.6699866344574
 20
-131.5595740749365
 30
0.0
 11
200.1699866344574
 21
-131.5595740749365
 31
0.0
  0
LINE
  5
1A20
330
2
100
AcDbEntity
  8
L-TYUSIN
100
AcDbLine
 10
163.6699866344574
 20
-151.9595740749366
 30
0.0
 11
209.8929929864032
 21
-151.9595740749366
 31
0.0
  0
LINE
  5
1A21
330
2
100
AcDbEntity
  8
L-ZISSEN
100
AcDbLine
 10
173.6699866344574
 20
-142.278114188857
 30
0.0
 11
165.5433588395141
 21
-142.278114188857
 31
0.0
  0
LINE
  5
1A22
330
2
100
AcDbEntity
  8
L-ZISSEN
100
AcDbLine
 10
141.7966144294007
 20
-142.278114188857
 30
0.0
 11
133.6699866344574
 21
-142.278114188857
 31
0.0
  0
LINE
  5
1A23
330
2
100
AcDbEntity
  8
L-ZISSEN
100
AcDbLine
 10
133.6699866344574
 20
-146.9595740749366
 30
0.0
 11
133.6699866344574
 21
-142.278114188857
 31
0.0
  0
LINE
  5
1A25
330
2
100
AcDbEntity
  8
L-TYUSIN
100
AcDbLine
 10
282.0453942512949
 20
-3.921514968925748
 30
0.0
 11
282.0453942512949
 21
-65.74151496892574
 31
0.0
  0
LINE
  5
1A26
330
2
100
AcDbEntity
  8
L-TYUSIN
100
AcDbLine
 10
332.0453942512949
 20
-3.921514968925748
 30
0.0
 11
332.0453942512949
 21
-65.74151496892574
 31
0.0
  0
TEXT
  5
1A27
330
2
100
AcDbEntity
  8
L-ZISSEN
100
AcDbText
 10
111.9245719981216
 20
-34.15151626869101
 30
0.0
 40
4.5
  1
MODEL NO. CH2-*00-*0 0
100
AcDbText
  0
ARC
  5
1C04
330
2
100
AcDbEntity
  8
L-ZISSEN
100
AcDbCircle
 10
153.6699866344574
 20
-121.5356805027406
 30
0.0
 40
7.000000000001023
100
AcDbArc
 50
0.0
 51
180.0
  0
LINE
  5
1C05
330
2
100
AcDbEntity
  8
L-ZISSEN
100
AcDbLine
 10
160.6699866344602
 20
-121.5356805027406
 30
0.0
 11
160.6699866344602
 21
-135.1081087243058
 31
0.0
  0
LINE
  5
1C06
330
2
100
AcDbEntity
  8
L-ZISSEN
100
AcDbLine
 10
172.3998721018197
 20
-129.5356805027402
 30
0.0
 11
162.9401011670993
 21
-129.5356805027402
 31
0.0
  0
LINE
  5
1C07
330
2
100
AcDbEntity
  8
L-ZISSEN
100
AcDbLine
 10
162.6699866344583
 20
-135.5356805027415
 30
0.0
 11
162.6699866344583
 21
-130.0080042717033
 31
0.0
  0
LINE
  5
1C08
330
2
100
AcDbEntity
  8
L-ZISSEN
100
AcDbLine
 10
162.6699866344583
 20
-130.0080042717033
 30
0.0
 11
162.9401011670993
 21
-129.5356805027402
 31
0.0
  0
LINE
  5
1C09
330
2
100
AcDbEntity
  8
L-ZISSEN
100
AcDbLine
 10
172.6699866344606
 20
-135.5356805027415
 30
0.0
 11
172.6699866344606
 21
-130.0080042717033
 31
0.0
  0
LINE
  5
1C0A
330
2
100
AcDbEntity
  8
L-ZISSEN
100
AcDbLine
 10
172.6699866344606
 20
-130.0080042717033
 30
0.0
 11
172.3998721018197
 21
-129.5356805027402
 31
0.0
  0
LINE
  5
1C0B
330
2
100
AcDbEntity
  8
L-ZISSEN
100
AcDbLine
 10
146.6699866344592
 20
-121.5356805027406
 30
0.0
 11
146.6699866344592
 21
-135.1081087243056
 31
0.0
  0
LINE
  5
1C0C
330
2
100
AcDbEntity
  8
L-ZISSEN
100
AcDbLine
 10
173.6699866344574
 20
-135.5356805027415
 30
0.0
 11
162.2487821186159
 21
-135.5356805027416
 31
0.0
  0
LINE
  5
1C0D
330
2
100
AcDbEntity
  8
L-ZISSEN
100
AcDbLine
 10
133.6699866344597
 20
-135.5356805027415
 30
0.0
 11
133.6699866344597
 21
-142.278114188857
 31
0.0
  0
LINE
  5
1C0E
330
2
100
AcDbEntity
  8
L-ZISSEN
100
AcDbLine
 10
173.6699866344574
 20
-142.278114188857
 30
0.0
 11
173.6699866344574
 21
-135.5356805027415
 31
0.0
  0
LINE
  5
1C0F
330
2
100
AcDbEntity
  8
L-ZISSEN
100
AcDbLine
 10
145.0911911502922
 20
-135.5356805027416
 30
0.0
 11
133.6699866344597
 21
-135.5356805027415
 31
0.0
  0
TEXT
  5
1C52
330
2
100
AcDbEntity
  8
L-ZISSEN
100
AcDbText
 10
196.7819006096019
 20
-31.16620744985891
 30
0.0
 40
4.5
  1
9
100
AcDbText
  0
TEXT
  5
1C53
330
2
100
AcDbEntity
  8
L-ZISSEN
100
AcDbText
 10
196.7819006096019
 20
-36.98600492809657
 30
0.0
 40
4.5
  1
D
100
AcDbText
  0
ENDSEC
  0
SECTION
  2
OBJECTS
  0
DICTIONARY
  5
9
330
0
100
AcDbDictionary
  3
ACAD_GROUP
350
26
  3
ACAD_LAYOUT
350
D
  3
ACAD_MLINESTYLE
350
27
  3
ACAD_PLOTSETTINGS
350
28
1001
ACAD
1000
TREAT_AS_HARD
1070
     0
  0
DICTIONARY
  5
15
330
14
100
AcDbDictionary
  3
ACAD_LAYERSTATES
350
16
1001
ACAD
1000
TREAT_AS_HARD
1070
     1
  0
DICTIONARY
  5
3
330
2
100
AcDbDictionary
  3
ACAD_LAYOUTSELFREF
350
1D94
1001
ACAD
1000
TREAT_AS_HARD
1070
     1
  0
DICTIONARY
  5
F
330
E
100
AcDbDictionary
  3
ACAD_LAYOUTSELFREF
350
1D95
1001
ACAD
1000
TREAT_AS_HARD
1070
     1
  0
DICTIONARY
  5
26
102
{ACAD_REACTORS
330
9
102
}
330
9
100
AcDbDictionary
1001
ACAD
1000
TREAT_AS_HARD
1070
     0
  0
DICTIONARY
  5
D
102
{ACAD_REACTORS
330
9
102
}
330
9
100
AcDbDictionary
1001
ACAD
1000
TREAT_AS_HARD
1070
     0
  0
DICTIONARY
  5
27
102
{ACAD_REACTORS
330
9
102
}
330
9
100
AcDbDictionary
  3
STANDARD
350
2A
1001
ACAD
1000
TREAT_AS_HARD
1070
     0
  0
DICTIONARY
  5
28
102
{ACAD_REACTORS
330
9
102
}
330
9
100
AcDbDictionary
1001
ACAD
1000
TREAT_AS_HARD
1070
     0
  0
DICTIONARY
  5
16
102
{ACAD_REACTORS
330
15
102
}
330
15
100
AcDbDictionary
1001
ACAD
1000
TREAT_AS_HARD
1070
     0
  0
XRECORD
  5
1D94
102
{ACAD_REACTORS
330
3
102
}
330
3
100
AcDbXrecord
340
2
  0
XRECORD
  5
1D95
102
{ACAD_REACTORS
330
F
102
}
330
F
100
AcDbXrecord
340
E
  0
MLINESTYLE
  5
2A
102
{ACAD_REACTORS
330
27
102
}
330
27
100
AcDbMlineStyle
  2
STANDARD
 70
     0
  3

 62
     0
 51
90.0
 52
90.0
 71
     2
 49
0.5
 62
   256
  6
BYLAYER
 49
-0.5
 62
   256
  6
BYLAYER
  0
ENDSEC
  0
EOF
