  0
SECTION
  2
HEADER
  9
$ACADVER
  1
AC1012
  9
$DWGCODEPAGE
  3
dos932
  9
$INSBASE
 10
0.0
 20
0.0
 30
0.0
  9
$EXTMIN
 10
-39.13514848046725
 20
-273.3860770660762
 30
-0.0015258207003583
  9
$EXTMAX
 10
1112.768438358456
 20
961.3855824193761
 30
0.0000000349246037
  9
$LIMMIN
 10
0.0
 20
0.0
  9
$LIMMAX
 10
12.0
 20
9.0
  9
$ORTHOMODE
 70
     1
  9
$REGENMODE
 70
     1
  9
$FILLMODE
 70
     1
  9
$QTEXTMODE
 70
     0
  9
$MIRRTEXT
 70
     1
  9
$DRAGMODE
 70
     2
  9
$LTSCALE
 40
12.0
  9
$OSMODE
 70
    37
  9
$ATTMODE
 70
     1
  9
$TEXTSIZE
 40
0.2
  9
$TRACEWID
 40
0.05
  9
$TEXTSTYLE
  7
STANDARD
  9
$CLAYER
  8
0
  9
$CELTYPE
  6
BYLAYER
  9
$CECOLOR
 62
   256
  9
$CELTSCALE
 40
1.0
  9
$DELOBJ
 70
     1
  9
$DISPSILH
 70
     0
  9
$DIMSCALE
 40
1.0
  9
$DIMASZ
 40
0.18
  9
$DIMEXO
 40
0.0625
  9
$DIMDLI
 40
0.38
  9
$DIMRND
 40
0.0
  9
$DIMDLE
 40
0.0
  9
$DIMEXE
 40
0.18
  9
$DIMTP
 40
0.0
  9
$DIMTM
 40
0.0
  9
$DIMTXT
 40
0.18
  9
$DIMCEN
 40
0.09
  9
$DIMTSZ
 40
0.0
  9
$DIMTOL
 70
     0
  9
$DIMLIM
 70
     0
  9
$DIMTIH
 70
     1
  9
$DIMTOH
 70
     1
  9
$DIMSE1
 70
     0
  9
$DIMSE2
 70
     0
  9
$DIMTAD
 70
     0
  9
$DIMZIN
 70
     0
  9
$DIMBLK
  1

  9
$DIMASO
 70
     1
  9
$DIMSHO
 70
     0
  9
$DIMPOST
  1

  9
$DIMAPOST
  1

  9
$DIMALT
 70
     0
  9
$DIMALTD
 70
     2
  9
$DIMALTF
 40
25.4
  9
$DIMLFAC
 40
1.0
  9
$DIMTOFL
 70
     0
  9
$DIMTVP
 40
0.0
  9
$DIMTIX
 70
     0
  9
$DIMSOXD
 70
     0
  9
$DIMSAH
 70
     0
  9
$DIMBLK1
  1

  9
$DIMBLK2
  1

  9
$DIMSTYLE
  2
STANDARD
  9
$DIMCLRD
 70
     0
  9
$DIMCLRE
 70
     0
  9
$DIMCLRT
 70
     0
  9
$DIMTFAC
 40
1.0
  9
$DIMGAP
 40
0.09
  9
$DIMJUST
 70
     0
  9
$DIMSD1
 70
     0
  9
$DIMSD2
 70
     0
  9
$DIMTOLJ
 70
     1
  9
$DIMTZIN
 70
     0
  9
$DIMALTZ
 70
     0
  9
$DIMALTTZ
 70
     0
  9
$DIMFIT
 70
     3
  9
$DIMUPT
 70
     0
  9
$DIMUNIT
 70
     2
  9
$DIMDEC
 70
     4
  9
$DIMTDEC
 70
     4
  9
$DIMALTU
 70
     2
  9
$DIMALTTD
 70
     2
  9
$DIMTXSTY
  7
STANDARD
  9
$DIMAUNIT
 70
     0
  9
$LUNITS
 70
     2
  9
$LUPREC
 70
     4
  9
$SKETCHINC
 40
0.1
  9
$FILLETRAD
 40
0.0
  9
$AUNITS
 70
     0
  9
$AUPREC
 70
     0
  9
$MENU
  1
acad
  9
$ELEVATION
 40
0.0
  9
$PELEVATION
 40
0.0
  9
$THICKNESS
 40
0.0
  9
$LIMCHECK
 70
     0
  9
$BLIPMODE
 70
     0
  9
$CHAMFERA
 40
0.0
  9
$CHAMFERB
 40
0.0
  9
$CHAMFERC
 40
0.0
  9
$CHAMFERD
 40
0.0
  9
$SKPOLY
 70
     0
  9
$TDCREATE
 40
2448751.590578703
  9
$TDUPDATE
 40
2453243.484053125
  9
$TDINDWG
 40
0.0634076389
  9
$TDUSRTIMER
 40
0.0634069444
  9
$USRTIMER
 70
     1
  9
$ANGBASE
 50
0.0
  9
$ANGDIR
 70
     0
  9
$PDMODE
 70
     0
  9
$PDSIZE
 40
0.0
  9
$PLINEWID
 40
0.0
  9
$COORDS
 70
     0
  9
$SPLFRAME
 70
     0
  9
$SPLINETYPE
 70
     6
  9
$SPLINESEGS
 70
     8
  9
$ATTDIA
 70
     0
  9
$ATTREQ
 70
     1
  9
$HANDLING
 70
-16383
  9
$HANDSEED
  5
696
  9
$SURFTAB1
 70
     6
  9
$SURFTAB2
 70
     6
  9
$SURFTYPE
 70
     6
  9
$SURFU
 70
     6
  9
$SURFV
 70
     6
  9
$UCSNAME
  2

  9
$UCSORG
 10
0.0
 20
0.0
 30
0.0
  9
$UCSXDIR
 10
1.0
 20
0.0
 30
0.0
  9
$UCSYDIR
 10
0.0
 20
1.0
 30
0.0
  9
$PUCSNAME
  2

  9
$PUCSORG
 10
0.0
 20
0.0
 30
0.0
  9
$PUCSXDIR
 10
1.0
 20
0.0
 30
0.0
  9
$PUCSYDIR
 10
0.0
 20
1.0
 30
0.0
  9
$USERI1
 70
     0
  9
$USERI2
 70
     0
  9
$USERI3
 70
     0
  9
$USERI4
 70
     0
  9
$USERI5
 70
     0
  9
$USERR1
 40
0.0
  9
$USERR2
 40
0.0
  9
$USERR3
 40
0.0
  9
$USERR4
 40
0.0
  9
$USERR5
 40
0.0
  9
$WORLDVIEW
 70
     1
  9
$SHADEDGE
 70
     3
  9
$SHADEDIF
 70
    70
  9
$TILEMODE
 70
     1
  9
$MAXACTVP
 70
    48
  9
$PINSBASE
 10
0.0
 20
0.0
 30
0.0
  9
$PLIMCHECK
 70
     0
  9
$PEXTMIN
 10
1.000000000000000E+20
 20
1.000000000000000E+20
 30
1.000000000000000E+20
  9
$PEXTMAX
 10
-1.000000000000000E+20
 20
-1.000000000000000E+20
 30
-1.000000000000000E+20
  9
$PLIMMIN
 10
0.0
 20
0.0
  9
$PLIMMAX
 10
12.0
 20
9.0
  9
$UNITMODE
 70
     0
  9
$VISRETAIN
 70
     1
  9
$PLINEGEN
 70
     0
  9
$PSLTSCALE
 70
     1
  9
$TREEDEPTH
 70
  3020
  9
$PICKSTYLE
 70
     1
  9
$CMLSTYLE
  2
STANDARD
  9
$CMLJUST
 70
     0
  9
$CMLSCALE
 40
1.0
  9
$SAVEIMAGES
 70
     1
  0
ENDSEC
  0
SECTION
  2
CLASSES
  0
CLASS
  1
ACDBDICTIONARYWDFLT
  2
AcDbDictionaryWithDefault
  3
AutoCAD 2000
 90
    32768
280
     0
281
     0
  0
CLASS
  1
ACDBPLACEHOLDER
  2
AcDbPlaceHolder
  3
AutoCAD 2000
 90
    32768
280
     0
281
     0
  0
CLASS
  1
LAYOUT
  2
AcDbLayout
  3
AutoCAD 2000
 90
    32768
280
     0
281
     0
  0
CLASS
  1
LONG_TRANSACTION
  2
AcDbLongTransaction
  3
AutoCAD 2000
 90
    32768
280
     0
281
     0
  0
CLASS
  1
LWPOLYLINE
  2
AcDbPolyline
  3
AutoCAD 2000
 90
    32768
280
     0
281
     1
  0
CLASS
  1
HATCH
  2
AcDbHatch
  3
AutoCAD 2000
 90
    32768
280
     0
281
     1
  0
CLASS
  1
XRECORD
  2
AcDbXrecord
  3
AutoCAD 2000
 90
    32768
280
     0
281
     0
  0
CLASS
  1
LONG_TRANSACTION
  2
AcDbLongTransaction
  3
AutoCAD 2000
 90
    32768
280
     0
281
     0
  0
CLASS
  1
LWPOLYLINE
  2
AcDbPolyline
  3
AutoCAD 2000
 90
    32768
280
     0
281
     1
  0
CLASS
  1
HATCH
  2
AcDbHatch
  3
AutoCAD 2000
 90
    32768
280
     0
281
     1
  0
CLASS
  1
XRECORD
  2
AcDbXrecord
  3
AutoCAD 2000
 90
    32768
280
     0
281
     0
  0
CLASS
  1
RASTERVARIABLES
  2
AcDbRasterVariables
  3
ISM
 90
    32768
280
     0
281
     0
  0
CLASS
  1
LONG_TRANSACTION
  2
AcDbLongTransaction
  3
AutoCAD 2000
 90
    32768
280
     0
281
     0
  0
CLASS
  1
LWPOLYLINE
  2
AcDbPolyline
  3
AutoCAD 2000
 90
    32768
280
     0
281
     1
  0
CLASS
  1
HATCH
  2
AcDbHatch
  3
AutoCAD 2000
 90
    32768
280
     0
281
     1
  0
CLASS
  1
XRECORD
  2
AcDbXrecord
  3
AutoCAD 2000
 90
    32768
280
     0
281
     0
  0
CLASS
  1
LONG_TRANSACTION
  2
AcDbLongTransaction
  3
AutoCAD 2000
 90
    32768
280
     0
281
     0
  0
CLASS
  1
LWPOLYLINE
  2
AcDbPolyline
  3
AutoCAD 2000
 90
    32768
280
     0
281
     1
  0
CLASS
  1
HATCH
  2
AcDbHatch
  3
AutoCAD 2000
 90
    32768
280
     0
281
     1
  0
CLASS
  1
XRECORD
  2
AcDbXrecord
  3
AutoCAD 2000
 90
    32768
280
     0
281
     0
  0
ENDSEC
  0
SECTION
  2
TABLES
  0
TABLE
  2
VPORT
  5
1E
330
0
100
AcDbSymbolTable
 70
     2
  0
VPORT
  5
648
330
1E
100
AcDbSymbolTableRecord
100
AcDbViewportTableRecord
  2
*ACTIVE
 70
     0
 10
0.0
 20
0.0
 11
1.0
 21
1.0
 12
536.8166449389946
 22
343.9997526766498
 13
0.0
 23
0.0
 14
1.0
 24
1.0
 15
0.0
 25
0.0
 16
0.0
 26
0.0
 36
1.0
 17
0.0
 27
0.0
 37
0.0
 40
1249.185336444426
 41
1.45224171539961
 42
50.0
 43
0.0
 44
0.0
 50
0.0
 51
0.0
 71
     0
 72
   100
 73
     1
 74
     1
 75
     0
 76
     0
 77
     0
 78
     0
  0
ENDTAB
  0
TABLE
  2
LTYPE
  5
19
330
0
100
AcDbSymbolTable
 70
     2
  0
LTYPE
  5
1A
330
19
100
AcDbSymbolTableRecord
100
AcDbLinetypeTableRecord
  2
BYBLOCK
 70
     0
  3

 72
    65
 73
     0
 40
0.0
  0
LTYPE
  5
1B
330
19
100
AcDbSymbolTableRecord
100
AcDbLinetypeTableRecord
  2
BYLAYER
 70
     0
  3

 72
    65
 73
     0
 40
0.0
  0
LTYPE
  5
B
330
19
100
AcDbSymbolTableRecord
100
AcDbLinetypeTableRecord
  2
CONTINUOUS
 70
     0
  3
実線
 72
    65
 73
     0
 40
0.0
  0
LTYPE
  5
32
330
19
100
AcDbSymbolTableRecord
100
AcDbLinetypeTableRecord
  2
CENTER
 70
     0
  3
____ _ ____ _ ____ _ ____ _ ____ _ ____ _ ____
 72
    65
 73
     4
 40
2.0
 49
1.25
 74
     0
 49
-0.25
 74
     0
 49
0.25
 74
     0
 49
-0.25
 74
     0
  0
ENDTAB
  0
TABLE
  2
LAYER
  5
15
330
0
100
AcDbSymbolTable
 70
     4
  0
LAYER
  5
6
330
15
100
AcDbSymbolTableRecord
100
AcDbLayerTableRecord
  2
0
 70
     0
 62
     7
  6
CONTINUOUS
  0
LAYER
  5
29
330
15
100
AcDbSymbolTableRecord
100
AcDbLayerTableRecord
  2
PV
 70
     0
 62
     7
  6
CONTINUOUS
  0
LAYER
  5
2B
330
15
100
AcDbSymbolTableRecord
100
AcDbLayerTableRecord
  2
L-ZISSEN
 70
     0
 62
     7
  6
CONTINUOUS
  0
LAYER
  5
51
330
15
100
AcDbSymbolTableRecord
100
AcDbLayerTableRecord
  2
L-TYUSIN
 70
     0
 62
     1
  6
CENTER
  0
ENDTAB
  0
TABLE
  2
STYLE
  5
16
330
0
100
AcDbSymbolTable
 70
     2
  0
STYLE
  5
17
330
16
100
AcDbSymbolTableRecord
100
AcDbTextStyleTableRecord
  2
STANDARD
 70
     0
 40
0.0
 41
1.0
 50
0.0
 71
     0
 42
0.2
  3
txt
  4

  0
STYLE
  5
5D
330
16
100
AcDbSymbolTableRecord
100
AcDbTextStyleTableRecord
  2
FONT1
 70
     0
 40
0.0
 41
1.0
 50
0.0
 71
     0
 42
0.2
  3
MONOTXT
  4

  0
ENDTAB
  0
TABLE
  2
VIEW
  5
1C
330
0
100
AcDbSymbolTable
 70
     0
  0
ENDTAB
  0
TABLE
  2
UCS
  5
1D
330
0
100
AcDbSymbolTable
 70
     0
  0
ENDTAB
  0
TABLE
  2
APPID
  5
20
330
0
100
AcDbSymbolTable
 70
     1
  0
APPID
  5
A
330
20
100
AcDbSymbolTableRecord
100
AcDbRegAppTableRecord
  2
ACAD
 70
     0
  0
ENDTAB
  0
TABLE
  2
DIMSTYLE
  5
21
330
0
100
AcDbSymbolTable
 70
     1
  0
DIMSTYLE
105
27
330
21
100
AcDbSymbolTableRecord
100
AcDbDimStyleTableRecord
  2
STANDARD
 70
     0
  3

  4

  5

  6

  7

 40
1.0
 41
0.18
 42
0.0625
 43
0.38
 44
0.18
 45
0.0
 46
0.0
 47
0.0
 48
0.0
140
0.18
141
0.09
142
0.0
143
25.4
144
1.0
145
0.0
146
1.0
147
0.09
 71
     0
 72
     0
 73
     1
 74
     1
 75
     0
 76
     0
 77
     0
 78
     0
170
     0
171
     2
172
     0
173
     0
174
     0
175
     0
176
     0
177
     0
178
     0
270
     2
271
     4
272
     4
273
     2
274
     2
340
17
275
     0
280
     0
281
     0
282
     0
283
     1
284
     0
285
     0
286
     0
287
     3
288
     0
  0
ENDTAB
  0
TABLE
  2
BLOCK_RECORD
  5
1
330
0
100
AcDbSymbolTable
 70
     0
  0
BLOCK_RECORD
  5
2
102
{ACAD_XDICTIONARY
360
3
102
}
330
1
100
AcDbSymbolTableRecord
100
AcDbBlockTableRecord
  2
*MODEL_SPACE
  0
BLOCK_RECORD
  5
F
102
{ACAD_XDICTIONARY
360
10
102
}
330
1
100
AcDbSymbolTableRecord
100
AcDbBlockTableRecord
  2
*PAPER_SPACE
  0
ENDTAB
  0
ENDSEC
  0
SECTION
  2
BLOCKS
  0
BLOCK
  5
5
330
2
100
AcDbEntity
  8
0
100
AcDbBlockBegin
  2
*MODEL_SPACE
 70
     0
 10
0.0
 20
0.0
 30
0.0
  3
*MODEL_SPACE
  1

  0
ENDBLK
  5
C
330
2
100
AcDbEntity
  8
0
100
AcDbBlockEnd
  0
BLOCK
  5
12
330
F
100
AcDbEntity
 67
     1
  8
0
100
AcDbBlockBegin
  2
*PAPER_SPACE
 70
     0
 10
0.0
 20
0.0
 30
0.0
  3
*PAPER_SPACE
  1

  0
ENDBLK
  5
13
330
F
100
AcDbEntity
 67
     1
  8
0
100
AcDbBlockEnd
  0
ENDSEC
  0
SECTION
  2
ENTITIES
  0
LINE
  5
28
330
2
100
AcDbEntity
  8
PV
 62
     7
100
AcDbLine
 10
549.5
 20
672.8000000000001
 30
0.0
 11
504.4999999999999
 21
672.8000000000001
 31
0.0
  0
LINE
  5
2A
330
2
100
AcDbEntity
  8
L-ZISSEN
100
AcDbLine
 10
498.0
 20
710.0000000000002
 30
0.0
 11
556.0
 21
710.0000000000002
 31
0.0
  0
LINE
  5
2C
330
2
100
AcDbEntity
  8
L-ZISSEN
100
AcDbLine
 10
516.1653679999999
 20
700.0000000000002
 30
0.0
 11
556.0
 21
700.0000000000002
 31
0.0
  0
LINE
  5
2D
330
2
100
AcDbEntity
  8
PV
 62
     7
100
AcDbLine
 10
540.0
 20
578.8000000000003
 30
0.0
 11
514.0
 21
578.8000000000003
 31
0.0
  0
LINE
  5
2E
330
2
100
AcDbEntity
  8
PV
 62
     7
100
AcDbLine
 10
540.0
 20
570.8000000000004
 30
0.0
 11
534.4999999999999
 21
563.8000000000004
 31
0.0
  0
CIRCLE
  5
2F
330
2
100
AcDbEntity
  8
PV
 62
     7
100
AcDbCircle
 10
527.0
 20
650.0000000000002
 30
0.0
 40
13.51645228933807
  0
LINE
  5
30
330
2
100
AcDbEntity
  8
PV
 62
     7
100
AcDbLine
 10
472.0
 20
587.8000000000004
 30
0.0
 11
582.0
 21
587.8000000000004
 31
0.0
  0
LINE
  5
31
330
2
100
AcDbEntity
  8
PV
  6
CENTER
 62
     1
100
AcDbLine
 10
574.0
 20
650.0000000000002
 30
0.0
 11
480.0
 21
650.0000000000002
 31
0.0
  0
LINE
  5
33
330
2
100
AcDbEntity
  8
PV
 62
     7
100
AcDbLine
 10
582.0
 20
627.8000000000004
 30
0.0
 11
472.0
 21
627.8000000000004
 31
0.0
  0
LINE
  5
34
330
2
100
AcDbEntity
  8
PV
 62
     7
100
AcDbLine
 10
485.0
 20
682.0000000000002
 30
0.0
 11
569.0
 21
682.0000000000002
 31
0.0
  0
LINE
  5
35
330
2
100
AcDbEntity
  8
PV
 62
     7
100
AcDbLine
 10
537.0
 20
393.1880000000003
 30
0.0
 11
517.0
 21
393.1880000000003
 31
0.0
  0
LINE
  5
36
330
2
100
AcDbEntity
  8
PV
 62
     7
100
AcDbLine
 10
517.0
 20
398.0760000000002
 30
0.0
 11
537.0
 21
398.0760000000002
 31
0.0
  0
LINE
  5
37
330
2
100
AcDbEntity
  8
PV
 62
     7
100
AcDbLine
 10
511.5
 20
406.0000000000002
 30
0.0
 11
542.4999999999999
 21
406.0000000000002
 31
0.0
  0
LINE
  5
38
330
2
100
AcDbEntity
  8
PV
 62
     7
100
AcDbLine
 10
540.0
 20
432.0000000000002
 30
0.0
 11
514.0
 21
432.0000000000002
 31
0.0
  0
LINE
  5
39
330
2
100
AcDbEntity
  8
PV
 62
     7
100
AcDbLine
 10
540.0
 20
440.0000000000002
 30
0.0
 11
534.4999999999999
 21
447.0000000000002
 31
0.0
  0
LINE
  5
3A
330
2
100
AcDbEntity
  8
L-ZISSEN
100
AcDbLine
 10
498.0
 20
60.0
 30
0.0
 11
556.0
 21
60.0
 31
0.0
  0
LINE
  5
3B
330
2
100
AcDbEntity
  8
L-ZISSEN
100
AcDbLine
 10
516.1653679999999
 20
50.0
 30
0.0
 11
556.0
 21
50.0
 31
0.0
  0
CIRCLE
  5
3C
330
2
100
AcDbEntity
  8
PV
 62
     7
100
AcDbCircle
 10
527.0
 20
0.0
 30
0.0
 40
16.9509
  0
LINE
  5
3D
330
2
100
AcDbEntity
  8
PV
 62
     7
100
AcDbLine
 10
540.0
 20
-79.19999999999982
 30
0.0
 11
534.4999999999999
 21
-86.19999999999981
 31
0.0
  0
LINE
  5
3E
330
2
100
AcDbEntity
  8
PV
 62
     7
100
AcDbLine
 10
540.0
 20
-71.19999999999982
 30
0.0
 11
514.0
 21
-71.19999999999982
 31
0.0
  0
LINE
  5
3F
330
2
100
AcDbEntity
  8
PV
 62
     7
100
AcDbLine
 10
549.5
 20
22.79999999999995
 30
0.0
 11
504.4999999999999
 21
22.79999999999995
 31
0.0
  0
LINE
  5
40
330
2
100
AcDbEntity
  8
PV
 62
     7
100
AcDbLine
 10
540.0
 20
-210.0
 30
0.0
 11
534.4999999999999
 21
-203.0
 31
0.0
  0
LINE
  5
41
330
2
100
AcDbEntity
  8
PV
 62
     7
100
AcDbLine
 10
537.0
 20
-256.8119999999999
 30
0.0
 11
517.0
 21
-256.8119999999999
 31
0.0
  0
LINE
  5
42
330
2
100
AcDbEntity
  8
PV
 62
     7
100
AcDbLine
 10
511.5
 20
-244.0
 30
0.0
 11
542.4999999999999
 21
-244.0
 31
0.0
  0
LINE
  5
43
330
2
100
AcDbEntity
  8
PV
 62
     7
100
AcDbLine
 10
517.0
 20
-251.9239999999999
 30
0.0
 11
537.0
 21
-251.9239999999999
 31
0.0
  0
LINE
  5
44
330
2
100
AcDbEntity
  8
PV
 62
     7
100
AcDbLine
 10
540.0
 20
-218.0
 30
0.0
 11
514.0
 21
-218.0
 31
0.0
  0
LINE
  5
45
330
2
100
AcDbEntity
  8
PV
 62
     7
100
AcDbLine
 10
472.0
 20
-62.19999999999981
 30
0.0
 11
582.0
 21
-62.19999999999981
 31
0.0
  0
LINE
  5
46
330
2
100
AcDbEntity
  8
PV
  6
CENTER
 62
     1
100
AcDbLine
 10
574.0
 20
0.0
 30
0.0
 11
480.0
 21
0.0
 31
0.0
  0
LINE
  5
47
330
2
100
AcDbEntity
  8
PV
 62
     7
100
AcDbLine
 10
582.0
 20
-22.19999999999981
 30
0.0
 11
472.0
 21
-22.19999999999981
 31
0.0
  0
LINE
  5
48
330
2
100
AcDbEntity
  8
PV
 62
     7
100
AcDbLine
 10
485.0
 20
32.0
 30
0.0
 11
569.0
 21
32.0
 31
0.0
  0
CIRCLE
  5
49
330
2
100
AcDbEntity
  8
0
100
AcDbCircle
 10
198.5
 20
200.0000000000002
 30
0.0
 40
29.0
  0
LINE
  5
4A
330
2
100
AcDbEntity
  8
L-ZISSEN
100
AcDbLine
 10
178.103922
 20
222.0000000000002
 30
0.0
 11
147.5
 21
222.0000000000002
 31
0.0
  0
LINE
  5
4B
330
2
100
AcDbEntity
  8
L-ZISSEN
100
AcDbLine
 10
147.5
 20
178.0000000000002
 30
0.0
 11
178.103922
 21
178.0000000000002
 31
0.0
  0
LINE
  5
4C
330
2
100
AcDbEntity
  8
PV
  6
CENTER
 62
     1
100
AcDbLine
 10
-5.0
 20
200.0000000000002
 30
0.0
 11
396.0
 21
200.0000000000002
 31
0.0
  0
LINE
  5
4D
330
2
100
AcDbEntity
  8
L-ZISSEN
100
AcDbLine
 10
227.4999999999999
 20
60.00000000000023
 30
0.0
 11
169.5
 21
60.00000000000023
 31
0.0
  0
LINE
  5
4E
330
2
100
AcDbEntity
  8
L-ZISSEN
100
AcDbLine
 10
227.4999999999999
 20
50.00000000000023
 30
0.0
 11
169.5
 21
50.00000000000023
 31
0.0
  0
LINE
  5
4F
330
2
100
AcDbEntity
  8
L-ZISSEN
100
AcDbLine
 10
147.5
 20
22.00000000000022
 30
0.0
 11
255.5
 21
22.00000000000022
 31
0.0
  0
LINE
  5
50
330
2
100
AcDbEntity
  8
L-TYUSIN
100
AcDbLine
 10
142.5
 20
0.0
 30
0.0
 11
260.4999999999999
 21
0.0
 31
0.0
  0
LINE
  5
52
330
2
100
AcDbEntity
  8
L-ZISSEN
100
AcDbLine
 10
255.5
 20
-22.0
 30
0.0
 11
147.5
 21
-22.0
 31
0.0
  0
LINE
  5
53
330
2
100
AcDbEntity
  8
L-ZISSEN
100
AcDbLine
 10
226.0
 20
-120.0
 30
0.0
 11
171.0
 21
-120.0
 31
0.0
  0
LINE
  5
54
330
2
100
AcDbEntity
  8
L-ZISSEN
100
AcDbLine
 10
226.0
 20
-88.0
 30
0.0
 11
171.0
 21
-88.0
 31
0.0
  0
LINE
  5
55
330
2
100
AcDbEntity
  8
L-ZISSEN
100
AcDbLine
 10
170.0
 20
-46.0
 30
0.0
 11
227.0
 21
-46.0
 31
0.0
  0
LINE
  5
56
330
2
100
AcDbEntity
  8
PV
  6
CENTER
 62
     1
100
AcDbLine
 10
67.0
 20
37.00000000000022
 30
0.0
 11
67.0
 21
-261.0
 31
0.0
  0
LINE
  5
57
330
2
100
AcDbEntity
  8
PV
 62
     7
100
AcDbLine
 10
11.0
 20
-22.19999999999981
 30
0.0
 11
11.0
 21
-62.19999999999981
 31
0.0
  0
LINE
  5
58
330
2
100
AcDbEntity
  8
PV
 62
     7
100
AcDbLine
 10
122.0
 20
-22.19999999999981
 30
0.0
 11
122.0
 21
-62.19999999999981
 31
0.0
  0
LINE
  5
59
330
2
100
AcDbEntity
  8
L-ZISSEN
100
AcDbLine
 10
170.0
 20
-46.0
 30
0.0
 11
170.0
 21
-32.0
 31
0.0
  0
ARC
  5
5A
330
2
100
AcDbEntity
  8
PV
 62
     7
100
AcDbCircle
 10
82.5
 20
-218.0
 30
0.0
 40
26.0
100
AcDbArc
 50
270.0
 51
0.0
  0
ARC
  5
5B
330
2
100
AcDbEntity
  8
PV
 62
     7
100
AcDbCircle
 10
51.5
 20
-218.0
 30
0.0
 40
26.0
100
AcDbArc
 50
180.0
 51
270.0
  0
TEXT
  5
5C
330
2
100
AcDbEntity
  8
PV
 62
     7
100
AcDbText
 10
84.89999999999998
 20
-262.25
 30
0.0
 40
4.5
  1
P.P
 41
0.7780000000000001
  7
FONT1
100
AcDbText
  0
LINE
  5
5E
330
2
100
AcDbEntity
  8
PV
 62
     7
100
AcDbLine
 10
54.0
 20
-246.0
 30
0.0
 11
80.0
 21
-246.0
 31
0.0
  0
LINE
  5
5F
330
2
100
AcDbEntity
  8
PV
 62
     7
100
AcDbLine
 10
51.5
 20
-244.0
 30
0.0
 11
82.5
 21
-244.0
 31
0.0
  0
LINE
  5
60
330
2
100
AcDbEntity
  8
PV
 62
     7
100
AcDbLine
 10
74.25
 20
-256.0
 30
0.0
 11
59.75
 21
-256.0
 31
0.0
  0
LINE
  5
61
330
2
100
AcDbEntity
  8
PV
 62
     7
100
AcDbLine
 10
77.25
 20
-249.0
 30
0.0
 11
56.75
 21
-249.0
 31
0.0
  0
LINE
  5
62
330
2
100
AcDbEntity
  8
PV
 62
     7
100
AcDbLine
 10
54.0
 20
-246.0
 30
0.0
 11
54.0
 21
-244.0
 31
0.0
  0
LINE
  5
63
330
2
100
AcDbEntity
  8
PV
 62
     7
100
AcDbLine
 10
56.75
 20
-249.0
 30
0.0
 11
56.75
 21
-246.0
 31
0.0
  0
LINE
  5
64
330
2
100
AcDbEntity
  8
PV
 62
     7
100
AcDbLine
 10
59.75
 20
-256.0
 30
0.0
 11
59.75
 21
-249.0
 31
0.0
  0
LINE
  5
65
330
2
100
AcDbEntity
  8
PV
 62
     7
100
AcDbLine
 10
68.41399999999999
 20
-247.4142000000001
 30
0.0
 11
81.0
 21
-260.0
 31
0.0
  0
LINE
  5
66
330
2
100
AcDbEntity
  8
PV
 62
     7
100
AcDbLine
 10
81.0
 20
-260.0
 30
0.0
 11
83.0
 21
-260.0
 31
0.0
  0
POLYLINE
  5
67
330
2
100
AcDbEntity
  8
PV
 62
     7
100
AcDb2dPolyline
 66
     1
 10
0.0
 20
0.0
 30
0.0
  0
VERTEX
  5
64B
330
67
100
AcDbEntity
  8
PV
 62
     7
100
AcDbVertex
100
AcDb2dVertex
 10
68.17899999999998
 20
-247.6499000000003
 30
0.0
  0
VERTEX
  5
64C
330
67
100
AcDbEntity
  8
PV
 62
     7
100
AcDbVertex
100
AcDb2dVertex
 10
68.64999999999998
 20
-247.1785
 30
0.0
  0
VERTEX
  5
64D
330
67
100
AcDbEntity
  8
PV
 62
     7
100
AcDbVertex
100
AcDb2dVertex
 10
67.0
 20
-246.0
 30
0.0
  0
VERTEX
  5
64E
330
67
100
AcDbEntity
  8
PV
 62
     7
100
AcDbVertex
100
AcDb2dVertex
 10
68.17899999999998
 20
-247.6499000000003
 30
0.0
  0
SEQEND
  5
64F
330
67
100
AcDbEntity
  8
PV
 62
     7
  0
LINE
  5
68
330
2
100
AcDbEntity
  8
PV
 62
     7
100
AcDbLine
 10
74.25
 20
-256.0
 30
0.0
 11
74.25
 21
-249.0
 31
0.0
  0
LINE
  5
69
330
2
100
AcDbEntity
  8
PV
 62
     7
100
AcDbLine
 10
77.25
 20
-249.0
 30
0.0
 11
77.25
 21
-246.0
 31
0.0
  0
LINE
  5
6A
330
2
100
AcDbEntity
  8
PV
 62
     7
100
AcDbLine
 10
80.0
 20
-246.0
 30
0.0
 11
80.0
 21
-244.0
 31
0.0
  0
LINE
  5
6B
330
2
100
AcDbEntity
  8
PV
 62
     7
100
AcDbLine
 10
12.0
 20
-62.19999999999981
 30
0.0
 11
122.0
 21
-62.19999999999981
 31
0.0
  0
LINE
  5
6C
330
2
100
AcDbEntity
  8
PV
 62
     7
100
AcDbLine
 10
4.5
 20
-203.0
 30
0.0
 11
4.5
 21
-86.19999999999981
 31
0.0
  0
LINE
  5
6D
330
2
100
AcDbEntity
  8
PV
 62
     7
100
AcDbLine
 10
20.971
 20
-62.19999999999981
 30
0.0
 11
25.5
 21
-218.0
 31
0.0
  0
LINE
  5
6E
330
2
100
AcDbEntity
  8
PV
 62
     7
100
AcDbLine
 10
14.5
 20
-218.0
 30
0.0
 11
14.5
 21
-71.19999999999982
 31
0.0
  0
LINE
  5
6F
330
2
100
AcDbEntity
  8
PV
 62
     7
100
AcDbLine
 10
10.5
 20
-218.0
 30
0.0
 11
25.5
 21
-218.0
 31
0.0
  0
LINE
  5
70
330
2
100
AcDbEntity
  8
PV
 62
     7
100
AcDbLine
 10
10.5
 20
-218.0
 30
0.0
 11
10.5
 21
-203.0
 31
0.0
  0
LINE
  5
71
330
2
100
AcDbEntity
  8
PV
 62
     7
100
AcDbLine
 10
4.5
 20
-203.0
 30
0.0
 11
14.5
 21
-203.0
 31
0.0
  0
LINE
  5
72
330
2
100
AcDbEntity
  8
PV
 62
     7
100
AcDbLine
 10
21.23299999999994
 20
-71.19999999999982
 30
0.0
 11
10.5
 21
-71.19999999999982
 31
0.0
  0
LINE
  5
73
330
2
100
AcDbEntity
  8
PV
 62
     7
100
AcDbLine
 10
14.5
 20
-86.19999999999981
 30
0.0
 11
4.5
 21
-86.19999999999981
 31
0.0
  0
LINE
  5
74
330
2
100
AcDbEntity
  8
PV
 62
     7
100
AcDbLine
 10
10.5
 20
-86.19999999999981
 30
0.0
 11
10.5
 21
-71.19999999999982
 31
0.0
  0
LINE
  5
75
330
2
100
AcDbEntity
  8
PV
 62
     7
100
AcDbLine
 10
113.029
 20
-62.19999999999981
 30
0.0
 11
108.4999999999999
 21
-218.0
 31
0.0
  0
LINE
  5
76
330
2
100
AcDbEntity
  8
L-ZISSEN
100
AcDbLine
 10
171.0
 20
-120.0
 30
0.0
 11
171.0
 21
-88.0
 31
0.0
  0
LINE
  5
77
330
2
100
AcDbEntity
  8
L-ZISSEN
100
AcDbLine
 10
175.5
 20
-46.0
 30
0.0
 11
176.5
 21
-88.0
 31
0.0
  0
TEXT
  5
78
330
2
100
AcDbEntity
  8
PV
 62
     7
100
AcDbText
 10
-25.67659192694009
 20
278.4424452161172
 30
0.0
 40
4.5
  1
MODEL No. : P8A-86*- 1DB
 41
0.9167221999999998
  7
FONT1
100
AcDbText
  0
LINE
  5
79
330
2
100
AcDbEntity
  8
PV
 62
     7
100
AcDbLine
 10
-1.626999999999952
 20
-1.162000000000261
 30
0.0
 11
-14.0
 21
-10.0
 31
0.0
  0
LINE
  5
7A
330
2
100
AcDbEntity
  8
PV
  6
CENTER
 62
     1
100
AcDbLine
 10
-5.0
 20
0.0
 30
0.0
 11
126.0
 21
0.0
 31
0.0
  0
TEXT
  5
7B
330
2
100
AcDbEntity
  8
PV
 62
     7
100
AcDbText
 10
-33.60157981835675
 20
-20.0
 30
0.0
 40
4.5
  1
Rc 1
  7
FONT1
100
AcDbText
  0
LINE
  5
7C
330
2
100
AcDbEntity
  8
PV
 62
     7
100
AcDbLine
 10
-14.0
 20
-10.0
 30
0.0
 11
-16.0
 21
-10.0
 31
0.0
  0
TEXT
  5
7D
330
2
100
AcDbEntity
  8
PV
 62
     7
100
AcDbText
 10
-24.10000000000002
 20
-12.25
 30
0.0
 40
4.5
  1
IN
 41
0.8333332999999999
  7
FONT1
100
AcDbText
  0
LINE
  5
7E
330
2
100
AcDbEntity
  8
PV
  6
CENTER
 62
     1
100
AcDbLine
 10
67.0
 20
260.0000000000002
 30
0.0
 11
67.0
 21
140.0000000000002
 31
0.0
  0
ARC
  5
7F
330
2
100
AcDbEntity
  8
PV
 62
     7
100
AcDbCircle
 10
67.0
 20
200.0000000000002
 30
0.0
 40
55.0
100
AcDbArc
 50
204.1479999999987
 51
335.8520000000013
  0
LINE
  5
80
330
2
100
AcDbEntity
  8
PV
 62
     7
100
AcDbLine
 10
122.0
 20
-22.19999999999981
 30
0.0
 11
0.0
 21
-22.19999999999981
 31
0.0
  0
LINE
  5
81
330
2
100
AcDbEntity
  8
PV
 62
     7
100
AcDbLine
 10
25.0
 20
32.00000000000022
 30
0.0
 11
109.0
 21
32.00000000000022
 31
0.0
  0
LINE
  5
82
330
2
100
AcDbEntity
  8
PV
 62
     7
100
AcDbLine
 10
31.53499999999997
 20
22.79999999999995
 30
0.0
 11
31.53499999999997
 21
-22.19999999999981
 31
0.0
  0
LINE
  5
83
330
2
100
AcDbEntity
  8
PV
 62
     7
100
AcDbLine
 10
0.0
 20
22.79999999999995
 30
0.0
 11
0.0
 21
-22.19999999999981
 31
0.0
  0
POLYLINE
  5
84
330
2
100
AcDbEntity
  8
PV
 62
     7
100
AcDb2dPolyline
 66
     1
 10
0.0
 20
0.0
 30
0.0
  0
VERTEX
  5
650
330
84
100
AcDbEntity
  8
PV
 62
     7
100
AcDbVertex
100
AcDb2dVertex
 10
-1.821000000000026
 20
-0.8910000000005311
 30
0.0
  0
VERTEX
  5
651
330
84
100
AcDbEntity
  8
PV
 62
     7
100
AcDbVertex
100
AcDb2dVertex
 10
-1.433999999999969
 20
-1.434000000000196
 30
0.0
  0
VERTEX
  5
652
330
84
100
AcDbEntity
  8
PV
 62
     7
100
AcDbVertex
100
AcDb2dVertex
 10
0.0
 20
0.0
 30
0.0
  0
VERTEX
  5
653
330
84
100
AcDbEntity
  8
PV
 62
     7
100
AcDbVertex
100
AcDb2dVertex
 10
-1.821000000000026
 20
-0.8910000000005311
 30
0.0
  0
SEQEND
  5
654
330
84
100
AcDbEntity
  8
PV
 62
     7
  0
LINE
  5
85
330
2
100
AcDbEntity
  8
PV
 62
     7
100
AcDbLine
 10
31.53499999999997
 20
22.79999999999995
 30
0.0
 11
0.0
 21
22.79999999999995
 31
0.0
  0
LINE
  5
86
330
2
100
AcDbEntity
  8
PV
 62
     7
100
AcDbLine
 10
25.0
 20
32.00000000000022
 30
0.0
 11
25.0
 21
22.79999999999995
 31
0.0
  0
LINE
  5
87
330
2
100
AcDbEntity
  8
L-ZISSEN
100
AcDbLine
 10
169.5
 20
22.00000000000022
 30
0.0
 11
169.5
 21
60.00000000000023
 31
0.0
  0
LINE
  5
88
330
2
100
AcDbEntity
  8
0
100
AcDbLine
 10
147.5
 20
-16.95402906968138
 30
0.0
 11
121.0
 21
-16.95402906968138
 31
0.0
  0
LINE
  5
89
330
2
100
AcDbEntity
  8
0
100
AcDbLine
 10
147.5
 20
16.9540290696807
 30
0.0
 11
121.0
 21
16.9540290696807
 31
0.0
  0
LINE
  5
8A
330
2
100
AcDbEntity
  8
L-TYUSIN
  6
CENTER
 62
     1
100
AcDbLine
 10
137.0
 20
0.0
 30
0.0
 11
121.0
 21
0.0
 31
0.0
  0
LINE
  5
8B
330
2
100
AcDbEntity
  8
PV
 62
     7
100
AcDbLine
 10
121.0
 20
22.79999999999995
 30
0.0
 11
121.0
 21
-22.19999999999981
 31
0.0
  0
LINE
  5
8C
330
2
100
AcDbEntity
  8
PV
 62
     7
100
AcDbLine
 10
102.4649999999999
 20
22.79999999999995
 30
0.0
 11
102.4649999999999
 21
-22.19999999999981
 31
0.0
  0
LINE
  5
8D
330
2
100
AcDbEntity
  8
PV
 62
     7
100
AcDbLine
 10
102.4649999999999
 20
22.79999999999995
 30
0.0
 11
121.0
 21
22.79999999999995
 31
0.0
  0
LINE
  5
8E
330
2
100
AcDbEntity
  8
PV
 62
     7
100
AcDbLine
 10
109.0
 20
32.00000000000022
 30
0.0
 11
109.0
 21
22.79999999999995
 31
0.0
  0
LINE
  5
8F
330
2
100
AcDbEntity
  8
L-ZISSEN
100
AcDbLine
 10
147.5
 20
22.00000000000022
 30
0.0
 11
147.5
 21
-22.0
 31
0.0
  0
LINE
  5
90
330
2
100
AcDbEntity
  8
L-ZISSEN
100
AcDbLine
 10
175.2620999999999
 20
-31.0
 30
0.0
 11
165.0
 21
-31.0
 31
0.0
  0
LINE
  5
91
330
2
100
AcDbEntity
  8
L-ZISSEN
100
AcDbLine
 10
165.0
 20
-31.0
 30
0.0
 11
165.0
 21
-22.0
 31
0.0
  0
LINE
  5
92
330
2
100
AcDbEntity
  8
L-ZISSEN
100
AcDbLine
 10
175.2620999999999
 20
-32.0
 30
0.0
 11
175.2620999999999
 21
-22.0
 31
0.0
  0
LINE
  5
93
330
2
100
AcDbEntity
  8
L-ZISSEN
100
AcDbLine
 10
167.5
 20
-32.0
 30
0.0
 11
167.5
 21
-31.0
 31
0.0
  0
LINE
  5
94
330
2
100
AcDbEntity
  8
L-ZISSEN
100
AcDbLine
 10
175.2620999999999
 20
-32.0
 30
0.0
 11
167.5
 21
-32.0
 31
0.0
  0
CIRCLE
  5
95
330
2
100
AcDbEntity
  8
PV
 62
     7
100
AcDbCircle
 10
67.0
 20
200.0000000000002
 30
0.0
 40
42.0
  0
ARC
  5
96
330
2
100
AcDbEntity
  8
PV
 62
     7
100
AcDbCircle
 10
67.0
 20
200.0000000000002
 30
0.0
 40
55.0
100
AcDbArc
 50
24.14770000000034
 51
155.8520000000012
  0
LINE
  5
97
330
2
100
AcDbEntity
  8
PV
 62
     7
100
AcDbLine
 10
0.0
 20
177.5000000000002
 30
0.0
 11
0.0
 21
222.5000000000002
 31
0.0
  0
LINE
  5
98
330
2
100
AcDbEntity
  8
PV
 62
     7
100
AcDbLine
 10
31.53499999999997
 20
177.5000000000002
 30
0.0
 11
0.0
 21
177.5000000000002
 31
0.0
  0
LINE
  5
99
330
2
100
AcDbEntity
  8
PV
 62
     7
100
AcDbLine
 10
31.53499999999997
 20
222.5000000000002
 30
0.0
 11
0.0
 21
222.5000000000002
 31
0.0
  0
TEXT
  5
9A
330
2
100
AcDbEntity
  8
PV
 62
     7
100
AcDbText
 10
56.79843059786652
 20
281.4424452161172
 30
0.0
 40
4.5
  1
A
  7
FONT1
100
AcDbText
  0
TEXT
  5
9B
330
2
100
AcDbEntity
  8
PV
 62
     7
100
AcDbText
 10
56.79843059786652
 20
275.4424452161172
 30
0.0
 40
4.5
  1
M
  7
FONT1
100
AcDbText
  0
LINE
  5
9C
330
2
100
AcDbEntity
  8
0
100
AcDbLine
 10
147.5
 20
183.0459709303188
 30
0.0
 11
121.0
 21
183.0459709303188
 31
0.0
  0
LINE
  5
9D
330
2
100
AcDbEntity
  8
0
100
AcDbLine
 10
147.5
 20
216.9540290696809
 30
0.0
 11
121.0
 21
216.9540290696809
 31
0.0
  0
LINE
  5
9E
330
2
100
AcDbEntity
  8
PV
 62
     7
100
AcDbLine
 10
121.0
 20
177.5000000000002
 30
0.0
 11
121.0
 21
222.5000000000002
 31
0.0
  0
LINE
  5
9F
330
2
100
AcDbEntity
  8
PV
 62
     7
100
AcDbLine
 10
121.0
 20
177.5000000000002
 30
0.0
 11
102.4649999999999
 21
177.5000000000002
 31
0.0
  0
LINE
  5
A0
330
2
100
AcDbEntity
  8
PV
 62
     7
100
AcDbLine
 10
121.0
 20
222.5000000000002
 30
0.0
 11
102.4649999999999
 21
222.5000000000002
 31
0.0
  0
LINE
  5
A1
330
2
100
AcDbEntity
  8
L-ZISSEN
100
AcDbLine
 10
147.5
 20
178.0000000000002
 30
0.0
 11
147.5
 21
222.0000000000002
 31
0.0
  0
LINE
  5
A2
330
2
100
AcDbEntity
  8
PV
 62
     7
100
AcDbLine
 10
472.0
 20
-22.19999999999981
 30
0.0
 11
472.0
 21
-62.19999999999981
 31
0.0
  0
LINE
  5
A3
330
2
100
AcDbEntity
  8
PV
  6
CENTER
 62
     1
100
AcDbLine
 10
527.0
 20
37.0
 30
0.0
 11
527.0
 21
-272.8279000000002
 31
0.0
  0
LINE
  5
A4
330
2
100
AcDbEntity
  8
PV
  6
CENTER
 62
     1
100
AcDbLine
 10
338.0
 20
53.00000000000022
 30
0.0
 11
338.0
 21
-273.3483999999998
 31
0.0
  0
LINE
  5
A5
330
2
100
AcDbEntity
  8
PV
 62
     7
100
AcDbLine
 10
393.0
 20
-22.19999999999981
 30
0.0
 11
393.0
 21
-62.19999999999981
 31
0.0
  0
LINE
  5
A6
330
2
100
AcDbEntity
  8
PV
 62
     7
100
AcDbLine
 10
283.0
 20
-22.19999999999981
 30
0.0
 11
283.0
 21
-62.19999999999981
 31
0.0
  0
LINE
  5
A7
330
2
100
AcDbEntity
  8
L-TYUSIN
100
AcDbLine
 10
198.5
 20
-125.0
 30
0.0
 11
198.5
 21
65.00000000000023
 31
0.0
  0
LINE
  5
A8
330
2
100
AcDbEntity
  8
L-ZISSEN
100
AcDbLine
 10
227.0
 20
-46.0
 30
0.0
 11
227.0
 21
-32.0
 31
0.0
  0
ARC
  5
A9
330
2
100
AcDbEntity
  8
PV
 62
     7
100
AcDbCircle
 10
353.5
 20
-218.0
 30
0.0
 40
26.0
100
AcDbArc
 50
270.0
 51
0.0
  0
LINE
  5
AA
330
2
100
AcDbEntity
  8
PV
 62
     7
100
AcDbLine
 10
350.242
 20
-251.9239999999999
 30
0.0
 11
366.4229999999999
 21
-251.9239999999999
 31
0.0
  0
LINE
  5
AB
330
2
100
AcDbEntity
  8
PV
 62
     7
100
AcDbLine
 10
352.994
 20
-256.8119999999999
 30
0.0
 11
366.4229999999999
 21
-256.8119999999999
 31
0.0
  0
LINE
  5
AC
330
2
100
AcDbEntity
  8
PV
 62
     7
100
AcDbLine
 10
283.0
 20
-62.19999999999981
 30
0.0
 11
393.0
 21
-62.19999999999981
 31
0.0
  0
ARC
  5
AD
330
2
100
AcDbEntity
  8
PV
 62
     7
100
AcDbCircle
 10
322.5
 20
-218.0
 30
0.0
 40
26.0
100
AcDbArc
 50
180.0
 51
270.0
  0
LINE
  5
AE
330
2
100
AcDbEntity
  8
PV
 62
     7
100
AcDbLine
 10
345.545
 20
-248.5559999999995
 30
0.0
 11
330.4549999999999
 21
-248.5559999999995
 31
0.0
  0
LINE
  5
AF
330
2
100
AcDbEntity
  8
PV
 62
     7
100
AcDbLine
 10
345.9719999999999
 20
-244.7600000000002
 30
0.0
 11
330.028
 21
-244.7600000000002
 31
0.0
  0
LINE
  5
B0
330
2
100
AcDbEntity
  8
PV
 62
     7
100
AcDbLine
 10
322.5
 20
-244.0
 30
0.0
 11
353.5
 21
-244.0
 31
0.0
  0
LINE
  5
B1
330
2
100
AcDbEntity
  8
PV
 62
     7
100
AcDbLine
 10
332.6209999999999
 20
-269.0
 30
0.0
 11
343.379
 21
-269.0
 31
0.0
  0
LINE
  5
B2
330
2
100
AcDbEntity
  8
PV
 62
     7
100
AcDbLine
 10
330.4549999999999
 20
-258.6620000000002
 30
0.0
 11
332.6209999999999
 21
-262.112
 31
0.0
  0
LINE
  5
B3
330
2
100
AcDbEntity
  8
PV
 62
     7
100
AcDbLine
 10
332.6209999999999
 20
-262.112
 30
0.0
 11
332.6209999999999
 21
-269.0
 31
0.0
  0
ARC
  5
B4
330
2
100
AcDbEntity
  8
PV
 62
     7
100
AcDbCircle
 10
330.598
 20
-246.6579999999994
 30
0.0
 40
1.89798
100
AcDbArc
 50
90.0
 51
270.0
  0
LINE
  5
B5
330
2
100
AcDbEntity
  8
PV
 62
     7
100
AcDbLine
 10
332.495
 20
-244.7600000000002
 30
0.0
 11
330.076
 21
-244.7600000000002
 31
0.0
  0
LINE
  5
B6
330
2
100
AcDbEntity
  8
PV
 62
     7
100
AcDbLine
 10
330.028
 20
-244.7600000000002
 30
0.0
 11
330.028
 21
-244.0
 31
0.0
  0
LINE
  5
B7
330
2
100
AcDbEntity
  8
PV
 62
     7
100
AcDbLine
 10
330.4549999999999
 20
-258.6620000000002
 30
0.0
 11
330.4549999999999
 21
-248.5559999999995
 31
0.0
  0
LINE
  5
B8
330
2
100
AcDbEntity
  8
PV
 62
     7
100
AcDbLine
 10
343.379
 20
-261.933
 30
0.0
 11
345.545
 21
-258.6620000000002
 31
0.0
  0
LINE
  5
B9
330
2
100
AcDbEntity
  8
PV
 62
     7
100
AcDbLine
 10
343.379
 20
-261.933
 30
0.0
 11
343.379
 21
-269.0
 31
0.0
  0
ARC
  5
BA
330
2
100
AcDbEntity
  8
PV
 62
     7
100
AcDbCircle
 10
345.4019999999999
 20
-246.6579999999994
 30
0.0
 40
1.89798
100
AcDbArc
 50
270.0
 51
90.0
  0
LINE
  5
BB
330
2
100
AcDbEntity
  8
PV
 62
     7
100
AcDbLine
 10
345.9719999999999
 20
-244.7600000000002
 30
0.0
 11
345.9719999999999
 21
-244.0
 31
0.0
  0
LINE
  5
BC
330
2
100
AcDbEntity
  8
PV
 62
     7
100
AcDbLine
 10
351.002
 20
-258.6620000000002
 30
0.0
 11
352.994
 21
-256.8119999999999
 31
0.0
  0
LINE
  5
BD
330
2
100
AcDbEntity
  8
PV
 62
     7
100
AcDbLine
 10
351.002
 20
-258.6620000000002
 30
0.0
 11
345.545
 21
-258.6620000000002
 31
0.0
  0
LINE
  5
BE
330
2
100
AcDbEntity
  8
PV
 62
     7
100
AcDbLine
 10
351.002
 20
-250.643
 30
0.0
 11
352.8639999999999
 21
-251.9239999999999
 31
0.0
  0
LINE
  5
BF
330
2
100
AcDbEntity
  8
PV
 62
     7
100
AcDbLine
 10
348.7239999999999
 20
-253.3479999999999
 30
0.0
 11
350.242
 21
-251.9239999999999
 31
0.0
  0
LINE
  5
C0
330
2
100
AcDbEntity
  8
PV
 62
     7
100
AcDbLine
 10
351.002
 20
-250.643
 30
0.0
 11
345.545
 21
-250.643
 31
0.0
  0
LINE
  5
C1
330
2
100
AcDbEntity
  8
PV
 62
     7
100
AcDbLine
 10
345.545
 20
-253.3479999999999
 30
0.0
 11
348.7239999999999
 21
-253.3479999999999
 31
0.0
  0
LINE
  5
C2
330
2
100
AcDbEntity
  8
PV
 62
     7
100
AcDbLine
 10
345.545
 20
-258.6620000000002
 30
0.0
 11
345.545
 21
-248.5559999999995
 31
0.0
  0
LINE
  5
C3
330
2
100
AcDbEntity
  8
L-ZISSEN
100
AcDbLine
 10
221.4999999999999
 20
-46.0
 30
0.0
 11
220.5
 21
-88.0
 31
0.0
  0
LINE
  5
C4
330
2
100
AcDbEntity
  8
L-ZISSEN
100
AcDbLine
 10
226.0
 20
-120.0
 30
0.0
 11
226.0
 21
-88.0
 31
0.0
  0
LINE
  5
C5
330
2
100
AcDbEntity
  8
PV
 62
     7
100
AcDbLine
 10
291.971
 20
-62.19999999999981
 30
0.0
 11
296.4999999999999
 21
-218.0
 31
0.0
  0
ARC
  5
C6
330
2
100
AcDbEntity
  8
PV
 62
     7
100
AcDbCircle
 10
511.5
 20
-218.0
 30
0.0
 40
26.0
100
AcDbArc
 50
180.0
 51
270.0
  0
LINE
  5
C7
330
2
100
AcDbEntity
  8
PV
 62
     7
100
AcDbLine
 10
366.4229999999999
 20
-256.8119999999999
 30
0.0
 11
366.4229999999999
 21
-251.9239999999999
 31
0.0
  0
LINE
  5
C8
330
2
100
AcDbEntity
  8
PV
 62
     7
100
AcDbLine
 10
521.25
 20
-256.8119999999999
 30
0.0
 11
521.25
 21
-269.0
 31
0.0
  0
LINE
  5
C9
330
2
100
AcDbEntity
  8
PV
 62
     7
100
AcDbLine
 10
532.7499999999999
 20
-256.8119999999999
 30
0.0
 11
532.7499999999999
 21
-269.0
 31
0.0
  0
LINE
  5
CA
330
2
100
AcDbEntity
  8
PV
 62
     7
100
AcDbLine
 10
532.7499999999999
 20
-269.0
 30
0.0
 11
521.25
 21
-269.0
 31
0.0
  0
LINE
  5
CB
330
2
100
AcDbEntity
  8
PV
 62
     7
100
AcDbLine
 10
534.5439999999999
 20
-248.556
 30
0.0
 11
519.4560000000001
 21
-248.556
 31
0.0
  0
LINE
  5
CC
330
2
100
AcDbEntity
  8
PV
 62
     7
100
AcDbLine
 10
517.0
 20
-256.8119999999999
 30
0.0
 11
517.0
 21
-251.9239999999999
 31
0.0
  0
LINE
  5
CD
330
2
100
AcDbEntity
  8
PV
 62
     7
100
AcDbLine
 10
521.25
 20
-248.556
 30
0.0
 11
521.25
 21
-251.9239999999999
 31
0.0
  0
ARC
  5
CE
330
2
100
AcDbEntity
  8
PV
 62
     7
100
AcDbCircle
 10
519.5979999999999
 20
-246.6579999999999
 30
0.0
 40
1.89798
100
AcDbArc
 50
91.84179999999999
 51
270.0
  0
LINE
  5
CF
330
2
100
AcDbEntity
  8
PV
 62
     7
100
AcDbLine
 10
519.537
 20
-244.0
 30
0.0
 11
519.537
 21
-244.7609999999999
 31
0.0
  0
LINE
  5
D0
330
2
100
AcDbEntity
  8
PV
 62
     7
100
AcDbLine
 10
532.7499999999999
 20
-248.556
 30
0.0
 11
532.7499999999999
 21
-251.9239999999999
 31
0.0
  0
LINE
  5
D1
330
2
100
AcDbEntity
  8
PV
 62
     7
100
AcDbLine
 10
534.4629999999999
 20
-244.0
 30
0.0
 11
534.4629999999999
 21
-244.7609999999999
 31
0.0
  0
ARC
  5
D2
330
2
100
AcDbEntity
  8
PV
 62
     7
100
AcDbCircle
 10
534.402
 20
-246.6579999999999
 30
0.0
 40
1.89798
100
AcDbArc
 50
270.0
 51
88.1582
  0
LINE
  5
D3
330
2
100
AcDbEntity
  8
PV
 62
     7
100
AcDbLine
 10
400.4999999999999
 20
-203.0
 30
0.0
 11
400.4999999999999
 21
-86.19999999999981
 31
0.0
  0
LINE
  5
D4
330
2
100
AcDbEntity
  8
PV
 62
     7
100
AcDbLine
 10
384.0289999999999
 20
-62.19999999999981
 30
0.0
 11
379.4999999999999
 21
-218.0
 31
0.0
  0
LINE
  5
D5
330
2
100
AcDbEntity
  8
PV
 62
     7
100
AcDbLine
 10
390.5
 20
-218.0
 30
0.0
 11
390.5
 21
-71.19999999999982
 31
0.0
  0
LINE
  5
D6
330
2
100
AcDbEntity
  8
PV
 62
     7
100
AcDbLine
 10
394.5
 20
-218.0
 30
0.0
 11
394.5
 21
-203.0
 31
0.0
  0
LINE
  5
D7
330
2
100
AcDbEntity
  8
PV
 62
     7
100
AcDbLine
 10
394.5
 20
-218.0
 30
0.0
 11
379.4999999999999
 21
-218.0
 31
0.0
  0
LINE
  5
D8
330
2
100
AcDbEntity
  8
PV
 62
     7
100
AcDbLine
 10
400.4999999999999
 20
-203.0
 30
0.0
 11
390.5
 21
-203.0
 31
0.0
  0
LINE
  5
D9
330
2
100
AcDbEntity
  8
PV
 62
     7
100
AcDbLine
 10
383.767
 20
-71.19999999999982
 30
0.0
 11
394.5
 21
-71.19999999999982
 31
0.0
  0
LINE
  5
DA
330
2
100
AcDbEntity
  8
PV
 62
     7
100
AcDbLine
 10
394.5
 20
-86.19999999999981
 30
0.0
 11
394.5
 21
-71.19999999999982
 31
0.0
  0
LINE
  5
DB
330
2
100
AcDbEntity
  8
PV
 62
     7
100
AcDbLine
 10
390.5
 20
-86.19999999999981
 30
0.0
 11
400.4999999999999
 21
-86.19999999999981
 31
0.0
  0
LINE
  5
DC
330
2
100
AcDbEntity
  8
PV
 62
     7
100
AcDbLine
 10
519.5
 20
-86.19999999999981
 30
0.0
 11
519.5
 21
-203.0
 31
0.0
  0
LINE
  5
DD
330
2
100
AcDbEntity
  8
PV
 62
     7
100
AcDbLine
 10
534.4999999999999
 20
-86.19999999999981
 30
0.0
 11
534.4999999999999
 21
-203.0
 31
0.0
  0
LINE
  5
DE
330
2
100
AcDbEntity
  8
PV
 62
     7
100
AcDbLine
 10
514.0
 20
-218.0
 30
0.0
 11
514.0
 21
-71.19999999999982
 31
0.0
  0
LINE
  5
DF
330
2
100
AcDbEntity
  8
PV
 62
     7
100
AcDbLine
 10
480.9709999999999
 20
-62.19999999999981
 30
0.0
 11
485.5
 21
-218.0
 31
0.0
  0
LINE
  5
E0
330
2
100
AcDbEntity
  8
PV
 62
     7
100
AcDbLine
 10
514.0
 20
-210.0
 30
0.0
 11
519.5
 21
-203.0
 31
0.0
  0
LINE
  5
E1
330
2
100
AcDbEntity
  8
PV
 62
     7
100
AcDbLine
 10
534.4999999999999
 20
-203.0
 30
0.0
 11
519.5
 21
-203.0
 31
0.0
  0
LINE
  5
E2
330
2
100
AcDbEntity
  8
PV
 62
     7
100
AcDbLine
 10
514.0
 20
-79.19999999999982
 30
0.0
 11
519.5
 21
-86.19999999999981
 31
0.0
  0
LINE
  5
E3
330
2
100
AcDbEntity
  8
PV
 62
     7
100
AcDbLine
 10
519.5
 20
-86.19999999999981
 30
0.0
 11
534.4999999999999
 21
-86.19999999999981
 31
0.0
  0
CIRCLE
  5
E4
330
2
100
AcDbEntity
  8
PV
 62
     7
100
AcDbCircle
 10
338.0
 20
200.0000000000002
 30
0.0
 40
42.0
  0
ARC
  5
E5
330
2
100
AcDbEntity
  8
PV
 62
     7
100
AcDbCircle
 10
338.0
 20
200.0000000000002
 30
0.0
 40
55.0
100
AcDbArc
 50
204.1479999999999
 51
335.8519999999999
  0
ARC
  5
E6
330
2
100
AcDbEntity
  8
PV
 62
     7
100
AcDbCircle
 10
338.0
 20
200.0000000000002
 30
0.0
 40
55.0
100
AcDbArc
 50
24.1477
 51
155.852
  0
LINE
  5
E7
330
2
100
AcDbEntity
  8
PV
  6
CENTER
 62
     1
100
AcDbLine
 10
276.0
 20
0.0
 30
0.0
 11
400.0
 21
0.0
 31
0.0
  0
LINE
  5
E8
330
2
100
AcDbEntity
  8
PV
 62
     7
100
AcDbLine
 10
296.0
 20
32.00000000000022
 30
0.0
 11
380.0
 21
32.00000000000022
 31
0.0
  0
LINE
  5
E9
330
2
100
AcDbEntity
  8
PV
 62
     7
100
AcDbLine
 10
395.0
 20
-22.19999999999981
 30
0.0
 11
281.0
 21
-22.19999999999981
 31
0.0
  0
LINE
  5
EA
330
2
100
AcDbEntity
  8
PV
  6
CENTER
 62
     1
100
AcDbLine
 10
338.0
 20
260.0000000000002
 30
0.0
 11
338.0
 21
140.0000000000002
 31
0.0
  0
LINE
  5
EB
330
2
100
AcDbEntity
  8
0
100
AcDbLine
 10
281.0
 20
-16.95402906968138
 30
0.0
 11
255.5
 21
-16.95402906968138
 31
0.0
  0
LINE
  5
EC
330
2
100
AcDbEntity
  8
0
100
AcDbLine
 10
281.0
 20
16.9540290696807
 30
0.0
 11
255.5
 21
16.9540290696807
 31
0.0
  0
LINE
  5
ED
330
2
100
AcDbEntity
  8
L-ZISSEN
100
AcDbLine
 10
227.4999999999999
 20
22.00000000000022
 30
0.0
 11
227.4999999999999
 21
60.00000000000023
 31
0.0
  0
CIRCLE
  5
EE
330
2
100
AcDbEntity
  8
L-ZISSEN
100
AcDbCircle
 10
229.4999999999999
 20
0.0
 30
0.0
 40
12.5
  0
LINE
  5
EF
330
2
100
AcDbEntity
  8
L-ZISSEN
100
AcDbLine
 10
200.0185129999999
 20
1.301582999999482
 30
0.0
 11
233.4999999999999
 21
30.00000000000023
 31
0.0
  0
SOLID
  5
F0
330
2
100
AcDbEntity
  8
L-ZISSEN
100
AcDbTrace
 10
199.8015829999999
 20
1.554667999999765
 30
0.0
 11
200.2354439999999
 21
1.04849699999977
 31
0.0
 12
198.5
 22
0.0
 32
0.0
 13
198.5
 23
0.0
 33
0.0
  0
LINE
  5
F1
330
2
100
AcDbEntity
  8
L-ZISSEN
100
AcDbLine
 10
255.5
 20
22.00000000000022
 30
0.0
 11
255.5
 21
-22.0
 31
0.0
  0
LINE
  5
F2
330
2
100
AcDbEntity
  8
L-TYUSIN
100
AcDbLine
 10
229.4999999999999
 20
19.00000000000022
 30
0.0
 11
229.4999999999999
 21
-19.0
 31
0.0
  0
LINE
  5
F3
330
2
100
AcDbEntity
  8
L-ZISSEN
100
AcDbLine
 10
232.0
 20
-31.0
 30
0.0
 11
221.7379
 21
-31.0
 31
0.0
  0
LINE
  5
F4
330
2
100
AcDbEntity
  8
L-ZISSEN
100
AcDbLine
 10
229.4999999999999
 20
-32.0
 30
0.0
 11
221.7379
 21
-32.0
 31
0.0
  0
LINE
  5
F5
330
2
100
AcDbEntity
  8
L-ZISSEN
100
AcDbLine
 10
221.7379
 20
-32.0
 30
0.0
 11
221.7379
 21
-22.0
 31
0.0
  0
LINE
  5
F6
330
2
100
AcDbEntity
  8
L-ZISSEN
100
AcDbLine
 10
232.0
 20
-31.0
 30
0.0
 11
232.0
 21
-22.0
 31
0.0
  0
LINE
  5
F7
330
2
100
AcDbEntity
  8
L-ZISSEN
100
AcDbLine
 10
229.4999999999999
 20
-32.0
 30
0.0
 11
229.4999999999999
 21
-31.0
 31
0.0
  0
CIRCLE
  5
F8
330
2
100
AcDbEntity
  8
L-ZISSEN
100
AcDbCircle
 10
229.4999999999999
 20
0.0
 30
0.0
 40
5.7225
  0
TEXT
  5
F9
330
2
100
AcDbEntity
  8
L-ZISSEN
100
AcDbText
 10
237.5
 20
27.55470521818483
 30
0.0
 40
4.5
  1
P.P
 50
180.0
 71
     6
100
AcDbText
  0
LINE
  5
FA
330
2
100
AcDbEntity
  8
L-ZISSEN
100
AcDbLine
 10
233.4999999999999
 20
30.00000000000023
 30
0.0
 11
235.4999999999999
 21
30.00000000000023
 31
0.0
  0
LINE
  5
FB
330
2
100
AcDbEntity
  8
PV
 62
     7
100
AcDbLine
 10
307.2769999999999
 20
35.63999999999964
 30
0.0
 11
336.777
 21
35.63999999999964
 31
0.0
  0
LINE
  5
FC
330
2
100
AcDbEntity
  8
PV
 62
     7
100
AcDbLine
 10
281.0
 20
22.79999999999995
 30
0.0
 11
281.0
 21
-22.5
 31
0.0
  0
LINE
  5
FD
330
2
100
AcDbEntity
  8
PV
 62
     7
100
AcDbLine
 10
302.5349999999999
 20
22.79999999999995
 30
0.0
 11
302.5349999999999
 21
-22.19999999999981
 31
0.0
  0
LINE
  5
FE
330
2
100
AcDbEntity
  8
PV
 62
     7
100
AcDbLine
 10
302.5349999999999
 20
22.79999999999995
 30
0.0
 11
281.0
 21
22.79999999999995
 31
0.0
  0
LINE
  5
FF
330
2
100
AcDbEntity
  8
PV
 62
     7
100
AcDbLine
 10
296.0
 20
32.00000000000022
 30
0.0
 11
296.0
 21
22.79999999999995
 31
0.0
  0
LINE
  5
100
330
2
100
AcDbEntity
  8
PV
 62
     7
100
AcDbLine
 10
307.2769999999999
 20
32.00000000000022
 30
0.0
 11
307.2769999999999
 21
35.63999999999964
 31
0.0
  0
LINE
  5
101
330
2
100
AcDbEntity
  8
PV
 62
     7
100
AcDbLine
 10
348.2499999999999
 20
48.00000000000022
 30
0.0
 11
331.7389999999999
 21
48.00000000000022
 31
0.0
  0
LINE
  5
102
330
2
100
AcDbEntity
  8
PV
 62
     7
100
AcDbLine
 10
331.5199999999999
 20
49.70000000000005
 30
0.0
 11
312.48
 21
49.70000000000005
 31
0.0
  0
LINE
  5
103
330
2
100
AcDbEntity
  8
PV
 62
     7
100
AcDbLine
 10
328.35
 20
54.00000000000023
 30
0.0
 11
315.6499999999999
 21
54.00000000000023
 31
0.0
  0
LINE
  5
104
330
2
100
AcDbEntity
  8
PV
 62
     7
100
AcDbLine
 10
328.6399999999999
 20
51.51499999999964
 30
0.0
 11
315.3589999999999
 21
51.51499999999964
 31
0.0
  0
LINE
  5
105
330
2
100
AcDbEntity
  8
PV
 62
     7
100
AcDbLine
 10
319.3999999999999
 20
35.63999999999964
 30
0.0
 11
321.3999999999999
 21
35.63999999999964
 31
0.0
  0
ARC
  5
106
330
2
100
AcDbEntity
  8
PV
 62
     7
100
AcDbCircle
 10
314.55
 20
52.10200000000009
 30
0.0
 40
1.0
100
AcDbArc
 50
299.1619999999999
 51
0.0
  0
LINE
  5
107
330
2
100
AcDbEntity
  8
PV
 62
     7
100
AcDbLine
 10
315.0
 20
51.20799999999985
 30
0.0
 11
312.797
 21
49.97900000000004
 31
0.0
  0
LINE
  5
108
330
2
100
AcDbEntity
  8
PV
 62
     7
100
AcDbLine
 10
315.0
 20
51.20799999999985
 30
0.0
 11
312.797
 21
49.97900000000004
 31
0.0
  0
ARC
  5
109
330
2
100
AcDbEntity
  8
PV
 62
     7
100
AcDbCircle
 10
313.2839999999999
 20
49.10599999999999
 30
0.0
 40
1.0
100
AcDbArc
 50
119.162
 51
178.756
  0
ARC
  5
10A
330
2
100
AcDbEntity
  8
PV
 62
     7
100
AcDbCircle
 10
315.6499999999999
 20
53.89999999999986
 30
0.0
 40
0.1
100
AcDbArc
 50
90.0
 51
180.0
  0
LINE
  5
10B
330
2
100
AcDbEntity
  8
PV
 62
     7
100
AcDbLine
 10
315.5499999999999
 20
53.89999999999986
 30
0.0
 11
315.5499999999999
 21
52.10200000000009
 31
0.0
  0
LINE
  5
10C
330
2
100
AcDbEntity
  8
PV
 62
     7
100
AcDbLine
 10
312.285
 20
49.12699999999972
 30
0.0
 11
311.992
 21
35.63999999999964
 31
0.0
  0
LINE
  5
10D
330
2
100
AcDbEntity
  8
PV
 62
     7
100
AcDbLine
 10
328.963
 20
51.22900000000004
 30
0.0
 11
331.203
 21
49.97900000000004
 31
0.0
  0
LINE
  5
10E
330
2
100
AcDbEntity
  8
PV
 62
     7
100
AcDbLine
 10
328.963
 20
51.22900000000004
 30
0.0
 11
331.201
 21
49.97999999999979
 31
0.0
  0
ARC
  5
10F
330
2
100
AcDbEntity
  8
PV
 62
     7
100
AcDbCircle
 10
328.35
 20
53.89999999999986
 30
0.0
 40
0.1
100
AcDbArc
 50
0.0
 51
90.0
  0
LINE
  5
110
330
2
100
AcDbEntity
  8
PV
 62
     7
100
AcDbLine
 10
328.4499999999999
 20
53.89999999999986
 30
0.0
 11
328.4499999999999
 21
52.10200000000009
 31
0.0
  0
ARC
  5
111
330
2
100
AcDbEntity
  8
PV
 62
     7
100
AcDbCircle
 10
329.4499999999999
 20
52.10200000000009
 30
0.0
 40
1.0
100
AcDbArc
 50
180.0
 51
240.838
  0
ARC
  5
112
330
2
100
AcDbEntity
  8
PV
 62
     7
100
AcDbCircle
 10
330.715
 20
49.10599999999999
 30
0.0
 40
1.0
100
AcDbArc
 50
1.244079999999999
 51
60.8384
  0
LINE
  5
113
330
2
100
AcDbEntity
  8
PV
 62
     7
100
AcDbLine
 10
331.7149999999999
 20
49.12699999999972
 30
0.0
 11
332.0079999999999
 21
35.63999999999964
 31
0.0
  0
LINE
  5
114
330
2
100
AcDbEntity
  8
PV
 62
     7
100
AcDbLine
 10
336.777
 20
32.00000000000022
 30
0.0
 11
336.777
 21
35.63999999999964
 31
0.0
  0
LINE
  5
115
330
2
100
AcDbEntity
  8
PV
 62
     7
100
AcDbLine
 10
348.2499999999999
 20
48.00000000000022
 30
0.0
 11
348.2499999999999
 21
32.00000000000022
 31
0.0
  0
LINE
  5
116
330
2
100
AcDbEntity
  8
0
100
AcDbLine
 10
281.0
 20
183.0459709303188
 30
0.0
 11
255.5
 21
183.0459709303188
 31
0.0
  0
LINE
  5
117
330
2
100
AcDbEntity
  8
0
100
AcDbLine
 10
281.0
 20
216.9540290696809
 30
0.0
 11
255.5
 21
216.9540290696809
 31
0.0
  0
TEXT
  5
118
330
2
100
AcDbEntity
  8
PV
 62
     7
100
AcDbText
 10
211.4
 20
187.7500000000002
 30
0.0
 40
4.5
  1
P.P
  7
FONT1
100
AcDbText
  0
LINE
  5
119
330
2
100
AcDbEntity
  8
L-ZISSEN
100
AcDbLine
 10
242.0
 20
228.5000000000002
 30
0.0
 11
217.0
 21
228.5000000000002
 31
0.0
  0
LINE
  5
11A
330
2
100
AcDbEntity
  8
L-ZISSEN
100
AcDbLine
 10
242.0
 20
171.5000000000002
 30
0.0
 11
217.0
 21
171.5000000000002
 31
0.0
  0
LINE
  5
11B
330
2
100
AcDbEntity
  8
L-ZISSEN
100
AcDbLine
 10
218.8960779999999
 20
178.0000000000002
 30
0.0
 11
255.5
 21
178.0000000000002
 31
0.0
  0
LINE
  5
11C
330
2
100
AcDbEntity
  8
L-ZISSEN
100
AcDbLine
 10
255.5
 20
222.0000000000002
 30
0.0
 11
218.8960779999999
 21
222.0000000000002
 31
0.0
  0
POLYLINE
  5
11D
330
2
100
AcDbEntity
  8
PV
 62
     7
100
AcDb2dPolyline
 66
     1
 10
0.0
 20
0.0
 30
0.0
  0
VERTEX
  5
655
330
11D
100
AcDbEntity
  8
PV
 62
     7
100
AcDbVertex
100
AcDb2dVertex
 10
199.5900000000001
 20
198.2900000000001
 30
0.0
  0
VERTEX
  5
656
330
11D
100
AcDbEntity
  8
PV
 62
     7
100
AcDbVertex
100
AcDb2dVertex
 10
200.0860000000001
 20
198.7360000000003
 30
0.0
  0
VERTEX
  5
657
330
11D
100
AcDbEntity
  8
PV
 62
     7
100
AcDbVertex
100
AcDb2dVertex
 10
198.5000000000001
 20
200.0000000000002
 30
0.0
  0
VERTEX
  5
658
330
11D
100
AcDbEntity
  8
PV
 62
     7
100
AcDbVertex
100
AcDb2dVertex
 10
199.5900000000001
 20
198.2900000000001
 30
0.0
  0
SEQEND
  5
659
330
11D
100
AcDbEntity
  8
PV
 62
     7
  0
LINE
  5
11E
330
2
100
AcDbEntity
  8
L-TYUSIN
100
AcDbLine
 10
198.5
 20
235.0000000000002
 30
0.0
 11
198.5
 21
165.0000000000002
 31
0.0
  0
ARC
  5
11F
330
2
100
AcDbEntity
  8
L-ZISSEN
100
AcDbCircle
 10
198.5
 20
200.0000000000002
 30
0.0
 40
30.0
100
AcDbArc
 50
227.1665720000003
 51
312.8334279999996
  0
LINE
  5
120
330
2
100
AcDbEntity
  8
L-ZISSEN
100
AcDbLine
 10
217.0
 20
171.5000000000002
 30
0.0
 11
217.0
 21
176.3832690000001
 31
0.0
  0
LINE
  5
121
330
2
100
AcDbEntity
  8
PV
 62
     7
100
AcDbLine
 10
207.5000000000001
 20
190.0000000000002
 30
0.0
 11
209.5000000000001
 21
190.0000000000002
 31
0.0
  0
LINE
  5
122
330
2
100
AcDbEntity
  8
PV
 62
     7
100
AcDbLine
 10
199.8380000000001
 20
198.5130000000001
 30
0.0
 11
207.5000000000001
 21
190.0000000000002
 31
0.0
  0
ARC
  5
123
330
2
100
AcDbEntity
  8
L-ZISSEN
100
AcDbCircle
 10
198.5
 20
200.0000000000002
 30
0.0
 40
30.0
100
AcDbArc
 50
47.16657200000037
 51
132.8334279999996
  0
LINE
  5
124
330
2
100
AcDbEntity
  8
L-ZISSEN
100
AcDbLine
 10
217.0
 20
228.5000000000002
 30
0.0
 11
217.0
 21
223.6167310000003
 31
0.0
  0
LINE
  5
125
330
2
100
AcDbEntity
  8
L-ZISSEN
100
AcDbLine
 10
255.5
 20
178.0000000000002
 30
0.0
 11
255.5
 21
222.0000000000002
 31
0.0
  0
LINE
  5
126
330
2
100
AcDbEntity
  8
L-TYUSIN
100
AcDbLine
 10
229.4999999999999
 20
166.5000000000002
 30
0.0
 11
229.4999999999999
 21
233.5000000000002
 31
0.0
  0
LINE
  5
127
330
2
100
AcDbEntity
  8
L-ZISSEN
100
AcDbLine
 10
242.0
 20
178.0000000000002
 30
0.0
 11
242.0
 21
171.5000000000002
 31
0.0
  0
LINE
  5
128
330
2
100
AcDbEntity
  8
L-ZISSEN
100
AcDbLine
 10
242.0
 20
222.0000000000002
 30
0.0
 11
242.0
 21
228.5000000000002
 31
0.0
  0
CIRCLE
  5
129
330
2
100
AcDbEntity
  8
PV
 62
     7
100
AcDbCircle
 10
322.0
 20
180.0000000000002
 30
0.0
 40
14.75
  0
LINE
  5
12A
330
2
100
AcDbEntity
  8
PV
 62
     7
100
AcDbLine
 10
281.0
 20
222.5000000000002
 30
0.0
 11
281.0
 21
177.5000000000002
 31
0.0
  0
LINE
  5
12B
330
2
100
AcDbEntity
  8
PV
 62
     7
100
AcDbLine
 10
281.0
 20
177.5000000000002
 30
0.0
 11
302.5349999999999
 21
177.5000000000002
 31
0.0
  0
LINE
  5
12C
330
2
100
AcDbEntity
  8
PV
 62
     7
100
AcDbLine
 10
281.0
 20
222.5000000000002
 30
0.0
 11
302.5349999999999
 21
222.5000000000002
 31
0.0
  0
CIRCLE
  5
12D
330
2
100
AcDbEntity
  8
PV
 62
     7
100
AcDbCircle
 10
322.0
 20
180.0000000000002
 30
0.0
 40
10.00799999999999
  0
CIRCLE
  5
12E
330
2
100
AcDbEntity
  8
PV
 62
     7
100
AcDbCircle
 10
322.0
 20
180.0000000000002
 30
0.0
 40
3.9624
  0
CIRCLE
  5
12F
330
2
100
AcDbEntity
  8
PV
 62
     7
100
AcDbCircle
 10
338.0
 20
228.0000000000002
 30
0.0
 40
10.25
  0
LINE
  5
130
330
2
100
AcDbEntity
  8
PV
 62
     7
100
AcDbLine
 10
373.4649999999999
 20
22.79999999999995
 30
0.0
 11
373.4649999999999
 21
-22.19999999999981
 31
0.0
  0
LINE
  5
131
330
2
100
AcDbEntity
  8
PV
 62
     7
100
AcDbLine
 10
395.0
 20
22.79999999999995
 30
0.0
 11
395.0
 21
-22.5
 31
0.0
  0
LINE
  5
132
330
2
100
AcDbEntity
  8
PV
 62
     7
100
AcDbLine
 10
373.4649999999999
 20
22.79999999999995
 30
0.0
 11
395.0
 21
22.79999999999995
 31
0.0
  0
LINE
  5
133
330
2
100
AcDbEntity
  8
PV
 62
     7
100
AcDbLine
 10
380.0
 20
32.00000000000022
 30
0.0
 11
380.0
 21
22.79999999999995
 31
0.0
  0
LINE
  5
134
330
2
100
AcDbEntity
  8
L-ZISSEN
100
AcDbLine
 10
498.0
 20
50.0922487517023
 30
0.0
 11
498.0
 21
60.0
 31
0.0
  0
LINE
  5
135
330
2
100
AcDbEntity
  8
PV
 62
     7
100
AcDbLine
 10
485.0
 20
32.0
 30
0.0
 11
485.0
 21
-22.19999999999981
 31
0.0
  0
LINE
  5
136
330
2
100
AcDbEntity
  8
PV
 62
     7
100
AcDbLine
 10
504.4999999999999
 20
22.79999999999995
 30
0.0
 11
504.4999999999999
 21
-22.19999999999981
 31
0.0
  0
LINE
  5
137
330
2
100
AcDbEntity
  8
PV
 62
     7
100
AcDbLine
 10
513.9629999999999
 20
51.22900000000004
 30
0.0
 11
516.2029999999999
 21
49.97900000000004
 31
0.0
  0
LINE
  5
138
330
2
100
AcDbEntity
  8
PV
 62
     7
100
AcDbLine
 10
513.9629999999999
 20
51.22900000000004
 30
0.0
 11
516.201
 21
49.98000000000001
 31
0.0
  0
LINE
  5
139
330
2
100
AcDbEntity
  8
PV
 62
     7
100
AcDbLine
 10
516.5199999999999
 20
49.70000000000005
 30
0.0
 11
497.48
 21
49.70000000000005
 31
0.0
  0
LINE
  5
13A
330
2
100
AcDbEntity
  8
PV
 62
     7
100
AcDbLine
 10
492.277
 20
35.63999999999987
 30
0.0
 11
521.777
 21
35.63999999999987
 31
0.0
  0
LINE
  5
13B
330
2
100
AcDbEntity
  8
PV
 62
     7
100
AcDbLine
 10
513.3499999999998
 20
54.0
 30
0.0
 11
500.65
 21
54.0
 31
0.0
  0
LINE
  5
13C
330
2
100
AcDbEntity
  8
PV
 62
     7
100
AcDbLine
 10
513.6399999999999
 20
51.51499999999987
 30
0.0
 11
500.3589999999999
 21
51.51499999999987
 31
0.0
  0
LINE
  5
13D
330
2
100
AcDbEntity
  8
PV
 62
     7
100
AcDbLine
 10
500.0
 20
51.20800000000008
 30
0.0
 11
497.797
 21
49.97900000000004
 31
0.0
  0
LINE
  5
13E
330
2
100
AcDbEntity
  8
PV
 62
     7
100
AcDbLine
 10
500.0
 20
51.20800000000008
 30
0.0
 11
497.797
 21
49.97900000000004
 31
0.0
  0
ARC
  5
13F
330
2
100
AcDbEntity
  8
PV
 62
     7
100
AcDbCircle
 10
498.2840000000001
 20
49.10599999999999
 30
0.0
 40
1.0
100
AcDbArc
 50
119.162
 51
178.756
  0
ARC
  5
140
330
2
100
AcDbEntity
  8
PV
 62
     7
100
AcDbCircle
 10
499.5499999999999
 20
52.10199999999986
 30
0.0
 40
1.0
100
AcDbArc
 50
299.1619999999999
 51
0.0
  0
ARC
  5
141
330
2
100
AcDbEntity
  8
PV
 62
     7
100
AcDbCircle
 10
500.65
 20
53.90000000000009
 30
0.0
 40
0.1
100
AcDbArc
 50
90.0
 51
180.0
  0
LINE
  5
142
330
2
100
AcDbEntity
  8
PV
 62
     7
100
AcDbLine
 10
500.5499999999999
 20
53.90000000000009
 30
0.0
 11
500.5499999999999
 21
52.10199999999986
 31
0.0
  0
LINE
  5
143
330
2
100
AcDbEntity
  8
PV
 62
     7
100
AcDbLine
 10
492.277
 20
32.0
 30
0.0
 11
492.277
 21
35.63999999999987
 31
0.0
  0
LINE
  5
144
330
2
100
AcDbEntity
  8
PV
 62
     7
100
AcDbLine
 10
497.2850000000001
 20
49.12699999999995
 30
0.0
 11
496.992
 21
35.63999999999987
 31
0.0
  0
ARC
  5
145
330
2
100
AcDbEntity
  8
PV
 62
     7
100
AcDbCircle
 10
513.3499999999998
 20
53.90000000000009
 30
0.0
 40
0.1
100
AcDbArc
 50
0.0
 51
90.0
  0
LINE
  5
146
330
2
100
AcDbEntity
  8
PV
 62
     7
100
AcDbLine
 10
513.45
 20
53.90000000000009
 30
0.0
 11
513.45
 21
52.10199999999986
 31
0.0
  0
ARC
  5
147
330
2
100
AcDbEntity
  8
PV
 62
     7
100
AcDbCircle
 10
514.45
 20
52.10199999999986
 30
0.0
 40
1.0
100
AcDbArc
 50
180.0
 51
240.838
  0
LINE
  5
148
330
2
100
AcDbEntity
  8
PV
 62
     7
100
AcDbLine
 10
504.4000000000001
 20
35.63999999999987
 30
0.0
 11
506.4
 21
35.63999999999987
 31
0.0
  0
ARC
  5
149
330
2
100
AcDbEntity
  8
PV
 62
     7
100
AcDbCircle
 10
515.7149999999999
 20
49.10599999999999
 30
0.0
 40
1.0
100
AcDbArc
 50
1.244079999999999
 51
60.8384
  0
LINE
  5
14A
330
2
100
AcDbEntity
  8
PV
 62
     7
100
AcDbLine
 10
521.777
 20
32.0
 30
0.0
 11
521.777
 21
35.63999999999987
 31
0.0
  0
LINE
  5
14B
330
2
100
AcDbEntity
  8
PV
 62
     7
100
AcDbLine
 10
516.7149999999999
 20
49.12699999999995
 30
0.0
 11
517.008
 21
35.63999999999987
 31
0.0
  0
LINE
  5
14C
330
2
100
AcDbEntity
  8
PV
 62
     7
100
AcDbLine
 10
395.0
 20
222.5000000000002
 30
0.0
 11
395.0
 21
177.5000000000002
 31
0.0
  0
LINE
  5
14D
330
2
100
AcDbEntity
  8
PV
 62
     7
100
AcDbLine
 10
395.0
 20
177.5000000000002
 30
0.0
 11
373.4649999999999
 21
177.5000000000002
 31
0.0
  0
LINE
  5
14E
330
2
100
AcDbEntity
  8
PV
 62
     7
100
AcDbLine
 10
395.0
 20
222.5000000000002
 30
0.0
 11
373.4649999999999
 21
222.5000000000002
 31
0.0
  0
LINE
  5
14F
330
2
100
AcDbEntity
  8
PV
  6
CENTER
 62
     1
100
AcDbLine
 10
-5.0
 20
850.0000000000001
 30
0.0
 11
396.0
 21
850.0000000000005
 31
0.0
  0
ARC
  5
150
330
2
100
AcDbEntity
  8
L-ZISSEN
100
AcDbCircle
 10
195.5
 20
850.0000000000001
 30
0.0
 40
30.0
100
AcDbArc
 50
227.1665720000003
 51
312.8334279999996
  0
ARC
  5
151
330
2
100
AcDbEntity
  8
L-ZISSEN
100
AcDbCircle
 10
195.5
 20
850.0000000000001
 30
0.0
 40
30.0
100
AcDbArc
 50
47.16657200000037
 51
132.8334279999996
  0
CIRCLE
  5
152
330
2
100
AcDbEntity
  8
0
100
AcDbCircle
 10
195.5
 20
850.0000000000001
 30
0.0
 40
29.0
  0
LINE
  5
153
330
2
100
AcDbEntity
  8
L-ZISSEN
100
AcDbLine
 10
224.5
 20
700.0000000000002
 30
0.0
 11
166.5
 21
700.0000000000002
 31
0.0
  0
LINE
  5
154
330
2
100
AcDbEntity
  8
L-ZISSEN
100
AcDbLine
 10
224.5
 20
710.0000000000002
 30
0.0
 11
166.5
 21
710.0000000000002
 31
0.0
  0
LINE
  5
155
330
2
100
AcDbEntity
  8
L-ZISSEN
100
AcDbLine
 10
167.0
 20
604.0000000000002
 30
0.0
 11
224.0
 21
604.0000000000002
 31
0.0
  0
LINE
  5
156
330
2
100
AcDbEntity
  8
L-ZISSEN
100
AcDbLine
 10
223.0
 20
562.0000000000002
 30
0.0
 11
168.0
 21
562.0000000000002
 31
0.0
  0
LINE
  5
157
330
2
100
AcDbEntity
  8
L-ZISSEN
100
AcDbLine
 10
252.4999999999999
 20
628.0000000000002
 30
0.0
 11
144.5
 21
628.0000000000002
 31
0.0
  0
LINE
  5
158
330
2
100
AcDbEntity
  8
L-TYUSIN
100
AcDbLine
 10
139.5
 20
650.0000000000002
 30
0.0
 11
257.5
 21
650.0000000000002
 31
0.0
  0
LINE
  5
159
330
2
100
AcDbEntity
  8
L-ZISSEN
100
AcDbLine
 10
144.5
 20
672.0000000000002
 30
0.0
 11
252.4999999999999
 21
672.0000000000002
 31
0.0
  0
LINE
  5
15A
330
2
100
AcDbEntity
  8
L-ZISSEN
100
AcDbLine
 10
223.0
 20
530.0000000000002
 30
0.0
 11
168.0
 21
530.0000000000002
 31
0.0
  0
LINE
  5
15B
330
2
100
AcDbEntity
  8
PV
 62
     7
100
AcDbLine
 10
-1.626999999999952
 20
648.8380000000002
 30
0.0
 11
-14.0
 21
640.0000000000002
 31
0.0
  0
LINE
  5
15C
330
2
100
AcDbEntity
  8
PV
  6
CENTER
 62
     1
100
AcDbLine
 10
-5.0
 20
650.0000000000002
 30
0.0
 11
126.0
 21
650.0000000000002
 31
0.0
  0
TEXT
  5
15D
330
2
100
AcDbEntity
  8
PV
 62
     7
100
AcDbText
 10
-39.10000000000002
 20
630.0000000000002
 30
0.0
 40
4.5
  1
Rc 3/4
  7
FONT1
100
AcDbText
  0
LINE
  5
15E
330
2
100
AcDbEntity
  8
PV
 62
     7
100
AcDbLine
 10
-14.0
 20
640.0000000000002
 30
0.0
 11
-16.0
 21
640.0000000000002
 31
0.0
  0
TEXT
  5
15F
330
2
100
AcDbEntity
  8
PV
 62
     7
100
AcDbText
 10
-24.10000000000002
 20
637.7500000000002
 30
0.0
 40
4.5
  1
IN
 41
0.8333332999999999
  7
FONT1
100
AcDbText
  0
LINE
  5
160
330
2
100
AcDbEntity
  8
L-ZISSEN
100
AcDbLine
 10
168.0
 20
530.0000000000002
 30
0.0
 11
168.0
 21
562.0000000000002
 31
0.0
  0
LINE
  5
161
330
2
100
AcDbEntity
  8
PV
 62
     7
100
AcDbLine
 10
4.5
 20
447.0000000000002
 30
0.0
 11
4.5
 21
563.8000000000001
 31
0.0
  0
LINE
  5
162
330
2
100
AcDbEntity
  8
PV
 62
     7
100
AcDbLine
 10
14.5
 20
432.0000000000002
 30
0.0
 11
14.5
 21
578.8000000000002
 31
0.0
  0
LINE
  5
163
330
2
100
AcDbEntity
  8
PV
 62
     7
100
AcDbLine
 10
20.971
 20
587.8000000000001
 30
0.0
 11
25.5
 21
432.0000000000002
 31
0.0
  0
LINE
  5
164
330
2
100
AcDbEntity
  8
PV
 62
     7
100
AcDbLine
 10
113.029
 20
587.8000000000001
 30
0.0
 11
108.4999999999999
 21
432.0000000000002
 31
0.0
  0
LINE
  5
165
330
2
100
AcDbEntity
  8
PV
  6
CENTER
 62
     1
100
AcDbLine
 10
67.0
 20
687.0000000000002
 30
0.0
 11
67.0
 21
389.0000000000002
 31
0.0
  0
TEXT
  5
166
330
2
100
AcDbEntity
  8
PV
 62
     7
100
AcDbText
 10
84.89999999999998
 20
387.7500000000002
 30
0.0
 40
4.5
  1
P.P
 41
0.7780000000000001
  7
FONT1
100
AcDbText
  0
ARC
  5
167
330
2
100
AcDbEntity
  8
PV
 62
     7
100
AcDbCircle
 10
82.5
 20
432.0000000000002
 30
0.0
 40
26.0
100
AcDbArc
 50
270.0
 51
0.0
  0
LINE
  5
168
330
2
100
AcDbEntity
  8
PV
 62
     7
100
AcDbLine
 10
10.5
 20
432.0000000000002
 30
0.0
 11
10.5
 21
447.0000000000002
 31
0.0
  0
ARC
  5
169
330
2
100
AcDbEntity
  8
PV
 62
     7
100
AcDbCircle
 10
51.5
 20
432.0000000000002
 30
0.0
 40
26.0
100
AcDbArc
 50
180.0
 51
270.0
  0
LINE
  5
16A
330
2
100
AcDbEntity
  8
PV
 62
     7
100
AcDbLine
 10
10.5
 20
432.0000000000002
 30
0.0
 11
25.5
 21
432.0000000000002
 31
0.0
  0
LINE
  5
16B
330
2
100
AcDbEntity
  8
PV
 62
     7
100
AcDbLine
 10
68.41399999999999
 20
402.5858000000003
 30
0.0
 11
81.0
 21
390.0000000000002
 31
0.0
  0
LINE
  5
16C
330
2
100
AcDbEntity
  8
PV
 62
     7
100
AcDbLine
 10
81.0
 20
390.0000000000002
 30
0.0
 11
83.0
 21
390.0000000000002
 31
0.0
  0
LINE
  5
16D
330
2
100
AcDbEntity
  8
PV
 62
     7
100
AcDbLine
 10
77.25
 20
401.0000000000002
 30
0.0
 11
56.75
 21
401.0000000000002
 31
0.0
  0
LINE
  5
16E
330
2
100
AcDbEntity
  8
PV
 62
     7
100
AcDbLine
 10
74.25
 20
394.0000000000002
 30
0.0
 11
59.75
 21
394.0000000000002
 31
0.0
  0
LINE
  5
16F
330
2
100
AcDbEntity
  8
PV
 62
     7
100
AcDbLine
 10
51.5
 20
406.0000000000002
 30
0.0
 11
82.5
 21
406.0000000000002
 31
0.0
  0
LINE
  5
170
330
2
100
AcDbEntity
  8
PV
 62
     7
100
AcDbLine
 10
54.0
 20
404.0000000000002
 30
0.0
 11
80.0
 21
404.0000000000002
 31
0.0
  0
LINE
  5
171
330
2
100
AcDbEntity
  8
PV
 62
     7
100
AcDbLine
 10
56.75
 20
401.0000000000002
 30
0.0
 11
56.75
 21
404.0000000000002
 31
0.0
  0
LINE
  5
172
330
2
100
AcDbEntity
  8
PV
 62
     7
100
AcDbLine
 10
59.75
 20
394.0000000000002
 30
0.0
 11
59.75
 21
401.0000000000002
 31
0.0
  0
LINE
  5
173
330
2
100
AcDbEntity
  8
PV
 62
     7
100
AcDbLine
 10
54.0
 20
404.0000000000002
 30
0.0
 11
54.0
 21
406.0000000000002
 31
0.0
  0
POLYLINE
  5
174
330
2
100
AcDbEntity
  8
PV
 62
     7
100
AcDb2dPolyline
 66
     1
 10
0.0
 20
0.0
 30
0.0
  0
VERTEX
  5
65A
330
174
100
AcDbEntity
  8
PV
 62
     7
100
AcDbVertex
100
AcDb2dVertex
 10
68.17899999999998
 20
402.3501000000001
 30
0.0
  0
VERTEX
  5
65B
330
174
100
AcDbEntity
  8
PV
 62
     7
100
AcDbVertex
100
AcDb2dVertex
 10
68.64999999999998
 20
402.8215000000002
 30
0.0
  0
VERTEX
  5
65C
330
174
100
AcDbEntity
  8
PV
 62
     7
100
AcDbVertex
100
AcDb2dVertex
 10
67.0
 20
404.0000000000002
 30
0.0
  0
VERTEX
  5
65D
330
174
100
AcDbEntity
  8
PV
 62
     7
100
AcDbVertex
100
AcDb2dVertex
 10
68.17899999999998
 20
402.3501000000001
 30
0.0
  0
SEQEND
  5
65E
330
174
100
AcDbEntity
  8
PV
 62
     7
  0
LINE
  5
175
330
2
100
AcDbEntity
  8
PV
 62
     7
100
AcDbLine
 10
74.25
 20
394.0000000000002
 30
0.0
 11
74.25
 21
401.0000000000002
 31
0.0
  0
LINE
  5
176
330
2
100
AcDbEntity
  8
PV
 62
     7
100
AcDbLine
 10
80.0
 20
404.0000000000002
 30
0.0
 11
80.0
 21
406.0000000000002
 31
0.0
  0
LINE
  5
177
330
2
100
AcDbEntity
  8
PV
 62
     7
100
AcDbLine
 10
77.25
 20
401.0000000000002
 30
0.0
 11
77.25
 21
404.0000000000002
 31
0.0
  0
LINE
  5
178
330
2
100
AcDbEntity
  8
PV
 62
     7
100
AcDbLine
 10
4.5
 20
447.0000000000002
 30
0.0
 11
14.5
 21
447.0000000000002
 31
0.0
  0
LINE
  5
179
330
2
100
AcDbEntity
  8
PV
 62
     7
100
AcDbLine
 10
25.0
 20
682.0000000000002
 30
0.0
 11
109.0
 21
682.0000000000002
 31
0.0
  0
LINE
  5
17A
330
2
100
AcDbEntity
  8
PV
 62
     7
100
AcDbLine
 10
12.0
 20
587.8000000000001
 30
0.0
 11
122.0
 21
587.8000000000001
 31
0.0
  0
LINE
  5
17B
330
2
100
AcDbEntity
  8
PV
 62
     7
100
AcDbLine
 10
122.0
 20
627.8000000000002
 30
0.0
 11
0.0
 21
627.8000000000002
 31
0.0
  0
LINE
  5
17C
330
2
100
AcDbEntity
  8
PV
 62
     7
100
AcDbLine
 10
31.53499999999997
 20
672.8000000000001
 30
0.0
 11
31.53499999999997
 21
627.8000000000002
 31
0.0
  0
LINE
  5
17D
330
2
100
AcDbEntity
  8
PV
 62
     7
100
AcDbLine
 10
0.0
 20
672.8000000000001
 30
0.0
 11
0.0
 21
627.8000000000002
 31
0.0
  0
LINE
  5
17E
330
2
100
AcDbEntity
  8
PV
 62
     7
100
AcDbLine
 10
21.23299999999994
 20
578.8000000000002
 30
0.0
 11
10.5
 21
578.8000000000002
 31
0.0
  0
LINE
  5
17F
330
2
100
AcDbEntity
  8
PV
 62
     7
100
AcDbLine
 10
14.5
 20
563.8000000000001
 30
0.0
 11
4.5
 21
563.8000000000001
 31
0.0
  0
LINE
  5
180
330
2
100
AcDbEntity
  8
PV
 62
     7
100
AcDbLine
 10
10.5
 20
563.8000000000001
 30
0.0
 11
10.5
 21
578.8000000000002
 31
0.0
  0
LINE
  5
181
330
2
100
AcDbEntity
  8
PV
 62
     7
100
AcDbLine
 10
11.0
 20
627.8000000000002
 30
0.0
 11
11.0
 21
587.8000000000001
 31
0.0
  0
LINE
  5
182
330
2
100
AcDbEntity
  8
PV
 62
     7
100
AcDbLine
 10
25.0
 20
682.0000000000002
 30
0.0
 11
25.0
 21
672.8000000000001
 31
0.0
  0
LINE
  5
183
330
2
100
AcDbEntity
  8
PV
 62
     7
100
AcDbLine
 10
31.53499999999997
 20
672.8000000000001
 30
0.0
 11
0.0
 21
672.8000000000001
 31
0.0
  0
POLYLINE
  5
184
330
2
100
AcDbEntity
  8
PV
 62
     7
100
AcDb2dPolyline
 66
     1
 10
0.0
 20
0.0
 30
0.0
  0
VERTEX
  5
65F
330
184
100
AcDbEntity
  8
PV
 62
     7
100
AcDbVertex
100
AcDb2dVertex
 10
-1.821000000000026
 20
649.1090000000001
 30
0.0
  0
VERTEX
  5
660
330
184
100
AcDbEntity
  8
PV
 62
     7
100
AcDbVertex
100
AcDb2dVertex
 10
-1.433999999999969
 20
648.5660000000002
 30
0.0
  0
VERTEX
  5
661
330
184
100
AcDbEntity
  8
PV
 62
     7
100
AcDbVertex
100
AcDb2dVertex
 10
0.0
 20
650.0000000000002
 30
0.0
  0
VERTEX
  5
662
330
184
100
AcDbEntity
  8
PV
 62
     7
100
AcDbVertex
100
AcDb2dVertex
 10
-1.821000000000026
 20
649.1090000000001
 30
0.0
  0
SEQEND
  5
663
330
184
100
AcDbEntity
  8
PV
 62
     7
  0
LINE
  5
185
330
2
100
AcDbEntity
  8
L-ZISSEN
100
AcDbLine
 10
144.5
 20
672.0000000000002
 30
0.0
 11
144.5
 21
628.0000000000002
 31
0.0
  0
LINE
  5
186
330
2
100
AcDbEntity
  8
PV
 62
     7
100
AcDbLine
 10
102.4649999999999
 20
672.8000000000001
 30
0.0
 11
102.4649999999999
 21
627.8000000000002
 31
0.0
  0
LINE
  5
187
330
2
100
AcDbEntity
  8
PV
 62
     7
100
AcDbLine
 10
121.0
 20
672.8000000000001
 30
0.0
 11
121.0
 21
627.8000000000002
 31
0.0
  0
LINE
  5
188
330
2
100
AcDbEntity
  8
PV
 62
     7
100
AcDbLine
 10
122.0
 20
627.8000000000002
 30
0.0
 11
122.0
 21
587.8000000000001
 31
0.0
  0
LINE
  5
189
330
2
100
AcDbEntity
  8
L-ZISSEN
100
AcDbLine
 10
172.5
 20
604.0000000000002
 30
0.0
 11
173.5
 21
562.0000000000002
 31
0.0
  0
LINE
  5
18A
330
2
100
AcDbEntity
  8
L-ZISSEN
100
AcDbLine
 10
167.0
 20
604.0000000000002
 30
0.0
 11
167.0
 21
618.0000000000002
 31
0.0
  0
LINE
  5
18B
330
2
100
AcDbEntity
  8
L-ZISSEN
100
AcDbLine
 10
172.2620999999999
 20
618.0000000000002
 30
0.0
 11
164.5
 21
618.0000000000002
 31
0.0
  0
LINE
  5
18C
330
2
100
AcDbEntity
  8
L-ZISSEN
100
AcDbLine
 10
172.2620999999999
 20
619.0000000000002
 30
0.0
 11
162.0
 21
619.0000000000002
 31
0.0
  0
LINE
  5
18D
330
2
100
AcDbEntity
  8
L-ZISSEN
100
AcDbLine
 10
164.5
 20
618.0000000000002
 30
0.0
 11
164.5
 21
619.0000000000002
 31
0.0
  0
LINE
  5
18E
330
2
100
AcDbEntity
  8
L-ZISSEN
100
AcDbLine
 10
162.0
 20
619.0000000000002
 30
0.0
 11
162.0
 21
628.0000000000002
 31
0.0
  0
LINE
  5
18F
330
2
100
AcDbEntity
  8
L-ZISSEN
100
AcDbLine
 10
172.2620999999999
 20
618.0000000000002
 30
0.0
 11
172.2620999999999
 21
628.0000000000002
 31
0.0
  0
LINE
  5
190
330
2
100
AcDbEntity
  8
0
100
AcDbLine
 10
144.5
 20
636.4835477106626
 30
0.0
 11
121.0
 21
636.4835477106626
 31
0.0
  0
LINE
  5
191
330
2
100
AcDbEntity
  8
0
100
AcDbLine
 10
144.5
 20
663.5164522893383
 30
0.0
 11
121.0
 21
663.5164522893383
 31
0.0
  0
LINE
  5
192
330
2
100
AcDbEntity
  8
L-TYUSIN
  6
CENTER
 62
     1
100
AcDbLine
 10
121.0
 20
650.0000000000004
 30
0.0
 11
136.0
 21
650.0000000000004
 31
0.0
  0
LINE
  5
193
330
2
100
AcDbEntity
  8
PV
 62
     7
100
AcDbLine
 10
109.0
 20
682.0000000000002
 30
0.0
 11
109.0
 21
672.8000000000001
 31
0.0
  0
LINE
  5
194
330
2
100
AcDbEntity
  8
PV
 62
     7
100
AcDbLine
 10
102.4649999999999
 20
672.8000000000001
 30
0.0
 11
121.0
 21
672.8000000000001
 31
0.0
  0
LINE
  5
195
330
2
100
AcDbEntity
  8
L-ZISSEN
100
AcDbLine
 10
166.5
 20
672.0000000000002
 30
0.0
 11
166.5
 21
710.0000000000002
 31
0.0
  0
TEXT
  5
196
330
2
100
AcDbEntity
  8
PV
 62
     7
100
AcDbText
 10
-25.67659192694009
 20
953.8478996037973
 30
0.0
 40
4.5
  1
MODEL No. : P8A-66*- 1DB
 41
0.9167221999999998
  7
FONT1
100
AcDbText
  0
ARC
  5
197
330
2
100
AcDbEntity
  8
PV
 62
     7
100
AcDbCircle
 10
67.0
 20
850.0000000000001
 30
0.0
 40
55.0
100
AcDbArc
 50
24.14770000000034
 51
155.8520000000012
  0
ARC
  5
198
330
2
100
AcDbEntity
  8
PV
 62
     7
100
AcDbCircle
 10
67.0
 20
850.0000000000001
 30
0.0
 40
55.0
100
AcDbArc
 50
204.1479999999987
 51
335.8520000000013
  0
CIRCLE
  5
199
330
2
100
AcDbEntity
  8
PV
 62
     7
100
AcDbCircle
 10
67.0
 20
850.0000000000001
 30
0.0
 40
42.0
  0
LINE
  5
19A
330
2
100
AcDbEntity
  8
PV
  6
CENTER
 62
     1
100
AcDbLine
 10
67.0
 20
910.0000000000003
 30
0.0
 11
67.0
 21
790.0000000000002
 31
0.0
  0
LINE
  5
19B
330
2
100
AcDbEntity
  8
PV
 62
     7
100
AcDbLine
 10
31.53499999999997
 20
872.5000000000003
 30
0.0
 11
0.0
 21
872.5000000000003
 31
0.0
  0
LINE
  5
19C
330
2
100
AcDbEntity
  8
PV
 62
     7
100
AcDbLine
 10
31.53499999999997
 20
827.5000000000002
 30
0.0
 11
0.0
 21
827.5000000000002
 31
0.0
  0
LINE
  5
19D
330
2
100
AcDbEntity
  8
PV
 62
     7
100
AcDbLine
 10
0.0
 20
827.5000000000002
 30
0.0
 11
0.0
 21
872.5000000000003
 31
0.0
  0
LINE
  5
19E
330
2
100
AcDbEntity
  8
0
100
AcDbLine
 10
144.5
 20
836.4835477106625
 30
0.0
 11
121.0
 21
836.4835477106625
 31
0.0
  0
LINE
  5
19F
330
2
100
AcDbEntity
  8
0
100
AcDbLine
 10
144.5
 20
863.5164522893383
 30
0.0
 11
121.0
 21
863.5164522893383
 31
0.0
  0
LINE
  5
1A0
330
2
100
AcDbEntity
  8
PV
 62
     7
100
AcDbLine
 10
121.0
 20
872.5000000000003
 30
0.0
 11
102.4649999999999
 21
872.5000000000003
 31
0.0
  0
LINE
  5
1A1
330
2
100
AcDbEntity
  8
PV
 62
     7
100
AcDbLine
 10
121.0
 20
827.5000000000002
 30
0.0
 11
102.4649999999999
 21
827.5000000000002
 31
0.0
  0
LINE
  5
1A2
330
2
100
AcDbEntity
  8
PV
 62
     7
100
AcDbLine
 10
121.0
 20
827.5000000000002
 30
0.0
 11
121.0
 21
872.5000000000003
 31
0.0
  0
LINE
  5
1A3
330
2
100
AcDbEntity
  8
L-ZISSEN
100
AcDbLine
 10
144.5
 20
828.0000000000002
 30
0.0
 11
175.103922
 21
828.0000000000002
 31
0.0
  0
LINE
  5
1A4
330
2
100
AcDbEntity
  8
L-ZISSEN
100
AcDbLine
 10
175.103922
 20
872.0000000000002
 30
0.0
 11
144.5
 21
872.0000000000002
 31
0.0
  0
LINE
  5
1A5
330
2
100
AcDbEntity
  8
L-ZISSEN
100
AcDbLine
 10
144.5
 20
828.0000000000002
 30
0.0
 11
144.5
 21
872.0000000000002
 31
0.0
  0
TEXT
  5
1A6
330
2
100
AcDbEntity
  8
PV
 62
     7
100
AcDbText
 10
56.79843059786652
 20
956.8478996037972
 30
0.0
 40
4.5
  1
A
  7
FONT1
100
AcDbText
  0
TEXT
  5
1A7
330
2
100
AcDbEntity
  8
PV
 62
     7
100
AcDbText
 10
56.79843059786652
 20
950.8478996037972
 30
0.0
 40
4.5
  1
M
  7
FONT1
100
AcDbText
  0
LINE
  5
1A8
330
2
100
AcDbEntity
  8
PV
 62
     7
100
AcDbLine
 10
292.0
 20
682.0000000000002
 30
0.0
 11
376.0
 21
682.0000000000002
 31
0.0
  0
LINE
  5
1A9
330
2
100
AcDbEntity
  8
PV
 62
     7
100
AcDbLine
 10
391.0
 20
627.8000000000002
 30
0.0
 11
277.0
 21
627.8000000000002
 31
0.0
  0
LINE
  5
1AA
330
2
100
AcDbEntity
  8
PV
 62
     7
100
AcDbLine
 10
279.0
 20
587.8000000000001
 30
0.0
 11
389.0
 21
587.8000000000001
 31
0.0
  0
LINE
  5
1AB
330
2
100
AcDbEntity
  8
PV
  6
CENTER
 62
     1
100
AcDbLine
 10
272.0
 20
650.0000000000002
 30
0.0
 11
396.0
 21
650.0000000000002
 31
0.0
  0
ARC
  5
1AC
330
2
100
AcDbEntity
  8
PV
 62
     7
100
AcDbCircle
 10
349.5
 20
432.0000000000002
 30
0.0
 40
26.0
100
AcDbArc
 50
270.0
 51
0.0
  0
LINE
  5
1AD
330
2
100
AcDbEntity
  8
PV
 62
     7
100
AcDbLine
 10
346.242
 20
398.0760000000002
 30
0.0
 11
362.423
 21
398.0760000000002
 31
0.0
  0
LINE
  5
1AE
330
2
100
AcDbEntity
  8
PV
 62
     7
100
AcDbLine
 10
348.994
 20
393.1880000000003
 30
0.0
 11
362.423
 21
393.1880000000003
 31
0.0
  0
LINE
  5
1AF
330
2
100
AcDbEntity
  8
L-TYUSIN
100
AcDbLine
 10
195.5
 20
525.0000000000002
 30
0.0
 11
195.5
 21
715.0000000000002
 31
0.0
  0
LINE
  5
1B0
330
2
100
AcDbEntity
  8
L-ZISSEN
100
AcDbLine
 10
223.0
 20
530.0000000000002
 30
0.0
 11
223.0
 21
562.0000000000002
 31
0.0
  0
LINE
  5
1B1
330
2
100
AcDbEntity
  8
PV
  6
CENTER
 62
     1
100
AcDbLine
 10
334.0
 20
703.0000000000002
 30
0.0
 11
334.0
 21
376.6516000000001
 31
0.0
  0
LINE
  5
1B2
330
2
100
AcDbEntity
  8
PV
 62
     7
100
AcDbLine
 10
287.971
 20
587.8000000000001
 30
0.0
 11
292.5
 21
432.0000000000002
 31
0.0
  0
ARC
  5
1B3
330
2
100
AcDbEntity
  8
PV
 62
     7
100
AcDbCircle
 10
318.5
 20
432.0000000000002
 30
0.0
 40
26.0
100
AcDbArc
 50
180.0
 51
270.0
  0
LINE
  5
1B4
330
2
100
AcDbEntity
  8
PV
 62
     7
100
AcDbLine
 10
341.545
 20
391.3380000000001
 30
0.0
 11
341.545
 21
401.4440000000002
 31
0.0
  0
LINE
  5
1B5
330
2
100
AcDbEntity
  8
PV
 62
     7
100
AcDbLine
 10
347.002
 20
391.3380000000001
 30
0.0
 11
348.994
 21
393.1880000000003
 31
0.0
  0
LINE
  5
1B6
330
2
100
AcDbEntity
  8
PV
 62
     7
100
AcDbLine
 10
326.4549999999999
 20
391.3380000000001
 30
0.0
 11
326.4549999999999
 21
401.4440000000002
 31
0.0
  0
LINE
  5
1B7
330
2
100
AcDbEntity
  8
PV
 62
     7
100
AcDbLine
 10
328.621
 20
381.0000000000002
 30
0.0
 11
339.379
 21
381.0000000000002
 31
0.0
  0
LINE
  5
1B8
330
2
100
AcDbEntity
  8
PV
 62
     7
100
AcDbLine
 10
328.621
 20
387.8880000000001
 30
0.0
 11
328.621
 21
381.0000000000002
 31
0.0
  0
LINE
  5
1B9
330
2
100
AcDbEntity
  8
PV
 62
     7
100
AcDbLine
 10
326.4549999999999
 20
391.3380000000001
 30
0.0
 11
328.621
 21
387.8880000000001
 31
0.0
  0
LINE
  5
1BA
330
2
100
AcDbEntity
  8
PV
 62
     7
100
AcDbLine
 10
347.002
 20
391.3380000000001
 30
0.0
 11
341.545
 21
391.3380000000001
 31
0.0
  0
LINE
  5
1BB
330
2
100
AcDbEntity
  8
PV
 62
     7
100
AcDbLine
 10
339.379
 20
388.0670000000002
 30
0.0
 11
339.379
 21
381.0000000000002
 31
0.0
  0
LINE
  5
1BC
330
2
100
AcDbEntity
  8
PV
 62
     7
100
AcDbLine
 10
339.379
 20
388.0670000000002
 30
0.0
 11
341.545
 21
391.3380000000001
 31
0.0
  0
LINE
  5
1BD
330
2
100
AcDbEntity
  8
0
100
AcDbLine
 10
326.598
 20
405.2399800000002
 30
0.0
 11
341.4019999999999
 21
405.2399800000002
 31
0.0
  0
LINE
  5
1BE
330
2
100
AcDbEntity
  8
PV
 62
     7
100
AcDbLine
 10
326.4549999999999
 20
401.4440000000002
 30
0.0
 11
341.545
 21
401.4440000000002
 31
0.0
  0
LINE
  5
1BF
330
2
100
AcDbEntity
  8
PV
 62
     7
100
AcDbLine
 10
318.5
 20
406.0000000000002
 30
0.0
 11
349.5
 21
406.0000000000002
 31
0.0
  0
ARC
  5
1C0
330
2
100
AcDbEntity
  8
PV
 62
     7
100
AcDbCircle
 10
326.598
 20
403.3420000000003
 30
0.0
 40
1.89798
100
AcDbArc
 50
90.0
 51
270.0
  0
LINE
  5
1C1
330
2
100
AcDbEntity
  8
PV
 62
     7
100
AcDbLine
 10
328.495
 20
405.2400000000002
 30
0.0
 11
326.028
 21
405.2400000000002
 31
0.0
  0
LINE
  5
1C2
330
2
100
AcDbEntity
  8
PV
 62
     7
100
AcDbLine
 10
328.495
 20
405.2400000000002
 30
0.0
 11
326.076
 21
405.2400000000002
 31
0.0
  0
LINE
  5
1C3
330
2
100
AcDbEntity
  8
PV
 62
     7
100
AcDbLine
 10
326.028
 20
405.2400000000002
 30
0.0
 11
326.028
 21
406.0000000000002
 31
0.0
  0
LINE
  5
1C4
330
2
100
AcDbEntity
  8
PV
 62
     7
100
AcDbLine
 10
344.7239999999999
 20
396.6520000000002
 30
0.0
 11
346.242
 21
398.0760000000002
 31
0.0
  0
LINE
  5
1C5
330
2
100
AcDbEntity
  8
PV
 62
     7
100
AcDbLine
 10
347.002
 20
399.3570000000002
 30
0.0
 11
341.545
 21
399.3570000000002
 31
0.0
  0
LINE
  5
1C6
330
2
100
AcDbEntity
  8
PV
 62
     7
100
AcDbLine
 10
341.545
 20
396.6520000000002
 30
0.0
 11
344.7239999999999
 21
396.6520000000002
 31
0.0
  0
LINE
  5
1C7
330
2
100
AcDbEntity
  8
PV
 62
     7
100
AcDbLine
 10
339.5049999999999
 20
405.2400000000002
 30
0.0
 11
341.9239999999999
 21
405.2400000000002
 31
0.0
  0
LINE
  5
1C8
330
2
100
AcDbEntity
  8
PV
 62
     7
100
AcDbLine
 10
339.5049999999999
 20
405.2400000000002
 30
0.0
 11
341.9719999999999
 21
405.2400000000002
 31
0.0
  0
ARC
  5
1C9
330
2
100
AcDbEntity
  8
PV
 62
     7
100
AcDbCircle
 10
341.4019999999999
 20
403.3420000000003
 30
0.0
 40
1.89798
100
AcDbArc
 50
270.0
 51
90.0
  0
LINE
  5
1CA
330
2
100
AcDbEntity
  8
PV
 62
     7
100
AcDbLine
 10
341.9719999999999
 20
405.2400000000002
 30
0.0
 11
341.9719999999999
 21
406.0000000000002
 31
0.0
  0
LINE
  5
1CB
330
2
100
AcDbEntity
  8
PV
 62
     7
100
AcDbLine
 10
347.002
 20
399.3570000000002
 30
0.0
 11
348.8639999999999
 21
398.0760000000002
 31
0.0
  0
LINE
  5
1CC
330
2
100
AcDbEntity
  8
0
100
AcDbLine
 10
276.0
 20
636.4835477106626
 30
0.0
 11
252.4999999999999
 21
636.4835477106626
 31
0.0
  0
LINE
  5
1CD
330
2
100
AcDbEntity
  8
0
100
AcDbLine
 10
276.0
 20
663.5164522893383
 30
0.0
 11
252.4999999999999
 21
663.5164522893383
 31
0.0
  0
LINE
  5
1CE
330
2
100
AcDbEntity
  8
L-ZISSEN
100
AcDbLine
 10
252.4999999999999
 20
672.0000000000002
 30
0.0
 11
252.4999999999999
 21
628.0000000000002
 31
0.0
  0
LINE
  5
1CF
330
2
100
AcDbEntity
  8
L-TYUSIN
100
AcDbLine
 10
226.5
 20
669.0000000000002
 30
0.0
 11
226.5
 21
631.0000000000002
 31
0.0
  0
LINE
  5
1D0
330
2
100
AcDbEntity
  8
L-ZISSEN
100
AcDbLine
 10
226.5
 20
618.0000000000002
 30
0.0
 11
218.7379
 21
618.0000000000002
 31
0.0
  0
LINE
  5
1D1
330
2
100
AcDbEntity
  8
L-ZISSEN
100
AcDbLine
 10
229.0
 20
619.0000000000002
 30
0.0
 11
218.7379
 21
619.0000000000002
 31
0.0
  0
LINE
  5
1D2
330
2
100
AcDbEntity
  8
L-ZISSEN
100
AcDbLine
 10
218.5
 20
604.0000000000002
 30
0.0
 11
217.5
 21
562.0000000000002
 31
0.0
  0
LINE
  5
1D3
330
2
100
AcDbEntity
  8
L-ZISSEN
100
AcDbLine
 10
218.7379
 20
618.0000000000002
 30
0.0
 11
218.7379
 21
628.0000000000002
 31
0.0
  0
LINE
  5
1D4
330
2
100
AcDbEntity
  8
L-ZISSEN
100
AcDbLine
 10
224.0
 20
604.0000000000002
 30
0.0
 11
224.0
 21
618.0000000000002
 31
0.0
  0
LINE
  5
1D5
330
2
100
AcDbEntity
  8
L-ZISSEN
100
AcDbLine
 10
226.5
 20
618.0000000000002
 30
0.0
 11
226.5
 21
619.0000000000002
 31
0.0
  0
LINE
  5
1D6
330
2
100
AcDbEntity
  8
L-ZISSEN
100
AcDbLine
 10
229.0
 20
619.0000000000002
 30
0.0
 11
229.0
 21
628.0000000000002
 31
0.0
  0
LINE
  5
1D7
330
2
100
AcDbEntity
  8
L-ZISSEN
100
AcDbLine
 10
197.0185129999999
 20
651.3015830000001
 30
0.0
 11
230.5
 21
680.0000000000002
 31
0.0
  0
CIRCLE
  5
1D8
330
2
100
AcDbEntity
  8
L-ZISSEN
100
AcDbCircle
 10
226.5
 20
650.0000000000002
 30
0.0
 40
5.7225
  0
CIRCLE
  5
1D9
330
2
100
AcDbEntity
  8
L-ZISSEN
100
AcDbCircle
 10
226.5
 20
650.0000000000002
 30
0.0
 40
12.5
  0
SOLID
  5
1DA
330
2
100
AcDbEntity
  8
L-ZISSEN
100
AcDbTrace
 10
196.8015829999999
 20
651.5546680000002
 30
0.0
 11
197.2354439999999
 21
651.0484970000002
 31
0.0
 12
195.5
 22
650.0000000000002
 32
0.0
 13
195.5
 23
650.0000000000002
 33
0.0
  0
LINE
  5
1DB
330
2
100
AcDbEntity
  8
L-ZISSEN
100
AcDbLine
 10
224.5
 20
672.0000000000002
 30
0.0
 11
224.5
 21
710.0000000000002
 31
0.0
  0
LINE
  5
1DC
330
2
100
AcDbEntity
  8
L-ZISSEN
100
AcDbLine
 10
230.5
 20
680.0000000000002
 30
0.0
 11
232.5
 21
680.0000000000002
 31
0.0
  0
TEXT
  5
1DD
330
2
100
AcDbEntity
  8
L-ZISSEN
100
AcDbText
 10
234.5
 20
682.2500000000002
 30
0.0
 40
4.5
  1
P.P
 50
180.0
 71
     6
100
AcDbText
  0
LINE
  5
1DE
330
2
100
AcDbEntity
  8
PV
 62
     7
100
AcDbLine
 10
277.0
 20
672.8000000000001
 30
0.0
 11
277.0
 21
627.5000000000002
 31
0.0
  0
LINE
  5
1DF
330
2
100
AcDbEntity
  8
PV
 62
     7
100
AcDbLine
 10
298.535
 20
672.8000000000001
 30
0.0
 11
298.535
 21
627.8000000000002
 31
0.0
  0
LINE
  5
1E0
330
2
100
AcDbEntity
  8
PV
 62
     7
100
AcDbLine
 10
279.0
 20
627.8000000000002
 30
0.0
 11
279.0
 21
587.8000000000001
 31
0.0
  0
LINE
  5
1E1
330
2
100
AcDbEntity
  8
PV
 62
     7
100
AcDbLine
 10
303.2769999999999
 20
685.64
 30
0.0
 11
332.777
 21
685.64
 31
0.0
  0
LINE
  5
1E2
330
2
100
AcDbEntity
  8
PV
 62
     7
100
AcDbLine
 10
327.5199999999999
 20
699.7000000000002
 30
0.0
 11
308.48
 21
699.7000000000002
 31
0.0
  0
LINE
  5
1E3
330
2
100
AcDbEntity
  8
PV
 62
     7
100
AcDbLine
 10
324.35
 20
704.0000000000002
 30
0.0
 11
311.6499999999999
 21
704.0000000000002
 31
0.0
  0
LINE
  5
1E4
330
2
100
AcDbEntity
  8
PV
 62
     7
100
AcDbLine
 10
324.6399999999999
 20
701.5150000000001
 30
0.0
 11
311.3589999999999
 21
701.5150000000001
 31
0.0
  0
LINE
  5
1E5
330
2
100
AcDbEntity
  8
PV
 62
     7
100
AcDbLine
 10
292.0
 20
682.0000000000002
 30
0.0
 11
292.0
 21
672.8000000000001
 31
0.0
  0
LINE
  5
1E6
330
2
100
AcDbEntity
  8
PV
 62
     7
100
AcDbLine
 10
298.535
 20
672.8000000000001
 30
0.0
 11
277.0
 21
672.8000000000001
 31
0.0
  0
LINE
  5
1E7
330
2
100
AcDbEntity
  8
PV
 62
     7
100
AcDbLine
 10
308.285
 20
699.1270000000001
 30
0.0
 11
307.992
 21
685.64
 31
0.0
  0
LINE
  5
1E8
330
2
100
AcDbEntity
  8
PV
 62
     7
100
AcDbLine
 10
303.2769999999999
 20
682.0000000000002
 30
0.0
 11
303.2769999999999
 21
685.64
 31
0.0
  0
ARC
  5
1E9
330
2
100
AcDbEntity
  8
PV
 62
     7
100
AcDbCircle
 10
310.55
 20
702.102
 30
0.0
 40
1.0
100
AcDbArc
 50
299.1619999999999
 51
0.0
  0
LINE
  5
1EA
330
2
100
AcDbEntity
  8
PV
 62
     7
100
AcDbLine
 10
311.0
 20
701.2080000000003
 30
0.0
 11
308.797
 21
699.9790000000002
 31
0.0
  0
LINE
  5
1EB
330
2
100
AcDbEntity
  8
PV
 62
     7
100
AcDbLine
 10
311.0
 20
701.2080000000003
 30
0.0
 11
308.797
 21
699.9790000000002
 31
0.0
  0
ARC
  5
1EC
330
2
100
AcDbEntity
  8
PV
 62
     7
100
AcDbCircle
 10
309.2839999999999
 20
699.1060000000002
 30
0.0
 40
1.0
100
AcDbArc
 50
119.162
 51
178.756
  0
ARC
  5
1ED
330
2
100
AcDbEntity
  8
PV
 62
     7
100
AcDbCircle
 10
311.6499999999999
 20
703.9000000000003
 30
0.0
 40
0.1
100
AcDbArc
 50
90.0
 51
180.0
  0
LINE
  5
1EE
330
2
100
AcDbEntity
  8
PV
 62
     7
100
AcDbLine
 10
311.55
 20
703.9000000000003
 30
0.0
 11
311.55
 21
702.102
 31
0.0
  0
LINE
  5
1EF
330
2
100
AcDbEntity
  8
PV
 62
     7
100
AcDbLine
 10
344.2499999999999
 20
698.0000000000002
 30
0.0
 11
327.739
 21
698.0000000000002
 31
0.0
  0
LINE
  5
1F0
330
2
100
AcDbEntity
  8
PV
 62
     7
100
AcDbLine
 10
315.3999999999999
 20
685.64
 30
0.0
 11
317.3999999999999
 21
685.64
 31
0.0
  0
LINE
  5
1F1
330
2
100
AcDbEntity
  8
PV
 62
     7
100
AcDbLine
 10
327.7149999999999
 20
699.1270000000001
 30
0.0
 11
328.0079999999999
 21
685.64
 31
0.0
  0
LINE
  5
1F2
330
2
100
AcDbEntity
  8
PV
 62
     7
100
AcDbLine
 10
332.777
 20
682.0000000000002
 30
0.0
 11
332.777
 21
685.64
 31
0.0
  0
LINE
  5
1F3
330
2
100
AcDbEntity
  8
PV
 62
     7
100
AcDbLine
 10
324.963
 20
701.2290000000002
 30
0.0
 11
327.2029999999999
 21
699.9790000000002
 31
0.0
  0
LINE
  5
1F4
330
2
100
AcDbEntity
  8
PV
 62
     7
100
AcDbLine
 10
324.963
 20
701.2290000000002
 30
0.0
 11
327.201
 21
699.9800000000002
 31
0.0
  0
ARC
  5
1F5
330
2
100
AcDbEntity
  8
PV
 62
     7
100
AcDbCircle
 10
324.35
 20
703.9000000000003
 30
0.0
 40
0.1
100
AcDbArc
 50
0.0
 51
90.0
  0
LINE
  5
1F6
330
2
100
AcDbEntity
  8
PV
 62
     7
100
AcDbLine
 10
324.4499999999999
 20
703.9000000000003
 30
0.0
 11
324.4499999999999
 21
702.102
 31
0.0
  0
ARC
  5
1F7
330
2
100
AcDbEntity
  8
PV
 62
     7
100
AcDbCircle
 10
325.45
 20
702.102
 30
0.0
 40
1.0
100
AcDbArc
 50
180.0
 51
240.838
  0
ARC
  5
1F8
330
2
100
AcDbEntity
  8
PV
 62
     7
100
AcDbCircle
 10
326.7149999999999
 20
699.1060000000002
 30
0.0
 40
1.0
100
AcDbArc
 50
1.244079999999999
 51
60.8384
  0
LINE
  5
1F9
330
2
100
AcDbEntity
  8
PV
 62
     7
100
AcDbLine
 10
344.2499999999999
 20
698.0000000000002
 30
0.0
 11
344.2499999999999
 21
682.0000000000002
 31
0.0
  0
LINE
  5
1FA
330
2
100
AcDbEntity
  8
PV
 62
     7
100
AcDbLine
 10
519.5
 20
563.8000000000004
 30
0.0
 11
519.5
 21
447.0000000000002
 31
0.0
  0
LINE
  5
1FB
330
2
100
AcDbEntity
  8
PV
 62
     7
100
AcDbLine
 10
534.4999999999999
 20
563.8000000000004
 30
0.0
 11
534.4999999999999
 21
447.0000000000002
 31
0.0
  0
LINE
  5
1FC
330
2
100
AcDbEntity
  8
PV
 62
     7
100
AcDbLine
 10
514.0
 20
432.0000000000002
 30
0.0
 11
514.0
 21
578.8000000000003
 31
0.0
  0
LINE
  5
1FD
330
2
100
AcDbEntity
  8
PV
  6
CENTER
 62
     1
100
AcDbLine
 10
527.0
 20
715.0
 30
0.0
 11
527.0
 21
377.1720999999999
 31
0.0
  0
LINE
  5
1FE
330
2
100
AcDbEntity
  8
PV
 62
     7
100
AcDbLine
 10
480.9709999999999
 20
587.8000000000004
 30
0.0
 11
485.5
 21
432.0000000000002
 31
0.0
  0
LINE
  5
1FF
330
2
100
AcDbEntity
  8
PV
 62
     7
100
AcDbLine
 10
380.029
 20
587.8000000000001
 30
0.0
 11
375.4999999999999
 21
432.0000000000002
 31
0.0
  0
LINE
  5
200
330
2
100
AcDbEntity
  8
PV
 62
     7
100
AcDbLine
 10
386.5
 20
432.0000000000002
 30
0.0
 11
386.5
 21
578.8000000000002
 31
0.0
  0
LINE
  5
201
330
2
100
AcDbEntity
  8
PV
 62
     7
100
AcDbLine
 10
396.5
 20
447.0000000000002
 30
0.0
 11
396.5
 21
563.8000000000001
 31
0.0
  0
LINE
  5
202
330
2
100
AcDbEntity
  8
PV
 62
     7
100
AcDbLine
 10
390.5
 20
432.0000000000002
 30
0.0
 11
390.5
 21
447.0000000000002
 31
0.0
  0
LINE
  5
203
330
2
100
AcDbEntity
  8
PV
 62
     7
100
AcDbLine
 10
390.5
 20
432.0000000000002
 30
0.0
 11
375.4999999999999
 21
432.0000000000002
 31
0.0
  0
LINE
  5
204
330
2
100
AcDbEntity
  8
PV
 62
     7
100
AcDbLine
 10
362.423
 20
393.1880000000003
 30
0.0
 11
362.423
 21
398.0760000000002
 31
0.0
  0
LINE
  5
205
330
2
100
AcDbEntity
  8
PV
 62
     7
100
AcDbLine
 10
396.5
 20
447.0000000000002
 30
0.0
 11
386.5
 21
447.0000000000002
 31
0.0
  0
LINE
  5
206
330
2
100
AcDbEntity
  8
PV
 62
     7
100
AcDbLine
 10
514.0
 20
440.0000000000002
 30
0.0
 11
519.5
 21
447.0000000000002
 31
0.0
  0
ARC
  5
207
330
2
100
AcDbEntity
  8
PV
 62
     7
100
AcDbCircle
 10
511.5
 20
432.0000000000002
 30
0.0
 40
26.0
100
AcDbArc
 50
180.0
 51
270.0
  0
LINE
  5
208
330
2
100
AcDbEntity
  8
PV
 62
     7
100
AcDbLine
 10
521.25
 20
393.1880000000003
 30
0.0
 11
521.25
 21
381.0000000000002
 31
0.0
  0
LINE
  5
209
330
2
100
AcDbEntity
  8
PV
 62
     7
100
AcDbLine
 10
532.7499999999999
 20
393.1880000000003
 30
0.0
 11
532.7499999999999
 21
381.0000000000002
 31
0.0
  0
LINE
  5
20A
330
2
100
AcDbEntity
  8
PV
 62
     7
100
AcDbLine
 10
532.7499999999999
 20
381.0000000000002
 30
0.0
 11
521.25
 21
381.0000000000002
 31
0.0
  0
LINE
  5
20B
330
2
100
AcDbEntity
  8
PV
 62
     7
100
AcDbLine
 10
534.5439999999999
 20
401.4440000000002
 30
0.0
 11
519.4560000000001
 21
401.4440000000002
 31
0.0
  0
LINE
  5
20C
330
2
100
AcDbEntity
  8
PV
 62
     7
100
AcDbLine
 10
517.0
 20
393.1880000000003
 30
0.0
 11
517.0
 21
398.0760000000002
 31
0.0
  0
LINE
  5
20D
330
2
100
AcDbEntity
  8
PV
 62
     7
100
AcDbLine
 10
521.25
 20
401.4440000000002
 30
0.0
 11
521.25
 21
398.0760000000002
 31
0.0
  0
ARC
  5
20E
330
2
100
AcDbEntity
  8
PV
 62
     7
100
AcDbCircle
 10
519.5979999999999
 20
403.3420000000003
 30
0.0
 40
1.89798
100
AcDbArc
 50
91.84179999999999
 51
270.0
  0
LINE
  5
20F
330
2
100
AcDbEntity
  8
PV
 62
     7
100
AcDbLine
 10
519.537
 20
406.0000000000002
 30
0.0
 11
519.537
 21
405.2390000000002
 31
0.0
  0
LINE
  5
210
330
2
100
AcDbEntity
  8
PV
 62
     7
100
AcDbLine
 10
532.7499999999999
 20
401.4440000000002
 30
0.0
 11
532.7499999999999
 21
398.0760000000002
 31
0.0
  0
LINE
  5
211
330
2
100
AcDbEntity
  8
PV
 62
     7
100
AcDbLine
 10
534.4629999999999
 20
406.0000000000002
 30
0.0
 11
534.4629999999999
 21
405.2390000000002
 31
0.0
  0
ARC
  5
212
330
2
100
AcDbEntity
  8
PV
 62
     7
100
AcDbCircle
 10
534.402
 20
403.3420000000003
 30
0.0
 40
1.89798
100
AcDbArc
 50
270.0
 51
88.1582
  0
LINE
  5
213
330
2
100
AcDbEntity
  8
PV
 62
     7
100
AcDbLine
 10
534.4999999999999
 20
447.0000000000002
 30
0.0
 11
519.5
 21
447.0000000000002
 31
0.0
  0
LINE
  5
214
330
2
100
AcDbEntity
  8
PV
 62
     7
100
AcDbLine
 10
369.4649999999999
 20
672.8000000000001
 30
0.0
 11
369.4649999999999
 21
627.8000000000002
 31
0.0
  0
LINE
  5
215
330
2
100
AcDbEntity
  8
PV
 62
     7
100
AcDbLine
 10
391.0
 20
672.8000000000001
 30
0.0
 11
391.0
 21
627.5000000000002
 31
0.0
  0
LINE
  5
216
330
2
100
AcDbEntity
  8
PV
 62
     7
100
AcDbLine
 10
379.767
 20
578.8000000000002
 30
0.0
 11
390.5
 21
578.8000000000002
 31
0.0
  0
LINE
  5
217
330
2
100
AcDbEntity
  8
PV
 62
     7
100
AcDbLine
 10
386.5
 20
563.8000000000001
 30
0.0
 11
396.5
 21
563.8000000000001
 31
0.0
  0
LINE
  5
218
330
2
100
AcDbEntity
  8
PV
 62
     7
100
AcDbLine
 10
390.5
 20
563.8000000000001
 30
0.0
 11
390.5
 21
578.8000000000002
 31
0.0
  0
LINE
  5
219
330
2
100
AcDbEntity
  8
PV
 62
     7
100
AcDbLine
 10
389.0
 20
627.8000000000002
 30
0.0
 11
389.0
 21
587.8000000000001
 31
0.0
  0
LINE
  5
21A
330
2
100
AcDbEntity
  8
PV
 62
     7
100
AcDbLine
 10
376.0
 20
682.0000000000002
 30
0.0
 11
376.0
 21
672.8000000000001
 31
0.0
  0
LINE
  5
21B
330
2
100
AcDbEntity
  8
PV
 62
     7
100
AcDbLine
 10
369.4649999999999
 20
672.8000000000001
 30
0.0
 11
391.0
 21
672.8000000000001
 31
0.0
  0
LINE
  5
21C
330
2
100
AcDbEntity
  8
PV
 62
     7
100
AcDbLine
 10
504.4999999999999
 20
672.8000000000001
 30
0.0
 11
504.4999999999999
 21
627.8000000000004
 31
0.0
  0
LINE
  5
21D
330
2
100
AcDbEntity
  8
PV
 62
     7
100
AcDbLine
 10
485.0
 20
682.0000000000002
 30
0.0
 11
485.0
 21
627.8000000000004
 31
0.0
  0
LINE
  5
21E
330
2
100
AcDbEntity
  8
PV
 62
     7
100
AcDbLine
 10
472.0
 20
627.8000000000004
 30
0.0
 11
472.0
 21
587.8000000000004
 31
0.0
  0
LINE
  5
21F
330
2
100
AcDbEntity
  8
PV
 62
     7
100
AcDbLine
 10
514.0
 20
570.8000000000004
 30
0.0
 11
519.5
 21
563.8000000000004
 31
0.0
  0
LINE
  5
220
330
2
100
AcDbEntity
  8
PV
 62
     7
100
AcDbLine
 10
519.5
 20
563.8000000000004
 30
0.0
 11
534.4999999999999
 21
563.8000000000004
 31
0.0
  0
LINE
  5
221
330
2
100
AcDbEntity
  8
PV
 62
     7
100
AcDbLine
 10
513.9629999999999
 20
701.2290000000002
 30
0.0
 11
516.2029999999999
 21
699.9790000000002
 31
0.0
  0
LINE
  5
222
330
2
100
AcDbEntity
  8
PV
 62
     7
100
AcDbLine
 10
513.9629999999999
 20
701.2290000000002
 30
0.0
 11
516.201
 21
699.9800000000002
 31
0.0
  0
LINE
  5
223
330
2
100
AcDbEntity
  8
PV
 62
     7
100
AcDbLine
 10
492.277
 20
685.64
 30
0.0
 11
521.777
 21
685.64
 31
0.0
  0
LINE
  5
224
330
2
100
AcDbEntity
  8
PV
 62
     7
100
AcDbLine
 10
516.5199999999999
 20
699.7000000000002
 30
0.0
 11
497.48
 21
699.7000000000002
 31
0.0
  0
LINE
  5
225
330
2
100
AcDbEntity
  8
L-ZISSEN
100
AcDbLine
 10
498.0
 20
700.0922487517025
 30
0.0
 11
498.0
 21
710.0000000000002
 31
0.0
  0
LINE
  5
226
330
2
100
AcDbEntity
  8
PV
 62
     7
100
AcDbLine
 10
513.3499999999998
 20
704.0000000000002
 30
0.0
 11
500.65
 21
704.0000000000002
 31
0.0
  0
LINE
  5
227
330
2
100
AcDbEntity
  8
PV
 62
     7
100
AcDbLine
 10
513.6399999999999
 20
701.5150000000001
 30
0.0
 11
500.3589999999999
 21
701.5150000000001
 31
0.0
  0
LINE
  5
228
330
2
100
AcDbEntity
  8
PV
 62
     7
100
AcDbLine
 10
497.2850000000001
 20
699.1270000000001
 30
0.0
 11
496.992
 21
685.64
 31
0.0
  0
LINE
  5
229
330
2
100
AcDbEntity
  8
PV
 62
     7
100
AcDbLine
 10
492.277
 20
682.0000000000002
 30
0.0
 11
492.277
 21
685.64
 31
0.0
  0
LINE
  5
22A
330
2
100
AcDbEntity
  8
PV
 62
     7
100
AcDbLine
 10
500.0
 20
701.2080000000003
 30
0.0
 11
497.797
 21
699.9790000000002
 31
0.0
  0
LINE
  5
22B
330
2
100
AcDbEntity
  8
PV
 62
     7
100
AcDbLine
 10
500.0
 20
701.2080000000003
 30
0.0
 11
497.797
 21
699.9790000000002
 31
0.0
  0
ARC
  5
22C
330
2
100
AcDbEntity
  8
PV
 62
     7
100
AcDbCircle
 10
498.2840000000001
 20
699.1060000000002
 30
0.0
 40
1.0
100
AcDbArc
 50
119.162
 51
178.756
  0
ARC
  5
22D
330
2
100
AcDbEntity
  8
PV
 62
     7
100
AcDbCircle
 10
499.5499999999999
 20
702.102
 30
0.0
 40
1.0
100
AcDbArc
 50
299.1619999999999
 51
0.0
  0
ARC
  5
22E
330
2
100
AcDbEntity
  8
PV
 62
     7
100
AcDbCircle
 10
500.65
 20
703.9000000000003
 30
0.0
 40
0.1
100
AcDbArc
 50
90.0
 51
180.0
  0
LINE
  5
22F
330
2
100
AcDbEntity
  8
PV
 62
     7
100
AcDbLine
 10
500.5499999999999
 20
703.9000000000003
 30
0.0
 11
500.5499999999999
 21
702.102
 31
0.0
  0
ARC
  5
230
330
2
100
AcDbEntity
  8
PV
 62
     7
100
AcDbCircle
 10
513.3499999999998
 20
703.9000000000003
 30
0.0
 40
0.1
100
AcDbArc
 50
0.0
 51
90.0
  0
LINE
  5
231
330
2
100
AcDbEntity
  8
PV
 62
     7
100
AcDbLine
 10
513.45
 20
703.9000000000003
 30
0.0
 11
513.45
 21
702.102
 31
0.0
  0
ARC
  5
232
330
2
100
AcDbEntity
  8
PV
 62
     7
100
AcDbCircle
 10
514.45
 20
702.102
 30
0.0
 40
1.0
100
AcDbArc
 50
180.0
 51
240.838
  0
LINE
  5
233
330
2
100
AcDbEntity
  8
PV
 62
     7
100
AcDbLine
 10
504.4000000000001
 20
685.64
 30
0.0
 11
506.4
 21
685.64
 31
0.0
  0
LINE
  5
234
330
2
100
AcDbEntity
  8
PV
 62
     7
100
AcDbLine
 10
516.7149999999999
 20
699.1270000000001
 30
0.0
 11
517.008
 21
685.64
 31
0.0
  0
LINE
  5
235
330
2
100
AcDbEntity
  8
PV
 62
     7
100
AcDbLine
 10
521.777
 20
682.0000000000002
 30
0.0
 11
521.777
 21
685.64
 31
0.0
  0
ARC
  5
236
330
2
100
AcDbEntity
  8
PV
 62
     7
100
AcDbCircle
 10
515.7149999999999
 20
699.1060000000002
 30
0.0
 40
1.0
100
AcDbArc
 50
1.244079999999999
 51
60.8384
  0
ARC
  5
237
330
2
100
AcDbEntity
  8
PV
 62
     7
100
AcDbCircle
 10
334.0
 20
850.0000000000001
 30
0.0
 40
55.0
100
AcDbArc
 50
24.1477
 51
155.852
  0
ARC
  5
238
330
2
100
AcDbEntity
  8
PV
 62
     7
100
AcDbCircle
 10
334.0
 20
850.0000000000001
 30
0.0
 40
55.0
100
AcDbArc
 50
204.1479999999999
 51
335.8519999999999
  0
CIRCLE
  5
239
330
2
100
AcDbEntity
  8
PV
 62
     7
100
AcDbCircle
 10
334.0
 20
850.0000000000001
 30
0.0
 40
42.0
  0
LINE
  5
23A
330
2
100
AcDbEntity
  8
0
100
AcDbLine
 10
276.0
 20
836.4835477106625
 30
0.0
 11
252.4999999999999
 21
836.4835477106625
 31
0.0
  0
LINE
  5
23B
330
2
100
AcDbEntity
  8
0
100
AcDbLine
 10
276.0
 20
863.5164522893383
 30
0.0
 11
252.4999999999999
 21
863.5164522893383
 31
0.0
  0
LINE
  5
23C
330
2
100
AcDbEntity
  8
L-ZISSEN
100
AcDbLine
 10
239.0
 20
828.0000000000002
 30
0.0
 11
239.0
 21
821.5000000000001
 31
0.0
  0
LINE
  5
23D
330
2
100
AcDbEntity
  8
L-TYUSIN
100
AcDbLine
 10
195.5
 20
885.0000000000003
 30
0.0
 11
195.5
 21
815.0000000000002
 31
0.0
  0
LINE
  5
23E
330
2
100
AcDbEntity
  8
L-TYUSIN
100
AcDbLine
 10
226.5
 20
816.5000000000002
 30
0.0
 11
226.5
 21
883.5000000000002
 31
0.0
  0
LINE
  5
23F
330
2
100
AcDbEntity
  8
L-ZISSEN
100
AcDbLine
 10
239.0
 20
821.5000000000001
 30
0.0
 11
214.0
 21
821.5000000000001
 31
0.0
  0
LINE
  5
240
330
2
100
AcDbEntity
  8
L-ZISSEN
100
AcDbLine
 10
214.0
 20
821.5000000000001
 30
0.0
 11
214.0
 21
826.383269
 31
0.0
  0
LINE
  5
241
330
2
100
AcDbEntity
  8
L-ZISSEN
100
AcDbLine
 10
252.4999999999999
 20
872.0000000000002
 30
0.0
 11
215.896078
 21
872.0000000000002
 31
0.0
  0
LINE
  5
242
330
2
100
AcDbEntity
  8
L-ZISSEN
100
AcDbLine
 10
215.896078
 20
828.0000000000002
 30
0.0
 11
252.4999999999999
 21
828.0000000000002
 31
0.0
  0
LINE
  5
243
330
2
100
AcDbEntity
  8
L-ZISSEN
100
AcDbLine
 10
239.0
 20
878.5000000000001
 30
0.0
 11
214.0
 21
878.5000000000001
 31
0.0
  0
LINE
  5
244
330
2
100
AcDbEntity
  8
L-ZISSEN
100
AcDbLine
 10
214.0
 20
878.5000000000001
 30
0.0
 11
214.0
 21
873.6167310000002
 31
0.0
  0
LINE
  5
245
330
2
100
AcDbEntity
  8
PV
 62
     7
100
AcDbLine
 10
196.8379999999999
 20
848.5130000000001
 30
0.0
 11
204.4999999999999
 21
840.0000000000002
 31
0.0
  0
POLYLINE
  5
246
330
2
100
AcDbEntity
  8
PV
 62
     7
100
AcDb2dPolyline
 66
     1
 10
0.0
 20
0.0
 30
0.0
  0
VERTEX
  5
664
330
246
100
AcDbEntity
  8
PV
 62
     7
100
AcDbVertex
100
AcDb2dVertex
 10
196.5899999999999
 20
848.2900000000002
 30
0.0
  0
VERTEX
  5
665
330
246
100
AcDbEntity
  8
PV
 62
     7
100
AcDbVertex
100
AcDb2dVertex
 10
197.086
 20
848.7360000000004
 30
0.0
  0
VERTEX
  5
666
330
246
100
AcDbEntity
  8
PV
 62
     7
100
AcDbVertex
100
AcDb2dVertex
 10
195.5
 20
850.0000000000001
 30
0.0
  0
VERTEX
  5
667
330
246
100
AcDbEntity
  8
PV
 62
     7
100
AcDbVertex
100
AcDb2dVertex
 10
196.5899999999999
 20
848.2900000000002
 30
0.0
  0
SEQEND
  5
668
330
246
100
AcDbEntity
  8
PV
 62
     7
  0
TEXT
  5
247
330
2
100
AcDbEntity
  8
PV
 62
     7
100
AcDbText
 10
208.3999999999999
 20
837.7500000000003
 30
0.0
 40
4.5
  1
P.P
  7
FONT1
100
AcDbText
  0
LINE
  5
248
330
2
100
AcDbEntity
  8
PV
 62
     7
100
AcDbLine
 10
204.4999999999999
 20
840.0000000000002
 30
0.0
 11
206.4999999999999
 21
840.0000000000002
 31
0.0
  0
LINE
  5
249
330
2
100
AcDbEntity
  8
L-ZISSEN
100
AcDbLine
 10
239.0
 20
872.0000000000002
 30
0.0
 11
239.0
 21
878.5000000000001
 31
0.0
  0
LINE
  5
24A
330
2
100
AcDbEntity
  8
L-ZISSEN
100
AcDbLine
 10
252.4999999999999
 20
828.0000000000002
 30
0.0
 11
252.4999999999999
 21
872.0000000000002
 31
0.0
  0
CIRCLE
  5
24B
330
2
100
AcDbEntity
  8
PV
 62
     7
100
AcDbCircle
 10
318.0
 20
830.0000000000002
 30
0.0
 40
14.75
  0
CIRCLE
  5
24C
330
2
100
AcDbEntity
  8
PV
 62
     7
100
AcDbCircle
 10
318.0
 20
830.0000000000002
 30
0.0
 40
10.00799999999999
  0
CIRCLE
  5
24D
330
2
100
AcDbEntity
  8
PV
 62
     7
100
AcDbCircle
 10
318.0
 20
830.0000000000002
 30
0.0
 40
3.9624
  0
LINE
  5
24E
330
2
100
AcDbEntity
  8
PV
  6
CENTER
 62
     1
100
AcDbLine
 10
334.0
 20
910.0000000000003
 30
0.0
 11
334.0
 21
790.0000000000002
 31
0.0
  0
LINE
  5
24F
330
2
100
AcDbEntity
  8
PV
 62
     7
100
AcDbLine
 10
277.0
 20
872.5000000000003
 30
0.0
 11
298.535
 21
872.5000000000003
 31
0.0
  0
LINE
  5
250
330
2
100
AcDbEntity
  8
PV
 62
     7
100
AcDbLine
 10
277.0
 20
827.5000000000002
 30
0.0
 11
298.535
 21
827.5000000000002
 31
0.0
  0
LINE
  5
251
330
2
100
AcDbEntity
  8
PV
 62
     7
100
AcDbLine
 10
277.0
 20
872.5000000000003
 30
0.0
 11
277.0
 21
827.5000000000002
 31
0.0
  0
CIRCLE
  5
252
330
2
100
AcDbEntity
  8
PV
 62
     7
100
AcDbCircle
 10
334.0
 20
878.0000000000002
 30
0.0
 40
10.25
  0
LINE
  5
253
330
2
100
AcDbEntity
  8
PV
 62
     7
100
AcDbLine
 10
391.0
 20
872.5000000000003
 30
0.0
 11
369.4649999999999
 21
872.5000000000003
 31
0.0
  0
LINE
  5
254
330
2
100
AcDbEntity
  8
PV
 62
     7
100
AcDbLine
 10
391.0
 20
827.5000000000002
 30
0.0
 11
369.4649999999999
 21
827.5000000000002
 31
0.0
  0
LINE
  5
255
330
2
100
AcDbEntity
  8
PV
 62
     7
100
AcDbLine
 10
391.0
 20
872.5000000000003
 30
0.0
 11
391.0
 21
827.5000000000002
 31
0.0
  0
LINE
  5
256
330
2
100
AcDbEntity
  8
PV
 62
     7
100
AcDbLine
 10
863.7332845143477
 20
343.4857848681417
 30
0.0
 11
863.7332845143477
 21
473.4857848681417
 31
0.0
  0
LINE
  5
257
330
2
100
AcDbEntity
  8
PV
 62
     7
100
AcDbLine
 10
888.7332845143477
 20
343.4857848681417
 30
0.0
 11
888.7332845143477
 21
473.4857848681417
 31
0.0
  0
LINE
  5
258
330
2
100
AcDbEntity
  8
PV
 62
     7
100
AcDbLine
 10
754.7332845143478
 20
343.4857848681417
 30
0.0
 11
754.7332845143478
 21
473.4857848681417
 31
0.0
  0
LINE
  5
259
330
2
100
AcDbEntity
  8
PV
 62
     7
100
AcDbLine
 10
729.7332845143478
 20
343.4857848681417
 30
0.0
 11
729.7332845143478
 21
473.4857848681417
 31
0.0
  0
LINE
  5
25A
330
2
100
AcDbEntity
  8
PV
  6
CENTER
 62
     1
100
AcDbLine
 10
702.7332845143478
 20
857.4857848681418
 30
0.0
 11
702.7332845143478
 21
-212.8309563261818
 31
0.0
  0
LINE
  5
25B
330
2
100
AcDbEntity
  8
PV
  6
CENTER
 62
     1
100
AcDbLine
 10
702.7332845143478
 20
72.48578486814176
 30
0.0
 11
1112.733284514347
 21
72.48578486814176
 31
0.0
  0
LINE
  5
25C
330
2
100
AcDbEntity
  8
L-ZISSEN
100
AcDbLine
 10
909.1026794538006
 20
-89.77895026780378
 30
0.0
 11
895.5168934538008
 21
-103.3647362678038
 31
0.0
  0
LINE
  5
25D
330
2
100
AcDbEntity
  8
PV
  6
CENTER
 62
     1
100
AcDbLine
 10
702.7332845143478
 20
172.4857848681417
 30
0.0
 11
1112.733284514347
 21
172.4857848681417
 31
0.0
  0
LINE
  5
25E
330
2
100
AcDbEntity
  8
PV
 62
     7
100
AcDbLine
 10
582.0
 20
-22.19999999999981
 30
0.0
 11
582.0
 21
-62.19999999999981
 31
0.0
  0
LINE
  5
25F
330
2
100
AcDbEntity
  8
L-ZISSEN
100
AcDbLine
 10
818.5168934538008
 20
-22.36473626780389
 30
0.0
 11
818.5168934538008
 21
-45.86473626780389
 31
0.0
  0
LINE
  5
260
330
2
100
AcDbEntity
  8
L-ZISSEN
100
AcDbLine
 10
764.5168934538007
 20
-22.36473626780389
 30
0.0
 11
764.5168934538007
 21
-45.86473626780389
 31
0.0
  0
ARC
  5
261
330
2
100
AcDbEntity
  8
PV
 62
     7
100
AcDbCircle
 10
542.4999999999999
 20
-218.0
 30
0.0
 40
26.0
100
AcDbArc
 50
270.0
 51
0.0
  0
LINE
  5
262
330
2
100
AcDbEntity
  8
PV
 62
     7
100
AcDbLine
 10
537.0
 20
-251.9239999999999
 30
0.0
 11
537.0
 21
-256.8119999999999
 31
0.0
  0
LINE
  5
263
330
2
100
AcDbEntity
  8
PV
 62
     7
100
AcDbLine
 10
573.029
 20
-62.19999999999981
 30
0.0
 11
568.5
 21
-218.0
 31
0.0
  0
LINE
  5
264
330
2
100
AcDbEntity
  8
PV
 62
     7
100
AcDbLine
 10
540.0
 20
-218.0
 30
0.0
 11
540.0
 21
-71.19999999999982
 31
0.0
  0
LINE
  5
265
330
2
100
AcDbEntity
  8
L-ZISSEN
100
AcDbLine
 10
764.5168934538007
 20
-45.86473626780389
 30
0.0
 11
818.5168934538008
 21
-45.86473626780389
 31
0.0
  0
CIRCLE
  5
266
330
2
100
AcDbEntity
  8
L-ZISSEN
100
AcDbCircle
 10
791.5168934538008
 20
-88.36473626780389
 30
0.0
 40
27.0
  0
LINE
  5
267
330
2
100
AcDbEntity
  8
L-ZISSEN
100
AcDbLine
 10
759.1026794538006
 20
-89.77895026780378
 30
0.0
 11
745.5168934538008
 21
-103.3647362678038
 31
0.0
  0
TEXT
  5
268
330
2
100
AcDbEntity
  8
L-ZISSEN
100
AcDbText
 10
732.5168934538007
 20
-105.6147362678038
 30
0.0
 40
4.5
  1
P.P
100
AcDbText
  0
LINE
  5
269
330
2
100
AcDbEntity
  8
L-ZISSEN
100
AcDbLine
 10
745.5168934538008
 20
-103.3647362678038
 30
0.0
 11
743.5168934538007
 21
-103.3647362678038
 31
0.0
  0
SOLID
  5
26A
330
2
100
AcDbEntity
  8
L-ZISSEN
100
AcDbTrace
 10
758.8669774538007
 20
-89.54324726780351
 30
0.0
 11
759.3383824538006
 21
-90.01465226780373
 31
0.0
 12
760.5168934538007
 22
-88.36473626780389
 32
0.0
 13
760.5168934538007
 23
-88.36473626780389
 33
0.0
  0
LINE
  5
26B
330
2
100
AcDbEntity
  8
L-ZISSEN
100
AcDbLine
 10
775.9605444538008
 20
-72.80838726780348
 30
0.0
 11
800.0021744538008
 21
-96.85001726780365
 31
0.0
  0
LINE
  5
26C
330
2
100
AcDbEntity
  8
L-ZISSEN
100
AcDbLine
 10
868.0168934538007
 20
-115.3647362678039
 30
0.0
 11
844.5168934538008
 21
-115.3647362678039
 31
0.0
  0
LINE
  5
26D
330
2
100
AcDbEntity
  8
L-ZISSEN
100
AcDbLine
 10
868.0168934538007
 20
-61.36473626780389
 30
0.0
 11
844.5168934538008
 21
-61.36473626780389
 31
0.0
  0
LINE
  5
26E
330
2
100
AcDbEntity
  8
L-ZISSEN
100
AcDbLine
 10
844.5168934538008
 20
-61.36473626780389
 30
0.0
 11
844.5168934538008
 21
-115.3647362678039
 31
0.0
  0
LINE
  5
26F
330
2
100
AcDbEntity
  8
L-ZISSEN
100
AcDbLine
 10
868.0168934538007
 20
-61.36473626780389
 30
0.0
 11
868.0168934538007
 21
-115.3647362678039
 31
0.0
  0
LINE
  5
270
330
2
100
AcDbEntity
  8
L-ZISSEN
100
AcDbLine
 10
868.0168934538007
 20
-94.94323626780351
 30
0.0
 11
882.0168934538008
 21
-94.94323626780351
 31
0.0
  0
TEXT
  5
271
330
2
100
AcDbEntity
  8
L-ZISSEN
100
AcDbText
 10
882.5168934538007
 20
-105.6147362678038
 30
0.0
 40
4.5
  1
P.P
100
AcDbText
  0
LINE
  5
272
330
2
100
AcDbEntity
  8
L-ZISSEN
100
AcDbLine
 10
895.5168934538008
 20
-103.3647362678038
 30
0.0
 11
893.5168934538008
 21
-103.3647362678038
 31
0.0
  0
LINE
  5
273
330
2
100
AcDbEntity
  8
L-ZISSEN
100
AcDbLine
 10
868.0168934538007
 20
-81.78623626780382
 30
0.0
 11
882.0168934538008
 21
-81.78623626780382
 31
0.0
  0
LINE
  5
274
330
2
100
AcDbEntity
  8
L-ZISSEN
100
AcDbLine
 10
556.0
 20
48.0
 30
0.0
 11
556.0
 21
60.0
 31
0.0
  0
LINE
  5
275
330
2
100
AcDbEntity
  8
PV
 62
     7
100
AcDbLine
 10
569.0
 20
32.0
 30
0.0
 11
569.0
 21
-22.19999999999981
 31
0.0
  0
LINE
  5
276
330
2
100
AcDbEntity
  8
PV
 62
     7
100
AcDbLine
 10
549.5
 20
22.79999999999995
 30
0.0
 11
549.5
 21
-22.19999999999981
 31
0.0
  0
LINE
  5
277
330
2
100
AcDbEntity
  8
PV
 62
     7
100
AcDbLine
 10
544.7499999999999
 20
48.0
 30
0.0
 11
565.2499999999999
 21
48.0
 31
0.0
  0
LINE
  5
278
330
2
100
AcDbEntity
  8
PV
 62
     7
100
AcDbLine
 10
544.7499999999999
 20
48.0
 30
0.0
 11
544.7499999999999
 21
32.0
 31
0.0
  0
LINE
  5
279
330
2
100
AcDbEntity
  8
PV
 62
     7
100
AcDbLine
 10
565.2499999999999
 20
48.0
 30
0.0
 11
565.2499999999999
 21
32.0
 31
0.0
  0
LINE
  5
27A
330
2
100
AcDbEntity
  8
L-ZISSEN
 62
     7
100
AcDbLine
 10
537.0
 20
60.0
 30
0.0
 11
539.0
 21
60.0
 31
0.0
  0
TEXT
  5
27B
330
2
100
AcDbEntity
  8
PV
 62
     7
100
AcDbText
 10
722.6331845143477
 20
147.4857848681417
 30
0.0
 40
4.5
  1
MODEL No. : P8A-***-M***
 41
0.9167221999999998
  7
FONT1
100
AcDbText
  0
TEXT
  5
27C
330
2
100
AcDbEntity
  8
L-ZISSEN
100
AcDbText
 10
730.5168934538007
 20
36.6352637321961
 30
0.0
 40
4.5
  1
MODEL NO. : GAB502100
100
AcDbText
  0
LINE
  5
27D
330
2
100
AcDbEntity
  8
L-ZISSEN
100
AcDbLine
 10
764.5168934538007
 20
-22.36473626780389
 30
0.0
 11
818.5168934538008
 21
-22.36473626780389
 31
0.0
  0
LINE
  5
27E
330
2
100
AcDbEntity
  8
PV
 62
     7
100
AcDbLine
 10
799.0782845143479
 20
112.9656848681418
 30
0.0
 11
807.7332845143478
 21
122.4857848681417
 31
0.0
  0
ARC
  5
27F
330
2
100
AcDbEntity
  8
PV
 62
     7
100
AcDbCircle
 10
805.1352845143478
 20
108.8277848681418
 30
0.0
 40
1.89798
100
AcDbArc
 50
270.0
 51
90.0
  0
TEXT
  5
280
330
2
100
AcDbEntity
  8
L-ZISSEN
100
AcDbText
 10
730.5168934538007
 20
46.6352637321961
 30
0.0
 40
4.5
  1
PRESSURE GAUGE
100
AcDbText
  0
TEXT
  5
281
330
2
100
AcDbEntity
  8
L-ZISSEN
100
AcDbText
 10
732.5168934538007
 20
4.385263732196108
 30
0.0
 40
4.5
  1
P.P
100
AcDbText
  0
LINE
  5
282
330
2
100
AcDbEntity
  8
L-ZISSEN
100
AcDbLine
 10
759.0303054538008
 20
18.7973347321963
 30
0.0
 11
745.5168934538008
 21
6.635263732196108
 31
0.0
  0
LINE
  5
283
330
2
100
AcDbEntity
  8
L-ZISSEN
100
AcDbLine
 10
745.5168934538008
 20
6.635263732196108
 30
0.0
 11
743.5168934538007
 21
6.635263732196108
 31
0.0
  0
SOLID
  5
284
330
2
100
AcDbEntity
  8
L-ZISSEN
100
AcDbTrace
 10
758.8073164538006
 20
19.04509873219649
 30
0.0
 11
759.2532934538008
 21
18.54956973219623
 31
0.0
 12
760.5168934538007
 22
20.1352637321961
 32
0.0
 13
760.5168934538007
 23
20.1352637321961
 33
0.0
  0
LINE
  5
285
330
2
100
AcDbEntity
  8
L-ZISSEN
100
AcDbLine
 10
798.0953934538008
 20
-22.36473626780389
 30
0.0
 11
798.0953934538008
 21
-8.364736267803891
 31
0.0
  0
LINE
  5
286
330
2
100
AcDbEntity
  8
L-ZISSEN
100
AcDbLine
 10
784.9383934538007
 20
-22.36473626780389
 30
0.0
 11
784.9383934538007
 21
-8.364736267803891
 31
0.0
  0
ARC
  5
287
330
2
100
AcDbEntity
  8
PV
 62
     7
100
AcDbCircle
 10
760.1352845143479
 20
108.8277848681418
 30
0.0
 40
1.89798
100
AcDbArc
 50
270.0
 51
88.15819999999998
  0
LINE
  5
288
330
2
100
AcDbEntity
  8
PV
 62
     7
100
AcDbLine
 10
754.0782845143478
 20
112.9656848681418
 30
0.0
 11
762.7332845143477
 21
122.4857848681417
 31
0.0
  0
LINE
  5
289
330
2
100
AcDbEntity
  8
PV
 62
     7
100
AcDbLine
 10
742.7332845143478
 20
98.67378486814187
 30
0.0
 11
762.7332845143477
 21
98.67378486814187
 31
0.0
  0
LINE
  5
28A
330
2
100
AcDbEntity
  8
PV
 62
     7
100
AcDbLine
 10
742.7332845143478
 20
103.5617848681417
 30
0.0
 11
762.7332845143477
 21
103.5617848681417
 31
0.0
  0
LINE
  5
28B
330
2
100
AcDbEntity
  8
PV
 62
     7
100
AcDbLine
 10
742.7332845143478
 20
98.67378486814187
 30
0.0
 11
742.7332845143478
 21
103.5617848681417
 31
0.0
  0
LINE
  5
28C
330
2
100
AcDbEntity
  8
PV
 62
     7
100
AcDbLine
 10
758.4832845143478
 20
88.48578486814176
 30
0.0
 11
746.9832845143478
 21
88.48578486814176
 31
0.0
  0
LINE
  5
28D
330
2
100
AcDbEntity
  8
PV
 62
     7
100
AcDbLine
 10
746.9832845143478
 20
98.67378486814187
 30
0.0
 11
746.9832845143478
 21
88.48578486814176
 31
0.0
  0
LINE
  5
28E
330
2
100
AcDbEntity
  8
PV
 62
     7
100
AcDbLine
 10
758.4832845143478
 20
98.67378486814187
 30
0.0
 11
758.4832845143478
 21
88.48578486814176
 31
0.0
  0
LINE
  5
28F
330
2
100
AcDbEntity
  8
PV
 62
     7
100
AcDbLine
 10
760.2772845143477
 20
106.9297848681417
 30
0.0
 11
745.1892845143478
 21
106.9297848681417
 31
0.0
  0
ARC
  5
290
330
2
100
AcDbEntity
  8
PV
 62
     7
100
AcDbCircle
 10
745.3312845143478
 20
108.8277848681418
 30
0.0
 40
1.89798
100
AcDbArc
 50
91.84180000000003
 51
270.0
  0
LINE
  5
291
330
2
100
AcDbEntity
  8
PV
 62
     7
100
AcDbLine
 10
745.2702845143478
 20
111.4857848681417
 30
0.0
 11
745.2702845143478
 21
110.7247848681417
 31
0.0
  0
LINE
  5
292
330
2
100
AcDbEntity
  8
PV
 62
     7
100
AcDbLine
 10
746.9832845143478
 20
106.9297848681417
 30
0.0
 11
746.9832845143478
 21
103.5617848681417
 31
0.0
  0
LINE
  5
293
330
2
100
AcDbEntity
  8
PV
 62
     7
100
AcDbLine
 10
760.1962845143478
 20
111.4857848681417
 30
0.0
 11
760.1962845143478
 21
110.7247848681417
 31
0.0
  0
POLYLINE
  5
294
330
2
100
AcDbEntity
  8
PV
 62
     7
100
AcDb2dPolyline
 66
     1
 10
0.0
 20
0.0
 30
0.0
  0
VERTEX
  5
669
330
294
100
AcDbEntity
  8
PV
 62
     7
100
AcDbVertex
100
AcDb2dVertex
 10
754.3252845143477
 20
112.7414848681419
 30
0.0
  0
VERTEX
  5
66A
330
294
100
AcDbEntity
  8
PV
 62
     7
100
AcDbVertex
100
AcDb2dVertex
 10
753.8322845143478
 20
113.1898848681416
 30
0.0
  0
VERTEX
  5
66B
330
294
100
AcDbEntity
  8
PV
 62
     7
100
AcDbVertex
100
AcDb2dVertex
 10
752.7332845143478
 20
111.4857848681417
 30
0.0
  0
VERTEX
  5
66C
330
294
100
AcDbEntity
  8
PV
 62
     7
100
AcDbVertex
100
AcDb2dVertex
 10
754.3252845143477
 20
112.7414848681419
 30
0.0
  0
SEQEND
  5
66D
330
294
100
AcDbEntity
  8
PV
 62
     7
  0
LINE
  5
295
330
2
100
AcDbEntity
  8
PV
 62
     7
100
AcDbLine
 10
758.4832845143478
 20
106.9297848681417
 30
0.0
 11
758.4832845143478
 21
103.5617848681417
 31
0.0
  0
LINE
  5
296
330
2
100
AcDbEntity
  8
PV
 62
     7
100
AcDbLine
 10
805.2782845143477
 20
96.82378486814172
 30
0.0
 11
805.2782845143477
 21
106.9297848681417
 31
0.0
  0
LINE
  5
297
330
2
100
AcDbEntity
  8
PV
 62
     7
100
AcDbLine
 10
787.0092845143477
 20
102.1377848681418
 30
0.0
 11
785.4912845143478
 21
103.5617848681417
 31
0.0
  0
LINE
  5
298
330
2
100
AcDbEntity
  8
PV
 62
     7
100
AcDbLine
 10
769.3102845143478
 20
98.67378486814187
 30
0.0
 11
769.3102845143478
 21
103.5617848681417
 31
0.0
  0
LINE
  5
299
330
2
100
AcDbEntity
  8
PV
 62
     7
100
AcDbLine
 10
790.1882845143478
 20
96.82378486814172
 30
0.0
 11
790.1882845143478
 21
106.9297848681417
 31
0.0
  0
LINE
  5
29A
330
2
100
AcDbEntity
  8
PV
 62
     7
100
AcDbLine
 10
762.7332845143477
 20
103.5617848681417
 30
0.0
 11
762.7332845143477
 21
98.67378486814187
 31
0.0
  0
LINE
  5
29B
330
2
100
AcDbEntity
  8
PV
 62
     7
100
AcDbLine
 10
784.7312845143478
 20
96.82378486814172
 30
0.0
 11
782.7392845143478
 21
98.67378486814187
 31
0.0
  0
LINE
  5
29C
330
2
100
AcDbEntity
  8
PV
 62
     7
100
AcDbLine
 10
782.7392845143478
 20
98.67378486814187
 30
0.0
 11
769.3102845143478
 21
98.67378486814187
 31
0.0
  0
LINE
  5
29D
330
2
100
AcDbEntity
  8
PV
 62
     7
100
AcDbLine
 10
803.1122845143478
 20
88.48578486814176
 30
0.0
 11
792.3542845143478
 21
88.48578486814176
 31
0.0
  0
LINE
  5
29E
330
2
100
AcDbEntity
  8
PV
 62
     7
100
AcDbLine
 10
790.1882845143478
 20
102.1377848681418
 30
0.0
 11
787.0092845143477
 21
102.1377848681418
 31
0.0
  0
LINE
  5
29F
330
2
100
AcDbEntity
  8
PV
 62
     7
100
AcDbLine
 10
792.3542845143478
 20
93.55278486814176
 30
0.0
 11
792.3542845143478
 21
88.48578486814176
 31
0.0
  0
LINE
  5
2A0
330
2
100
AcDbEntity
  8
PV
 62
     7
100
AcDbLine
 10
792.3542845143478
 20
93.55278486814176
 30
0.0
 11
790.1882845143478
 21
96.82378486814172
 31
0.0
  0
LINE
  5
2A1
330
2
100
AcDbEntity
  8
PV
 62
     7
100
AcDbLine
 10
784.7312845143478
 20
96.82378486814172
 30
0.0
 11
790.1882845143478
 21
96.82378486814172
 31
0.0
  0
LINE
  5
2A2
330
2
100
AcDbEntity
  8
PV
 62
     7
100
AcDbLine
 10
803.1122845143478
 20
93.37378486814168
 30
0.0
 11
803.1122845143478
 21
88.48578486814176
 31
0.0
  0
LINE
  5
2A3
330
2
100
AcDbEntity
  8
PV
 62
     7
100
AcDbLine
 10
805.2782845143477
 20
96.82378486814172
 30
0.0
 11
803.1122845143478
 21
93.37378486814168
 31
0.0
  0
LINE
  5
2A4
330
2
100
AcDbEntity
  8
PV
 62
     7
100
AcDbLine
 10
785.4912845143478
 20
103.5617848681417
 30
0.0
 11
769.3102845143478
 21
103.5617848681417
 31
0.0
  0
LINE
  5
2A5
330
2
100
AcDbEntity
  8
PV
 62
     7
100
AcDbLine
 10
784.7312845143478
 20
104.8427848681417
 30
0.0
 11
782.8692845143478
 21
103.5617848681417
 31
0.0
  0
TEXT
  5
2A6
330
2
100
AcDbEntity
  8
PV
 62
     7
100
AcDbText
 10
766.6332845143478
 20
120.2357848681417
 30
0.0
 40
4.5
  1
P.P
 41
0.7780000000000001
  7
FONT1
100
AcDbText
  0
LINE
  5
2A7
330
2
100
AcDbEntity
  8
PV
 62
     7
100
AcDbLine
 10
762.7332845143477
 20
122.4857848681417
 30
0.0
 11
764.7332845143478
 21
122.4857848681417
 31
0.0
  0
LINE
  5
2A8
330
2
100
AcDbEntity
  8
PV
 62
     7
100
AcDbLine
 10
790.1882845143478
 20
106.9297848681417
 30
0.0
 11
805.2782845143477
 21
106.9297848681417
 31
0.0
  0
LINE
  5
2A9
330
2
100
AcDbEntity
  8
PV
 62
     7
100
AcDbLine
 10
789.7612845143478
 20
110.7257848681415
 30
0.0
 11
805.7052845143477
 21
110.7257848681417
 31
0.0
  0
ARC
  5
2AA
330
2
100
AcDbEntity
  8
PV
 62
     7
100
AcDbCircle
 10
790.3312845143477
 20
108.8277848681418
 30
0.0
 40
1.89798
100
AcDbArc
 50
90.0
 51
270.0
  0
LINE
  5
2AB
330
2
100
AcDbEntity
  8
PV
 62
     7
100
AcDbLine
 10
789.7612845143478
 20
110.7257848681417
 30
0.0
 11
789.7612845143478
 21
111.4857848681417
 31
0.0
  0
LINE
  5
2AC
330
2
100
AcDbEntity
  8
PV
 62
     7
100
AcDbLine
 10
784.7312845143478
 20
104.8427848681417
 30
0.0
 11
790.1882845143478
 21
104.8427848681417
 31
0.0
  0
LINE
  5
2AD
330
2
100
AcDbEntity
  8
PV
 62
     7
100
AcDbLine
 10
805.7052845143477
 20
110.7257848681417
 30
0.0
 11
805.7052845143477
 21
111.4857848681417
 31
0.0
  0
POLYLINE
  5
2AE
330
2
100
AcDbEntity
  8
PV
 62
     7
100
AcDb2dPolyline
 66
     1
 10
0.0
 20
0.0
 30
0.0
  0
VERTEX
  5
66E
330
2AE
100
AcDbEntity
  8
PV
 62
     7
100
AcDbVertex
100
AcDb2dVertex
 10
799.3252845143477
 20
112.7414848681419
 30
0.0
  0
VERTEX
  5
66F
330
2AE
100
AcDbEntity
  8
PV
 62
     7
100
AcDbVertex
100
AcDb2dVertex
 10
798.8322845143478
 20
113.1898848681416
 30
0.0
  0
VERTEX
  5
670
330
2AE
100
AcDbEntity
  8
PV
 62
     7
100
AcDbVertex
100
AcDb2dVertex
 10
797.7332845143478
 20
111.4857848681417
 30
0.0
  0
VERTEX
  5
671
330
2AE
100
AcDbEntity
  8
PV
 62
     7
100
AcDbVertex
100
AcDb2dVertex
 10
799.3252845143477
 20
112.7414848681419
 30
0.0
  0
SEQEND
  5
672
330
2AE
100
AcDbEntity
  8
PV
 62
     7
  0
LINE
  5
2AF
330
2
100
AcDbEntity
  8
PV
 62
     7
100
AcDbLine
 10
803.2382845143478
 20
110.7257848681417
 30
0.0
 11
805.6572845143477
 21
110.7257848681417
 31
0.0
  0
LINE
  5
2B0
330
2
100
AcDbEntity
  8
PV
 62
     7
100
AcDbLine
 10
847.8382845143478
 20
103.5617848681417
 30
0.0
 11
852.0882845143479
 21
103.5617848681417
 31
0.0
  0
LINE
  5
2B1
330
2
100
AcDbEntity
  8
PV
 62
     7
100
AcDbLine
 10
847.8382845143478
 20
98.67378486814187
 30
0.0
 11
852.0882845143479
 21
98.67378486814187
 31
0.0
  0
LINE
  5
2B2
330
2
100
AcDbEntity
  8
PV
 62
     7
100
AcDbLine
 10
843.4332845143478
 20
112.9656848681418
 30
0.0
 11
852.0882845143479
 21
122.4857848681417
 31
0.0
  0
LINE
  5
2B3
330
2
100
AcDbEntity
  8
PV
 62
     7
100
AcDbLine
 10
847.8382845143478
 20
106.9297848681417
 30
0.0
 11
847.8382845143478
 21
88.48578486814176
 31
0.0
  0
LINE
  5
2B4
330
2
100
AcDbEntity
  8
PV
 62
     7
100
AcDbLine
 10
832.0882845143477
 20
98.67378486814187
 30
0.0
 11
832.0882845143477
 21
103.5617848681417
 31
0.0
  0
LINE
  5
2B5
330
2
100
AcDbEntity
  8
PV
 62
     7
100
AcDbLine
 10
836.3382845143478
 20
106.9297848681417
 30
0.0
 11
836.3382845143478
 21
88.48578486814176
 31
0.0
  0
LINE
  5
2B6
330
2
100
AcDbEntity
  8
PV
 62
     7
100
AcDbLine
 10
847.8382845143478
 20
88.48578486814176
 30
0.0
 11
836.3382845143478
 21
88.48578486814176
 31
0.0
  0
LINE
  5
2B7
330
2
100
AcDbEntity
  8
PV
 62
     7
100
AcDbLine
 10
832.0882845143477
 20
98.67378486814187
 30
0.0
 11
836.3382845143478
 21
98.67378486814187
 31
0.0
  0
TEXT
  5
2B8
330
2
100
AcDbEntity
  8
PV
 62
     7
100
AcDbText
 10
811.6332845143478
 20
120.2357848681417
 30
0.0
 40
4.5
  1
P.P
 41
0.7780000000000001
  7
FONT1
100
AcDbText
  0
LINE
  5
2B9
330
2
100
AcDbEntity
  8
PV
 62
     7
100
AcDbLine
 10
807.7332845143478
 20
122.4857848681417
 30
0.0
 11
809.7332845143478
 21
122.4857848681417
 31
0.0
  0
LINE
  5
2BA
330
2
100
AcDbEntity
  8
PV
 62
     7
100
AcDbLine
 10
849.6322845143478
 20
106.9297848681417
 30
0.0
 11
834.5442845143479
 21
106.9297848681417
 31
0.0
  0
LINE
  5
2BB
330
2
100
AcDbEntity
  8
PV
 62
     7
100
AcDbLine
 10
834.6252845143478
 20
111.4857848681417
 30
0.0
 11
834.6252845143478
 21
110.7247848681417
 31
0.0
  0
ARC
  5
2BC
330
2
100
AcDbEntity
  8
PV
 62
     7
100
AcDbCircle
 10
834.6862845143478
 20
108.8277848681418
 30
0.0
 40
1.89798
100
AcDbArc
 50
91.84180000000003
 51
270.0
  0
LINE
  5
2BD
330
2
100
AcDbEntity
  8
PV
 62
     7
100
AcDbLine
 10
832.0882845143477
 20
103.5617848681417
 30
0.0
 11
836.3382845143478
 21
103.5617848681417
 31
0.0
  0
ARC
  5
2BE
330
2
100
AcDbEntity
  8
PV
 62
     7
100
AcDbCircle
 10
849.4902845143478
 20
108.8277848681418
 30
0.0
 40
1.89798
100
AcDbArc
 50
270.0
 51
88.15819999999998
  0
LINE
  5
2BF
330
2
100
AcDbEntity
  8
PV
 62
     7
100
AcDbLine
 10
849.5512845143478
 20
111.4857848681417
 30
0.0
 11
849.5512845143478
 21
110.7247848681417
 31
0.0
  0
POLYLINE
  5
2C0
330
2
100
AcDbEntity
  8
PV
 62
     7
100
AcDb2dPolyline
 66
     1
 10
0.0
 20
0.0
 30
0.0
  0
VERTEX
  5
673
330
2C0
100
AcDbEntity
  8
PV
 62
     7
100
AcDbVertex
100
AcDb2dVertex
 10
843.6802845143478
 20
112.7414848681419
 30
0.0
  0
VERTEX
  5
674
330
2C0
100
AcDbEntity
  8
PV
 62
     7
100
AcDbVertex
100
AcDb2dVertex
 10
843.1872845143477
 20
113.1898848681416
 30
0.0
  0
VERTEX
  5
675
330
2C0
100
AcDbEntity
  8
PV
 62
     7
100
AcDbVertex
100
AcDb2dVertex
 10
842.0882845143477
 20
111.4857848681417
 30
0.0
  0
VERTEX
  5
676
330
2C0
100
AcDbEntity
  8
PV
 62
     7
100
AcDbVertex
100
AcDb2dVertex
 10
843.6802845143478
 20
112.7414848681419
 30
0.0
  0
SEQEND
  5
677
330
2C0
100
AcDbEntity
  8
PV
 62
     7
  0
LINE
  5
2C1
330
2
100
AcDbEntity
  8
PV
 62
     7
100
AcDbLine
 10
852.0882845143479
 20
103.5617848681417
 30
0.0
 11
852.0882845143479
 21
98.67378486814187
 31
0.0
  0
TEXT
  5
2C2
330
2
100
AcDbEntity
  8
PV
 62
     7
100
AcDbText
 10
855.9882845143478
 20
120.2357848681417
 30
0.0
 40
4.5
  1
P.P
 41
0.7780000000000001
  7
FONT1
100
AcDbText
  0
LINE
  5
2C3
330
2
100
AcDbEntity
  8
PV
 62
     7
100
AcDbLine
 10
852.0882845143479
 20
122.4857848681417
 30
0.0
 11
854.0882845143478
 21
122.4857848681417
 31
0.0
  0
POLYLINE
  5
2C4
330
2
100
AcDbEntity
  8
PV
 62
     7
100
AcDb2dPolyline
 66
     1
 10
0.0
 20
0.0
 30
0.0
  0
VERTEX
  5
678
330
2C4
100
AcDbEntity
  8
PV
 62
     7
100
AcDbVertex
100
AcDb2dVertex
 10
807.5162845143477
 20
264.2297848681419
 30
0.0
  0
VERTEX
  5
679
330
2C4
100
AcDbEntity
  8
PV
 62
     7
100
AcDbVertex
100
AcDb2dVertex
 10
806.8952845143478
 20
264.4707848681418
 30
0.0
  0
VERTEX
  5
67A
330
2C4
100
AcDbEntity
  8
PV
 62
     7
100
AcDbVertex
100
AcDb2dVertex
 10
806.4832845143477
 20
262.4857848681417
 30
0.0
  0
VERTEX
  5
67B
330
2C4
100
AcDbEntity
  8
PV
 62
     7
100
AcDbVertex
100
AcDb2dVertex
 10
807.5162845143477
 20
264.2297848681419
 30
0.0
  0
SEQEND
  5
67C
330
2C4
100
AcDbEntity
  8
PV
 62
     7
  0
LINE
  5
2C5
330
2
100
AcDbEntity
  8
PV
 62
     7
100
AcDbLine
 10
745.7332845143477
 20
279.4857848681417
 30
0.0
 11
745.7332845143477
 21
241.9857848681417
 31
0.0
  0
LINE
  5
2C6
330
2
100
AcDbEntity
  8
PV
 62
     7
100
AcDbLine
 10
754.7332845143478
 20
208.4857848681417
 30
0.0
 11
754.7332845143478
 21
284.4857848681417
 31
0.0
  0
LINE
  5
2C7
330
2
100
AcDbEntity
  8
PV
 62
     7
100
AcDbLine
 10
738.7332845143478
 20
279.4857848681417
 30
0.0
 11
738.7332845143478
 21
241.9857848681417
 31
0.0
  0
LINE
  5
2C8
330
2
100
AcDbEntity
  8
PV
 62
     7
100
AcDbLine
 10
729.7332845143478
 20
208.4857848681417
 30
0.0
 11
729.7332845143478
 21
284.4857848681417
 31
0.0
  0
TEXT
  5
2C9
330
2
100
AcDbEntity
  8
PV
 62
     7
100
AcDbText
 10
722.6329845143478
 20
157.4857848681417
 30
0.0
 40
4.5
  1
FILTER MANUAL DRAIN
 41
0.9722221999999998
  7
FONT1
100
AcDbText
  0
LINE
  5
2CA
330
2
100
AcDbEntity
  8
PV
 62
     7
100
AcDbLine
 10
729.7332845143478
 20
208.4857848681417
 30
0.0
 11
754.7332845143478
 21
208.4857848681417
 31
0.0
  0
CIRCLE
  5
2CB
330
2
100
AcDbEntity
  8
PV
 62
     7
100
AcDbCircle
 10
742.2332845143478
 20
225.4857848681417
 30
0.0
 40
4.299999999999999
  0
LINE
  5
2CC
330
2
100
AcDbEntity
  8
PV
  6
CENTER
 62
     1
100
AcDbLine
 10
752.7332845143478
 20
225.4857848681417
 30
0.0
 11
731.7332845143478
 21
225.4857848681417
 31
0.0
  0
ARC
  5
2CD
330
2
100
AcDbEntity
  8
PV
 62
     7
100
AcDbCircle
 10
742.2332845143478
 20
241.9857848681417
 30
0.0
 40
3.5
100
AcDbArc
 50
180.0
 51
0.0
  0
LINE
  5
2CE
330
2
100
AcDbEntity
  8
PV
  6
CENTER
 62
     1
100
AcDbLine
 10
742.2332845143478
 20
214.9857848681417
 30
0.0
 11
742.2332845143478
 21
235.9857848681417
 31
0.0
  0
LINE
  5
2CF
330
2
100
AcDbEntity
  8
PV
 62
     7
100
AcDbLine
 10
745.7332845143477
 20
310.4857848681417
 30
0.0
 11
745.7332845143477
 21
293.4857848681417
 31
0.0
  0
LINE
  5
2D0
330
2
100
AcDbEntity
  8
PV
 62
     7
100
AcDbLine
 10
738.7332845143478
 20
310.4857848681417
 30
0.0
 11
738.7332845143478
 21
293.4857848681417
 31
0.0
  0
LINE
  5
2D1
330
2
100
AcDbEntity
  8
PV
  6
CENTER
 62
     1
100
AcDbLine
 10
752.7332845143478
 20
268.4857848681417
 30
0.0
 11
731.7332845143478
 21
268.4857848681417
 31
0.0
  0
LINE
  5
2D2
330
2
100
AcDbEntity
  8
PV
 62
     7
100
AcDbLine
 10
729.7332845143478
 20
279.4857848681417
 30
0.0
 11
754.7332845143478
 21
279.4857848681417
 31
0.0
  0
LINE
  5
2D3
330
2
100
AcDbEntity
  8
PV
 62
     7
100
AcDbLine
 10
729.7332845143478
 20
284.4857848681417
 30
0.0
 11
754.7332845143478
 21
284.4857848681417
 31
0.0
  0
LINE
  5
2D4
330
2
100
AcDbEntity
  8
PV
 62
     7
100
AcDbLine
 10
734.2332845143478
 20
286.4857848681417
 30
0.0
 11
750.2332845143477
 21
286.4857848681417
 31
0.0
  0
LINE
  5
2D5
330
2
100
AcDbEntity
  8
PV
 62
     7
100
AcDbLine
 10
735.3052845143478
 20
293.4857848681417
 30
0.0
 11
749.1612845143478
 21
293.4857848681417
 31
0.0
  0
ARC
  5
2D6
330
2
100
AcDbEntity
  8
PV
 62
     7
100
AcDbCircle
 10
742.2332845143478
 20
268.4857848681417
 30
0.0
 40
4.299999999999999
100
AcDbArc
 50
144.484
 51
215.5159999999999
  0
LINE
  5
2D7
330
2
100
AcDbEntity
  8
PV
 62
     7
100
AcDbLine
 10
735.3052845143478
 20
293.4857848681417
 30
0.0
 11
735.3052845143478
 21
286.4857848681417
 31
0.0
  0
LINE
  5
2D8
330
2
100
AcDbEntity
  8
PV
 62
     7
100
AcDbLine
 10
734.2332845143478
 20
286.4857848681417
 30
0.0
 11
734.2332845143478
 21
284.4857848681417
 31
0.0
  0
LINE
  5
2D9
330
2
100
AcDbEntity
  8
PV
  6
CENTER
 62
     1
100
AcDbLine
 10
742.2332845143478
 20
257.9857848681417
 30
0.0
 11
742.2332845143478
 21
278.9857848681417
 31
0.0
  0
ARC
  5
2DA
330
2
100
AcDbEntity
  8
PV
 62
     7
100
AcDbCircle
 10
742.2332845143478
 20
268.4857848681417
 30
0.0
 40
4.299999999999999
100
AcDbArc
 50
324.484
 51
35.516
  0
LINE
  5
2DB
330
2
100
AcDbEntity
  8
PV
 62
     7
100
AcDbLine
 10
749.1612845143478
 20
293.4857848681417
 30
0.0
 11
749.1612845143478
 21
286.4857848681417
 31
0.0
  0
LINE
  5
2DC
330
2
100
AcDbEntity
  8
PV
 62
     7
100
AcDbLine
 10
750.2332845143477
 20
286.4857848681417
 30
0.0
 11
750.2332845143477
 21
284.4857848681417
 31
0.0
  0
LINE
  5
2DD
330
2
100
AcDbEntity
  8
PV
 62
     7
100
AcDbLine
 10
754.7332845143478
 20
343.4857848681417
 30
0.0
 11
729.7332845143478
 21
343.4857848681417
 31
0.0
  0
LINE
  5
2DE
330
2
100
AcDbEntity
  8
PV
 62
     7
100
AcDbLine
 10
745.7332845143477
 20
310.4857848681417
 30
0.0
 11
738.7332845143478
 21
310.4857848681417
 31
0.0
  0
LINE
  5
2DF
330
2
100
AcDbEntity
  8
PV
 62
     7
100
AcDbLine
 10
872.7332845143477
 20
279.4857848681417
 30
0.0
 11
872.7332845143477
 21
241.9857848681417
 31
0.0
  0
LINE
  5
2E0
330
2
100
AcDbEntity
  8
PV
 62
     7
100
AcDbLine
 10
879.7332845143477
 20
279.4857848681417
 30
0.0
 11
879.7332845143477
 21
241.9857848681417
 31
0.0
  0
LINE
  5
2E1
330
2
100
AcDbEntity
  8
PV
 62
     7
100
AcDbLine
 10
863.7332845143477
 20
208.4857848681417
 30
0.0
 11
863.7332845143477
 21
284.4857848681417
 31
0.0
  0
LINE
  5
2E2
330
2
100
AcDbEntity
  8
PV
 62
     7
100
AcDbLine
 10
888.7332845143477
 20
208.4857848681417
 30
0.0
 11
888.7332845143477
 21
284.4857848681417
 31
0.0
  0
ARC
  5
2E3
330
2
100
AcDbEntity
  8
PV
 62
     7
100
AcDbCircle
 10
876.2332845143477
 20
241.9857848681417
 30
0.0
 40
3.5
100
AcDbArc
 50
180.0
 51
0.0
  0
LINE
  5
2E4
330
2
100
AcDbEntity
  8
PV
 62
     7
100
AcDbLine
 10
863.7332845143477
 20
208.4857848681417
 30
0.0
 11
888.7332845143477
 21
208.4857848681417
 31
0.0
  0
LINE
  5
2E5
330
2
100
AcDbEntity
  8
PV
  6
CENTER
 62
     1
100
AcDbLine
 10
886.7332845143478
 20
225.4857848681417
 30
0.0
 11
865.7332845143479
 21
225.4857848681417
 31
0.0
  0
CIRCLE
  5
2E6
330
2
100
AcDbEntity
  8
PV
 62
     7
100
AcDbCircle
 10
876.2332845143477
 20
225.4857848681417
 30
0.0
 40
4.299999999999999
  0
LINE
  5
2E7
330
2
100
AcDbEntity
  8
PV
  6
CENTER
 62
     1
100
AcDbLine
 10
876.2332845143477
 20
214.9857848681417
 30
0.0
 11
876.2332845143477
 21
235.9857848681417
 31
0.0
  0
LINE
  5
2E8
330
2
100
AcDbEntity
  8
PV
 62
     7
100
AcDbLine
 10
807.2062845143477
 20
264.3507848681415
 30
0.0
 11
821.9832845143479
 21
302.4857848681417
 31
0.0
  0
TEXT
  5
2E9
330
2
100
AcDbEntity
  8
PV
 62
     7
100
AcDbText
 10
825.8832845143478
 20
300.2357848681417
 30
0.0
 40
4.5
  1
P.P
 41
0.7780000000000001
  7
FONT1
100
AcDbText
  0
LINE
  5
2EA
330
2
100
AcDbEntity
  8
PV
 62
     7
100
AcDbLine
 10
821.9832845143479
 20
302.4857848681417
 30
0.0
 11
823.9832845143478
 21
302.4857848681417
 31
0.0
  0
LINE
  5
2EB
330
2
100
AcDbEntity
  8
PV
 62
     7
100
AcDbLine
 10
879.7332845143477
 20
310.4857848681417
 30
0.0
 11
879.7332845143477
 21
293.4857848681417
 31
0.0
  0
LINE
  5
2EC
330
2
100
AcDbEntity
  8
PV
 62
     7
100
AcDbLine
 10
872.7332845143477
 20
310.4857848681417
 30
0.0
 11
872.7332845143477
 21
293.4857848681417
 31
0.0
  0
LINE
  5
2ED
330
2
100
AcDbEntity
  8
PV
 62
     7
100
AcDbLine
 10
863.7332845143477
 20
284.4857848681417
 30
0.0
 11
888.7332845143477
 21
284.4857848681417
 31
0.0
  0
LINE
  5
2EE
330
2
100
AcDbEntity
  8
PV
 62
     7
100
AcDbLine
 10
863.7332845143477
 20
279.4857848681417
 30
0.0
 11
888.7332845143477
 21
279.4857848681417
 31
0.0
  0
LINE
  5
2EF
330
2
100
AcDbEntity
  8
PV
 62
     7
100
AcDbLine
 10
868.2332845143477
 20
286.4857848681417
 30
0.0
 11
884.2332845143477
 21
286.4857848681417
 31
0.0
  0
LINE
  5
2F0
330
2
100
AcDbEntity
  8
PV
 62
     7
100
AcDbLine
 10
869.3052845143478
 20
293.4857848681417
 30
0.0
 11
883.1612845143478
 21
293.4857848681417
 31
0.0
  0
LINE
  5
2F1
330
2
100
AcDbEntity
  8
PV
  6
CENTER
 62
     1
100
AcDbLine
 10
886.7332845143478
 20
268.4857848681417
 30
0.0
 11
865.7332845143479
 21
268.4857848681417
 31
0.0
  0
ARC
  5
2F2
330
2
100
AcDbEntity
  8
PV
 62
     7
100
AcDbCircle
 10
876.2332845143477
 20
268.4857848681417
 30
0.0
 40
4.299999999999999
100
AcDbArc
 50
144.484
 51
215.5159999999999
  0
LINE
  5
2F3
330
2
100
AcDbEntity
  8
PV
 62
     7
100
AcDbLine
 10
869.3052845143478
 20
293.4857848681417
 30
0.0
 11
869.3052845143478
 21
286.4857848681417
 31
0.0
  0
LINE
  5
2F4
330
2
100
AcDbEntity
  8
PV
 62
     7
100
AcDbLine
 10
868.2332845143477
 20
286.4857848681417
 30
0.0
 11
868.2332845143477
 21
284.4857848681417
 31
0.0
  0
LINE
  5
2F5
330
2
100
AcDbEntity
  8
PV
  6
CENTER
 62
     1
100
AcDbLine
 10
876.2332845143477
 20
257.9857848681417
 30
0.0
 11
876.2332845143477
 21
278.9857848681417
 31
0.0
  0
ARC
  5
2F6
330
2
100
AcDbEntity
  8
PV
 62
     7
100
AcDbCircle
 10
876.2332845143477
 20
268.4857848681417
 30
0.0
 40
4.299999999999999
100
AcDbArc
 50
324.484
 51
35.516
  0
LINE
  5
2F7
330
2
100
AcDbEntity
  8
PV
 62
     7
100
AcDbLine
 10
883.1612845143478
 20
293.4857848681417
 30
0.0
 11
883.1612845143478
 21
286.4857848681417
 31
0.0
  0
LINE
  5
2F8
330
2
100
AcDbEntity
  8
PV
 62
     7
100
AcDbLine
 10
884.2332845143477
 20
286.4857848681417
 30
0.0
 11
884.2332845143477
 21
284.4857848681417
 31
0.0
  0
LINE
  5
2F9
330
2
100
AcDbEntity
  8
PV
 62
     7
100
AcDbLine
 10
888.7332845143477
 20
343.4857848681417
 30
0.0
 11
863.7332845143477
 21
343.4857848681417
 31
0.0
  0
LINE
  5
2FA
330
2
100
AcDbEntity
  8
PV
 62
     7
100
AcDbLine
 10
879.7332845143477
 20
310.4857848681417
 30
0.0
 11
872.7332845143477
 21
310.4857848681417
 31
0.0
  0
LINE
  5
2FB
330
2
100
AcDbEntity
  8
PV
 62
     7
100
AcDbLine
 10
963.7332845143477
 20
279.4857848681417
 30
0.0
 11
1088.733284514347
 21
279.4857848681417
 31
0.0
  0
LINE
  5
2FC
330
2
100
AcDbEntity
  8
PV
 62
     7
100
AcDbLine
 10
963.7332845143477
 20
284.4857848681417
 30
0.0
 11
1093.733284514347
 21
284.4857848681417
 31
0.0
  0
LINE
  5
2FD
330
2
100
AcDbEntity
  8
PV
 62
     7
100
AcDbLine
 10
980.7332845143477
 20
286.4857848681417
 30
0.0
 11
1044.733284514347
 21
286.4857848681417
 31
0.0
  0
LINE
  5
2FE
330
2
100
AcDbEntity
  8
PV
 62
     7
100
AcDbLine
 10
985.2332845143477
 20
293.4857848681417
 30
0.0
 11
997.2332845143478
 21
293.4857848681417
 31
0.0
  0
LINE
  5
2FF
330
2
100
AcDbEntity
  8
PV
 62
     7
100
AcDbLine
 10
963.7332845143477
 20
284.4857848681417
 30
0.0
 11
963.7332845143477
 21
279.4857848681417
 31
0.0
  0
LINE
  5
300
330
2
100
AcDbEntity
  8
PV
 62
     7
100
AcDbLine
 10
980.7332845143477
 20
286.4857848681417
 30
0.0
 11
980.7332845143477
 21
284.4857848681417
 31
0.0
  0
LINE
  5
301
330
2
100
AcDbEntity
  8
PV
 62
     7
100
AcDbLine
 10
985.2332845143477
 20
293.4857848681417
 30
0.0
 11
985.2332845143477
 21
286.4857848681417
 31
0.0
  0
ARC
  5
302
330
2
100
AcDbEntity
  8
PV
 62
     7
100
AcDbCircle
 10
1012.733284514347
 20
263.4857848681417
 30
0.0
 40
18.0
100
AcDbArc
 50
180.0
 51
0.0
  0
ARC
  5
303
330
2
100
AcDbEntity
  8
PV
 62
     7
100
AcDbCircle
 10
1012.733284514347
 20
263.4857848681417
 30
0.0
 40
25.0
100
AcDbArc
 50
180.0
 51
0.0
  0
TEXT
  5
304
330
2
100
AcDbEntity
  8
PV
 62
     7
100
AcDbText
 10
1026.633284514347
 20
315.2357848681417
 30
0.0
 40
4.5
  1
P.P
 41
0.7780000000000001
  7
FONT1
100
AcDbText
  0
LINE
  5
305
330
2
100
AcDbEntity
  8
PV
 62
     7
100
AcDbLine
 10
1028.233284514348
 20
293.4857848681417
 30
0.0
 11
1040.233284514347
 21
293.4857848681417
 31
0.0
  0
LINE
  5
306
330
2
100
AcDbEntity
  8
PV
 62
     7
100
AcDbLine
 10
1037.733284514347
 20
310.4857848681417
 30
0.0
 11
1030.733284514347
 21
310.4857848681417
 31
0.0
  0
LINE
  5
307
330
2
100
AcDbEntity
  8
PV
 62
     7
100
AcDbLine
 10
1030.733284514347
 20
310.4857848681417
 30
0.0
 11
1030.733284514347
 21
293.4857848681417
 31
0.0
  0
LINE
  5
308
330
2
100
AcDbEntity
  8
PV
 62
     7
100
AcDbLine
 10
994.7332845143478
 20
310.4857848681417
 30
0.0
 11
994.7332845143478
 21
293.4857848681417
 31
0.0
  0
LINE
  5
309
330
2
100
AcDbEntity
  8
PV
 62
     7
100
AcDbLine
 10
987.7332845143477
 20
310.4857848681417
 30
0.0
 11
987.7332845143477
 21
293.4857848681417
 31
0.0
  0
LINE
  5
30A
330
2
100
AcDbEntity
  8
PV
 62
     7
100
AcDbLine
 10
1013.091284514347
 20
264.4537848681415
 30
0.0
 11
1022.733284514347
 21
317.4857848681417
 31
0.0
  0
LINE
  5
30B
330
2
100
AcDbEntity
  8
PV
 62
     7
100
AcDbLine
 10
994.7332845143478
 20
279.4857848681417
 30
0.0
 11
994.7332845143478
 21
263.4857848681417
 31
0.0
  0
LINE
  5
30C
330
2
100
AcDbEntity
  8
PV
 62
     7
100
AcDbLine
 10
987.7332845143477
 20
279.4857848681417
 30
0.0
 11
987.7332845143477
 21
263.4857848681417
 31
0.0
  0
LINE
  5
30D
330
2
100
AcDbEntity
  8
PV
 62
     7
100
AcDbLine
 10
997.2332845143478
 20
293.4857848681417
 30
0.0
 11
997.2332845143478
 21
286.4857848681417
 31
0.0
  0
LINE
  5
30E
330
2
100
AcDbEntity
  8
PV
 62
     7
100
AcDbLine
 10
1030.733284514347
 20
279.4857848681417
 30
0.0
 11
1030.733284514347
 21
263.4857848681417
 31
0.0
  0
POLYLINE
  5
30F
330
2
100
AcDbEntity
  8
PV
 62
     7
100
AcDb2dPolyline
 66
     1
 10
0.0
 20
0.0
 30
0.0
  0
VERTEX
  5
67D
330
30F
100
AcDbEntity
  8
PV
 62
     7
100
AcDbVertex
100
AcDb2dVertex
 10
1013.419284514347
 20
264.3937848681416
 30
0.0
  0
VERTEX
  5
67E
330
30F
100
AcDbEntity
  8
PV
 62
     7
100
AcDbVertex
100
AcDb2dVertex
 10
1012.763284514347
 20
264.5127848681418
 30
0.0
  0
VERTEX
  5
67F
330
30F
100
AcDbEntity
  8
PV
 62
     7
100
AcDbVertex
100
AcDb2dVertex
 10
1012.733284514347
 20
262.4857848681417
 30
0.0
  0
VERTEX
  5
680
330
30F
100
AcDbEntity
  8
PV
 62
     7
100
AcDbVertex
100
AcDb2dVertex
 10
1013.419284514347
 20
264.3937848681416
 30
0.0
  0
SEQEND
  5
681
330
30F
100
AcDbEntity
  8
PV
 62
     7
  0
LINE
  5
310
330
2
100
AcDbEntity
  8
PV
 62
     7
100
AcDbLine
 10
1028.233284514348
 20
293.4857848681417
 30
0.0
 11
1028.233284514348
 21
286.4857848681417
 31
0.0
  0
LINE
  5
311
330
2
100
AcDbEntity
  8
PV
 62
     7
100
AcDbLine
 10
994.7332845143478
 20
310.4857848681417
 30
0.0
 11
987.7332845143477
 21
310.4857848681417
 31
0.0
  0
LINE
  5
312
330
2
100
AcDbEntity
  8
PV
 62
     7
100
AcDbLine
 10
1022.733284514347
 20
317.4857848681417
 30
0.0
 11
1024.733284514347
 21
317.4857848681417
 31
0.0
  0
LINE
  5
313
330
2
100
AcDbEntity
  8
PV
 62
     7
100
AcDbLine
 10
1037.733284514347
 20
310.4857848681417
 30
0.0
 11
1037.733284514347
 21
293.4857848681417
 31
0.0
  0
LINE
  5
314
330
2
100
AcDbEntity
  8
PV
 62
     7
100
AcDbLine
 10
1037.733284514347
 20
279.4857848681417
 30
0.0
 11
1037.733284514347
 21
263.4857848681417
 31
0.0
  0
LINE
  5
315
330
2
100
AcDbEntity
  8
PV
 62
     7
100
AcDbLine
 10
1040.233284514347
 20
293.4857848681417
 30
0.0
 11
1040.233284514347
 21
286.4857848681417
 31
0.0
  0
LINE
  5
316
330
2
100
AcDbEntity
  8
PV
 62
     7
100
AcDbLine
 10
1044.733284514347
 20
286.4857848681417
 30
0.0
 11
1044.733284514347
 21
284.4857848681417
 31
0.0
  0
LINE
  5
317
330
2
100
AcDbEntity
  8
PV
 62
     7
100
AcDbLine
 10
1088.733284514347
 20
279.4857848681417
 30
0.0
 11
1088.733284514347
 21
208.4857848681417
 31
0.0
  0
LINE
  5
318
330
2
100
AcDbEntity
  8
PV
 62
     7
100
AcDbLine
 10
1093.733284514347
 20
284.4857848681417
 30
0.0
 11
1093.733284514347
 21
208.4857848681417
 31
0.0
  0
LINE
  5
319
330
2
100
AcDbEntity
  8
PV
 62
     7
100
AcDbLine
 10
1088.733284514347
 20
208.4857848681417
 30
0.0
 11
1093.733284514347
 21
208.4857848681417
 31
0.0
  0
LINE
  5
31A
330
2
100
AcDbEntity
  8
PV
  6
CENTER
 62
     1
100
AcDbLine
 10
1098.733284514348
 20
225.4857848681417
 30
0.0
 11
1083.733284514347
 21
225.4857848681417
 31
0.0
  0
LINE
  5
31B
330
2
100
AcDbEntity
  8
PV
  6
CENTER
 62
     1
100
AcDbLine
 10
1098.733284514348
 20
268.4857848681417
 30
0.0
 11
1083.733284514347
 21
268.4857848681417
 31
0.0
  0
LINE
  5
31C
330
2
100
AcDbEntity
  8
PV
  6
CENTER
 62
     1
100
AcDbLine
 10
702.7332845143478
 20
522.4857848681417
 30
0.0
 11
1112.733284514347
 21
522.4857848681417
 31
0.0
  0
LINE
  5
31D
330
2
100
AcDbEntity
  8
PV
 62
     7
100
AcDbLine
 10
865.7332845143479
 20
764.4857848681417
 30
0.0
 11
865.7332845143479
 21
700.4857848681417
 31
0.0
  0
LINE
  5
31E
330
2
100
AcDbEntity
  8
PV
 62
     7
100
AcDbLine
 10
881.7332845143479
 20
764.4857848681417
 30
0.0
 11
881.7332845143479
 21
700.4857848681417
 31
0.0
  0
LINE
  5
31F
330
2
100
AcDbEntity
  8
PV
 62
     7
100
AcDbLine
 10
861.2332845143479
 20
683.4857848681417
 30
0.0
 11
861.2332845143479
 21
813.4857848681416
 31
0.0
  0
LINE
  5
320
330
2
100
AcDbEntity
  8
PV
 62
     7
100
AcDbLine
 10
886.2332845143479
 20
683.4857848681417
 30
0.0
 11
886.2332845143479
 21
813.4857848681416
 31
0.0
  0
LINE
  5
321
330
2
100
AcDbEntity
  8
PV
 62
     7
100
AcDbLine
 10
750.2332845143477
 20
764.4857848681417
 30
0.0
 11
750.2332845143477
 21
700.4857848681417
 31
0.0
  0
LINE
  5
322
330
2
100
AcDbEntity
  8
PV
 62
     7
100
AcDbLine
 10
734.2332845143478
 20
764.4857848681417
 30
0.0
 11
734.2332845143478
 21
700.4857848681417
 31
0.0
  0
LINE
  5
323
330
2
100
AcDbEntity
  8
PV
 62
     7
100
AcDbLine
 10
754.7332845143478
 20
683.4857848681417
 30
0.0
 11
754.7332845143478
 21
813.4857848681416
 31
0.0
  0
LINE
  5
324
330
2
100
AcDbEntity
  8
PV
 62
     7
100
AcDbLine
 10
729.7332845143478
 20
683.4857848681417
 30
0.0
 11
729.7332845143478
 21
813.4857848681416
 31
0.0
  0
LINE
  5
325
330
2
100
AcDbEntity
  8
PV
 62
     7
100
AcDbLine
 10
806.4312845143478
 20
731.1067848681418
 30
0.0
 11
815.4832845143477
 21
722.4857848681417
 31
0.0
  0
LINE
  5
326
330
2
100
AcDbEntity
  8
PV
 62
     7
100
AcDbLine
 10
573.029
 20
587.8000000000004
 30
0.0
 11
568.5
 21
432.0000000000002
 31
0.0
  0
LINE
  5
327
330
2
100
AcDbEntity
  8
PV
 62
     7
100
AcDbLine
 10
540.0
 20
432.0000000000002
 30
0.0
 11
540.0
 21
578.8000000000003
 31
0.0
  0
ARC
  5
328
330
2
100
AcDbEntity
  8
PV
 62
     7
100
AcDbCircle
 10
542.4999999999999
 20
432.0000000000002
 30
0.0
 40
26.0
100
AcDbArc
 50
270.0
 51
0.0
  0
LINE
  5
329
330
2
100
AcDbEntity
  8
PV
 62
     7
100
AcDbLine
 10
537.0
 20
398.0760000000002
 30
0.0
 11
537.0
 21
393.1880000000003
 31
0.0
  0
LINE
  5
32A
330
2
100
AcDbEntity
  8
PV
 62
     7
100
AcDbLine
 10
549.5
 20
672.8000000000001
 30
0.0
 11
549.5
 21
627.8000000000004
 31
0.0
  0
LINE
  5
32B
330
2
100
AcDbEntity
  8
PV
 62
     7
100
AcDbLine
 10
569.0
 20
682.0000000000002
 30
0.0
 11
569.0
 21
627.8000000000004
 31
0.0
  0
LINE
  5
32C
330
2
100
AcDbEntity
  8
PV
 62
     7
100
AcDbLine
 10
582.0
 20
627.8000000000004
 30
0.0
 11
582.0
 21
587.8000000000004
 31
0.0
  0
LINE
  5
32D
330
2
100
AcDbEntity
  8
PV
 62
     7
100
AcDbLine
 10
544.7499999999999
 20
698.0000000000002
 30
0.0
 11
565.2499999999999
 21
698.0000000000002
 31
0.0
  0
LINE
  5
32E
330
2
100
AcDbEntity
  8
L-ZISSEN
100
AcDbLine
 10
556.0
 20
698.0000000000002
 30
0.0
 11
556.0
 21
710.0000000000002
 31
0.0
  0
LINE
  5
32F
330
2
100
AcDbEntity
  8
PV
 62
     7
100
AcDbLine
 10
544.7499999999999
 20
698.0000000000002
 30
0.0
 11
544.7499999999999
 21
682.0000000000002
 31
0.0
  0
LINE
  5
330
330
2
100
AcDbEntity
  8
L-ZISSEN
 62
     7
100
AcDbLine
 10
537.0
 20
710.0000000000002
 30
0.0
 11
539.0
 21
710.0000000000002
 31
0.0
  0
LINE
  5
331
330
2
100
AcDbEntity
  8
PV
 62
     7
100
AcDbLine
 10
565.2499999999999
 20
698.0000000000002
 30
0.0
 11
565.2499999999999
 21
682.0000000000002
 31
0.0
  0
POLYLINE
  5
332
330
2
100
AcDbEntity
  8
PV
 62
     7
100
AcDb2dPolyline
 66
     1
 10
0.0
 20
0.0
 30
0.0
  0
VERTEX
  5
682
330
332
100
AcDbEntity
  8
PV
 62
     7
100
AcDbVertex
100
AcDb2dVertex
 10
807.7012845143478
 20
390.8647848681416
 30
0.0
  0
VERTEX
  5
683
330
332
100
AcDbEntity
  8
PV
 62
     7
100
AcDbVertex
100
AcDb2dVertex
 10
808.1612845143478
 20
391.3477848681418
 30
0.0
  0
VERTEX
  5
684
330
332
100
AcDbEntity
  8
PV
 62
     7
100
AcDbVertex
100
AcDb2dVertex
 10
806.4832845143477
 20
392.4857848681417
 30
0.0
  0
VERTEX
  5
685
330
332
100
AcDbEntity
  8
PV
 62
     7
100
AcDbVertex
100
AcDb2dVertex
 10
807.7012845143478
 20
390.8647848681416
 30
0.0
  0
SEQEND
  5
686
330
332
100
AcDbEntity
  8
PV
 62
     7
  0
LINE
  5
333
330
2
100
AcDbEntity
  8
PV
 62
     7
100
AcDbLine
 10
750.2332845143477
 20
424.4857848681418
 30
0.0
 11
750.2332845143477
 21
360.4857848681417
 31
0.0
  0
LINE
  5
334
330
2
100
AcDbEntity
  8
PV
 62
     7
100
AcDbLine
 10
734.2332845143478
 20
424.4857848681418
 30
0.0
 11
734.2332845143478
 21
360.4857848681417
 31
0.0
  0
LINE
  5
335
330
2
100
AcDbEntity
  8
PV
 62
     7
100
AcDbLine
 10
734.2332845143478
 20
360.4857848681417
 30
0.0
 11
750.2332845143477
 21
360.4857848681417
 31
0.0
  0
CIRCLE
  5
336
330
2
100
AcDbEntity
  8
PV
 62
     7
100
AcDbCircle
 10
742.2332845143478
 20
370.9857848681417
 30
0.0
 40
3.5
  0
LINE
  5
337
330
2
100
AcDbEntity
  8
PV
 62
     7
100
AcDbLine
 10
745.6972845143479
 20
364.9857848681417
 30
0.0
 11
738.7692845143477
 21
364.9857848681417
 31
0.0
  0
LINE
  5
338
330
2
100
AcDbEntity
  8
PV
 62
     7
100
AcDbLine
 10
738.7692845143477
 20
376.9857848681417
 30
0.0
 11
745.6972845143479
 21
376.9857848681417
 31
0.0
  0
LINE
  5
339
330
2
100
AcDbEntity
  8
PV
 62
     7
100
AcDbLine
 10
738.7692845143477
 20
364.9857848681417
 30
0.0
 11
735.3052845143478
 21
370.9857848681417
 31
0.0
  0
LINE
  5
33A
330
2
100
AcDbEntity
  8
PV
 62
     7
100
AcDbLine
 10
735.3052845143478
 20
370.9857848681417
 30
0.0
 11
738.7692845143477
 21
376.9857848681417
 31
0.0
  0
LINE
  5
33B
330
2
100
AcDbEntity
  8
PV
 62
     7
100
AcDbLine
 10
749.1612845143478
 20
370.9857848681417
 30
0.0
 11
745.6972845143479
 21
364.9857848681417
 31
0.0
  0
LINE
  5
33C
330
2
100
AcDbEntity
  8
PV
 62
     7
100
AcDbLine
 10
745.6972845143479
 20
376.9857848681417
 30
0.0
 11
749.1612845143478
 21
370.9857848681417
 31
0.0
  0
CIRCLE
  5
33D
330
2
100
AcDbEntity
  8
PV
 62
     7
100
AcDbCircle
 10
742.2332845143478
 20
413.9857848681417
 30
0.0
 40
3.5
  0
LINE
  5
33E
330
2
100
AcDbEntity
  8
PV
 62
     7
100
AcDbLine
 10
738.7692845143477
 20
407.9857848681418
 30
0.0
 11
745.6972845143479
 21
407.9857848681418
 31
0.0
  0
LINE
  5
33F
330
2
100
AcDbEntity
  8
PV
 62
     7
100
AcDbLine
 10
734.2332845143478
 20
424.4857848681418
 30
0.0
 11
750.2332845143477
 21
424.4857848681418
 31
0.0
  0
LINE
  5
340
330
2
100
AcDbEntity
  8
PV
 62
     7
100
AcDbLine
 10
745.6972845143479
 20
419.9857848681417
 30
0.0
 11
738.7692845143477
 21
419.9857848681417
 31
0.0
  0
LINE
  5
341
330
2
100
AcDbEntity
  8
PV
 62
     7
100
AcDbLine
 10
738.7692845143477
 20
419.9857848681417
 30
0.0
 11
735.3052845143478
 21
413.9857848681417
 31
0.0
  0
LINE
  5
342
330
2
100
AcDbEntity
  8
PV
 62
     7
100
AcDbLine
 10
735.3052845143478
 20
413.9857848681417
 30
0.0
 11
738.7692845143477
 21
407.9857848681418
 31
0.0
  0
LINE
  5
343
330
2
100
AcDbEntity
  8
PV
 62
     7
100
AcDbLine
 10
749.1612845143478
 20
413.9857848681417
 30
0.0
 11
745.6972845143479
 21
419.9857848681417
 31
0.0
  0
LINE
  5
344
330
2
100
AcDbEntity
  8
PV
 62
     7
100
AcDbLine
 10
745.6972845143479
 20
407.9857848681418
 30
0.0
 11
749.1612845143478
 21
413.9857848681417
 31
0.0
  0
TEXT
  5
345
330
2
100
AcDbEntity
  8
PV
 62
     7
100
AcDbText
 10
722.6328845143477
 20
497.4857848681417
 30
0.0
 40
4.5
  1
MODEL No. : 6212-50
 41
0.90358
  7
FONT1
100
AcDbText
  0
TEXT
  5
346
330
2
100
AcDbEntity
  8
PV
 62
     7
100
AcDbText
 10
722.6331845143477
 20
487.4857848681418
 30
0.0
 40
4.5
  1
(P8A-86*-*1DB)
 41
0.9047622
  7
FONT1
100
AcDbText
  0
TEXT
  5
347
330
2
100
AcDbEntity
  8
PV
 62
     7
100
AcDbText
 10
722.6332845143478
 20
507.4857848681417
 30
0.0
 40
4.5
  1
L TYPE BRACKET
  7
FONT1
100
AcDbText
  0
LINE
  5
348
330
2
100
AcDbEntity
  8
PV
 62
     7
100
AcDbLine
 10
754.7332845143478
 20
473.4857848681417
 30
0.0
 11
729.7332845143478
 21
473.4857848681417
 31
0.0
  0
LINE
  5
349
330
2
100
AcDbEntity
  8
PV
  6
CENTER
 62
     1
100
AcDbLine
 10
742.2332845143478
 20
478.4857848681418
 30
0.0
 11
742.2332845143478
 21
468.4857848681417
 31
0.0
  0
TEXT
  5
34A
330
2
100
AcDbEntity
  8
PV
 62
     7
100
AcDbText
 10
820.8832845143477
 20
380.2357848681417
 30
0.0
 40
4.5
  1
P.P
 41
0.7780000000000001
  7
FONT1
100
AcDbText
  0
LINE
  5
34B
330
2
100
AcDbEntity
  8
PV
 62
     7
100
AcDbLine
 10
816.9832845143478
 20
382.4857848681417
 30
0.0
 11
818.9832845143477
 21
382.4857848681417
 31
0.0
  0
LINE
  5
34C
330
2
100
AcDbEntity
  8
PV
 62
     7
100
AcDbLine
 10
807.9312845143478
 20
391.1067848681418
 30
0.0
 11
816.9832845143478
 21
382.4857848681417
 31
0.0
  0
LINE
  5
34D
330
2
100
AcDbEntity
  8
PV
 62
     7
100
AcDbLine
 10
884.2332845143477
 20
424.4857848681418
 30
0.0
 11
884.2332845143477
 21
360.4857848681417
 31
0.0
  0
LINE
  5
34E
330
2
100
AcDbEntity
  8
PV
 62
     7
100
AcDbLine
 10
868.2332845143477
 20
424.4857848681418
 30
0.0
 11
868.2332845143477
 21
360.4857848681417
 31
0.0
  0
CIRCLE
  5
34F
330
2
100
AcDbEntity
  8
PV
 62
     7
100
AcDbCircle
 10
876.2332845143477
 20
370.9857848681417
 30
0.0
 40
3.5
  0
LINE
  5
350
330
2
100
AcDbEntity
  8
PV
 62
     7
100
AcDbLine
 10
879.6972845143478
 20
364.9857848681417
 30
0.0
 11
872.7692845143478
 21
364.9857848681417
 31
0.0
  0
LINE
  5
351
330
2
100
AcDbEntity
  8
PV
 62
     7
100
AcDbLine
 10
872.7692845143478
 20
376.9857848681417
 30
0.0
 11
879.6972845143478
 21
376.9857848681417
 31
0.0
  0
LINE
  5
352
330
2
100
AcDbEntity
  8
PV
 62
     7
100
AcDbLine
 10
868.2332845143477
 20
360.4857848681417
 30
0.0
 11
884.2332845143477
 21
360.4857848681417
 31
0.0
  0
LINE
  5
353
330
2
100
AcDbEntity
  8
PV
 62
     7
100
AcDbLine
 10
872.7692845143478
 20
364.9857848681417
 30
0.0
 11
869.3052845143478
 21
370.9857848681417
 31
0.0
  0
LINE
  5
354
330
2
100
AcDbEntity
  8
PV
 62
     7
100
AcDbLine
 10
869.3052845143478
 20
370.9857848681417
 30
0.0
 11
872.7692845143478
 21
376.9857848681417
 31
0.0
  0
LINE
  5
355
330
2
100
AcDbEntity
  8
PV
 62
     7
100
AcDbLine
 10
883.1612845143478
 20
370.9857848681417
 30
0.0
 11
879.6972845143478
 21
364.9857848681417
 31
0.0
  0
LINE
  5
356
330
2
100
AcDbEntity
  8
PV
 62
     7
100
AcDbLine
 10
879.6972845143478
 20
376.9857848681417
 30
0.0
 11
883.1612845143478
 21
370.9857848681417
 31
0.0
  0
CIRCLE
  5
357
330
2
100
AcDbEntity
  8
PV
 62
     7
100
AcDbCircle
 10
876.2332845143477
 20
413.9857848681417
 30
0.0
 40
3.5
  0
LINE
  5
358
330
2
100
AcDbEntity
  8
PV
 62
     7
100
AcDbLine
 10
872.7692845143478
 20
407.9857848681418
 30
0.0
 11
879.6972845143478
 21
407.9857848681418
 31
0.0
  0
LINE
  5
359
330
2
100
AcDbEntity
  8
PV
 62
     7
100
AcDbLine
 10
879.6972845143478
 20
419.9857848681417
 30
0.0
 11
872.7692845143478
 21
419.9857848681417
 31
0.0
  0
LINE
  5
35A
330
2
100
AcDbEntity
  8
PV
 62
     7
100
AcDbLine
 10
868.2332845143477
 20
424.4857848681418
 30
0.0
 11
884.2332845143477
 21
424.4857848681418
 31
0.0
  0
LINE
  5
35B
330
2
100
AcDbEntity
  8
PV
 62
     7
100
AcDbLine
 10
872.7692845143478
 20
419.9857848681417
 30
0.0
 11
869.3052845143478
 21
413.9857848681417
 31
0.0
  0
LINE
  5
35C
330
2
100
AcDbEntity
  8
PV
 62
     7
100
AcDbLine
 10
869.3052845143478
 20
413.9857848681417
 30
0.0
 11
872.7692845143478
 21
407.9857848681418
 31
0.0
  0
LINE
  5
35D
330
2
100
AcDbEntity
  8
PV
 62
     7
100
AcDbLine
 10
883.1612845143478
 20
413.9857848681417
 30
0.0
 11
879.6972845143478
 21
419.9857848681417
 31
0.0
  0
LINE
  5
35E
330
2
100
AcDbEntity
  8
PV
 62
     7
100
AcDbLine
 10
879.6972845143478
 20
407.9857848681418
 30
0.0
 11
883.1612845143478
 21
413.9857848681417
 31
0.0
  0
LINE
  5
35F
330
2
100
AcDbEntity
  8
PV
 62
     7
100
AcDbLine
 10
888.7332845143477
 20
473.4857848681417
 30
0.0
 11
863.7332845143477
 21
473.4857848681417
 31
0.0
  0
LINE
  5
360
330
2
100
AcDbEntity
  8
PV
  6
CENTER
 62
     1
100
AcDbLine
 10
876.2332845143477
 20
478.4857848681418
 30
0.0
 11
876.2332845143477
 21
468.4857848681417
 31
0.0
  0
LINE
  5
361
330
2
100
AcDbEntity
  8
PV
 62
     7
100
AcDbLine
 10
805.7062845143477
 20
604.3507848681417
 30
0.0
 11
820.4832845143478
 21
642.4857848681417
 31
0.0
  0
LINE
  5
362
330
2
100
AcDbEntity
  8
PV
 62
     7
100
AcDbLine
 10
738.7332845143478
 20
653.8857848681418
 30
0.0
 11
738.7332845143478
 21
630.0857848681417
 31
0.0
  0
LINE
  5
363
330
2
100
AcDbEntity
  8
PV
 62
     7
100
AcDbLine
 10
745.7332845143477
 20
653.8857848681418
 30
0.0
 11
745.7332845143477
 21
630.0857848681417
 31
0.0
  0
LINE
  5
364
330
2
100
AcDbEntity
  8
PV
 62
     7
100
AcDbLine
 10
754.7332845143478
 20
545.0857848681416
 30
0.0
 11
754.7332845143478
 21
621.0857848681416
 31
0.0
  0
LINE
  5
365
330
2
100
AcDbEntity
  8
PV
 62
     7
100
AcDbLine
 10
729.7332845143478
 20
545.0857848681416
 30
0.0
 11
729.7332845143478
 21
621.0857848681416
 31
0.0
  0
ARC
  5
366
330
2
100
AcDbEntity
  8
PV
 62
     7
100
AcDbCircle
 10
742.2332845143478
 20
585.3857848681419
 30
0.0
 40
3.5
100
AcDbArc
 50
180.0
 51
0.0
  0
LINE
  5
367
330
2
100
AcDbEntity
  8
PV
 62
     7
100
AcDbLine
 10
729.7332845143478
 20
545.0857848681416
 30
0.0
 11
754.7332845143478
 21
545.0857848681416
 31
0.0
  0
CIRCLE
  5
368
330
2
100
AcDbEntity
  8
PV
 62
     7
100
AcDbCircle
 10
742.2332845143478
 20
562.0857848681416
 30
0.0
 40
4.299999999999999
  0
LINE
  5
369
330
2
100
AcDbEntity
  8
PV
  6
CENTER
 62
     1
100
AcDbLine
 10
752.7332845143478
 20
562.0857848681416
 30
0.0
 11
731.7332845143478
 21
562.0857848681416
 31
0.0
  0
LINE
  5
36A
330
2
100
AcDbEntity
  8
PV
  6
CENTER
 62
     1
100
AcDbLine
 10
742.2332845143478
 20
551.5857848681417
 30
0.0
 11
742.2332845143478
 21
572.5857848681417
 31
0.0
  0
LINE
  5
36B
330
2
100
AcDbEntity
  8
PV
  6
CENTER
 62
     1
100
AcDbLine
 10
752.7332845143478
 20
605.0857848681417
 30
0.0
 11
731.7332845143478
 21
605.0857848681417
 31
0.0
  0
LINE
  5
36C
330
2
100
AcDbEntity
  8
PV
 62
     7
100
AcDbLine
 10
734.2332845143478
 20
623.0857848681417
 30
0.0
 11
750.2332845143477
 21
623.0857848681417
 31
0.0
  0
LINE
  5
36D
330
2
100
AcDbEntity
  8
PV
 62
     7
100
AcDbLine
 10
729.7332845143478
 20
621.0857848681416
 30
0.0
 11
754.7332845143478
 21
621.0857848681416
 31
0.0
  0
LINE
  5
36E
330
2
100
AcDbEntity
  8
PV
 62
     7
100
AcDbLine
 10
729.7332845143478
 20
616.0857848681416
 30
0.0
 11
754.7332845143478
 21
616.0857848681416
 31
0.0
  0
LINE
  5
36F
330
2
100
AcDbEntity
  8
PV
 62
     7
100
AcDbLine
 10
735.3052845143478
 20
630.0857848681417
 30
0.0
 11
749.1612845143478
 21
630.0857848681417
 31
0.0
  0
LINE
  5
370
330
2
100
AcDbEntity
  8
PV
 62
     7
100
AcDbLine
 10
738.7332845143478
 20
616.0857848681416
 30
0.0
 11
738.7332845143478
 21
585.3857848681419
 31
0.0
  0
ARC
  5
371
330
2
100
AcDbEntity
  8
PV
 62
     7
100
AcDbCircle
 10
742.2332845143478
 20
605.0857848681417
 30
0.0
 40
4.299999999999999
100
AcDbArc
 50
144.484
 51
215.5159999999999
  0
LINE
  5
372
330
2
100
AcDbEntity
  8
PV
 62
     7
100
AcDbLine
 10
735.3052845143478
 20
630.0857848681417
 30
0.0
 11
735.3052845143478
 21
623.0857848681417
 31
0.0
  0
LINE
  5
373
330
2
100
AcDbEntity
  8
PV
 62
     7
100
AcDbLine
 10
734.2332845143478
 20
623.0857848681417
 30
0.0
 11
734.2332845143478
 21
621.0857848681416
 31
0.0
  0
LINE
  5
374
330
2
100
AcDbEntity
  8
PV
 62
     7
100
AcDbLine
 10
745.7332845143477
 20
616.0857848681416
 30
0.0
 11
745.7332845143477
 21
585.3857848681419
 31
0.0
  0
LINE
  5
375
330
2
100
AcDbEntity
  8
PV
  6
CENTER
 62
     1
100
AcDbLine
 10
742.2332845143478
 20
594.5857848681416
 30
0.0
 11
742.2332845143478
 21
615.5857848681416
 31
0.0
  0
ARC
  5
376
330
2
100
AcDbEntity
  8
PV
 62
     7
100
AcDbCircle
 10
742.2332845143478
 20
605.0857848681417
 30
0.0
 40
4.299999999999999
100
AcDbArc
 50
324.484
 51
35.516
  0
LINE
  5
377
330
2
100
AcDbEntity
  8
PV
 62
     7
100
AcDbLine
 10
749.1612845143478
 20
630.0857848681417
 30
0.0
 11
749.1612845143478
 21
623.0857848681417
 31
0.0
  0
LINE
  5
378
330
2
100
AcDbEntity
  8
PV
 62
     7
100
AcDbLine
 10
750.2332845143477
 20
623.0857848681417
 30
0.0
 11
750.2332845143477
 21
621.0857848681416
 31
0.0
  0
POLYLINE
  5
379
330
2
100
AcDbEntity
  8
PV
 62
     7
100
AcDb2dPolyline
 66
     1
 10
0.0
 20
0.0
 30
0.0
  0
VERTEX
  5
687
330
379
100
AcDbEntity
  8
PV
 62
     7
100
AcDbVertex
100
AcDb2dVertex
 10
806.0162845143478
 20
604.2297848681418
 30
0.0
  0
VERTEX
  5
688
330
379
100
AcDbEntity
  8
PV
 62
     7
100
AcDbVertex
100
AcDb2dVertex
 10
805.3952845143479
 20
604.4707848681419
 30
0.0
  0
VERTEX
  5
689
330
379
100
AcDbEntity
  8
PV
 62
     7
100
AcDbVertex
100
AcDb2dVertex
 10
804.9832845143479
 20
602.4857848681417
 30
0.0
  0
VERTEX
  5
68A
330
379
100
AcDbEntity
  8
PV
 62
     7
100
AcDbVertex
100
AcDb2dVertex
 10
806.0162845143478
 20
604.2297848681418
 30
0.0
  0
SEQEND
  5
68B
330
379
100
AcDbEntity
  8
PV
 62
     7
  0
LINE
  5
37A
330
2
100
AcDbEntity
  8
PV
 62
     7
100
AcDbLine
 10
745.7332845143477
 20
653.8857848681418
 30
0.0
 11
738.7332845143478
 21
653.8857848681418
 31
0.0
  0
LINE
  5
37B
330
2
100
AcDbEntity
  8
PV
 62
     7
100
AcDbLine
 10
754.7332845143478
 20
683.4857848681417
 30
0.0
 11
729.7332845143478
 21
683.4857848681417
 31
0.0
  0
LINE
  5
37C
330
2
100
AcDbEntity
  8
PV
 62
     7
100
AcDbLine
 10
734.2332845143478
 20
700.4857848681417
 30
0.0
 11
750.2332845143477
 21
700.4857848681417
 31
0.0
  0
CIRCLE
  5
37D
330
2
100
AcDbEntity
  8
PV
 62
     7
100
AcDbCircle
 10
742.2332845143478
 20
710.9857848681417
 30
0.0
 40
3.5
  0
LINE
  5
37E
330
2
100
AcDbEntity
  8
PV
 62
     7
100
AcDbLine
 10
745.6972845143479
 20
704.9857848681417
 30
0.0
 11
738.7692845143477
 21
704.9857848681417
 31
0.0
  0
LINE
  5
37F
330
2
100
AcDbEntity
  8
PV
 62
     7
100
AcDbLine
 10
738.7692845143477
 20
716.9857848681417
 30
0.0
 11
745.6972845143479
 21
716.9857848681417
 31
0.0
  0
LINE
  5
380
330
2
100
AcDbEntity
  8
PV
 62
     7
100
AcDbLine
 10
738.7692845143477
 20
704.9857848681417
 30
0.0
 11
735.3052845143478
 21
710.9857848681417
 31
0.0
  0
LINE
  5
381
330
2
100
AcDbEntity
  8
PV
 62
     7
100
AcDbLine
 10
735.3052845143478
 20
710.9857848681417
 30
0.0
 11
738.7692845143477
 21
716.9857848681417
 31
0.0
  0
LINE
  5
382
330
2
100
AcDbEntity
  8
PV
 62
     7
100
AcDbLine
 10
749.1612845143478
 20
710.9857848681417
 30
0.0
 11
745.6972845143479
 21
704.9857848681417
 31
0.0
  0
LINE
  5
383
330
2
100
AcDbEntity
  8
PV
 62
     7
100
AcDbLine
 10
745.6972845143479
 20
716.9857848681417
 30
0.0
 11
749.1612845143478
 21
710.9857848681417
 31
0.0
  0
LINE
  5
384
330
2
100
AcDbEntity
  8
PV
 62
     7
100
AcDbLine
 10
870.2332845143478
 20
653.8857848681418
 30
0.0
 11
870.2332845143478
 21
630.0857848681417
 31
0.0
  0
LINE
  5
385
330
2
100
AcDbEntity
  8
PV
 62
     7
100
AcDbLine
 10
877.2332845143479
 20
653.8857848681418
 30
0.0
 11
877.2332845143479
 21
630.0857848681417
 31
0.0
  0
ARC
  5
386
330
2
100
AcDbEntity
  8
PV
 62
     7
100
AcDbCircle
 10
873.7332845143479
 20
585.3857848681419
 30
0.0
 40
3.5
100
AcDbArc
 50
180.0
 51
0.0
  0
LINE
  5
387
330
2
100
AcDbEntity
  8
PV
 62
     7
100
AcDbLine
 10
861.2332845143479
 20
545.0857848681416
 30
0.0
 11
861.2332845143479
 21
621.0857848681416
 31
0.0
  0
LINE
  5
388
330
2
100
AcDbEntity
  8
PV
 62
     7
100
AcDbLine
 10
886.2332845143479
 20
545.0857848681416
 30
0.0
 11
886.2332845143479
 21
621.0857848681416
 31
0.0
  0
LINE
  5
389
330
2
100
AcDbEntity
  8
PV
  6
CENTER
 62
     1
100
AcDbLine
 10
884.2332845143477
 20
562.0857848681416
 30
0.0
 11
863.2332845143478
 21
562.0857848681416
 31
0.0
  0
LINE
  5
38A
330
2
100
AcDbEntity
  8
PV
 62
     7
100
AcDbLine
 10
861.2332845143479
 20
545.0857848681416
 30
0.0
 11
886.2332845143479
 21
545.0857848681416
 31
0.0
  0
CIRCLE
  5
38B
330
2
100
AcDbEntity
  8
PV
 62
     7
100
AcDbCircle
 10
873.7332845143479
 20
562.0857848681416
 30
0.0
 40
4.299999999999999
  0
LINE
  5
38C
330
2
100
AcDbEntity
  8
PV
  6
CENTER
 62
     1
100
AcDbLine
 10
873.7332845143479
 20
551.5857848681417
 30
0.0
 11
873.7332845143479
 21
572.5857848681417
 31
0.0
  0
LINE
  5
38D
330
2
100
AcDbEntity
  8
PV
  6
CENTER
 62
     1
100
AcDbLine
 10
884.2332845143477
 20
605.0857848681417
 30
0.0
 11
863.2332845143478
 21
605.0857848681417
 31
0.0
  0
LINE
  5
38E
330
2
100
AcDbEntity
  8
PV
 62
     7
100
AcDbLine
 10
861.2332845143479
 20
616.0857848681416
 30
0.0
 11
886.2332845143479
 21
616.0857848681416
 31
0.0
  0
LINE
  5
38F
330
2
100
AcDbEntity
  8
PV
 62
     7
100
AcDbLine
 10
861.2332845143479
 20
621.0857848681416
 30
0.0
 11
886.2332845143479
 21
621.0857848681416
 31
0.0
  0
LINE
  5
390
330
2
100
AcDbEntity
  8
PV
 62
     7
100
AcDbLine
 10
865.7332845143479
 20
623.0857848681417
 30
0.0
 11
881.7332845143479
 21
623.0857848681417
 31
0.0
  0
LINE
  5
391
330
2
100
AcDbEntity
  8
PV
 62
     7
100
AcDbLine
 10
866.8052845143478
 20
630.0857848681417
 30
0.0
 11
880.6612845143478
 21
630.0857848681417
 31
0.0
  0
LINE
  5
392
330
2
100
AcDbEntity
  8
PV
 62
     7
100
AcDbLine
 10
870.2332845143478
 20
616.0857848681416
 30
0.0
 11
870.2332845143478
 21
585.3857848681419
 31
0.0
  0
LINE
  5
393
330
2
100
AcDbEntity
  8
PV
  6
CENTER
 62
     1
100
AcDbLine
 10
873.7332845143479
 20
594.5857848681416
 30
0.0
 11
873.7332845143479
 21
615.5857848681416
 31
0.0
  0
ARC
  5
394
330
2
100
AcDbEntity
  8
PV
 62
     7
100
AcDbCircle
 10
873.7332845143479
 20
605.0857848681417
 30
0.0
 40
4.299999999999999
100
AcDbArc
 50
144.484
 51
215.5159999999999
  0
LINE
  5
395
330
2
100
AcDbEntity
  8
PV
 62
     7
100
AcDbLine
 10
866.8052845143478
 20
630.0857848681417
 30
0.0
 11
866.8052845143478
 21
623.0857848681417
 31
0.0
  0
LINE
  5
396
330
2
100
AcDbEntity
  8
PV
 62
     7
100
AcDbLine
 10
865.7332845143479
 20
623.0857848681417
 30
0.0
 11
865.7332845143479
 21
621.0857848681416
 31
0.0
  0
LINE
  5
397
330
2
100
AcDbEntity
  8
PV
 62
     7
100
AcDbLine
 10
877.2332845143479
 20
616.0857848681416
 30
0.0
 11
877.2332845143479
 21
585.3857848681419
 31
0.0
  0
ARC
  5
398
330
2
100
AcDbEntity
  8
PV
 62
     7
100
AcDbCircle
 10
873.7332845143479
 20
605.0857848681417
 30
0.0
 40
4.299999999999999
100
AcDbArc
 50
324.484
 51
35.516
  0
LINE
  5
399
330
2
100
AcDbEntity
  8
PV
 62
     7
100
AcDbLine
 10
880.6612845143478
 20
630.0857848681417
 30
0.0
 11
880.6612845143478
 21
623.0857848681417
 31
0.0
  0
LINE
  5
39A
330
2
100
AcDbEntity
  8
PV
 62
     7
100
AcDbLine
 10
881.7332845143479
 20
623.0857848681417
 30
0.0
 11
881.7332845143479
 21
621.0857848681416
 31
0.0
  0
TEXT
  5
39B
330
2
100
AcDbEntity
  8
PV
 62
     7
100
AcDbText
 10
824.3832845143478
 20
640.2357848681417
 30
0.0
 40
4.5
  1
P.P
 41
0.7780000000000001
  7
FONT1
100
AcDbText
  0
LINE
  5
39C
330
2
100
AcDbEntity
  8
PV
 62
     7
100
AcDbLine
 10
820.4832845143478
 20
642.4857848681417
 30
0.0
 11
822.4832845143478
 21
642.4857848681417
 31
0.0
  0
LINE
  5
39D
330
2
100
AcDbEntity
  8
PV
 62
     7
100
AcDbLine
 10
815.4832845143477
 20
722.4857848681417
 30
0.0
 11
817.4832845143479
 21
722.4857848681417
 31
0.0
  0
TEXT
  5
39E
330
2
100
AcDbEntity
  8
PV
 62
     7
100
AcDbText
 10
819.3832845143477
 20
720.2357848681417
 30
0.0
 40
4.5
  1
P.P
 41
0.7780000000000001
  7
FONT1
100
AcDbText
  0
LINE
  5
39F
330
2
100
AcDbEntity
  8
PV
 62
     7
100
AcDbLine
 10
877.2332845143479
 20
653.8857848681418
 30
0.0
 11
870.2332845143478
 21
653.8857848681418
 31
0.0
  0
CIRCLE
  5
3A0
330
2
100
AcDbEntity
  8
PV
 62
     7
100
AcDbCircle
 10
873.7332845143479
 20
710.9857848681417
 30
0.0
 40
3.5
  0
LINE
  5
3A1
330
2
100
AcDbEntity
  8
PV
 62
     7
100
AcDbLine
 10
877.1972845143478
 20
704.9857848681417
 30
0.0
 11
870.2692845143477
 21
704.9857848681417
 31
0.0
  0
LINE
  5
3A2
330
2
100
AcDbEntity
  8
PV
 62
     7
100
AcDbLine
 10
870.2692845143477
 20
716.9857848681417
 30
0.0
 11
877.1972845143478
 21
716.9857848681417
 31
0.0
  0
LINE
  5
3A3
330
2
100
AcDbEntity
  8
PV
 62
     7
100
AcDbLine
 10
886.2332845143479
 20
683.4857848681417
 30
0.0
 11
861.2332845143479
 21
683.4857848681417
 31
0.0
  0
LINE
  5
3A4
330
2
100
AcDbEntity
  8
PV
 62
     7
100
AcDbLine
 10
865.7332845143479
 20
700.4857848681417
 30
0.0
 11
881.7332845143479
 21
700.4857848681417
 31
0.0
  0
LINE
  5
3A5
330
2
100
AcDbEntity
  8
PV
 62
     7
100
AcDbLine
 10
870.2692845143477
 20
704.9857848681417
 30
0.0
 11
866.8052845143478
 21
710.9857848681417
 31
0.0
  0
LINE
  5
3A6
330
2
100
AcDbEntity
  8
PV
 62
     7
100
AcDbLine
 10
866.8052845143478
 20
710.9857848681417
 30
0.0
 11
870.2692845143477
 21
716.9857848681417
 31
0.0
  0
LINE
  5
3A7
330
2
100
AcDbEntity
  8
PV
 62
     7
100
AcDbLine
 10
880.6612845143478
 20
710.9857848681417
 30
0.0
 11
877.1972845143478
 21
704.9857848681417
 31
0.0
  0
LINE
  5
3A8
330
2
100
AcDbEntity
  8
PV
 62
     7
100
AcDbLine
 10
877.1972845143478
 20
716.9857848681417
 30
0.0
 11
880.6612845143478
 21
710.9857848681417
 31
0.0
  0
CIRCLE
  5
3A9
330
2
100
AcDbEntity
  8
PV
 62
     7
100
AcDbCircle
 10
742.2332845143478
 20
753.9857848681418
 30
0.0
 40
3.5
  0
LINE
  5
3AA
330
2
100
AcDbEntity
  8
PV
 62
     7
100
AcDbLine
 10
738.7692845143477
 20
747.9857848681417
 30
0.0
 11
745.6972845143479
 21
747.9857848681417
 31
0.0
  0
LINE
  5
3AB
330
2
100
AcDbEntity
  8
PV
 62
     7
100
AcDbLine
 10
734.2332845143478
 20
764.4857848681417
 30
0.0
 11
750.2332845143477
 21
764.4857848681417
 31
0.0
  0
LINE
  5
3AC
330
2
100
AcDbEntity
  8
PV
 62
     7
100
AcDbLine
 10
745.6972845143479
 20
759.9857848681417
 30
0.0
 11
738.7692845143477
 21
759.9857848681417
 31
0.0
  0
LINE
  5
3AD
330
2
100
AcDbEntity
  8
PV
 62
     7
100
AcDbLine
 10
738.7692845143477
 20
759.9857848681417
 30
0.0
 11
735.3052845143478
 21
753.9857848681418
 31
0.0
  0
LINE
  5
3AE
330
2
100
AcDbEntity
  8
PV
 62
     7
100
AcDbLine
 10
735.3052845143478
 20
753.9857848681418
 30
0.0
 11
738.7692845143477
 21
747.9857848681417
 31
0.0
  0
LINE
  5
3AF
330
2
100
AcDbEntity
  8
PV
 62
     7
100
AcDbLine
 10
749.1612845143478
 20
753.9857848681418
 30
0.0
 11
745.6972845143479
 21
759.9857848681417
 31
0.0
  0
LINE
  5
3B0
330
2
100
AcDbEntity
  8
PV
 62
     7
100
AcDbLine
 10
745.6972845143479
 20
747.9857848681417
 30
0.0
 11
749.1612845143478
 21
753.9857848681418
 31
0.0
  0
LINE
  5
3B1
330
2
100
AcDbEntity
  8
PV
 62
     7
100
AcDbLine
 10
754.7332845143478
 20
813.4857848681416
 30
0.0
 11
729.7332845143478
 21
813.4857848681416
 31
0.0
  0
LINE
  5
3B2
330
2
100
AcDbEntity
  8
PV
  6
CENTER
 62
     1
100
AcDbLine
 10
742.2332845143478
 20
818.4857848681417
 30
0.0
 11
742.2332845143478
 21
808.4857848681417
 31
0.0
  0
POLYLINE
  5
3B3
330
2
100
AcDbEntity
  8
PV
 62
     7
100
AcDb2dPolyline
 66
     1
 10
0.0
 20
0.0
 30
0.0
  0
VERTEX
  5
68C
330
3B3
100
AcDbEntity
  8
PV
 62
     7
100
AcDbVertex
100
AcDb2dVertex
 10
806.2012845143478
 20
730.8647848681417
 30
0.0
  0
VERTEX
  5
68D
330
3B3
100
AcDbEntity
  8
PV
 62
     7
100
AcDbVertex
100
AcDb2dVertex
 10
806.6612845143477
 20
731.3477848681418
 30
0.0
  0
VERTEX
  5
68E
330
3B3
100
AcDbEntity
  8
PV
 62
     7
100
AcDbVertex
100
AcDb2dVertex
 10
804.9832845143479
 20
732.4857848681418
 30
0.0
  0
VERTEX
  5
68F
330
3B3
100
AcDbEntity
  8
PV
 62
     7
100
AcDbVertex
100
AcDb2dVertex
 10
806.2012845143478
 20
730.8647848681417
 30
0.0
  0
SEQEND
  5
690
330
3B3
100
AcDbEntity
  8
PV
 62
     7
  0
TEXT
  5
3B4
330
2
100
AcDbEntity
  8
PV
 62
     7
100
AcDbText
 10
722.6328845143477
 20
837.4857848681417
 30
0.0
 40
4.5
  1
MODEL No. : 6212-50
 41
0.90358
  7
FONT1
100
AcDbText
  0
TEXT
  5
3B5
330
2
100
AcDbEntity
  8
PV
 62
     7
100
AcDbText
 10
722.6332845143478
 20
847.4857848681418
 30
0.0
 40
4.5
  1
L TYPE BRACKET
  7
FONT1
100
AcDbText
  0
TEXT
  5
3B6
330
2
100
AcDbEntity
  8
PV
 62
     7
100
AcDbText
 10
722.6331845143477
 20
827.4857848681417
 30
0.0
 40
4.5
  1
(P8A-66*-*1DB)
 41
0.9047622
  7
FONT1
100
AcDbText
  0
CIRCLE
  5
3B7
330
2
100
AcDbEntity
  8
PV
 62
     7
100
AcDbCircle
 10
873.7332845143479
 20
753.9857848681418
 30
0.0
 40
3.5
  0
LINE
  5
3B8
330
2
100
AcDbEntity
  8
PV
 62
     7
100
AcDbLine
 10
870.2692845143477
 20
747.9857848681417
 30
0.0
 11
877.1972845143478
 21
747.9857848681417
 31
0.0
  0
LINE
  5
3B9
330
2
100
AcDbEntity
  8
PV
 62
     7
100
AcDbLine
 10
877.1972845143478
 20
759.9857848681417
 30
0.0
 11
870.2692845143477
 21
759.9857848681417
 31
0.0
  0
LINE
  5
3BA
330
2
100
AcDbEntity
  8
PV
 62
     7
100
AcDbLine
 10
865.7332845143479
 20
764.4857848681417
 30
0.0
 11
881.7332845143479
 21
764.4857848681417
 31
0.0
  0
LINE
  5
3BB
330
2
100
AcDbEntity
  8
PV
 62
     7
100
AcDbLine
 10
870.2692845143477
 20
759.9857848681417
 30
0.0
 11
866.8052845143478
 21
753.9857848681418
 31
0.0
  0
LINE
  5
3BC
330
2
100
AcDbEntity
  8
PV
 62
     7
100
AcDbLine
 10
866.8052845143478
 20
753.9857848681418
 30
0.0
 11
870.2692845143477
 21
747.9857848681417
 31
0.0
  0
LINE
  5
3BD
330
2
100
AcDbEntity
  8
PV
 62
     7
100
AcDbLine
 10
880.6612845143478
 20
753.9857848681418
 30
0.0
 11
877.1972845143478
 21
759.9857848681417
 31
0.0
  0
LINE
  5
3BE
330
2
100
AcDbEntity
  8
PV
 62
     7
100
AcDbLine
 10
877.1972845143478
 20
747.9857848681417
 30
0.0
 11
880.6612845143478
 21
753.9857848681418
 31
0.0
  0
LINE
  5
3BF
330
2
100
AcDbEntity
  8
PV
 62
     7
100
AcDbLine
 10
886.2332845143479
 20
813.4857848681416
 30
0.0
 11
861.2332845143479
 21
813.4857848681416
 31
0.0
  0
LINE
  5
3C0
330
2
100
AcDbEntity
  8
PV
  6
CENTER
 62
     1
100
AcDbLine
 10
873.7332845143479
 20
818.4857848681417
 30
0.0
 11
873.7332845143479
 21
808.4857848681417
 31
0.0
  0
LINE
  5
3C1
330
2
100
AcDbEntity
  8
PV
 62
     7
100
AcDbLine
 10
963.7332845143477
 20
621.0857848681416
 30
0.0
 11
1093.733284514347
 21
621.0857848681416
 31
0.0
  0
LINE
  5
3C2
330
2
100
AcDbEntity
  8
PV
 62
     7
100
AcDbLine
 10
963.7332845143477
 20
616.0857848681416
 30
0.0
 11
1088.733284514347
 21
616.0857848681416
 31
0.0
  0
LINE
  5
3C3
330
2
100
AcDbEntity
  8
PV
 62
     7
100
AcDbLine
 10
980.7332845143477
 20
623.0857848681417
 30
0.0
 11
1044.733284514347
 21
623.0857848681417
 31
0.0
  0
LINE
  5
3C4
330
2
100
AcDbEntity
  8
PV
 62
     7
100
AcDbLine
 10
985.2332845143477
 20
630.0857848681417
 30
0.0
 11
997.2332845143478
 21
630.0857848681417
 31
0.0
  0
LINE
  5
3C5
330
2
100
AcDbEntity
  8
PV
 62
     7
100
AcDbLine
 10
963.7332845143477
 20
621.0857848681416
 30
0.0
 11
963.7332845143477
 21
616.0857848681416
 31
0.0
  0
LINE
  5
3C6
330
2
100
AcDbEntity
  8
PV
 62
     7
100
AcDbLine
 10
980.7332845143477
 20
623.0857848681417
 30
0.0
 11
980.7332845143477
 21
621.0857848681416
 31
0.0
  0
LINE
  5
3C7
330
2
100
AcDbEntity
  8
PV
 62
     7
100
AcDbLine
 10
985.2332845143477
 20
630.0857848681417
 30
0.0
 11
985.2332845143477
 21
623.0857848681417
 31
0.0
  0
LINE
  5
3C8
330
2
100
AcDbEntity
  8
PV
 62
     7
100
AcDbLine
 10
1013.091284514347
 20
604.4537848681418
 30
0.0
 11
1022.733284514347
 21
657.4857848681418
 31
0.0
  0
LINE
  5
3C9
330
2
100
AcDbEntity
  8
PV
 62
     7
100
AcDbLine
 10
994.7332845143478
 20
653.8857848681418
 30
0.0
 11
994.7332845143478
 21
630.0857848681417
 31
0.0
  0
LINE
  5
3CA
330
2
100
AcDbEntity
  8
PV
 62
     7
100
AcDbLine
 10
987.7332845143477
 20
653.8857848681418
 30
0.0
 11
987.7332845143477
 21
630.0857848681417
 31
0.0
  0
LINE
  5
3CB
330
2
100
AcDbEntity
  8
PV
 62
     7
100
AcDbLine
 10
1037.733284514347
 20
653.8857848681418
 30
0.0
 11
1037.733284514347
 21
630.0857848681417
 31
0.0
  0
LINE
  5
3CC
330
2
100
AcDbEntity
  8
PV
 62
     7
100
AcDbLine
 10
1030.733284514347
 20
653.8857848681418
 30
0.0
 11
1030.733284514347
 21
630.0857848681417
 31
0.0
  0
LINE
  5
3CD
330
2
100
AcDbEntity
  8
PV
 62
     7
100
AcDbLine
 10
1028.233284514348
 20
630.0857848681417
 30
0.0
 11
1040.233284514347
 21
630.0857848681417
 31
0.0
  0
ARC
  5
3CE
330
2
100
AcDbEntity
  8
PV
 62
     7
100
AcDbCircle
 10
1012.733284514347
 20
606.8857848681418
 30
0.0
 40
25.0
100
AcDbArc
 50
180.0
 51
0.0
  0
ARC
  5
3CF
330
2
100
AcDbEntity
  8
PV
 62
     7
100
AcDbCircle
 10
1012.733284514347
 20
606.8857848681418
 30
0.0
 40
18.0
100
AcDbArc
 50
180.0
 51
0.0
  0
LINE
  5
3D0
330
2
100
AcDbEntity
  8
PV
 62
     7
100
AcDbLine
 10
994.7332845143478
 20
616.0857848681416
 30
0.0
 11
994.7332845143478
 21
606.8857848681418
 31
0.0
  0
LINE
  5
3D1
330
2
100
AcDbEntity
  8
PV
 62
     7
100
AcDbLine
 10
987.7332845143477
 20
616.0857848681416
 30
0.0
 11
987.7332845143477
 21
606.8857848681418
 31
0.0
  0
LINE
  5
3D2
330
2
100
AcDbEntity
  8
PV
 62
     7
100
AcDbLine
 10
997.2332845143478
 20
630.0857848681417
 30
0.0
 11
997.2332845143478
 21
623.0857848681417
 31
0.0
  0
LINE
  5
3D3
330
2
100
AcDbEntity
  8
PV
 62
     7
100
AcDbLine
 10
1030.733284514347
 20
616.0857848681416
 30
0.0
 11
1030.733284514347
 21
606.8857848681418
 31
0.0
  0
POLYLINE
  5
3D4
330
2
100
AcDbEntity
  8
PV
 62
     7
100
AcDb2dPolyline
 66
     1
 10
0.0
 20
0.0
 30
0.0
  0
VERTEX
  5
691
330
3D4
100
AcDbEntity
  8
PV
 62
     7
100
AcDbVertex
100
AcDb2dVertex
 10
1013.419284514347
 20
604.3937848681416
 30
0.0
  0
VERTEX
  5
692
330
3D4
100
AcDbEntity
  8
PV
 62
     7
100
AcDbVertex
100
AcDb2dVertex
 10
1012.763284514347
 20
604.5127848681418
 30
0.0
  0
VERTEX
  5
693
330
3D4
100
AcDbEntity
  8
PV
 62
     7
100
AcDbVertex
100
AcDb2dVertex
 10
1012.733284514347
 20
602.4857848681417
 30
0.0
  0
VERTEX
  5
694
330
3D4
100
AcDbEntity
  8
PV
 62
     7
100
AcDbVertex
100
AcDb2dVertex
 10
1013.419284514347
 20
604.3937848681416
 30
0.0
  0
SEQEND
  5
695
330
3D4
100
AcDbEntity
  8
PV
 62
     7
  0
LINE
  5
3D5
330
2
100
AcDbEntity
  8
PV
 62
     7
100
AcDbLine
 10
1028.233284514348
 20
630.0857848681417
 30
0.0
 11
1028.233284514348
 21
623.0857848681417
 31
0.0
  0
LINE
  5
3D6
330
2
100
AcDbEntity
  8
PV
 62
     7
100
AcDbLine
 10
1037.733284514347
 20
616.0857848681416
 30
0.0
 11
1037.733284514347
 21
606.8857848681418
 31
0.0
  0
LINE
  5
3D7
330
2
100
AcDbEntity
  8
PV
 62
     7
100
AcDbLine
 10
1040.233284514347
 20
630.0857848681417
 30
0.0
 11
1040.233284514347
 21
623.0857848681417
 31
0.0
  0
LINE
  5
3D8
330
2
100
AcDbEntity
  8
PV
 62
     7
100
AcDbLine
 10
1044.733284514347
 20
623.0857848681417
 30
0.0
 11
1044.733284514347
 21
621.0857848681416
 31
0.0
  0
TEXT
  5
3D9
330
2
100
AcDbEntity
  8
PV
 62
     7
100
AcDbText
 10
1026.633284514347
 20
655.2357848681417
 30
0.0
 40
4.5
  1
P.P
 41
0.7780000000000001
  7
FONT1
100
AcDbText
  0
LINE
  5
3DA
330
2
100
AcDbEntity
  8
PV
 62
     7
100
AcDbLine
 10
1037.733284514347
 20
653.8857848681418
 30
0.0
 11
1030.733284514347
 21
653.8857848681418
 31
0.0
  0
LINE
  5
3DB
330
2
100
AcDbEntity
  8
PV
 62
     7
100
AcDbLine
 10
994.7332845143478
 20
653.8857848681418
 30
0.0
 11
987.7332845143477
 21
653.8857848681418
 31
0.0
  0
LINE
  5
3DC
330
2
100
AcDbEntity
  8
PV
 62
     7
100
AcDbLine
 10
1022.733284514347
 20
657.4857848681418
 30
0.0
 11
1024.733284514347
 21
657.4857848681418
 31
0.0
  0
LINE
  5
3DD
330
2
100
AcDbEntity
  8
PV
 62
     7
100
AcDbLine
 10
1093.733284514347
 20
621.0857848681416
 30
0.0
 11
1093.733284514347
 21
545.0857848681416
 31
0.0
  0
LINE
  5
3DE
330
2
100
AcDbEntity
  8
PV
 62
     7
100
AcDbLine
 10
1088.733284514347
 20
616.0857848681416
 30
0.0
 11
1088.733284514347
 21
545.0857848681416
 31
0.0
  0
LINE
  5
3DF
330
2
100
AcDbEntity
  8
PV
 62
     7
100
AcDbLine
 10
1088.733284514347
 20
545.0857848681416
 30
0.0
 11
1093.733284514347
 21
545.0857848681416
 31
0.0
  0
LINE
  5
3E0
330
2
100
AcDbEntity
  8
PV
  6
CENTER
 62
     1
100
AcDbLine
 10
1098.733284514348
 20
562.0857848681416
 30
0.0
 11
1083.733284514347
 21
562.0857848681416
 31
0.0
  0
LINE
  5
3E1
330
2
100
AcDbEntity
  8
PV
  6
CENTER
 62
     1
100
AcDbLine
 10
1098.733284514348
 20
605.0857848681417
 30
0.0
 11
1083.733284514347
 21
605.0857848681417
 31
0.0
  0
ENDSEC
  0
SECTION
  2
OBJECTS
  0
DICTIONARY
  5
9
330
0
100
AcDbDictionary
  3
ACAD_GROUP
350
23
  3
ACAD_IMAGE_VARS
350
54B
  3
ACAD_LAYOUT
350
E
  3
ACAD_MLINESTYLE
350
24
  3
ACAD_PLOTSETTINGS
350
25
1001
ACAD
1000
TREAT_AS_HARD
1070
     0
  0
DICTIONARY
  5
3
330
2
100
AcDbDictionary
  3
ACAD_LAYOUTSELFREF
350
649
1001
ACAD
1000
TREAT_AS_HARD
1070
     1
  0
DICTIONARY
  5
10
330
F
100
AcDbDictionary
  3
ACAD_LAYOUTSELFREF
350
64A
1001
ACAD
1000
TREAT_AS_HARD
1070
     1
  0
DICTIONARY
  5
23
102
{ACAD_REACTORS
330
9
102
}
330
9
100
AcDbDictionary
1001
ACAD
1000
TREAT_AS_HARD
1070
     0
  0
RASTERVARIABLES
  5
54B
102
{ACAD_REACTORS
330
9
102
}
330
9
100
AcDbRasterVariables
 90
        0
 70
     1
 71
     1
 72
     0
  0
DICTIONARY
  5
E
102
{ACAD_REACTORS
330
9
102
}
330
9
100
AcDbDictionary
1001
ACAD
1000
TREAT_AS_HARD
1070
     0
  0
DICTIONARY
  5
24
102
{ACAD_REACTORS
330
9
102
}
330
9
100
AcDbDictionary
  3
STANDARD
350
26
1001
ACAD
1000
TREAT_AS_HARD
1070
     0
  0
DICTIONARY
  5
25
102
{ACAD_REACTORS
330
9
102
}
330
9
100
AcDbDictionary
1001
ACAD
1000
TREAT_AS_HARD
1070
     0
  0
XRECORD
  5
649
102
{ACAD_REACTORS
330
3
102
}
330
3
100
AcDbXrecord
340
2
  0
XRECORD
  5
64A
102
{ACAD_REACTORS
330
10
102
}
330
10
100
AcDbXrecord
340
F
  0
MLINESTYLE
  5
26
102
{ACAD_REACTORS
330
24
102
}
330
24
100
AcDbMlineStyle
  2
STANDARD
 70
     0
  3

 62
   256
 51
90.0
 52
90.0
 71
     2
 49
0.5
 62
   256
  6
BYLAYER
 49
-0.5
 62
   256
  6
BYLAYER
  0
ENDSEC
  0
EOF
