  0
SECTION
  2
HEADER
  9
$ACADVER
  1
AC1012
  9
$DWGCODEPAGE
  3
dos932
  9
$INSBASE
 10
0.0
 20
0.0
 30
0.0
  9
$EXTMIN
 10
395.4509709934575
 20
2910.035856752241
 30
0.0
  9
$EXTMAX
 10
634.0391924518442
 20
3198.535827216965
 30
0.0
  9
$LIMMIN
 10
0.0
 20
0.0
  9
$LIMMAX
 10
12.0
 20
9.0
  9
$ORTHOMODE
 70
     1
  9
$REGENMODE
 70
     1
  9
$FILLMODE
 70
     1
  9
$QTEXTMODE
 70
     0
  9
$MIRRTEXT
 70
     1
  9
$DRAGMODE
 70
     2
  9
$LTSCALE
 40
1.0
  9
$OSMODE
 70
    39
  9
$ATTMODE
 70
     1
  9
$TEXTSIZE
 40
5.0
  9
$TRACEWID
 40
0.05
  9
$TEXTSTYLE
  7
STANDARD
  9
$CLAYER
  8
L-ZISSEN
  9
$CELTYPE
  6
BYLAYER
  9
$CECOLOR
 62
   256
  9
$CELTSCALE
 40
1.0
  9
$DELOBJ
 70
     1
  9
$DISPSILH
 70
     0
  9
$DIMSCALE
 40
0.0
  9
$DIMASZ
 40
2.0
  9
$DIMEXO
 40
1.0
  9
$DIMDLI
 40
8.0
  9
$DIMRND
 40
0.0
  9
$DIMDLE
 40
0.0
  9
$DIMEXE
 40
1.0
  9
$DIMTP
 40
0.0
  9
$DIMTM
 40
0.0
  9
$DIMTXT
 40
2.799999999999999
  9
$DIMCEN
 40
1.5
  9
$DIMTSZ
 40
0.0
  9
$DIMTOL
 70
     0
  9
$DIMLIM
 70
     0
  9
$DIMTIH
 70
     0
  9
$DIMTOH
 70
     0
  9
$DIMSE1
 70
     0
  9
$DIMSE2
 70
     0
  9
$DIMTAD
 70
     1
  9
$DIMZIN
 70
     8
  9
$DIMBLK
  1

  9
$DIMASO
 70
     1
  9
$DIMSHO
 70
     0
  9
$DIMPOST
  1

  9
$DIMAPOST
  1

  9
$DIMALT
 70
     0
  9
$DIMALTD
 70
     2
  9
$DIMALTF
 40
25.4
  9
$DIMLFAC
 40
1.0
  9
$DIMTOFL
 70
     1
  9
$DIMTVP
 40
0.0
  9
$DIMTIX
 70
     1
  9
$DIMSOXD
 70
     0
  9
$DIMSAH
 70
     0
  9
$DIMBLK1
  1

  9
$DIMBLK2
  1

  9
$DIMSTYLE
  2
STANDARD
  9
$DIMCLRD
 70
     0
  9
$DIMCLRE
 70
     0
  9
$DIMCLRT
 70
     0
  9
$DIMTFAC
 40
1.0
  9
$DIMGAP
 40
1.399999999999999
  9
$DIMJUST
 70
     0
  9
$DIMSD1
 70
     0
  9
$DIMSD2
 70
     0
  9
$DIMTOLJ
 70
     1
  9
$DIMTZIN
 70
     8
  9
$DIMALTZ
 70
     0
  9
$DIMALTTZ
 70
     0
  9
$DIMFIT
 70
     3
  9
$DIMUPT
 70
     0
  9
$DIMUNIT
 70
     2
  9
$DIMDEC
 70
     4
  9
$DIMTDEC
 70
     4
  9
$DIMALTU
 70
     2
  9
$DIMALTTD
 70
     2
  9
$DIMTXSTY
  7
KANJI
  9
$DIMAUNIT
 70
     0
  9
$LUNITS
 70
     2
  9
$LUPREC
 70
     4
  9
$SKETCHINC
 40
0.1
  9
$FILLETRAD
 40
0.0
  9
$AUNITS
 70
     0
  9
$AUPREC
 70
     0
  9
$MENU
  1
acad
  9
$ELEVATION
 40
0.0
  9
$PELEVATION
 40
0.0
  9
$THICKNESS
 40
0.0
  9
$LIMCHECK
 70
     0
  9
$BLIPMODE
 70
     0
  9
$CHAMFERA
 40
1.0
  9
$CHAMFERB
 40
1.0
  9
$CHAMFERC
 40
0.0
  9
$CHAMFERD
 40
0.0
  9
$SKPOLY
 70
     0
  9
$TDCREATE
 40
2450178.569598264
  9
$TDUPDATE
 40
2455072.638116319
  9
$TDINDWG
 40
0.3959254745
  9
$TDUSRTIMER
 40
0.3959254745
  9
$USRTIMER
 70
     1
  9
$ANGBASE
 50
0.0
  9
$ANGDIR
 70
     0
  9
$PDMODE
 70
     0
  9
$PDSIZE
 40
0.0
  9
$PLINEWID
 40
0.0
  9
$COORDS
 70
     0
  9
$SPLFRAME
 70
     0
  9
$SPLINETYPE
 70
     6
  9
$SPLINESEGS
 70
     8
  9
$ATTDIA
 70
     0
  9
$ATTREQ
 70
     1
  9
$HANDLING
 70
-16383
  9
$HANDSEED
  5
1B14
  9
$SURFTAB1
 70
     6
  9
$SURFTAB2
 70
     6
  9
$SURFTYPE
 70
     6
  9
$SURFU
 70
     6
  9
$SURFV
 70
     6
  9
$UCSNAME
  2

  9
$UCSORG
 10
0.0
 20
0.0
 30
0.0
  9
$UCSXDIR
 10
1.0
 20
0.0
 30
0.0
  9
$UCSYDIR
 10
0.0
 20
1.0
 30
0.0
  9
$PUCSNAME
  2

  9
$PUCSORG
 10
0.0
 20
0.0
 30
0.0
  9
$PUCSXDIR
 10
1.0
 20
0.0
 30
0.0
  9
$PUCSYDIR
 10
0.0
 20
1.0
 30
0.0
  9
$USERI1
 70
     0
  9
$USERI2
 70
     0
  9
$USERI3
 70
     0
  9
$USERI4
 70
     0
  9
$USERI5
 70
     0
  9
$USERR1
 40
0.0
  9
$USERR2
 40
0.0
  9
$USERR3
 40
0.0
  9
$USERR4
 40
0.0
  9
$USERR5
 40
0.0
  9
$WORLDVIEW
 70
     1
  9
$SHADEDGE
 70
     3
  9
$SHADEDIF
 70
    70
  9
$TILEMODE
 70
     1
  9
$MAXACTVP
 70
    16
  9
$PINSBASE
 10
0.0
 20
0.0
 30
0.0
  9
$PLIMCHECK
 70
     0
  9
$PEXTMIN
 10
1.000000000000000E+20
 20
1.000000000000000E+20
 30
1.000000000000000E+20
  9
$PEXTMAX
 10
-1.000000000000000E+20
 20
-1.000000000000000E+20
 30
-1.000000000000000E+20
  9
$PLIMMIN
 10
0.0
 20
0.0
  9
$PLIMMAX
 10
12.0
 20
9.0
  9
$UNITMODE
 70
     0
  9
$VISRETAIN
 70
     0
  9
$PLINEGEN
 70
     0
  9
$PSLTSCALE
 70
     0
  9
$TREEDEPTH
 70
  3020
  9
$PICKSTYLE
 70
     1
  9
$CMLSTYLE
  2
STANDARD
  9
$CMLJUST
 70
     0
  9
$CMLSCALE
 40
1.0
  9
$SAVEIMAGES
 70
     1
  0
ENDSEC
  0
SECTION
  2
CLASSES
  0
CLASS
  1
ACDBDICTIONARYWDFLT
  2
AcDbDictionaryWithDefault
  3
AutoCAD 2000
 90
    32768
280
     0
281
     0
  0
CLASS
  1
ACDBPLACEHOLDER
  2
AcDbPlaceHolder
  3
AutoCAD 2000
 90
    32768
280
     0
281
     0
  0
CLASS
  1
LAYOUT
  2
AcDbLayout
  3
AutoCAD 2000
 90
    32768
280
     0
281
     0
  0
CLASS
  1
LONG_TRANSACTION
  2
AcDbLongTransaction
  3
AutoCAD 2000
 90
    32768
280
     0
281
     0
  0
CLASS
  1
LWPOLYLINE
  2
AcDbPolyline
  3
AutoCAD 2000
 90
    32768
280
     0
281
     1
  0
CLASS
  1
HATCH
  2
AcDbHatch
  3
AutoCAD 2000
 90
    32768
280
     0
281
     1
  0
CLASS
  1
XRECORD
  2
AcDbXrecord
  3
AutoCAD 2000
 90
    32768
280
     0
281
     0
  0
CLASS
  1
LONG_TRANSACTION
  2
AcDbLongTransaction
  3
AutoCAD 2000
 90
    32768
280
     0
281
     0
  0
CLASS
  1
LWPOLYLINE
  2
AcDbPolyline
  3
AutoCAD 2000
 90
    32768
280
     0
281
     1
  0
CLASS
  1
HATCH
  2
AcDbHatch
  3
AutoCAD 2000
 90
    32768
280
     0
281
     1
  0
CLASS
  1
XRECORD
  2
AcDbXrecord
  3
AutoCAD 2000
 90
    32768
280
     0
281
     0
  0
CLASS
  1
LONG_TRANSACTION
  2
AcDbLongTransaction
  3
AutoCAD 2000
 90
    32768
280
     0
281
     0
  0
CLASS
  1
LWPOLYLINE
  2
AcDbPolyline
  3
AutoCAD 2000
 90
    32768
280
     0
281
     1
  0
CLASS
  1
HATCH
  2
AcDbHatch
  3
AutoCAD 2000
 90
    32768
280
     0
281
     1
  0
CLASS
  1
XRECORD
  2
AcDbXrecord
  3
AutoCAD 2000
 90
    32768
280
     0
281
     0
  0
CLASS
  1
LONG_TRANSACTION
  2
AcDbLongTransaction
  3
AutoCAD 2000
 90
    32768
280
     0
281
     0
  0
CLASS
  1
LWPOLYLINE
  2
AcDbPolyline
  3
AutoCAD 2000
 90
    32768
280
     0
281
     1
  0
CLASS
  1
HATCH
  2
AcDbHatch
  3
AutoCAD 2000
 90
    32768
280
     0
281
     1
  0
CLASS
  1
XRECORD
  2
AcDbXrecord
  3
AutoCAD 2000
 90
    32768
280
     0
281
     0
  0
CLASS
  1
LONG_TRANSACTION
  2
AcDbLongTransaction
  3
AutoCAD 2000
 90
    32768
280
     0
281
     0
  0
CLASS
  1
LWPOLYLINE
  2
AcDbPolyline
  3
AutoCAD 2000
 90
    32768
280
     0
281
     1
  0
CLASS
  1
HATCH
  2
AcDbHatch
  3
AutoCAD 2000
 90
    32768
280
     0
281
     1
  0
CLASS
  1
XRECORD
  2
AcDbXrecord
  3
AutoCAD 2000
 90
    32768
280
     0
281
     0
  0
CLASS
  1
LONG_TRANSACTION
  2
AcDbLongTransaction
  3
AutoCAD 2000
 90
    32768
280
     0
281
     0
  0
CLASS
  1
LWPOLYLINE
  2
AcDbPolyline
  3
AutoCAD 2000
 90
    32768
280
     0
281
     1
  0
CLASS
  1
HATCH
  2
AcDbHatch
  3
AutoCAD 2000
 90
    32768
280
     0
281
     1
  0
CLASS
  1
XRECORD
  2
AcDbXrecord
  3
AutoCAD 2000
 90
    32768
280
     0
281
     0
  0
CLASS
  1
LONG_TRANSACTION
  2
AcDbLongTransaction
  3
AutoCAD 2000
 90
    32768
280
     0
281
     0
  0
CLASS
  1
LWPOLYLINE
  2
AcDbPolyline
  3
AutoCAD 2000
 90
    32768
280
     0
281
     1
  0
CLASS
  1
HATCH
  2
AcDbHatch
  3
AutoCAD 2000
 90
    32768
280
     0
281
     1
  0
CLASS
  1
XRECORD
  2
AcDbXrecord
  3
AutoCAD 2000
 90
    32768
280
     0
281
     0
  0
CLASS
  1
LONG_TRANSACTION
  2
AcDbLongTransaction
  3
AutoCAD 2000
 90
    32768
280
     0
281
     0
  0
CLASS
  1
LWPOLYLINE
  2
AcDbPolyline
  3
AutoCAD 2000
 90
    32768
280
     0
281
     1
  0
CLASS
  1
HATCH
  2
AcDbHatch
  3
AutoCAD 2000
 90
    32768
280
     0
281
     1
  0
CLASS
  1
XRECORD
  2
AcDbXrecord
  3
AutoCAD 2000
 90
    32768
280
     0
281
     0
  0
CLASS
  1
LONG_TRANSACTION
  2
AcDbLongTransaction
  3
AutoCAD 2000
 90
    32768
280
     0
281
     0
  0
CLASS
  1
LWPOLYLINE
  2
AcDbPolyline
  3
AutoCAD 2000
 90
    32768
280
     0
281
     1
  0
CLASS
  1
HATCH
  2
AcDbHatch
  3
AutoCAD 2000
 90
    32768
280
     0
281
     1
  0
CLASS
  1
XRECORD
  2
AcDbXrecord
  3
AutoCAD 2000
 90
    32768
280
     0
281
     0
  0
CLASS
  1
LONG_TRANSACTION
  2
AcDbLongTransaction
  3
AutoCAD 2000
 90
    32768
280
     0
281
     0
  0
CLASS
  1
LWPOLYLINE
  2
AcDbPolyline
  3
AutoCAD 2000
 90
    32768
280
     0
281
     1
  0
CLASS
  1
HATCH
  2
AcDbHatch
  3
AutoCAD 2000
 90
    32768
280
     0
281
     1
  0
CLASS
  1
XRECORD
  2
AcDbXrecord
  3
AutoCAD 2000
 90
    32768
280
     0
281
     0
  0
CLASS
  1
LONG_TRANSACTION
  2
AcDbLongTransaction
  3
AutoCAD 2000
 90
    32768
280
     0
281
     0
  0
CLASS
  1
LWPOLYLINE
  2
AcDbPolyline
  3
AutoCAD 2000
 90
    32768
280
     0
281
     1
  0
CLASS
  1
HATCH
  2
AcDbHatch
  3
AutoCAD 2000
 90
    32768
280
     0
281
     1
  0
CLASS
  1
XRECORD
  2
AcDbXrecord
  3
AutoCAD 2000
 90
    32768
280
     0
281
     0
  0
CLASS
  1
LONG_TRANSACTION
  2
AcDbLongTransaction
  3
AutoCAD 2000
 90
    32768
280
     0
281
     0
  0
CLASS
  1
LWPOLYLINE
  2
AcDbPolyline
  3
AutoCAD 2000
 90
    32768
280
     0
281
     1
  0
CLASS
  1
HATCH
  2
AcDbHatch
  3
AutoCAD 2000
 90
    32768
280
     0
281
     1
  0
CLASS
  1
XRECORD
  2
AcDbXrecord
  3
AutoCAD 2000
 90
    32768
280
     0
281
     0
  0
CLASS
  1
LONG_TRANSACTION
  2
AcDbLongTransaction
  3
AutoCAD 2000
 90
    32768
280
     0
281
     0
  0
CLASS
  1
LWPOLYLINE
  2
AcDbPolyline
  3
AutoCAD 2000
 90
    32768
280
     0
281
     1
  0
CLASS
  1
HATCH
  2
AcDbHatch
  3
AutoCAD 2000
 90
    32768
280
     0
281
     1
  0
CLASS
  1
XRECORD
  2
AcDbXrecord
  3
AutoCAD 2000
 90
    32768
280
     0
281
     0
  0
CLASS
  1
LONG_TRANSACTION
  2
AcDbLongTransaction
  3
AutoCAD 2000
 90
    32768
280
     0
281
     0
  0
CLASS
  1
LWPOLYLINE
  2
AcDbPolyline
  3
AutoCAD 2000
 90
    32768
280
     0
281
     1
  0
CLASS
  1
HATCH
  2
AcDbHatch
  3
AutoCAD 2000
 90
    32768
280
     0
281
     1
  0
CLASS
  1
XRECORD
  2
AcDbXrecord
  3
AutoCAD 2000
 90
    32768
280
     0
281
     0
  0
CLASS
  1
LONG_TRANSACTION
  2
AcDbLongTransaction
  3
AutoCAD 2000
 90
    32768
280
     0
281
     0
  0
CLASS
  1
LWPOLYLINE
  2
AcDbPolyline
  3
AutoCAD 2000
 90
    32768
280
     0
281
     1
  0
CLASS
  1
HATCH
  2
AcDbHatch
  3
AutoCAD 2000
 90
    32768
280
     0
281
     1
  0
CLASS
  1
XRECORD
  2
AcDbXrecord
  3
AutoCAD 2000
 90
    32768
280
     0
281
     0
  0
CLASS
  1
LONG_TRANSACTION
  2
AcDbLongTransaction
  3
AutoCAD 2000
 90
    32768
280
     0
281
     0
  0
CLASS
  1
LWPOLYLINE
  2
AcDbPolyline
  3
AutoCAD 2000
 90
    32768
280
     0
281
     1
  0
CLASS
  1
HATCH
  2
AcDbHatch
  3
AutoCAD 2000
 90
    32768
280
     0
281
     1
  0
CLASS
  1
XRECORD
  2
AcDbXrecord
  3
AutoCAD 2000
 90
    32768
280
     0
281
     0
  0
CLASS
  1
LONG_TRANSACTION
  2
AcDbLongTransaction
  3
AutoCAD 2000
 90
    32768
280
     0
281
     0
  0
CLASS
  1
LWPOLYLINE
  2
AcDbPolyline
  3
AutoCAD 2000
 90
    32768
280
     0
281
     1
  0
CLASS
  1
HATCH
  2
AcDbHatch
  3
AutoCAD 2000
 90
    32768
280
     0
281
     1
  0
CLASS
  1
XRECORD
  2
AcDbXrecord
  3
AutoCAD 2000
 90
    32768
280
     0
281
     0
  0
CLASS
  1
LONG_TRANSACTION
  2
AcDbLongTransaction
  3
AutoCAD 2000
 90
    32768
280
     0
281
     0
  0
CLASS
  1
LWPOLYLINE
  2
AcDbPolyline
  3
AutoCAD 2000
 90
    32768
280
     0
281
     1
  0
CLASS
  1
HATCH
  2
AcDbHatch
  3
AutoCAD 2000
 90
    32768
280
     0
281
     1
  0
CLASS
  1
XRECORD
  2
AcDbXrecord
  3
AutoCAD 2000
 90
    32768
280
     0
281
     0
  0
CLASS
  1
LONG_TRANSACTION
  2
AcDbLongTransaction
  3
AutoCAD 2000
 90
    32768
280
     0
281
     0
  0
CLASS
  1
LWPOLYLINE
  2
AcDbPolyline
  3
AutoCAD 2000
 90
    32768
280
     0
281
     1
  0
CLASS
  1
HATCH
  2
AcDbHatch
  3
AutoCAD 2000
 90
    32768
280
     0
281
     1
  0
CLASS
  1
XRECORD
  2
AcDbXrecord
  3
AutoCAD 2000
 90
    32768
280
     0
281
     0
  0
CLASS
  1
LONG_TRANSACTION
  2
AcDbLongTransaction
  3
AutoCAD 2000
 90
    32768
280
     0
281
     0
  0
CLASS
  1
LWPOLYLINE
  2
AcDbPolyline
  3
AutoCAD 2000
 90
    32768
280
     0
281
     1
  0
CLASS
  1
HATCH
  2
AcDbHatch
  3
AutoCAD 2000
 90
    32768
280
     0
281
     1
  0
CLASS
  1
XRECORD
  2
AcDbXrecord
  3
AutoCAD 2000
 90
    32768
280
     0
281
     0
  0
CLASS
  1
LONG_TRANSACTION
  2
AcDbLongTransaction
  3
AutoCAD 2000
 90
    32768
280
     0
281
     0
  0
CLASS
  1
LWPOLYLINE
  2
AcDbPolyline
  3
AutoCAD 2000
 90
    32768
280
     0
281
     1
  0
CLASS
  1
HATCH
  2
AcDbHatch
  3
AutoCAD 2000
 90
    32768
280
     0
281
     1
  0
CLASS
  1
XRECORD
  2
AcDbXrecord
  3
AutoCAD 2000
 90
    32768
280
     0
281
     0
  0
ENDSEC
  0
SECTION
  2
TABLES
  0
TABLE
  2
VPORT
  5
12
330
0
100
AcDbSymbolTable
 70
     3
  0
VPORT
  5
1B08
330
12
100
AcDbSymbolTableRecord
100
AcDbViewportTableRecord
  2
*ACTIVE
 70
     0
 10
0.0
 20
0.0
 11
1.0
 21
1.0
 12
514.7562857218162
 22
3054.258656378044
 13
0.0
 23
0.0
 14
1.0
 24
1.0
 15
0.0
 25
0.0
 16
0.0
 26
0.0
 36
1.0
 17
0.0
 27
0.0
 37
0.0
 40
290.5316072688092
 41
1.60759493670886
 42
50.0
 43
0.0
 44
0.0
 50
0.0
 51
0.0
 71
     0
 72
   100
 73
     1
 74
     0
 75
     0
 76
     0
 77
     0
 78
     0
  0
ENDTAB
  0
TABLE
  2
LTYPE
  5
D
330
0
100
AcDbSymbolTable
 70
     3
  0
LTYPE
  5
E
330
D
100
AcDbSymbolTableRecord
100
AcDbLinetypeTableRecord
  2
BYBLOCK
 70
     0
  3

 72
    65
 73
     0
 40
0.0
  0
LTYPE
  5
F
330
D
100
AcDbSymbolTableRecord
100
AcDbLinetypeTableRecord
  2
BYLAYER
 70
     0
  3

 72
    65
 73
     0
 40
0.0
  0
LTYPE
  5
5
330
D
100
AcDbSymbolTableRecord
100
AcDbLinetypeTableRecord
  2
CONTINUOUS
 70
     0
  3
Solid line
 72
    65
 73
     0
 40
0.0
  0
LTYPE
  5
30
330
D
100
AcDbSymbolTableRecord
100
AcDbLinetypeTableRecord
  2
CENTER
 70
     0
  3
----- - ----- - ----- - ----- - -----
 72
    65
 73
     4
 40
35.0
 49
30.0
 74
     0
 49
-1.5
 74
     0
 49
2.0
 74
     0
 49
-1.5
 74
     0
  0
LTYPE
  5
2D
330
D
100
AcDbSymbolTableRecord
100
AcDbLinetypeTableRecord
  2
PHANTOM
 70
     0
  3
----- - - ----- - - ----- - - ----- - - -----
 72
    65
 73
     6
 40
22.5
 49
15.0
 74
     0
 49
-1.5
 74
     0
 49
1.5
 74
     0
 49
-1.5
 74
     0
 49
1.5
 74
     0
 49
-1.5
 74
     0
  0
ENDTAB
  0
TABLE
  2
LAYER
  5
A
102
{ACAD_XDICTIONARY
360
272
102
}
330
0
100
AcDbSymbolTable
 70
     5
  0
LAYER
  5
4
330
A
100
AcDbSymbolTableRecord
100
AcDbLayerTableRecord
  2
0
 70
     0
 62
     7
  6
CONTINUOUS
  0
LAYER
  5
23
330
A
100
AcDbSymbolTableRecord
100
AcDbLayerTableRecord
  2
L-ZISSEN
 70
     0
 62
     7
  6
CONTINUOUS
  0
LAYER
  5
2F
330
A
100
AcDbSymbolTableRecord
100
AcDbLayerTableRecord
  2
L-TYUSIN
 70
     0
 62
     1
  6
CENTER
  0
LAYER
  5
25
330
A
100
AcDbSymbolTableRecord
100
AcDbLayerTableRecord
  2
L-SAISEN
 70
     0
 62
     6
  6
CONTINUOUS
  0
LAYER
  5
2C
330
A
100
AcDbSymbolTableRecord
100
AcDbLayerTableRecord
  2
L-SOUZOU
 70
     0
 62
     2
  6
PHANTOM
  0
ENDTAB
  0
TABLE
  2
STYLE
  5
B
330
0
100
AcDbSymbolTable
 70
     2
  0
STYLE
  5
C
330
B
100
AcDbSymbolTableRecord
100
AcDbTextStyleTableRecord
  2
STANDARD
 70
     0
 40
0.0
 41
1.0
 50
0.0
 71
     0
 42
5.0
  3
txt.shx
  4

  0
STYLE
  5
1C
330
B
100
AcDbSymbolTableRecord
100
AcDbTextStyleTableRecord
  2
KANJI
 70
     0
 40
0.0
 41
0.8
 50
0.0
 71
     0
 42
1.5
  3
txt.shx
  4

  0
ENDTAB
  0
TABLE
  2
VIEW
  5
10
330
0
100
AcDbSymbolTable
 70
     0
  0
ENDTAB
  0
TABLE
  2
UCS
  5
11
330
0
100
AcDbSymbolTable
 70
     0
  0
ENDTAB
  0
TABLE
  2
APPID
  5
14
330
0
100
AcDbSymbolTable
 70
     1
  0
APPID
  5
15
330
14
100
AcDbSymbolTableRecord
100
AcDbRegAppTableRecord
  2
ACAD
 70
     0
  0
ENDTAB
  0
TABLE
  2
DIMSTYLE
  5
16
330
0
100
AcDbSymbolTable
 70
     1
  0
DIMSTYLE
105
1E
330
16
100
AcDbSymbolTableRecord
100
AcDbDimStyleTableRecord
  2
STANDARD
 70
     0
  3

  4

  5

  6

  7

 40
1.0
 41
0.18
 42
0.0625
 43
0.38
 44
0.18
 45
0.0
 46
0.0
 47
0.0
 48
0.0
140
0.18
141
0.09
142
0.0
143
25.4
144
1.0
145
0.0
146
1.0
147
0.09
 71
     0
 72
     0
 73
     1
 74
     1
 75
     0
 76
     0
 77
     0
 78
     0
170
     0
171
     2
172
     0
173
     0
174
     0
175
     0
176
     0
177
     0
178
     0
270
     2
271
     4
272
     4
273
     2
274
     2
340
C
275
     0
280
     0
281
     0
282
     0
283
     1
284
     0
285
     0
286
     0
287
     3
288
     0
  0
ENDTAB
  0
TABLE
  2
BLOCK_RECORD
  5
1
330
0
100
AcDbSymbolTable
 70
     0
  0
BLOCK_RECORD
  5
2
102
{ACAD_XDICTIONARY
360
96F
102
}
330
1
100
AcDbSymbolTableRecord
100
AcDbBlockTableRecord
  2
*MODEL_SPACE
  0
BLOCK_RECORD
  5
7
102
{ACAD_XDICTIONARY
360
971
102
}
330
1
100
AcDbSymbolTableRecord
100
AcDbBlockTableRecord
  2
*PAPER_SPACE
  0
ENDTAB
  0
ENDSEC
  0
SECTION
  2
BLOCKS
  0
BLOCK
  5
3
330
2
100
AcDbEntity
  8
0
100
AcDbBlockBegin
  2
*MODEL_SPACE
 70
     0
 10
0.0
 20
0.0
 30
0.0
  3
*MODEL_SPACE
  1

  0
ENDBLK
  5
6
330
2
100
AcDbEntity
  8
0
100
AcDbBlockEnd
  0
BLOCK
  5
8
330
7
100
AcDbEntity
 67
     1
  8
0
100
AcDbBlockBegin
  2
*PAPER_SPACE
 70
     0
 10
0.0
 20
0.0
 30
0.0
  3
*PAPER_SPACE
  1

  0
ENDBLK
  5
9
330
7
100
AcDbEntity
 67
     1
  8
0
100
AcDbBlockEnd
  0
ENDSEC
  0
SECTION
  2
ENTITIES
  0
LINE
  5
1392
330
2
100
AcDbEntity
  8
L-SOUZOU
100
AcDbLine
 10
476.9509709934575
 20
3192.035827216965
 30
0.0
 11
484.4509709934575
 21
3192.035827216965
 31
0.0
  0
LINE
  5
1393
330
2
100
AcDbEntity
  8
L-SOUZOU
100
AcDbLine
 10
476.9509709934575
 20
3150.035827216965
 30
0.0
 11
484.4509709934575
 21
3150.035827216965
 31
0.0
  0
LINE
  5
1394
330
2
100
AcDbEntity
  8
L-SOUZOU
100
AcDbLine
 10
476.9509709934575
 20
3042.035856752241
 30
0.0
 11
484.4509709934575
 21
3042.035856752241
 31
0.0
  0
LINE
  5
1395
330
2
100
AcDbEntity
  8
L-SOUZOU
100
AcDbLine
 10
476.9509709934575
 20
3000.035856752241
 30
0.0
 11
484.4509709934575
 21
3000.035856752241
 31
0.0
  0
LINE
  5
1396
330
2
100
AcDbEntity
  8
L-TYUSIN
100
AcDbLine
 10
405.4509709934575
 20
3021.035856752241
 30
0.0
 11
490.9509709934575
 21
3021.035856752241
 31
0.0
  0
LINE
  5
1397
330
2
100
AcDbEntity
  8
L-TYUSIN
100
AcDbLine
 10
395.4509709934575
 20
3171.035827216965
 30
0.0
 11
490.9509709934575
 21
3171.035827216965
 31
0.0
  0
LINE
  5
1398
330
2
100
AcDbEntity
  8
L-ZISSEN
100
AcDbLine
 10
445.4509709934575
 20
3060.535856752241
 30
0.0
 11
446.9509709934575
 21
3059.03585675224
 31
0.0
  0
LINE
  5
1399
330
2
100
AcDbEntity
  8
L-ZISSEN
100
AcDbLine
 10
415.4509709934575
 20
3060.535856752241
 30
0.0
 11
413.9509709934556
 21
3059.03585675224
 31
0.0
  0
LINE
  5
139A
330
2
100
AcDbEntity
  8
L-SOUZOU
100
AcDbLine
 10
400.4509709934575
 20
3047.535856752241
 30
0.0
 11
400.4509709934575
 21
3069.278127216965
 31
0.0
  0
LINE
  5
139B
330
2
100
AcDbEntity
  8
L-SOUZOU
100
AcDbLine
 10
402.4509709934575
 20
3049.535856752241
 30
0.0
 11
402.4509709934575
 21
3069.278127216965
 31
0.0
  0
LINE
  5
139C
330
2
100
AcDbEntity
  8
L-TYUSIN
100
AcDbLine
 10
430.4509709934575
 20
2910.035856752241
 30
0.0
 11
430.4509709934575
 21
3100.285856752241
 31
0.0
  0
LINE
  5
139D
330
2
100
AcDbEntity
  8
L-ZISSEN
100
AcDbLine
 10
444.4509709934611
 20
3032.03585675224
 30
0.0
 11
416.4509709934575
 21
3032.03585675224
 31
0.0
  0
LINE
  5
139E
330
2
100
AcDbEntity
  8
L-ZISSEN
100
AcDbLine
 10
444.4509709934611
 20
3030.535856752241
 30
0.0
 11
416.4509709934575
 21
3030.535856752241
 31
0.0
  0
ARC
  5
139F
330
2
100
AcDbEntity
  8
L-ZISSEN
100
AcDbCircle
 10
430.4509709934575
 20
3105.979102593284
 30
0.0
 40
57.4432458410422
100
AcDbArc
 50
261.7080814779307
 51
278.2919185220693
  0
ARC
  5
13A0
330
2
100
AcDbEntity
  8
L-ZISSEN
100
AcDbCircle
 10
430.4509709934575
 20
2998.092516387863
 30
0.0
 40
57.44324584106258
100
AcDbArc
 50
81.70808147793065
 51
98.29191852206934
  0
LINE
  5
13A2
330
2
100
AcDbEntity
  8
L-SAISEN
100
AcDbLine
 10
446.9509709934575
 20
3059.03585675224
 30
0.0
 11
413.9509709934556
 21
3059.03585675224
 31
0.0
  0
LINE
  5
13A3
330
2
100
AcDbEntity
  8
L-ZISSEN
100
AcDbLine
 10
412.1009709934553
 20
3055.535809490584
 30
0.0
 11
448.800970993456
 21
3055.535809490584
 31
0.0
  0
CIRCLE
  5
13AB
330
2
100
AcDbEntity
  8
L-SAISEN
100
AcDbCircle
 10
430.4509709934575
 20
3021.035856752241
 30
0.0
 40
6.58
  0
CIRCLE
  5
13AC
330
2
100
AcDbEntity
  8
L-ZISSEN
100
AcDbCircle
 10
430.4509709934575
 20
3021.035856752241
 30
0.0
 40
5.724999999999999
  0
LINE
  5
13AD
330
2
100
AcDbEntity
  8
L-ZISSEN
100
AcDbLine
 10
450.4509709934575
 20
3035.035856752241
 30
0.0
 11
410.4509709934575
 21
3035.035856752241
 31
0.0
  0
LINE
  5
13AE
330
2
100
AcDbEntity
  8
L-ZISSEN
100
AcDbLine
 10
450.4509709934575
 20
3035.035856752241
 30
0.0
 11
410.4509709934575
 21
3035.035856752241
 31
0.0
  0
LINE
  5
13AF
330
2
100
AcDbEntity
  8
L-SOUZOU
100
AcDbLine
 10
401.4509709934575
 20
3046.535856752241
 30
0.0
 11
450.4509709934575
 21
3046.535856752241
 31
0.0
  0
LINE
  5
13B0
330
2
100
AcDbEntity
  8
L-SOUZOU
100
AcDbLine
 10
403.4509709934575
 20
3048.53585675224
 30
0.0
 11
450.4509709934575
 21
3048.53585675224
 31
0.0
  0
LINE
  5
13B1
330
2
100
AcDbEntity
  8
L-ZISSEN
100
AcDbLine
 10
410.4509709934575
 20
3035.035856752241
 30
0.0
 11
410.4509709934574
 21
2998.035856752241
 31
0.0
  0
LINE
  5
13BB
330
2
100
AcDbEntity
  8
L-ZISSEN
100
AcDbLine
 10
410.4509709934575
 20
3027.03585675224
 30
0.0
 11
416.4509709934575
 21
3027.03585675224
 31
0.0
  0
LINE
  5
13BD
330
2
100
AcDbEntity
  8
L-ZISSEN
100
AcDbLine
 10
410.4509709934575
 20
3041.035856752239
 30
0.0
 11
418.4509709934575
 21
3041.035856752239
 31
0.0
  0
ARC
  5
13BE
330
2
100
AcDbEntity
  8
L-ZISSEN
100
AcDbCircle
 10
413.7845969755728
 20
3042.420277171935
 30
0.0
 40
2.715501624969262
100
AcDbArc
 50
88.7567347921917
 51
185.0977525317109
  0
LINE
  5
13BF
330
2
100
AcDbEntity
  8
L-ZISSEN
100
AcDbLine
 10
412.1009709934517
 20
3048.535809490584
 30
0.0
 11
410.4509709934575
 21
3049.136360377122
 31
0.0
  0
LINE
  5
13C0
330
2
100
AcDbEntity
  8
L-ZISSEN
100
AcDbLine
 10
412.1009709934553
 20
3055.535809490584
 30
0.0
 11
410.4509709934575
 21
3054.935258604045
 31
0.0
  0
LINE
  5
13C1
330
2
100
AcDbEntity
  8
L-ZISSEN
100
AcDbLine
 10
410.4509709934575
 20
3046.535856752241
 30
0.0
 11
410.4509709934575
 21
3035.035856752241
 31
0.0
  0
LINE
  5
13C2
330
2
100
AcDbEntity
  8
L-ZISSEN
100
AcDbLine
 10
410.4509709934575
 20
3035.035856752241
 30
0.0
 11
410.4509709934575
 21
3020.835856752241
 31
0.0
  0
ARC
  5
13C3
330
2
100
AcDbEntity
  8
L-SOUZOU
100
AcDbCircle
 10
403.4509709934575
 20
3049.535856752241
 30
0.0
 40
1.000000000000511
100
AcDbArc
 50
180.0
 51
270.0
  0
LINE
  5
13C4
330
2
100
AcDbEntity
  8
L-ZISSEN
100
AcDbLine
 10
410.4509709934575
 20
3049.136360377122
 30
0.0
 11
410.4509709934575
 21
3054.935258604045
 31
0.0
  0
ARC
  5
13C5
330
2
100
AcDbEntity
  8
L-SOUZOU
100
AcDbCircle
 10
401.4509709934575
 20
3047.535856752241
 30
0.0
 40
1.000000000000795
100
AcDbArc
 50
180.0
 51
270.0
  0
LINE
  5
13C6
330
2
100
AcDbEntity
  8
L-ZISSEN
100
AcDbLine
 10
416.4509709934575
 20
3030.535856752241
 30
0.0
 11
416.4509709934575
 21
3032.03585675224
 31
0.0
  0
LINE
  5
13C7
330
2
100
AcDbEntity
  8
L-ZISSEN
100
AcDbLine
 10
422.1666997459927
 20
3049.136360377122
 30
0.0
 11
422.1666997459999
 21
3054.935258604045
 31
0.0
  0
ARC
  5
13C8
330
2
100
AcDbEntity
  8
L-ZISSEN
100
AcDbCircle
 10
415.1173450113403
 20
3042.420277171935
 30
0.0
 40
2.715501624969221
100
AcDbArc
 50
354.9022474682891
 51
91.24326520780831
  0
ARC
  5
13C9
330
2
100
AcDbEntity
  8
L-ZISSEN
100
AcDbCircle
 10
416.308835369726
 20
3077.405333452077
 30
0.0
 40
28.86952396149382
100
AcDbArc
 50
270.0
 51
281.707076902434
  0
LINE
  5
13CA
330
2
100
AcDbEntity
  8
L-ZISSEN
100
AcDbLine
 10
411.0798363771976
 20
3041.035856752239
 30
0.0
 11
417.8221056097193
 21
3041.035856752239
 31
0.0
  0
LINE
  5
13CB
330
2
100
AcDbEntity
  8
L-ZISSEN
100
AcDbLine
 10
417.8221056097193
 20
3042.178990660343
 30
0.0
 11
411.0798363771976
 21
3042.178990660343
 31
0.0
  0
LINE
  5
13CC
330
2
100
AcDbEntity
  8
L-ZISSEN
100
AcDbLine
 10
411.0798363771976
 20
3042.178990660343
 30
0.0
 11
411.0798363771976
 21
3041.035856752239
 31
0.0
  0
LINE
  5
13CD
330
2
100
AcDbEntity
  8
L-ZISSEN
100
AcDbLine
 10
413.8435162151528
 20
3044.150125793458
 30
0.0
 11
415.0584257717603
 21
3044.150125793458
 31
0.0
  0
LINE
  5
13CE
330
2
100
AcDbEntity
  8
L-ZISSEN
100
AcDbLine
 10
413.8435162151528
 20
3045.135139525429
 30
0.0
 11
413.8435162151528
 21
3044.150125793458
 31
0.0
  0
LINE
  5
13CF
330
2
100
AcDbEntity
  8
L-ZISSEN
100
AcDbLine
 10
415.0584257717603
 20
3044.150125793458
 30
0.0
 11
415.0584257717603
 21
3045.135139525429
 31
0.0
  0
LINE
  5
13D0
330
2
100
AcDbEntity
  8
L-ZISSEN
100
AcDbLine
 10
418.4509709934575
 20
3046.535856752241
 30
0.0
 11
418.4509709934575
 21
3041.035856752239
 31
0.0
  0
LINE
  5
13D1
330
2
100
AcDbEntity
  8
L-ZISSEN
100
AcDbLine
 10
417.8221056097193
 20
3041.035856752239
 30
0.0
 11
417.8221056097193
 21
3042.178990660343
 31
0.0
  0
ARC
  5
13D2
330
2
100
AcDbEntity
  8
L-ZISSEN
100
AcDbCircle
 10
416.3088353697278
 20
3026.666285529056
 30
0.0
 40
28.86952396152839
100
AcDbArc
 50
78.29292309756588
 51
90.0
  0
LINE
  5
13D3
330
2
100
AcDbEntity
  8
L-ZISSEN
100
AcDbLine
 10
413.9509709934556
 20
3059.03585675224
 30
0.0
 11
413.9509709934556
 21
3055.535809490584
 31
0.0
  0
LINE
  5
13D4
330
2
100
AcDbEntity
  8
L-SAISEN
100
AcDbLine
 10
414.7357983807198
 20
3059.820684139501
 30
0.0
 11
414.7357983807162
 21
3055.535809490584
 31
0.0
  0
LINE
  5
13D5
330
2
100
AcDbEntity
  8
L-SOUZOU
100
AcDbLine
 10
453.4509709934575
 20
3016.631912958573
 30
0.0
 11
454.0558751944188
 21
3016.027008757612
 31
0.0
  0
LINE
  5
13D6
330
2
100
AcDbEntity
  8
L-ZISSEN
100
AcDbLine
 10
450.4509709934575
 20
2998.035856752241
 30
0.0
 11
450.4509709934575
 21
3035.035856752241
 31
0.0
  0
LINE
  5
13D7
330
2
100
AcDbEntity
  8
L-SOUZOU
100
AcDbLine
 10
453.4509709934575
 20
3026.025800545908
 30
0.0
 11
453.4509709934574
 21
3016.045912958574
 31
0.0
  0
LINE
  5
13D8
330
2
100
AcDbEntity
  8
L-SOUZOU
100
AcDbLine
 10
460.9509709934575
 20
3039.93585675224
 30
0.0
 11
460.9509709934575
 21
3002.135856752241
 31
0.0
  0
LINE
  5
13D9
330
2
100
AcDbEntity
  8
L-SOUZOU
100
AcDbLine
 10
454.9509709934575
 20
3026.385856752241
 30
0.0
 11
454.9509709934575
 21
3015.685856752241
 31
0.0
  0
LINE
  5
13DA
330
2
100
AcDbEntity
  8
L-SOUZOU
100
AcDbLine
 10
476.9509709934575
 20
3042.035856752241
 30
0.0
 11
476.9509709934575
 21
3000.035856752241
 31
0.0
  0
LINE
  5
13DB
330
2
100
AcDbEntity
  8
L-ZISSEN
100
AcDbLine
 10
444.4509709934561
 20
3015.035856752241
 30
0.0
 11
444.4509709934611
 21
3027.03585675224
 31
0.0
  0
LINE
  5
13DC
330
2
100
AcDbEntity
  8
L-SOUZOU
100
AcDbLine
 10
454.9509709934575
 20
3015.685856752241
 30
0.0
 11
460.9509709934575
 21
3015.685856752241
 31
0.0
  0
LINE
  5
13E4
330
2
100
AcDbEntity
  8
L-SOUZOU
100
AcDbLine
 10
450.4509709934575
 20
3016.139667643686
 30
0.0
 11
454.9509709934575
 21
3015.999035616017
 31
0.0
  0
LINE
  5
13E6
330
2
100
AcDbEntity
  8
L-SOUZOU
100
AcDbLine
 10
462.4509709934575
 20
3000.635856752241
 30
0.0
 11
476.9509709934575
 21
3000.635856752241
 31
0.0
  0
ARC
  5
13E7
330
2
100
AcDbEntity
  8
L-SOUZOU
100
AcDbCircle
 10
462.4509709934575
 20
3002.135856752241
 30
0.0
 40
1.5
100
AcDbArc
 50
180.0
 51
270.0
  0
LINE
  5
13E8
330
2
100
AcDbEntity
  8
L-SOUZOU
100
AcDbLine
 10
460.9509709934575
 20
3026.385856752241
 30
0.0
 11
454.9509709934575
 21
3026.385856752241
 31
0.0
  0
LINE
  5
13E9
330
2
100
AcDbEntity
  8
L-ZISSEN
100
AcDbLine
 10
450.4509709934575
 20
3046.535856752241
 30
0.0
 11
450.4509709934575
 21
3035.035856752241
 31
0.0
  0
LINE
  5
13EA
330
2
100
AcDbEntity
  8
L-ZISSEN
100
AcDbLine
 10
444.4509709934611
 20
3027.03585675224
 30
0.0
 11
450.4509709934575
 21
3027.03585675224
 31
0.0
  0
LINE
  5
13EB
330
2
100
AcDbEntity
  8
L-ZISSEN
100
AcDbLine
 10
444.4509709934611
 20
3030.535856752241
 30
0.0
 11
444.4509709934611
 21
3032.03585675224
 31
0.0
  0
LINE
  5
13EC
330
2
100
AcDbEntity
  8
L-SOUZOU
100
AcDbLine
 10
450.4509709934575
 20
3025.346045860796
 30
0.0
 11
453.4509709934575
 21
3025.439800545908
 31
0.0
  0
LINE
  5
13ED
330
2
100
AcDbEntity
  8
L-SOUZOU
100
AcDbLine
 10
450.4509709934575
 20
3025.932045860796
 30
0.0
 11
454.9509709934575
 21
3026.072677888465
 31
0.0
  0
LINE
  5
13EE
330
2
100
AcDbEntity
  8
L-SOUZOU
100
AcDbLine
 10
450.4509709934575
 20
3016.725667643685
 30
0.0
 11
453.4509709934575
 21
3016.631912958573
 31
0.0
  0
LINE
  5
13EF
330
2
100
AcDbEntity
  8
L-SOUZOU
100
AcDbLine
 10
453.4509709934575
 20
3025.439800545908
 30
0.0
 11
454.0558751944188
 21
3026.04470474687
 31
0.0
  0
LINE
  5
13F0
330
2
100
AcDbEntity
  8
L-ZISSEN
100
AcDbLine
 10
449.8221056097174
 20
3041.035856752239
 30
0.0
 11
443.0798363771939
 21
3041.035856752239
 31
0.0
  0
LINE
  5
13F1
330
2
100
AcDbEntity
  8
L-ZISSEN
100
AcDbLine
 10
443.0798363771939
 20
3042.178990660343
 30
0.0
 11
449.8221056097174
 21
3042.178990660343
 31
0.0
  0
LINE
  5
13F2
330
2
100
AcDbEntity
  8
L-ZISSEN
100
AcDbLine
 10
447.0584257717621
 20
3044.150125793458
 30
0.0
 11
445.8435162151529
 21
3044.150125793458
 31
0.0
  0
LINE
  5
13F3
330
2
100
AcDbEntity
  8
L-ZISSEN
100
AcDbLine
 10
450.4509709934575
 20
3041.035856752239
 30
0.0
 11
442.4509709934575
 21
3041.035856752239
 31
0.0
  0
LINE
  5
13F4
330
2
100
AcDbEntity
  8
L-ZISSEN
100
AcDbLine
 10
438.7352422409187
 20
3049.136360377122
 30
0.0
 11
438.7352422409187
 21
3054.935258604045
 31
0.0
  0
ARC
  5
13F5
330
2
100
AcDbEntity
  8
L-ZISSEN
100
AcDbCircle
 10
444.5931066171872
 20
3077.405333452072
 30
0.0
 40
28.8695239614883
100
AcDbArc
 50
258.2929230975659
 51
270.0
  0
ARC
  5
13F6
330
2
100
AcDbEntity
  8
L-ZISSEN
100
AcDbCircle
 10
445.7845969755728
 20
3042.420277171935
 30
0.0
 40
2.715501624969788
100
AcDbArc
 50
88.7567347921917
 51
185.0977525317109
  0
LINE
  5
13F7
330
2
100
AcDbEntity
  8
L-ZISSEN
100
AcDbLine
 10
442.4509709934575
 20
3046.535856752241
 30
0.0
 11
442.4509709934575
 21
3041.035856752239
 31
0.0
  0
LINE
  5
13F8
330
2
100
AcDbEntity
  8
L-ZISSEN
100
AcDbLine
 10
443.0798363771939
 20
3041.035856752239
 30
0.0
 11
443.0798363771939
 21
3042.178990660343
 31
0.0
  0
LINE
  5
13F9
330
2
100
AcDbEntity
  8
L-ZISSEN
100
AcDbLine
 10
445.8435162151529
 20
3044.150125793458
 30
0.0
 11
445.8435162151529
 21
3045.135139525429
 31
0.0
  0
ARC
  5
13FA
330
2
100
AcDbEntity
  8
L-ZISSEN
100
AcDbCircle
 10
444.5931066171854
 20
3026.666285529078
 30
0.0
 40
28.86952396150588
100
AcDbArc
 50
90.0
 51
101.7070769024341
  0
LINE
  5
13FB
330
2
100
AcDbEntity
  8
L-SAISEN
100
AcDbLine
 10
446.1661436061969
 20
3059.820684139501
 30
0.0
 11
446.1661436061952
 21
3055.535809490584
 31
0.0
  0
LINE
  5
13FC
330
2
100
AcDbEntity
  8
L-ZISSEN
100
AcDbLine
 10
450.4509709934575
 20
3054.935258604045
 30
0.0
 11
450.4509709934575
 21
3049.136360377122
 31
0.0
  0
ARC
  5
13FD
330
2
100
AcDbEntity
  8
L-ZISSEN
100
AcDbCircle
 10
447.1173450113422
 20
3042.420277171935
 30
0.0
 40
2.715501624969262
100
AcDbArc
 50
354.9022474682891
 51
91.24326520780831
  0
LINE
  5
13FE
330
2
100
AcDbEntity
  8
L-ZISSEN
100
AcDbLine
 10
449.8221056097174
 20
3042.178990660343
 30
0.0
 11
449.8221056097174
 21
3041.035856752239
 31
0.0
  0
LINE
  5
13FF
330
2
100
AcDbEntity
  8
L-ZISSEN
100
AcDbLine
 10
448.8009709934597
 20
3048.535809490584
 30
0.0
 11
450.4509709934575
 21
3049.136360377122
 31
0.0
  0
LINE
  5
1400
330
2
100
AcDbEntity
  8
L-ZISSEN
100
AcDbLine
 10
447.0584257717621
 20
3045.135139525429
 30
0.0
 11
447.0584257717621
 21
3044.150125793458
 31
0.0
  0
LINE
  5
1401
330
2
100
AcDbEntity
  8
L-SOUZOU
 48
0.5
100
AcDbLine
 10
450.4509709934575
 20
3046.535856752241
 30
0.0
 11
450.4509709934575
 21
3048.53585675224
 31
0.0
  0
LINE
  5
1402
330
2
100
AcDbEntity
  8
L-ZISSEN
100
AcDbLine
 10
448.800970993456
 20
3055.535809490584
 30
0.0
 11
450.4509709934575
 21
3054.935258604045
 31
0.0
  0
LINE
  5
1403
330
2
100
AcDbEntity
  8
L-ZISSEN
100
AcDbLine
 10
446.9509709934575
 20
3059.03585675224
 30
0.0
 11
446.9509709934575
 21
3055.535809490584
 31
0.0
  0
LINE
  5
1404
330
2
100
AcDbEntity
  8
L-SOUZOU
100
AcDbLine
 10
462.4509709934575
 20
3041.435856752241
 30
0.0
 11
476.9509709934575
 21
3041.435856752241
 31
0.0
  0
ARC
  5
1405
330
2
100
AcDbEntity
  8
L-SOUZOU
100
AcDbCircle
 10
462.4509709934575
 20
3039.93585675224
 30
0.0
 40
1.5
100
AcDbArc
 50
90.0
 51
180.0
  0
LINE
  5
1406
330
2
100
AcDbEntity
  8
L-TYUSIN
100
AcDbLine
 10
430.4509709934575
 20
3146.035827216965
 30
0.0
 11
430.4509709934575
 21
3196.035827216965
 31
0.0
  0
LINE
  5
1407
330
2
100
AcDbEntity
  8
L-SOUZOU
100
AcDbLine
 10
400.4509709934575
 20
3143.535827216965
 30
0.0
 11
400.4509709934575
 21
3198.535827216965
 31
0.0
  0
LINE
  5
1408
330
2
100
AcDbEntity
  8
L-SOUZOU
100
AcDbLine
 10
402.4509709934575
 20
3143.535827216965
 30
0.0
 11
402.4509709934575
 21
3198.535827216965
 31
0.0
  0
LINE
  5
1409
330
2
100
AcDbEntity
  8
L-SOUZOU
100
AcDbLine
 10
402.4509709934575
 20
3143.535827216965
 30
0.0
 11
435.2373195767351
 21
3151.616999568537
 31
0.0
  0
LINE
  5
140A
330
2
100
AcDbEntity
  8
L-ZISSEN
100
AcDbLine
 10
443.8394604352035
 20
3095.285856752241
 30
0.0
 11
430.4509709934575
 21
3095.285856752241
 31
0.0
  0
LINE
  5
140B
330
2
100
AcDbEntity
  8
L-ZISSEN
100
AcDbLine
 10
415.0412372693792
 20
3062.285856752241
 30
0.0
 11
445.8607047175339
 21
3062.285856752241
 31
0.0
  0
LINE
  5
140C
330
2
100
AcDbEntity
  8
L-ZISSEN
100
AcDbLine
 10
441.9509709934557
 20
3060.535856752241
 30
0.0
 11
418.9509709934575
 21
3060.535856752241
 31
0.0
  0
LINE
  5
140D
330
2
100
AcDbEntity
  8
L-TYUSIN
100
AcDbLine
 10
399.1990392246446
 20
3063.278127216965
 30
0.0
 11
403.9825591182291
 21
3063.278127216965
 31
0.0
  0
LINE
  5
140E
330
2
100
AcDbEntity
  8
L-SOUZOU
100
AcDbLine
 10
400.4509709934575
 20
3069.278127216965
 30
0.0
 11
402.4509709934576
 21
3069.278127216965
 31
0.0
  0
LINE
  5
140F
330
2
100
AcDbEntity
  8
L-SOUZOU
100
AcDbLine
 10
400.4509709934575
 20
3068.278127216965
 30
0.0
 11
402.4509709934576
 21
3068.278127216965
 31
0.0
  0
LINE
  5
1410
330
2
100
AcDbEntity
  8
L-ZISSEN
100
AcDbLine
 10
415.5626867112261
 20
3093.810664744177
 30
0.0
 11
415.0412372693792
 21
3062.285856752241
 31
0.0
  0
LINE
  5
1411
330
2
100
AcDbEntity
  8
L-ZISSEN
100
AcDbLine
 10
418.9509709934575
 20
3060.535856752241
 30
0.0
 11
415.4509709934575
 21
3060.535856752241
 31
0.0
  0
LINE
  5
1412
330
2
100
AcDbEntity
  8
L-ZISSEN
100
AcDbLine
 10
418.9509709934575
 20
3062.285856752241
 30
0.0
 11
418.9509709934575
 21
3060.535856752241
 31
0.0
  0
LINE
  5
1413
330
2
100
AcDbEntity
  8
L-ZISSEN
100
AcDbLine
 10
417.0624815517096
 20
3095.285856752241
 30
0.0
 11
430.4509709934575
 21
3095.285856752241
 31
0.0
  0
ARC
  5
1414
330
2
100
AcDbEntity
  8
L-ZISSEN
100
AcDbCircle
 10
417.0624815517096
 20
3093.785856752241
 30
0.0
 40
1.500000000001557
100
AcDbArc
 50
90.0
 51
179.0523613050516
  0
LINE
  5
1415
330
2
100
AcDbEntity
  8
L-SOUZOU
100
AcDbLine
 10
402.4509709934575
 20
3143.535827216965
 30
0.0
 11
400.4509709934575
 21
3143.535827216965
 31
0.0
  0
LINE
  5
1416
330
2
100
AcDbEntity
  8
L-ZISSEN
100
AcDbLine
 10
445.3392552756888
 20
3093.810664744177
 30
0.0
 11
445.8607047175339
 21
3062.285856752241
 31
0.0
  0
LINE
  5
1417
330
2
100
AcDbEntity
  8
L-ZISSEN
100
AcDbLine
 10
445.4509709934575
 20
3060.535856752241
 30
0.0
 11
441.9509709934557
 21
3060.535856752241
 31
0.0
  0
LINE
  5
1418
330
2
100
AcDbEntity
  8
L-ZISSEN
100
AcDbLine
 10
441.9509709934557
 20
3062.285856752241
 30
0.0
 11
441.9509709934557
 21
3060.535856752241
 31
0.0
  0
LINE
  5
1419
330
2
100
AcDbEntity
  8
L-ZISSEN
100
AcDbLine
 10
441.9509709934557
 20
3062.285856752241
 30
0.0
 11
441.9509709934557
 21
3060.535856752241
 31
0.0
  0
ARC
  5
141A
330
2
100
AcDbEntity
  8
L-ZISSEN
100
AcDbCircle
 10
443.8394604352035
 20
3093.785856752241
 30
0.0
 40
1.499999999999772
100
AcDbArc
 50
0.9476386949483742
 51
90.0
  0
CIRCLE
  5
141B
330
2
100
AcDbEntity
  8
L-ZISSEN
100
AcDbCircle
 10
430.4509709934575
 20
3171.035827216965
 30
0.0
 40
15.40973372407643
  0
CIRCLE
  5
141C
330
2
100
AcDbEntity
  8
L-ZISSEN
100
AcDbCircle
 10
430.4509709934575
 20
3171.035827216965
 30
0.0
 40
14.86388324386761
  0
LINE
  5
141D
330
2
100
AcDbEntity
  8
L-SOUZOU
100
AcDbLine
 10
402.4509709934575
 20
3198.535827216965
 30
0.0
 11
435.2373195767351
 21
3190.454654865392
 31
0.0
  0
POLYLINE
  5
141E
330
2
100
AcDbEntity
  8
L-ZISSEN
100
AcDb2dPolyline
 66
     1
 10
0.0
 20
0.0
 30
0.0
 70
     1
  0
VERTEX
  5
1B0B
330
141E
100
AcDbEntity
  8
L-ZISSEN
100
AcDbVertex
100
AcDb2dVertex
 10
421.959592964809
 20
3191.535827216965
 30
0.0
  0
VERTEX
  5
1B0C
330
141E
100
AcDbEntity
  8
L-ZISSEN
100
AcDbVertex
100
AcDb2dVertex
 10
409.9509709934575
 20
3179.527205245613
 30
0.0
  0
VERTEX
  5
1B0D
330
141E
100
AcDbEntity
  8
L-ZISSEN
100
AcDbVertex
100
AcDb2dVertex
 10
409.9509709934575
 20
3162.544449188316
 30
0.0
  0
VERTEX
  5
1B0E
330
141E
100
AcDbEntity
  8
L-ZISSEN
100
AcDbVertex
100
AcDb2dVertex
 10
421.959592964809
 20
3150.535827216965
 30
0.0
  0
VERTEX
  5
1B0F
330
141E
100
AcDbEntity
  8
L-ZISSEN
100
AcDbVertex
100
AcDb2dVertex
 10
438.942349022106
 20
3150.535827216965
 30
0.0
  0
VERTEX
  5
1B10
330
141E
100
AcDbEntity
  8
L-ZISSEN
100
AcDbVertex
100
AcDb2dVertex
 10
450.9509709934575
 20
3162.544449188316
 30
0.0
  0
VERTEX
  5
1B11
330
141E
100
AcDbEntity
  8
L-ZISSEN
100
AcDbVertex
100
AcDb2dVertex
 10
450.9509709934575
 20
3179.527205245613
 30
0.0
  0
VERTEX
  5
1B12
330
141E
100
AcDbEntity
  8
L-ZISSEN
100
AcDbVertex
100
AcDb2dVertex
 10
438.942349022106
 20
3191.535827216965
 30
0.0
  0
SEQEND
  5
1B13
330
141E
100
AcDbEntity
  8
L-ZISSEN
  0
LINE
  5
141F
330
2
100
AcDbEntity
  8
L-ZISSEN
100
AcDbLine
 10
410.4509709934575
 20
3191.035827216965
 30
0.0
 11
410.4509709934575
 21
3180.027205245613
 31
0.0
  0
ARC
  5
1420
330
2
100
AcDbEntity
  8
L-ZISSEN
100
AcDbCircle
 10
414.4509709934575
 20
3187.035827216965
 30
0.0
 40
3.35
100
AcDbArc
 50
5.576318143252198
 51
264.4236818567345
  0
LINE
  5
1421
330
2
100
AcDbEntity
  8
L-ZISSEN
100
AcDbLine
 10
410.4509709934575
 20
3151.035827216965
 30
0.0
 11
421.4595929648091
 21
3151.035827216965
 31
0.0
  0
LINE
  5
1422
330
2
100
AcDbEntity
  8
L-TYUSIN
100
AcDbLine
 10
395.4509709934575
 20
3154.035827216965
 30
0.0
 11
405.4509709934575
 21
3154.035827216965
 31
0.0
  0
LINE
  5
1423
330
2
100
AcDbEntity
  8
L-ZISSEN
100
AcDbLine
 10
410.4509709934575
 20
3162.044449188316
 30
0.0
 11
410.4509709934575
 21
3151.035827216965
 31
0.0
  0
LINE
  5
1424
330
2
100
AcDbEntity
  8
L-TYUSIN
100
AcDbLine
 10
395.4509709934575
 20
3188.035827216965
 30
0.0
 11
405.4509709934575
 21
3188.035827216965
 31
0.0
  0
ARC
  5
1425
330
2
100
AcDbEntity
  8
L-ZISSEN
100
AcDbCircle
 10
414.4509709934575
 20
3155.035827216965
 30
0.0
 40
3.35
100
AcDbArc
 50
95.57631814326549
 51
354.4236818567477
  0
LINE
  5
1426
330
2
100
AcDbEntity
  8
L-ZISSEN
100
AcDbLine
 10
421.4595929648091
 20
3191.035827216965
 30
0.0
 11
410.4509709934575
 21
3191.035827216965
 31
0.0
  0
LINE
  5
1427
330
2
100
AcDbEntity
  8
L-SOUZOU
100
AcDbLine
 10
400.4509709934575
 20
3198.535827216965
 30
0.0
 11
402.4509709934575
 21
3198.535827216965
 31
0.0
  0
LINE
  5
1428
330
2
100
AcDbEntity
  8
L-SOUZOU
100
AcDbLine
 10
476.9509709934575
 20
3192.035827216965
 30
0.0
 11
476.9509709934575
 21
3150.035827216965
 31
0.0
  0
LINE
  5
1429
330
2
100
AcDbEntity
  8
L-ZISSEN
100
AcDbLine
 10
450.4509709934575
 20
3180.027205245613
 30
0.0
 11
450.4509709934575
 21
3191.035827216965
 31
0.0
  0
LINE
  5
142A
330
2
100
AcDbEntity
  8
L-SOUZOU
100
AcDbLine
 10
460.9509709934575
 20
3189.935827216965
 30
0.0
 11
460.9509709934575
 21
3152.135827216964
 31
0.0
  0
ARC
  5
142B
330
2
100
AcDbEntity
  8
L-ZISSEN
100
AcDbCircle
 10
446.4509709934575
 20
3187.035827216965
 30
0.0
 40
3.35
100
AcDbArc
 50
275.5763181432655
 51
174.4236818567478
  0
ARC
  5
142C
330
2
100
AcDbEntity
  8
L-SOUZOU
100
AcDbCircle
 10
430.4509709934575
 20
3171.035827216965
 30
0.0
 40
20.0
100
AcDbArc
 50
283.8462579924449
 51
76.15374200755502
  0
LINE
  5
142D
330
2
100
AcDbEntity
  8
L-SOUZOU
100
AcDbLine
 10
454.9509709934575
 20
3165.685827216965
 30
0.0
 11
460.9509709934575
 21
3165.685827216965
 31
0.0
  0
LINE
  5
142E
330
2
100
AcDbEntity
  8
L-SOUZOU
100
AcDbLine
 10
460.9509709934575
 20
3176.385827216964
 30
0.0
 11
454.9509709934575
 21
3176.385827216964
 31
0.0
  0
LINE
  5
142F
330
2
100
AcDbEntity
  8
L-SOUZOU
100
AcDbLine
 10
454.9509709934575
 20
3176.385827216964
 30
0.0
 11
454.9509709934575
 21
3165.685827216965
 31
0.0
  0
LINE
  5
1430
330
2
100
AcDbEntity
  8
L-SOUZOU
100
AcDbLine
 10
453.4509709934575
 20
3176.025771010632
 30
0.0
 11
453.4509709934574
 21
3166.045883423297
 31
0.0
  0
ARC
  5
1431
330
2
100
AcDbEntity
  8
L-ZISSEN
100
AcDbCircle
 10
446.4509709934575
 20
3155.035827216965
 30
0.0
 40
3.35
100
AcDbArc
 50
185.5763181432521
 51
84.42368185673451
  0
LINE
  5
1432
330
2
100
AcDbEntity
  8
L-ZISSEN
100
AcDbLine
 10
439.4423490221059
 20
3151.035827216965
 30
0.0
 11
450.4509709934575
 21
3151.035827216965
 31
0.0
  0
LINE
  5
1433
330
2
100
AcDbEntity
  8
L-ZISSEN
100
AcDbLine
 10
450.4509709934575
 20
3151.035827216965
 30
0.0
 11
450.4509709934575
 21
3162.044449188316
 31
0.0
  0
LINE
  5
1434
330
2
100
AcDbEntity
  8
L-SOUZOU
100
AcDbLine
 10
450.4509709934575
 20
3166.139638108409
 30
0.0
 11
454.9509709934575
 21
3165.999006080741
 31
0.0
  0
LINE
  5
1435
330
2
100
AcDbEntity
  8
L-SOUZOU
100
AcDbLine
 10
450.4509709934575
 20
3166.725638108409
 30
0.0
 11
453.4509709934575
 21
3166.631883423297
 31
0.0
  0
LINE
  5
1436
330
2
100
AcDbEntity
  8
L-SOUZOU
100
AcDbLine
 10
453.4509709934575
 20
3166.631883423297
 30
0.0
 11
454.0558751944188
 21
3166.026979222336
 31
0.0
  0
LINE
  5
1437
330
2
100
AcDbEntity
  8
L-SOUZOU
100
AcDbLine
 10
450.4509709934575
 20
3175.93201632552
 30
0.0
 11
454.9509709934575
 21
3176.072648353189
 31
0.0
  0
LINE
  5
1438
330
2
100
AcDbEntity
  8
L-SOUZOU
100
AcDbLine
 10
450.4509709934575
 20
3175.34601632552
 30
0.0
 11
453.4509709934575
 21
3175.439771010632
 31
0.0
  0
LINE
  5
1439
330
2
100
AcDbEntity
  8
L-SOUZOU
100
AcDbLine
 10
453.4509709934575
 20
3175.439771010632
 30
0.0
 11
454.0558751944188
 21
3176.044675211594
 31
0.0
  0
LINE
  5
143A
330
2
100
AcDbEntity
  8
L-SOUZOU
100
AcDbLine
 10
462.4509709934575
 20
3150.635827216964
 30
0.0
 11
476.9509709934575
 21
3150.635827216964
 31
0.0
  0
ARC
  5
143B
330
2
100
AcDbEntity
  8
L-SOUZOU
100
AcDbCircle
 10
462.4509709934575
 20
3152.135827216964
 30
0.0
 40
1.5
100
AcDbArc
 50
180.0
 51
270.0
  0
LINE
  5
143C
330
2
100
AcDbEntity
  8
L-ZISSEN
100
AcDbLine
 10
450.4509709934575
 20
3191.035827216965
 30
0.0
 11
439.4423490221059
 21
3191.035827216965
 31
0.0
  0
LINE
  5
143D
330
2
100
AcDbEntity
  8
L-SOUZOU
100
AcDbLine
 10
462.4509709934575
 20
3191.435827216964
 30
0.0
 11
476.9509709934575
 21
3191.435827216964
 31
0.0
  0
ARC
  5
143E
330
2
100
AcDbEntity
  8
L-SOUZOU
100
AcDbCircle
 10
462.4509709934575
 20
3189.935827216965
 30
0.0
 40
1.5
100
AcDbArc
 50
90.0
 51
180.0
  0
LINE
  5
143F
330
2
100
AcDbEntity
  8
L-TYUSIN
 48
0.5
100
AcDbLine
 10
597.4509709934575
 20
3058.278127216965
 30
0.0
 11
597.4509709934575
 21
3068.278127216965
 31
0.0
  0
LINE
  5
1440
330
2
100
AcDbEntity
  8
L-ZISSEN
100
AcDbLine
 10
595.4509709934575
 20
3060.535856752241
 30
0.0
 11
596.9509709934575
 21
3059.03585675224
 31
0.0
  0
LINE
  5
1441
330
2
100
AcDbEntity
  8
L-SOUZOU
100
AcDbLine
 10
607.9509709934575
 20
3047.535856752241
 30
0.0
 11
607.9509709934575
 21
3068.278127216965
 31
0.0
  0
LINE
  5
1442
330
2
100
AcDbEntity
  8
L-TYUSIN
 48
0.5
100
AcDbLine
 10
563.4509709934575
 20
3058.278127216965
 30
0.0
 11
563.4509709934575
 21
3068.278127216965
 31
0.0
  0
LINE
  5
1443
330
2
100
AcDbEntity
  8
L-ZISSEN
100
AcDbLine
 10
565.4509709934593
 20
3060.535856752241
 30
0.0
 11
563.9509709934575
 21
3059.03585675224
 31
0.0
  0
LINE
  5
1444
330
2
100
AcDbEntity
  8
L-SOUZOU
100
AcDbLine
 10
552.9509709934593
 20
3047.535856752241
 30
0.0
 11
552.9509709934577
 21
3068.278127216966
 31
0.0
  0
LINE
  5
1445
330
2
100
AcDbEntity
  8
L-TYUSIN
100
AcDbLine
 10
580.4509709934587
 20
2910.035856752241
 30
0.0
 11
580.4509709934575
 21
3100.278115752241
 31
0.0
  0
ARC
  5
1446
330
2
100
AcDbEntity
  8
L-ZISSEN
100
AcDbCircle
 10
566.3088353697296
 20
3026.666285529056
 30
0.0
 40
28.86952396152828
100
AcDbArc
 50
78.29292309756588
 51
90.0
  0
ARC
  5
1447
330
2
100
AcDbEntity
  8
L-ZISSEN
100
AcDbCircle
 10
565.1173450113403
 20
3042.420277171935
 30
0.0
 40
2.715501624968706
100
AcDbArc
 50
354.9022474682891
 51
91.24326520780831
  0
ARC
  5
1448
330
2
100
AcDbEntity
  8
L-ZISSEN
100
AcDbCircle
 10
566.308835369726
 20
3077.405333452077
 30
0.0
 40
28.86952396149382
100
AcDbArc
 50
270.0
 51
281.707076902434
  0
LINE
  5
1449
330
2
100
AcDbEntity
  8
L-ZISSEN
100
AcDbLine
 10
567.8221056097174
 20
3042.178990660343
 30
0.0
 11
561.0798363771939
 21
3042.178990660343
 31
0.0
  0
LINE
  5
144A
330
2
100
AcDbEntity
  8
L-ZISSEN
100
AcDbLine
 10
561.0798363771939
 20
3041.035856752239
 30
0.0
 11
567.8221056097174
 21
3041.035856752239
 31
0.0
  0
LINE
  5
144B
330
2
100
AcDbEntity
  8
L-ZISSEN
100
AcDbLine
 10
560.4509709934575
 20
3041.035856752239
 30
0.0
 11
568.4509709934575
 21
3041.035856752239
 31
0.0
  0
LINE
  5
144C
330
2
100
AcDbEntity
  8
L-ZISSEN
100
AcDbLine
 10
562.1009709934553
 20
3055.535809490584
 30
0.0
 11
598.8009709934543
 21
3055.535809490584
 31
0.0
  0
LINE
  5
144D
330
2
100
AcDbEntity
  8
L-SOUZOU
100
AcDbLine
 10
552.9509709934593
 20
3048.535856752241
 30
0.0
 11
607.9509709934593
 21
3048.535856752241
 31
0.0
  0
LINE
  5
144E
330
2
100
AcDbEntity
  8
L-SOUZOU
100
AcDbLine
 10
560.4509709934575
 20
3046.535856752241
 30
0.0
 11
606.9509709934575
 21
3046.535856752241
 31
0.0
  0
LINE
  5
144F
330
2
100
AcDbEntity
  8
L-ZISSEN
100
AcDbLine
 10
600.4509709934575
 20
3035.035856752241
 30
0.0
 11
560.4509709934575
 21
3035.035856752241
 31
0.0
  0
LINE
  5
1450
330
2
100
AcDbEntity
  8
L-ZISSEN
100
AcDbLine
 10
561.4509709934557
 20
3035.035856752241
 30
0.0
 11
599.4509709934575
 21
3035.035856752241
 31
0.0
  0
LINE
  5
1451
330
2
100
AcDbEntity
  8
L-ZISSEN
100
AcDbLine
 10
600.4509709934575
 20
3035.035856752241
 30
0.0
 11
560.4509709934575
 21
3035.035856752241
 31
0.0
  0
LINE
  5
1452
330
2
100
AcDbEntity
  8
L-SAISEN
100
AcDbLine
 10
596.9509709934575
 20
3059.03585675224
 30
0.0
 11
563.9509709934575
 21
3059.03585675224
 31
0.0
  0
LINE
  5
1454
330
2
100
AcDbEntity
  8
L-TYUSIN
100
AcDbLine
 10
605.4509709934556
 20
3021.035856752241
 30
0.0
 11
555.4509709934575
 21
3021.035856752241
 31
0.0
  0
LINE
  5
1455
330
2
100
AcDbEntity
  8
L-ZISSEN
100
AcDbLine
 10
560.4509709934575
 20
3027.03585675224
 30
0.0
 11
600.4509709934575
 21
3027.03585675224
 31
0.0
  0
CIRCLE
  5
1458
330
2
100
AcDbEntity
  8
L-SOUZOU
100
AcDbCircle
 10
580.4509709934593
 20
3021.035856752241
 30
0.0
 40
18.0
  0
CIRCLE
  5
1459
330
2
100
AcDbEntity
  8
L-SOUZOU
100
AcDbCircle
 10
580.4509709934593
 20
3021.035856752241
 30
0.0
 40
21.0
  0
LINE
  5
145A
330
2
100
AcDbEntity
  8
L-SOUZOU
100
AcDbLine
 10
485.9509709934575
 20
3040.535856752241
 30
0.0
 11
485.9509709934575
 21
3001.535856752241
 31
0.0
  0
ARC
  5
145B
330
2
100
AcDbEntity
  8
L-SOUZOU
100
AcDbCircle
 10
484.4509709934575
 20
3001.535856752241
 30
0.0
 40
1.5
100
AcDbArc
 50
270.0
 51
0.0
  0
ARC
  5
145C
330
2
100
AcDbEntity
  8
L-SOUZOU
100
AcDbCircle
 10
484.4509709934575
 20
3040.535856752241
 30
0.0
 40
1.5
100
AcDbArc
 50
0.0
 51
90.0
  0
LINE
  5
145D
330
2
100
AcDbEntity
  8
L-ZISSEN
100
AcDbLine
 10
560.4509709934575
 20
3035.035856752241
 30
0.0
 11
560.4509709934575
 21
2998.035856752241
 31
0.0
  0
LINE
  5
145E
330
2
100
AcDbEntity
  8
L-ZISSEN
100
AcDbLine
 10
562.7189201858893
 20
3027.035856752241
 30
0.0
 11
562.7189201858895
 21
3015.035856752241
 31
0.0
  0
LINE
  5
145F
330
2
100
AcDbEntity
  8
L-ZISSEN
100
AcDbLine
 10
564.4509709934575
 20
3027.03585675224
 30
0.0
 11
564.4509709934574
 21
3015.03585675224
 31
0.0
  0
LINE
  5
1466
330
2
100
AcDbEntity
  8
L-ZISSEN
100
AcDbLine
 10
544.0538511815691
 20
3036.585930882457
 30
0.0
 11
523.2182426047331
 21
3036.585930882457
 31
0.0
  0
TEXT
  5
1467
330
2
100
AcDbEntity
  8
L-ZISSEN
100
AcDbText
 10
523.7264292334584
 20
3037.195473300589
 30
0.0
 40
4.5
  1
IN
100
AcDbText
  0
TEXT
  5
1468
330
2
100
AcDbEntity
  8
L-ZISSEN
100
AcDbText
 10
523.5231545819683
 20
3022.888919381429
 30
0.0
 40
4.5
  1
Rc1/4
100
AcDbText
  0
TEXT
  5
1469
330
2
100
AcDbEntity
  8
L-ZISSEN
100
AcDbText
 10
523.5231545819683
 20
3030.388919381429
 30
0.0
 40
4.5
  1
Rc1/8
100
AcDbText
  0
LINE
  5
146A
330
2
100
AcDbEntity
  8
L-ZISSEN
100
AcDbLine
 10
560.4509709934575
 20
3046.535856752241
 30
0.0
 11
560.4509709934575
 21
3035.035856752241
 31
0.0
  0
LINE
  5
146B
330
2
100
AcDbEntity
  8
L-ZISSEN
100
AcDbLine
 10
559.011119861797
 20
3022.166229777532
 30
0.0
 11
544.0538511815691
 21
3036.585930882457
 31
0.0
  0
LINE
  5
146C
330
2
100
AcDbEntity
  8
L-ZISSEN
100
AcDbLine
 10
563.2096566300135
 20
3035.035856752241
 30
0.0
 11
563.2096566300135
 21
3027.535856752241
 31
0.0
  0
LINE
  5
146D
330
2
100
AcDbEntity
  8
L-ZISSEN
100
AcDbLine
 10
560.4509709934575
 20
3035.035856752241
 30
0.0
 11
560.4509709934575
 21
3020.835856752241
 31
0.0
  0
SOLID
  5
146E
330
2
100
AcDbEntity
  8
L-ZISSEN
100
AcDbTrace
 10
559.2424702885584
 20
3022.406204966143
 30
0.0
 11
558.7797694350356
 21
3021.926254588922
 31
0.0
 12
560.4509709934575
 22
3020.778127216965
 32
0.0
 13
560.4509709934575
 23
3020.778127216965
 33
0.0
  0
ARC
  5
146F
330
2
100
AcDbEntity
  8
L-ZISSEN
100
AcDbCircle
 10
563.7096566300136
 20
3027.535856752241
 30
0.0
 40
0.5000000000001137
100
AcDbArc
 50
180.0
 51
270.0
  0
LINE
  5
1470
330
2
100
AcDbEntity
  8
L-ZISSEN
100
AcDbLine
 10
563.4509709934575
 20
3035.035856752241
 30
0.0
 11
560.4509709934575
 21
3035.035856752241
 31
0.0
  0
LINE
  5
1471
330
2
100
AcDbEntity
  8
L-SOUZOU
100
AcDbLine
 10
564.7357983807162
 20
3046.535856752241
 30
0.0
 11
553.9509709934612
 21
3046.535856752241
 31
0.0
  0
ARC
  5
1472
330
2
100
AcDbEntity
  8
L-SOUZOU
100
AcDbCircle
 10
553.9509709934612
 20
3047.535856752241
 30
0.0
 40
1.000000000000227
100
AcDbArc
 50
180.0
 51
270.0
  0
LINE
  5
1473
330
2
100
AcDbEntity
  8
L-ZISSEN
100
AcDbLine
 10
560.4509709934575
 20
3049.136360377122
 30
0.0
 11
560.4509709934575
 21
3054.935258604045
 31
0.0
  0
ARC
  5
1474
330
2
100
AcDbEntity
  8
L-ZISSEN
100
AcDbCircle
 10
563.7845969755728
 20
3042.420277171935
 30
0.0
 40
2.7155016249693
100
AcDbArc
 50
88.7567347921917
 51
185.0977525317109
  0
LINE
  5
1475
330
2
100
AcDbEntity
  8
L-ZISSEN
100
AcDbLine
 10
562.1009709934535
 20
3048.535809490584
 30
0.0
 11
560.4509709934575
 21
3049.136360377122
 31
0.0
  0
LINE
  5
1476
330
2
100
AcDbEntity
  8
L-ZISSEN
100
AcDbLine
 10
561.0798363771939
 20
3042.178990660343
 30
0.0
 11
561.0798363771939
 21
3041.035856752239
 31
0.0
  0
LINE
  5
1477
330
2
100
AcDbEntity
  8
L-ZISSEN
100
AcDbLine
 10
563.8435162151511
 20
3044.150125793458
 30
0.0
 11
565.0584257717639
 21
3044.150125793458
 31
0.0
  0
LINE
  5
1478
330
2
100
AcDbEntity
  8
L-ZISSEN
100
AcDbLine
 10
563.8435162151511
 20
3045.135139525429
 30
0.0
 11
563.8435162151511
 21
3044.150125793458
 31
0.0
  0
LINE
  5
1479
330
2
100
AcDbEntity
  8
L-ZISSEN
100
AcDbLine
 10
565.0584257717639
 20
3044.150125793458
 30
0.0
 11
565.0584257717639
 21
3045.135139525429
 31
0.0
  0
LINE
  5
147A
330
2
100
AcDbEntity
  8
L-ZISSEN
100
AcDbLine
 10
562.1009709934553
 20
3055.535809490584
 30
0.0
 11
560.4509709934575
 21
3054.935258604045
 31
0.0
  0
LINE
  5
147B
330
2
100
AcDbEntity
  8
L-ZISSEN
100
AcDbLine
 10
563.9509709934575
 20
3059.03585675224
 30
0.0
 11
563.9509709934575
 21
3055.535809490584
 31
0.0
  0
LINE
  5
147C
330
2
100
AcDbEntity
  8
L-SAISEN
100
AcDbLine
 10
564.7357983807181
 20
3059.820684139501
 30
0.0
 11
564.7357983807162
 21
3055.535809490584
 31
0.0
  0
LINE
  5
147D
330
2
100
AcDbEntity
  8
L-ZISSEN
100
AcDbLine
 10
600.4509709934576
 20
2998.035856752241
 30
0.0
 11
600.4509709934575
 21
3035.035856752241
 31
0.0
  0
LINE
  5
147E
330
2
100
AcDbEntity
  8
L-ZISSEN
100
AcDbLine
 10
596.4509709934556
 20
3027.03585675224
 30
0.0
 11
596.4509709934556
 21
3015.03585675224
 31
0.0
  0
LINE
  5
147F
330
2
100
AcDbEntity
  8
L-ZISSEN
100
AcDbLine
 10
598.1830218010257
 20
3027.035856752241
 30
0.0
 11
598.1830218010258
 21
3015.035856752241
 31
0.0
  0
LINE
  5
1480
330
2
100
AcDbEntity
  8
L-SOUZOU
100
AcDbLine
 10
579.7653709934564
 20
3019.157456752241
 30
0.0
 11
569.7029709934554
 21
3009.704656752241
 31
0.0
  0
LINE
  5
1481
330
2
100
AcDbEntity
  8
L-SOUZOU
100
AcDbLine
 10
578.5725709934549
 20
3020.350256752241
 30
0.0
 11
569.1197709934558
 21
3010.287856752241
 31
0.0
  0
CIRCLE
  5
1482
330
2
100
AcDbEntity
  8
L-SAISEN
100
AcDbCircle
 10
580.4509709934593
 20
3021.035856752241
 30
0.0
 40
4.865
  0
LINE
  5
1483
330
2
100
AcDbEntity
  8
L-ZISSEN
100
AcDbLine
 10
567.9509709934575
 20
3015.03585675224
 30
0.0
 11
567.9509709934575
 21
3027.03585675224
 31
0.0
  0
LINE
  5
1484
330
2
100
AcDbEntity
  8
L-ZISSEN
100
AcDbLine
 10
571.4509709934575
 20
3015.03585675224
 30
0.0
 11
571.4509709934573
 21
3027.03585675224
 31
0.0
  0
LINE
  5
1485
330
2
100
AcDbEntity
  8
L-ZISSEN
100
AcDbLine
 10
592.9509709934574
 20
3015.03585675224
 30
0.0
 11
592.9509709934575
 21
3027.03585675224
 31
0.0
  0
LINE
  5
1486
330
2
100
AcDbEntity
  8
L-ZISSEN
100
AcDbLine
 10
589.4509709934575
 20
3015.03585675224
 30
0.0
 11
589.4509709934574
 21
3027.03585675224
 31
0.0
  0
LINE
  5
1487
330
2
100
AcDbEntity
  8
L-SOUZOU
100
AcDbLine
 10
588.872570993455
 20
3029.457456752241
 30
0.0
 11
568.1493709934532
 21
3008.734256752241
 31
0.0
  0
ARC
  5
148F
330
2
100
AcDbEntity
  8
L-SOUZOU
100
AcDbCircle
 10
569.4117709934543
 20
3010.01345675224
 30
0.0
 40
0.4
100
AcDbArc
 50
136.7899999998952
 51
225.0000000000921
  0
LINE
  5
1490
330
2
100
AcDbEntity
  8
L-SOUZOU
100
AcDbLine
 10
569.1373709934537
 20
3009.72225675224
 30
0.0
 11
569.1285709934548
 21
3009.731056752241
 31
0.0
  0
LINE
  5
1491
330
2
100
AcDbEntity
  8
L-SOUZOU
100
AcDbLine
 10
569.1373709934537
 20
3009.72225675224
 30
0.0
 11
569.1461709934525
 21
3009.713456752241
 31
0.0
  0
ARC
  5
1492
330
2
100
AcDbEntity
  8
L-SOUZOU
100
AcDbCircle
 10
569.4285709934547
 20
3009.996656752241
 30
0.0
 40
0.4
100
AcDbArc
 50
225.0000000000921
 51
313.209999999828
  0
ARC
  5
149D
330
2
100
AcDbEntity
  8
L-ZISSEN
100
AcDbCircle
 10
594.5931066171872
 20
3026.666285529078
 30
0.0
 40
28.86952396150588
100
AcDbArc
 50
90.0
 51
101.7070769024341
  0
ARC
  5
149E
330
2
100
AcDbEntity
  8
L-ZISSEN
100
AcDbCircle
 10
594.5931066171872
 20
3077.405333452072
 30
0.0
 40
28.86952396148853
100
AcDbArc
 50
258.2929230975659
 51
270.0
  0
CIRCLE
  5
149F
330
2
100
AcDbEntity
  8
L-ZISSEN
100
AcDbCircle
 10
580.4509709934593
 20
3021.035856752241
 30
0.0
 40
4.285
  0
ARC
  5
14A0
330
2
100
AcDbEntity
  8
L-SOUZOU
100
AcDbCircle
 10
580.4509709934593
 20
3021.035856752241
 30
0.0
 40
2.0
100
AcDbArc
 50
73.51949999986849
 51
200.0599999999725
  0
LINE
  5
14A1
330
2
100
AcDbEntity
  8
L-SOUZOU
100
AcDbLine
 10
586.3909709934558
 20
3028.672656752241
 30
0.0
 11
588.0877709934552
 21
3026.97585675224
 31
0.0
  0
LINE
  5
14A2
330
2
100
AcDbEntity
  8
L-SOUZOU
100
AcDbLine
 10
586.3909709934558
 20
3028.672656752241
 30
0.0
 11
581.0181709934555
 21
3022.953456752241
 31
0.0
  0
LINE
  5
14A3
330
2
100
AcDbEntity
  8
L-SOUZOU
100
AcDbLine
 10
588.0877709934552
 20
3026.97585675224
 30
0.0
 11
582.368570993457
 21
3021.60305675224
 31
0.0
  0
CIRCLE
  5
14A4
330
2
100
AcDbEntity
  8
L-SOUZOU
100
AcDbCircle
 10
580.4509709934593
 20
3021.035856752241
 30
0.0
 40
1.2
  0
ARC
  5
14A5
330
2
100
AcDbEntity
  8
L-SOUZOU
100
AcDbCircle
 10
580.4509709934593
 20
3021.035856752241
 30
0.0
 40
2.0
100
AcDbArc
 50
249.93999999978
 51
16.48050000005471
  0
ARC
  5
14A6
330
2
100
AcDbEntity
  8
L-ZISSEN
100
AcDbCircle
 10
580.4509709934575
 20
3105.979102593284
 30
0.0
 40
57.4432458410422
100
AcDbArc
 50
261.7080814779307
 51
278.2919185220693
  0
ARC
  5
14A7
330
2
100
AcDbEntity
  8
L-ZISSEN
100
AcDbCircle
 10
580.4509709934593
 20
2998.092516387863
 30
0.0
 40
57.44324584106249
100
AcDbArc
 50
81.70808147793065
 51
98.29191852206934
  0
LINE
  5
14A8
330
2
100
AcDbEntity
  8
L-ZISSEN
100
AcDbLine
 10
572.1666997459944
 20
3049.136360377122
 30
0.0
 11
572.1666997460017
 21
3054.935258604045
 31
0.0
  0
LINE
  5
14A9
330
2
100
AcDbEntity
  8
L-ZISSEN
100
AcDbLine
 10
568.4509709934575
 20
3046.535856752241
 30
0.0
 11
568.4509709934575
 21
3041.035856752239
 31
0.0
  0
LINE
  5
14AA
330
2
100
AcDbEntity
  8
L-ZISSEN
100
AcDbLine
 10
567.8221056097174
 20
3041.035856752239
 30
0.0
 11
567.8221056097174
 21
3042.178990660343
 31
0.0
  0
LINE
  5
14AB
330
2
100
AcDbEntity
  8
L-ZISSEN
100
AcDbLine
 10
588.7352422409187
 20
3049.136360377122
 30
0.0
 11
588.7352422409187
 21
3054.935258604045
 31
0.0
  0
LINE
  5
14AC
330
2
100
AcDbEntity
  8
L-ZISSEN
100
AcDbLine
 10
600.4509709934575
 20
3046.535856752241
 30
0.0
 11
600.4509709934575
 21
3035.035856752241
 31
0.0
  0
LINE
  5
14AD
330
2
100
AcDbEntity
  8
L-ZISSEN
100
AcDbLine
 10
597.6922853568996
 20
3035.035856752241
 30
0.0
 11
597.6922853568996
 21
3027.535856752241
 31
0.0
  0
ARC
  5
14AE
330
2
100
AcDbEntity
  8
L-ZISSEN
100
AcDbCircle
 10
597.1922853569014
 20
3027.535856752241
 30
0.0
 40
0.5000000000001137
100
AcDbArc
 50
270.0
 51
0.0
  0
LINE
  5
14AF
330
2
100
AcDbEntity
  8
L-ZISSEN
100
AcDbLine
 10
600.4509709934575
 20
3054.935258604045
 30
0.0
 11
600.4509709934575
 21
3049.136360377122
 31
0.0
  0
LINE
  5
14B0
330
2
100
AcDbEntity
  8
L-ZISSEN
100
AcDbLine
 10
597.0584257717603
 20
3044.150125793458
 30
0.0
 11
595.8435162151529
 21
3044.150125793458
 31
0.0
  0
LINE
  5
14B1
330
2
100
AcDbEntity
  8
L-ZISSEN
100
AcDbLine
 10
593.0798363771939
 20
3042.178990660343
 30
0.0
 11
599.8221056097174
 21
3042.178990660343
 31
0.0
  0
LINE
  5
14B2
330
2
100
AcDbEntity
  8
L-ZISSEN
100
AcDbLine
 10
599.8221056097174
 20
3041.035856752239
 30
0.0
 11
593.0798363771939
 21
3041.035856752239
 31
0.0
  0
LINE
  5
14B3
330
2
100
AcDbEntity
  8
L-ZISSEN
100
AcDbLine
 10
600.4509709934575
 20
3041.035856752239
 30
0.0
 11
592.4509709934593
 21
3041.035856752239
 31
0.0
  0
LINE
  5
14B4
330
2
100
AcDbEntity
  8
L-ZISSEN
100
AcDbLine
 10
592.4509709934593
 20
3046.535856752241
 30
0.0
 11
592.4509709934593
 21
3041.035856752239
 31
0.0
  0
ARC
  5
14B5
330
2
100
AcDbEntity
  8
L-ZISSEN
100
AcDbCircle
 10
595.7845969755728
 20
3042.420277171935
 30
0.0
 40
2.715501624969221
100
AcDbArc
 50
88.7567347921917
 51
185.0977525317109
  0
LINE
  5
14B6
330
2
100
AcDbEntity
  8
L-ZISSEN
100
AcDbLine
 10
593.0798363771939
 20
3041.035856752239
 30
0.0
 11
593.0798363771939
 21
3042.178990660343
 31
0.0
  0
LINE
  5
14B7
330
2
100
AcDbEntity
  8
L-ZISSEN
100
AcDbLine
 10
595.8435162151529
 20
3044.150125793458
 30
0.0
 11
595.8435162151529
 21
3045.135139525429
 31
0.0
  0
ARC
  5
14B8
330
2
100
AcDbEntity
  8
L-ZISSEN
100
AcDbCircle
 10
597.1173450113403
 20
3042.420277171935
 30
0.0
 40
2.715501624969275
100
AcDbArc
 50
354.9022474682891
 51
91.24326520780831
  0
LINE
  5
14B9
330
2
100
AcDbEntity
  8
L-ZISSEN
100
AcDbLine
 10
599.8221056097174
 20
3042.178990660343
 30
0.0
 11
599.8221056097174
 21
3041.035856752239
 31
0.0
  0
LINE
  5
14BA
330
2
100
AcDbEntity
  8
L-ZISSEN
100
AcDbLine
 10
598.8009709934597
 20
3048.535809490584
 30
0.0
 11
600.4509709934575
 21
3049.136360377122
 31
0.0
  0
LINE
  5
14BB
330
2
100
AcDbEntity
  8
L-ZISSEN
100
AcDbLine
 10
597.0584257717603
 20
3045.135139525429
 30
0.0
 11
597.0584257717603
 21
3044.150125793458
 31
0.0
  0
LINE
  5
14BC
330
2
100
AcDbEntity
  8
L-SAISEN
100
AcDbLine
 10
596.1661436061969
 20
3059.820684139501
 30
0.0
 11
596.1661436061952
 21
3055.535809490584
 31
0.0
  0
LINE
  5
14BD
330
2
100
AcDbEntity
  8
L-ZISSEN
100
AcDbLine
 10
598.8009709934543
 20
3055.535809490584
 30
0.0
 11
600.4509709934575
 21
3054.935258604045
 31
0.0
  0
LINE
  5
14BE
330
2
100
AcDbEntity
  8
L-ZISSEN
100
AcDbLine
 10
596.9509709934575
 20
3059.03585675224
 30
0.0
 11
596.9509709934575
 21
3055.535809490584
 31
0.0
  0
ARC
  5
14BF
330
2
100
AcDbEntity
  8
L-SOUZOU
100
AcDbCircle
 10
606.9509709934575
 20
3047.535856752241
 30
0.0
 40
1.000000000000227
100
AcDbArc
 50
270.0
 51
0.0
  0
LINE
  5
14C0
330
2
100
AcDbEntity
  8
L-ZISSEN
100
AcDbLine
 10
568.9509709934575
 20
3060.535856752241
 30
0.0
 11
565.4509709934593
 21
3060.535856752241
 31
0.0
  0
LINE
  5
14C1
330
2
100
AcDbEntity
  8
L-TYUSIN
100
AcDbLine
 10
573.4509709934557
 20
3063.278127216965
 30
0.0
 11
553.4509709934575
 21
3063.278127216965
 31
0.0
  0
LINE
  5
14C2
330
2
100
AcDbEntity
  8
L-ZISSEN
100
AcDbLine
 10
565.0412372693792
 20
3062.285856752241
 30
0.0
 11
595.8607047175339
 21
3062.285856752241
 31
0.0
  0
TEXT
  5
14C3
330
2
100
AcDbEntity
  8
L-ZISSEN
100
AcDbText
 10
541.7891924518442
 20
3186.705615463863
 30
0.0
 40
4.5
  1
MODEL NO. B62- 00-*0**
100
AcDbText
  0
LINE
  5
14C4
330
2
100
AcDbEntity
  8
L-ZISSEN
100
AcDbLine
 10
567.0624815517096
 20
3095.278115752241
 30
0.0
 11
593.8394604359748
 21
3095.278115752241
 31
0.0
  0
LINE
  5
14C5
330
2
100
AcDbEntity
  8
L-ZISSEN
100
AcDbLine
 10
565.5626867112261
 20
3093.810664744177
 30
0.0
 11
565.0412372693792
 21
3062.285856752241
 31
0.0
  0
LINE
  5
14C6
330
2
100
AcDbEntity
  8
L-SOUZOU
100
AcDbLine
 10
565.214755551324
 20
3069.278127216965
 30
0.0
 11
553.9509709934575
 21
3069.278127216965
 31
0.0
  0
LINE
  5
14C7
330
2
100
AcDbEntity
  8
L-SOUZOU
100
AcDbLine
 10
553.9509709934575
 20
3069.278127216965
 30
0.0
 11
552.9509709934575
 21
3068.278127216965
 31
0.0
  0
LINE
  5
14C8
330
2
100
AcDbEntity
  8
L-SOUZOU
100
AcDbLine
 10
565.082428162181
 20
3060.778127216964
 30
0.0
 11
558.4509709934575
 21
3060.778127216964
 31
0.0
  0
LINE
  5
14C9
330
2
100
AcDbEntity
  8
L-SOUZOU
100
AcDbLine
 10
565.1651327803959
 20
3065.778127216965
 30
0.0
 11
558.4509709934575
 21
3065.778127216965
 31
0.0
  0
ARC
  5
14CA
330
2
100
AcDbEntity
  8
L-SOUZOU
100
AcDbCircle
 10
558.4509709934575
 20
3063.278127216965
 30
0.0
 40
2.500000000000284
100
AcDbArc
 50
90.0
 51
270.0
  0
ARC
  5
14CB
330
2
100
AcDbEntity
  8
L-ZISSEN
100
AcDbCircle
 10
567.0624815517114
 20
3093.77811575224
 30
0.0
 40
1.500000000003391
100
AcDbArc
 50
90.00000000010421
 51
179.0523613050256
  0
LINE
  5
14CC
330
2
100
AcDbEntity
  8
L-SOUZOU
100
AcDbLine
 10
485.9509709934575
 20
3190.535827216965
 30
0.0
 11
485.9509709934575
 21
3151.535827216965
 31
0.0
  0
ARC
  5
14CD
330
2
100
AcDbEntity
  8
L-SOUZOU
100
AcDbCircle
 10
484.4509709934575
 20
3151.535827216965
 30
0.0
 40
1.5
100
AcDbArc
 50
270.0
 51
0.0
  0
ARC
  5
14CE
330
2
100
AcDbEntity
  8
L-SOUZOU
100
AcDbCircle
 10
484.4509709934575
 20
3190.535827216965
 30
0.0
 40
1.5
100
AcDbArc
 50
0.0
 51
90.0
  0
LINE
  5
14CF
330
2
100
AcDbEntity
  8
L-ZISSEN
100
AcDbLine
 10
591.9509709934575
 20
3060.535856752241
 30
0.0
 11
568.9509709934575
 21
3060.535856752241
 31
0.0
  0
LINE
  5
14D0
330
2
100
AcDbEntity
  8
L-TYUSIN
100
AcDbLine
 10
607.4509709934593
 20
3063.278127216965
 30
0.0
 11
587.4509709934593
 21
3063.278127216965
 31
0.0
  0
LINE
  5
14D1
330
2
100
AcDbEntity
  8
L-ZISSEN
100
AcDbLine
 10
568.9509709934575
 20
3062.285856752241
 30
0.0
 11
568.9509709934575
 21
3060.535856752241
 31
0.0
  0
LINE
  5
14D2
330
2
100
AcDbEntity
  8
L-ZISSEN
100
AcDbLine
 10
595.3392552756851
 20
3093.810664744177
 30
0.0
 11
595.8607047175339
 21
3062.285856752241
 31
0.0
  0
LINE
  5
14D3
330
2
100
AcDbEntity
  8
L-SOUZOU
100
AcDbLine
 10
606.9509709934575
 20
3069.278127216965
 30
0.0
 11
595.6871864355892
 21
3069.278127216965
 31
0.0
  0
ARC
  5
14D4
330
2
100
AcDbEntity
  8
L-SOUZOU
100
AcDbCircle
 10
602.4509709934593
 20
3063.278127216965
 30
0.0
 40
2.500000000000284
100
AcDbArc
 50
270.0
 51
90.0
  0
LINE
  5
14D5
330
2
100
AcDbEntity
  8
L-SOUZOU
100
AcDbLine
 10
602.4509709934593
 20
3065.778127216965
 30
0.0
 11
595.7368092065191
 21
3065.778127216965
 31
0.0
  0
LINE
  5
14D6
330
2
100
AcDbEntity
  8
L-SOUZOU
100
AcDbLine
 10
602.4509709934593
 20
3060.778127216964
 30
0.0
 11
595.8195138247304
 21
3060.778127216964
 31
0.0
  0
LINE
  5
14D7
330
2
100
AcDbEntity
  8
L-ZISSEN
100
AcDbLine
 10
595.4509709934575
 20
3060.535856752241
 30
0.0
 11
591.9509709934575
 21
3060.535856752241
 31
0.0
  0
LINE
  5
14D8
330
2
100
AcDbEntity
  8
L-ZISSEN
100
AcDbLine
 10
591.9509709934575
 20
3062.285856752241
 30
0.0
 11
591.9509709934575
 21
3060.535856752241
 31
0.0
  0
LINE
  5
14D9
330
2
100
AcDbEntity
  8
L-ZISSEN
100
AcDbLine
 10
591.9509709934575
 20
3062.285856752241
 30
0.0
 11
591.9509709934575
 21
3060.535856752241
 31
0.0
  0
LINE
  5
14DA
330
2
100
AcDbEntity
  8
L-SOUZOU
100
AcDbLine
 10
606.9509709934575
 20
3069.278127216965
 30
0.0
 11
607.9509709934575
 21
3068.278127216965
 31
0.0
  0
ARC
  5
14DB
330
2
100
AcDbEntity
  8
L-ZISSEN
100
AcDbCircle
 10
593.8393539498795
 20
3093.777855637017
 30
0.0
 40
1.500260119002053
100
AcDbArc
 50
1.253098190189789
 51
89.9959332652816
  0
LINE
  5
154A
330
2
100
AcDbEntity
  8
L-ZISSEN
100
AcDbLine
 10
410.4509709934575
 20
2998.035856752241
 30
0.0
 11
450.4509709934575
 21
2998.035856752241
 31
0.0
  0
LINE
  5
154B
330
2
100
AcDbEntity
  8
L-ZISSEN
100
AcDbLine
 10
410.4509709934576
 20
3015.035856752241
 30
0.0
 11
416.4509709934559
 21
3015.03585675224
 31
0.0
  0
LINE
  5
154D
330
2
100
AcDbEntity
  8
L-ZISSEN
100
AcDbLine
 10
444.4509709934563
 20
3015.03585675224
 30
0.0
 11
450.4509709934574
 21
3015.03585675224
 31
0.0
  0
LINE
  5
1553
330
2
100
AcDbEntity
  8
L-ZISSEN
100
AcDbLine
 10
444.4509709934611
 20
3010.035856752242
 30
0.0
 11
416.4509709934575
 21
3010.035856752242
 31
0.0
  0
LINE
  5
1554
330
2
100
AcDbEntity
  8
L-ZISSEN
100
AcDbLine
 10
444.4509709934611
 20
3011.535856752241
 30
0.0
 11
416.4509709934575
 21
3011.535856752241
 31
0.0
  0
LINE
  5
1555
330
2
100
AcDbEntity
  8
L-ZISSEN
100
AcDbLine
 10
416.4509709934575
 20
3010.035856752242
 30
0.0
 11
416.4509709934575
 21
3011.535856752241
 31
0.0
  0
LINE
  5
1556
330
2
100
AcDbEntity
  8
L-ZISSEN
100
AcDbLine
 10
444.4509709934611
 20
3010.035856752242
 30
0.0
 11
444.4509709934611
 21
3011.535856752241
 31
0.0
  0
LINE
  5
1557
330
2
100
AcDbEntity
  8
L-ZISSEN
100
AcDbLine
 10
416.450970993459
 20
3015.03585675224
 30
0.0
 11
416.4509709934539
 21
3027.03585675224
 31
0.0
  0
LINE
  5
1689
330
2
100
AcDbEntity
  8
L-ZISSEN
100
AcDbLine
 10
418.5328212353328
 20
2996.300624092357
 30
0.0
 11
428.4665489621239
 21
2996.300624092357
 31
0.0
  0
LINE
  5
168A
330
2
100
AcDbEntity
  8
L-ZISSEN
100
AcDbLine
 10
419.8863546884581
 20
2995.503696092357
 30
0.0
 11
427.6696209621241
 21
2995.503696092357
 31
0.0
  0
LINE
  5
168B
330
2
100
AcDbEntity
  8
L-ZISSEN
100
AcDbLine
 10
422.4509709934591
 20
2934.858087019842
 30
0.0
 11
438.6056389264786
 21
2934.858087019842
 31
0.0
  0
ARC
  5
168C
330
2
100
AcDbEntity
  8
L-ZISSEN
100
AcDbCircle
 10
426.1475597934577
 20
2915.51401355224
 30
0.0
 40
0.47815680000042
100
AcDbArc
 50
180.0
 51
270.0
  0
LINE
  5
168D
330
2
100
AcDbEntity
  8
L-ZISSEN
100
AcDbLine
 10
425.6694029934578
 20
2918.86111115224
 30
0.0
 11
435.2325389934572
 21
2918.86111115224
 31
0.0
  0
LINE
  5
168E
330
2
100
AcDbEntity
  8
L-ZISSEN
100
AcDbLine
 10
422.5613837934565
 20
2927.01161995224
 30
0.0
 11
438.3405581934584
 21
2927.01161995224
 31
0.0
  0
LINE
  5
168F
330
2
100
AcDbEntity
  8
L-ZISSEN
100
AcDbLine
 10
422.5613837934565
 20
2921.251895152241
 30
0.0
 11
438.3405581934584
 21
2921.251895152241
 31
0.0
  0
LINE
  5
1690
330
2
100
AcDbEntity
  8
L-ZISSEN
100
AcDbLine
 10
424.4509709934573
 20
2927.51161995224
 30
0.0
 11
436.4509709934577
 21
2927.51161995224
 31
0.0
  0
LINE
  5
1691
330
2
100
AcDbEntity
  8
L-ZISSEN
100
AcDbLine
 10
424.4509709934573
 20
2927.51161995224
 30
0.0
 11
424.4509709934573
 21
2934.858087019842
 31
0.0
  0
LINE
  5
1692
330
2
100
AcDbEntity
  8
L-ZISSEN
100
AcDbLine
 10
425.6694029934578
 20
2918.86111115224
 30
0.0
 11
425.6694029934578
 21
2915.51401355224
 31
0.0
  0
LINE
  5
1693
330
2
100
AcDbEntity
  8
L-ZISSEN
100
AcDbLine
 10
422.5613837934565
 20
2927.01161995224
 30
0.0
 11
422.5613837934565
 21
2921.251895152241
 31
0.0
  0
LINE
  5
1694
330
2
100
AcDbEntity
  8
L-ZISSEN
100
AcDbLine
 10
422.5613837934565
 20
2921.251895152241
 30
0.0
 11
425.6694029934578
 21
2918.86111115224
 31
0.0
  0
LINE
  5
1695
330
2
100
AcDbEntity
  8
L-ZISSEN
100
AcDbLine
 10
412.4403981934574
 20
2998.03585675224
 30
0.0
 11
412.5647330004289
 21
2985.777243137142
 31
0.0
  0
LINE
  5
1696
330
2
100
AcDbEntity
  8
L-ZISSEN
100
AcDbLine
 10
418.5328212353328
 20
2986.091835840334
 30
0.0
 11
418.5328212353328
 21
2996.300624092357
 31
0.0
  0
LINE
  5
1697
330
2
100
AcDbEntity
  8
L-ZISSEN
100
AcDbLine
 10
416.2298512017673
 20
2985.294907840334
 30
0.0
 11
416.2298512017673
 21
2996.300624092357
 31
0.0
  0
LINE
  5
1698
330
2
100
AcDbEntity
  8
L-ZISSEN
100
AcDbLine
 10
419.8863546884581
 20
2985.294907840334
 30
0.0
 11
419.8863546884581
 21
2995.503696092357
 31
0.0
  0
LINE
  5
1699
330
2
100
AcDbEntity
  8
L-ZISSEN
100
AcDbLine
 10
413.2373261934572
 20
2995.503696092357
 30
0.0
 11
414.2978273815998
 21
2942.701924236115
 31
0.0
  0
LINE
  5
169A
330
2
100
AcDbEntity
  8
L-ZISSEN
100
AcDbLine
 10
413.4450305124687
 20
2985.294907840334
 30
0.0
 11
412.5647330004289
 21
2985.777243137142
 31
0.0
  0
LINE
  5
169B
330
2
100
AcDbEntity
  8
L-ZISSEN
100
AcDbLine
 10
416.2298512017673
 20
2985.294907840334
 30
0.0
 11
419.8863546884581
 21
2985.294907840334
 31
0.0
  0
LINE
  5
169C
330
2
100
AcDbEntity
  8
L-ZISSEN
100
AcDbLine
 10
418.5328212353328
 20
2986.091835840334
 30
0.0
 11
419.8863546884581
 21
2985.294907840334
 31
0.0
  0
LINE
  5
169D
330
2
100
AcDbEntity
  8
L-ZISSEN
100
AcDbLine
 10
416.2298512017673
 20
2986.091835840334
 30
0.0
 11
418.5328212353328
 21
2986.091835840334
 31
0.0
  0
LINE
  5
169E
330
2
100
AcDbEntity
  8
L-ZISSEN
100
AcDbLine
 10
422.2963030604409
 20
2934.858087019842
 30
0.0
 11
422.4509709934591
 21
2934.858087019842
 31
0.0
  0
ARC
  5
169F
330
2
100
AcDbEntity
  8
L-ZISSEN
100
AcDbCircle
 10
422.2963030604409
 20
2942.858087019844
 30
0.0
 40
8.000000000002213
100
AcDbArc
 50
181.118504593998
 51
270.0
  0
LINE
  5
16A0
330
2
100
AcDbEntity
  8
L-ZISSEN
100
AcDbLine
 10
413.2373261934572
 20
2995.503696092357
 30
0.0
 11
412.4579980481075
 21
2996.300624092357
 31
0.0
  0
LINE
  5
16A1
330
2
100
AcDbEntity
  8
L-ZISSEN
100
AcDbLine
 10
413.2373261934572
 20
2996.300624092357
 30
0.0
 11
412.4579980481075
 21
2996.300624092357
 31
0.0
  0
LINE
  5
16A2
330
2
100
AcDbEntity
  8
L-ZISSEN
100
AcDbLine
 10
418.5328212353328
 20
2996.300624092357
 30
0.0
 11
419.8863546884581
 21
2995.503696092357
 31
0.0
  0
LINE
  5
16A3
330
2
100
AcDbEntity
  8
L-ZISSEN
100
AcDbLine
 10
413.2373261934572
 20
2995.503696092357
 30
0.0
 11
416.2298512017673
 21
2995.503696092357
 31
0.0
  0
LINE
  5
16A4
330
2
100
AcDbEntity
  8
L-ZISSEN
100
AcDbLine
 10
413.2373261934572
 20
2996.300624092357
 30
0.0
 11
416.2298512017673
 21
2996.300624092357
 31
0.0
  0
LINE
  5
16A5
330
2
100
AcDbEntity
  8
L-ZISSEN
100
AcDbLine
 10
436.4509709934578
 20
2927.51161995224
 30
0.0
 11
436.4509709934576
 21
2934.858087019842
 31
0.0
  0
LINE
  5
16A6
330
2
100
AcDbEntity
  8
L-ZISSEN
100
AcDbLine
 10
438.3405581934584
 20
2921.251895152241
 30
0.0
 11
435.2325389934572
 21
2918.86111115224
 31
0.0
  0
LINE
  5
16A7
330
2
100
AcDbEntity
  8
L-ZISSEN
100
AcDbLine
 10
438.3405581934584
 20
2921.251895152241
 30
0.0
 11
438.3405581934584
 21
2927.01161995224
 31
0.0
  0
LINE
  5
16A8
330
2
100
AcDbEntity
  8
L-ZISSEN
100
AcDbLine
 10
435.2325389934572
 20
2918.86111115224
 30
0.0
 11
435.2325389934572
 21
2915.51401355224
 31
0.0
  0
ARC
  5
16A9
330
2
100
AcDbEntity
  8
L-ZISSEN
100
AcDbCircle
 10
434.7543821934573
 20
2915.51401355224
 30
0.0
 40
0.4781567999998515
100
AcDbArc
 50
270.0
 51
0.0
  0
LINE
  5
16AA
330
2
100
AcDbEntity
  8
L-ZISSEN
100
AcDbLine
 10
426.1475597934577
 20
2915.03585675224
 30
0.0
 11
434.7543821934573
 21
2915.03585675224
 31
0.0
  0
LINE
  5
16AB
330
2
100
AcDbEntity
  8
L-ZISSEN
100
AcDbLine
 10
426.3601096807088
 20
2927.51161995224
 30
0.0
 11
426.3601096807078
 21
2927.01161995224
 31
0.0
  0
LINE
  5
16AC
330
2
100
AcDbEntity
  8
L-ZISSEN
100
AcDbLine
 10
434.541832306204
 20
2927.51161995224
 30
0.0
 11
434.5418323062038
 21
2927.01161995224
 31
0.0
  0
LINE
  5
16AD
330
2
100
AcDbEntity
  8
L-ZISSEN
100
AcDbLine
 10
442.3691207515844
 20
2986.091835840334
 30
0.0
 11
442.3691207515844
 21
2996.300624092357
 31
0.0
  0
LINE
  5
16AE
330
2
100
AcDbEntity
  8
L-ZISSEN
100
AcDbLine
 10
441.0155872984569
 20
2985.294907840334
 30
0.0
 11
441.0155872984569
 21
2995.503696092357
 31
0.0
  0
LINE
  5
16AF
330
2
100
AcDbEntity
  8
L-ZISSEN
100
AcDbLine
 10
444.6720907851477
 20
2985.294907840334
 30
0.0
 11
444.6720907851477
 21
2996.300624092357
 31
0.0
  0
LINE
  5
16B0
330
2
100
AcDbEntity
  8
L-ZISSEN
100
AcDbLine
 10
448.4615437934576
 20
2998.03585675224
 30
0.0
 11
448.337208986486
 21
2985.777243137142
 31
0.0
  0
LINE
  5
16B1
330
2
100
AcDbEntity
  8
L-ZISSEN
100
AcDbLine
 10
447.6646157934578
 20
2995.503696092357
 30
0.0
 11
446.6041146053177
 21
2942.701924236115
 31
0.0
  0
LINE
  5
16B2
330
2
100
AcDbEntity
  8
L-ZISSEN
100
AcDbLine
 10
427.6696209621241
 20
2985.294907840334
 30
0.0
 11
427.6696209621241
 21
2995.503696092357
 31
0.0
  0
LINE
  5
16B3
330
2
100
AcDbEntity
  8
L-ZISSEN
100
AcDbLine
 10
427.6696209621241
 20
2985.294907840334
 30
0.0
 11
427.6696209621241
 21
2995.503696092357
 31
0.0
  0
LINE
  5
16B4
330
2
100
AcDbEntity
  8
L-ZISSEN
100
AcDbLine
 10
428.4665489621239
 20
2986.091835840334
 30
0.0
 11
428.4665489621239
 21
2996.300624092357
 31
0.0
  0
LINE
  5
16B5
330
2
100
AcDbEntity
  8
L-ZISSEN
100
AcDbLine
 10
432.4353930247889
 20
2986.091835840334
 30
0.0
 11
432.4353930247889
 21
2996.300624092357
 31
0.0
  0
LINE
  5
16B6
330
2
100
AcDbEntity
  8
L-ZISSEN
100
AcDbLine
 10
433.2323210247887
 20
2985.294907840334
 30
0.0
 11
433.2323210247887
 21
2995.503696092357
 31
0.0
  0
LINE
  5
16B7
330
2
100
AcDbEntity
  8
L-ZISSEN
100
AcDbLine
 10
433.2323210247887
 20
2985.294907840334
 30
0.0
 11
433.2323210247887
 21
2995.503696092357
 31
0.0
  0
ARC
  5
16B8
330
2
100
AcDbEntity
  8
L-ZISSEN
100
AcDbCircle
 10
438.6056389264786
 20
2942.858087019844
 30
0.0
 40
8.000000000000113
100
AcDbArc
 50
270.0
 51
358.881495406002
  0
LINE
  5
16B9
330
2
100
AcDbEntity
  8
L-ZISSEN
100
AcDbLine
 10
428.4665489621239
 20
2986.091835840334
 30
0.0
 11
432.4353930247889
 21
2986.091835840334
 31
0.0
  0
LINE
  5
16BA
330
2
100
AcDbEntity
  8
L-ZISSEN
100
AcDbLine
 10
427.6696209621241
 20
2985.294907840334
 30
0.0
 11
433.2323210247887
 21
2985.294907840334
 31
0.0
  0
LINE
  5
16BB
330
2
100
AcDbEntity
  8
L-ZISSEN
100
AcDbLine
 10
427.6696209621241
 20
2985.294907840334
 30
0.0
 11
428.4665489621239
 21
2986.091835840334
 31
0.0
  0
LINE
  5
16BC
330
2
100
AcDbEntity
  8
L-ZISSEN
100
AcDbLine
 10
433.2323210247887
 20
2985.294907840334
 30
0.0
 11
432.4353930247889
 21
2986.091835840334
 31
0.0
  0
LINE
  5
16BD
330
2
100
AcDbEntity
  8
L-ZISSEN
100
AcDbLine
 10
438.4509709934582
 20
2934.858087019842
 30
0.0
 11
438.6056389264786
 21
2934.858087019842
 31
0.0
  0
LINE
  5
16BE
330
2
100
AcDbEntity
  8
L-ZISSEN
100
AcDbLine
 10
444.6720907851477
 20
2985.294907840334
 30
0.0
 11
441.0155872984569
 21
2985.294907840334
 31
0.0
  0
LINE
  5
16BF
330
2
100
AcDbEntity
  8
L-ZISSEN
100
AcDbLine
 10
444.6720907851477
 20
2986.091835840334
 30
0.0
 11
442.3691207515844
 21
2986.091835840334
 31
0.0
  0
LINE
  5
16C0
330
2
100
AcDbEntity
  8
L-ZISSEN
100
AcDbLine
 10
442.3691207515844
 20
2986.091835840334
 30
0.0
 11
441.0155872984569
 21
2985.294907840334
 31
0.0
  0
LINE
  5
16C1
330
2
100
AcDbEntity
  8
L-ZISSEN
100
AcDbLine
 10
447.4569114744463
 20
2985.294907840334
 30
0.0
 11
448.337208986486
 21
2985.777243137142
 31
0.0
  0
LINE
  5
16C2
330
2
100
AcDbEntity
  8
L-ZISSEN
100
AcDbLine
 10
442.3691207515844
 20
2996.300624092357
 30
0.0
 11
432.4353930247889
 21
2996.300624092357
 31
0.0
  0
LINE
  5
16C3
330
2
100
AcDbEntity
  8
L-ZISSEN
100
AcDbLine
 10
441.0155872984569
 20
2995.503696092357
 30
0.0
 11
433.2323210247887
 21
2995.503696092357
 31
0.0
  0
LINE
  5
16C4
330
2
100
AcDbEntity
  8
L-ZISSEN
100
AcDbLine
 10
427.6696209621241
 20
2995.503696092357
 30
0.0
 11
428.4665489621239
 21
2996.300624092357
 31
0.0
  0
LINE
  5
16C5
330
2
100
AcDbEntity
  8
L-ZISSEN
100
AcDbLine
 10
433.2323210247887
 20
2995.503696092357
 30
0.0
 11
432.4353930247889
 21
2996.300624092357
 31
0.0
  0
LINE
  5
16C6
330
2
100
AcDbEntity
  8
L-ZISSEN
100
AcDbLine
 10
447.6646157934578
 20
2996.300624092357
 30
0.0
 11
444.6720907851477
 21
2996.300624092357
 31
0.0
  0
LINE
  5
16C7
330
2
100
AcDbEntity
  8
L-ZISSEN
100
AcDbLine
 10
447.6646157934578
 20
2995.503696092357
 30
0.0
 11
444.6720907851477
 21
2995.503696092357
 31
0.0
  0
LINE
  5
16C8
330
2
100
AcDbEntity
  8
L-ZISSEN
100
AcDbLine
 10
442.3691207515844
 20
2996.300624092357
 30
0.0
 11
441.0155872984569
 21
2995.503696092357
 31
0.0
  0
LINE
  5
16C9
330
2
100
AcDbEntity
  8
L-ZISSEN
100
AcDbLine
 10
447.6646157934578
 20
2996.300624092357
 30
0.0
 11
448.4439439388097
 21
2996.300624092357
 31
0.0
  0
LINE
  5
16CA
330
2
100
AcDbEntity
  8
L-ZISSEN
100
AcDbLine
 10
447.6646157934578
 20
2995.503696092357
 30
0.0
 11
448.4439439388097
 21
2996.300624092357
 31
0.0
  0
LINE
  5
1764
330
2
100
AcDbEntity
  8
L-ZISSEN
100
AcDbLine
 10
577.0883483296695
 20
3027.03585675224
 30
0.0
 11
583.0883483296658
 21
3027.03585675224
 31
0.0
  0
LINE
  5
1766
330
2
100
AcDbEntity
  8
L-ZISSEN
100
AcDbLine
 10
560.4509709934575
 20
3015.293586287517
 30
0.0
 11
600.4509709934575
 21
3015.293586287516
 31
0.0
  0
LINE
  5
1767
330
2
100
AcDbEntity
  8
L-ZISSEN
100
AcDbLine
 10
560.4509709934575
 20
2998.03585675224
 30
0.0
 11
600.4509709934576
 21
2998.03585675224
 31
0.0
  0
ARC
  5
1769
330
2
100
AcDbEntity
  8
L-ZISSEN
100
AcDbCircle
 10
572.2963030604416
 20
2942.858087019846
 30
0.0
 40
8.000000000002213
100
AcDbArc
 50
181.118504593998
 51
270.0
  0
LINE
  5
176A
330
2
100
AcDbEntity
  8
L-ZISSEN
100
AcDbLine
 10
566.229851201768
 20
2986.091835840335
 30
0.0
 11
568.5328212353335
 21
2986.091835840335
 31
0.0
  0
LINE
  5
176B
330
2
100
AcDbEntity
  8
L-ZISSEN
100
AcDbLine
 10
566.229851201768
 20
2985.294907840335
 30
0.0
 11
569.8863546884588
 21
2985.294907840335
 31
0.0
  0
LINE
  5
176C
330
2
100
AcDbEntity
  8
L-ZISSEN
100
AcDbLine
 10
563.2373261934579
 20
2995.503696092359
 30
0.0
 11
564.2978273816005
 21
2942.701924236116
 31
0.0
  0
LINE
  5
176D
330
2
100
AcDbEntity
  8
L-ZISSEN
100
AcDbLine
 10
563.2373261934579
 20
2996.300624092358
 30
0.0
 11
566.229851201768
 21
2996.300624092358
 31
0.0
  0
LINE
  5
176E
330
2
100
AcDbEntity
  8
L-ZISSEN
100
AcDbLine
 10
563.2373261934579
 20
2996.300624092358
 30
0.0
 11
562.4579980481082
 21
2996.300624092358
 31
0.0
  0
LINE
  5
176F
330
2
100
AcDbEntity
  8
L-ZISSEN
100
AcDbLine
 10
563.2373261934579
 20
2995.503696092359
 30
0.0
 11
566.229851201768
 21
2995.503696092359
 31
0.0
  0
LINE
  5
1770
330
2
100
AcDbEntity
  8
L-ZISSEN
100
AcDbLine
 10
563.2373261934579
 20
2995.503696092359
 30
0.0
 11
562.4579980481082
 21
2996.300624092358
 31
0.0
  0
LINE
  5
1771
330
2
100
AcDbEntity
  8
L-ZISSEN
100
AcDbLine
 10
563.4450305124694
 20
2985.294907840335
 30
0.0
 11
562.5647330004296
 21
2985.777243137144
 31
0.0
  0
LINE
  5
1772
330
2
100
AcDbEntity
  8
L-ZISSEN
100
AcDbLine
 10
566.229851201768
 20
2985.294907840335
 30
0.0
 11
566.229851201768
 21
2996.300624092358
 31
0.0
  0
LINE
  5
1773
330
2
100
AcDbEntity
  8
L-ZISSEN
100
AcDbLine
 10
597.6646157934585
 20
2995.503696092359
 30
0.0
 11
596.6041146053184
 21
2942.701924236116
 31
0.0
  0
ARC
  5
1774
330
2
100
AcDbEntity
  8
L-ZISSEN
100
AcDbCircle
 10
588.6056389264792
 20
2942.858087019846
 30
0.0
 40
8.000000000000113
100
AcDbArc
 50
270.0
 51
358.881495406002
  0
LINE
  5
1775
330
2
100
AcDbEntity
  8
L-ZISSEN
100
AcDbLine
 10
576.1475597934584
 20
2915.035856752242
 30
0.0
 11
584.7543821934579
 21
2915.035856752242
 31
0.0
  0
LINE
  5
1776
330
2
100
AcDbEntity
  8
L-ZISSEN
100
AcDbLine
 10
574.450970993458
 20
2927.511619952241
 30
0.0
 11
586.4509709934584
 21
2927.511619952241
 31
0.0
  0
LINE
  5
1777
330
2
100
AcDbEntity
  8
L-ZISSEN
100
AcDbLine
 10
572.5613837934572
 20
2921.251895152242
 30
0.0
 11
588.3405581934591
 21
2921.251895152242
 31
0.0
  0
LINE
  5
1778
330
2
100
AcDbEntity
  8
L-ZISSEN
100
AcDbLine
 10
572.5613837934572
 20
2927.011619952241
 30
0.0
 11
588.3405581934591
 21
2927.011619952241
 31
0.0
  0
LINE
  5
1779
330
2
100
AcDbEntity
  8
L-ZISSEN
100
AcDbLine
 10
575.6694029934585
 20
2918.861111152242
 30
0.0
 11
585.2325389934578
 21
2918.861111152242
 31
0.0
  0
LINE
  5
177A
330
2
100
AcDbEntity
  8
L-ZISSEN
100
AcDbLine
 10
572.4509709934598
 20
2934.858087019843
 30
0.0
 11
588.6056389264792
 21
2934.858087019843
 31
0.0
  0
LINE
  5
177B
330
2
100
AcDbEntity
  8
L-ZISSEN
100
AcDbLine
 10
576.3601096807094
 20
2927.511619952241
 30
0.0
 11
576.3601096807085
 21
2927.011619952242
 31
0.0
  0
LINE
  5
177C
330
2
100
AcDbEntity
  8
L-ZISSEN
100
AcDbLine
 10
572.2963030604416
 20
2934.858087019843
 30
0.0
 11
572.4509709934598
 21
2934.858087019843
 31
0.0
  0
LINE
  5
177D
330
2
100
AcDbEntity
  8
L-ZISSEN
100
AcDbLine
 10
572.5613837934572
 20
2921.251895152242
 30
0.0
 11
575.6694029934585
 21
2918.861111152242
 31
0.0
  0
LINE
  5
177E
330
2
100
AcDbEntity
  8
L-ZISSEN
100
AcDbLine
 10
572.5613837934572
 20
2927.011619952241
 30
0.0
 11
572.5613837934572
 21
2921.251895152242
 31
0.0
  0
LINE
  5
177F
330
2
100
AcDbEntity
  8
L-ZISSEN
100
AcDbLine
 10
575.6694029934585
 20
2918.861111152242
 30
0.0
 11
575.6694029934585
 21
2915.514013552241
 31
0.0
  0
LINE
  5
1780
330
2
100
AcDbEntity
  8
L-ZISSEN
100
AcDbLine
 10
574.450970993458
 20
2927.511619952241
 30
0.0
 11
574.450970993458
 21
2934.858087019843
 31
0.0
  0
ARC
  5
1781
330
2
100
AcDbEntity
  8
L-ZISSEN
100
AcDbCircle
 10
576.1475597934584
 20
2915.514013552241
 30
0.0
 40
0.47815680000042
100
AcDbArc
 50
180.0
 51
270.0
  0
LINE
  5
1782
330
2
100
AcDbEntity
  8
L-ZISSEN
100
AcDbLine
 10
588.4509709934588
 20
2934.858087019843
 30
0.0
 11
588.6056389264792
 21
2934.858087019843
 31
0.0
  0
LINE
  5
1783
330
2
100
AcDbEntity
  8
L-ZISSEN
100
AcDbLine
 10
584.5418323062046
 20
2927.511619952241
 30
0.0
 11
584.5418323062046
 21
2927.011619952242
 31
0.0
  0
ARC
  5
1784
330
2
100
AcDbEntity
  8
L-ZISSEN
100
AcDbCircle
 10
584.7543821934579
 20
2915.514013552241
 30
0.0
 40
0.4781567999998515
100
AcDbArc
 50
270.0
 51
0.0
  0
LINE
  5
1785
330
2
100
AcDbEntity
  8
L-ZISSEN
100
AcDbLine
 10
585.2325389934578
 20
2918.861111152242
 30
0.0
 11
585.2325389934578
 21
2915.514013552241
 31
0.0
  0
LINE
  5
1786
330
2
100
AcDbEntity
  8
L-ZISSEN
100
AcDbLine
 10
588.3405581934591
 20
2921.251895152242
 30
0.0
 11
588.3405581934591
 21
2927.011619952241
 31
0.0
  0
LINE
  5
1787
330
2
100
AcDbEntity
  8
L-ZISSEN
100
AcDbLine
 10
588.3405581934591
 20
2921.251895152242
 30
0.0
 11
585.2325389934578
 21
2918.861111152242
 31
0.0
  0
LINE
  5
1788
330
2
100
AcDbEntity
  8
L-ZISSEN
100
AcDbLine
 10
586.4509709934585
 20
2927.511619952241
 30
0.0
 11
586.4509709934583
 21
2934.858087019843
 31
0.0
  0
LINE
  5
1789
330
2
100
AcDbEntity
  8
L-ZISSEN
100
AcDbLine
 10
597.6646157934585
 20
2996.300624092358
 30
0.0
 11
594.6720907851483
 21
2996.300624092358
 31
0.0
  0
LINE
  5
178A
330
2
100
AcDbEntity
  8
L-ZISSEN
100
AcDbLine
 10
597.6646157934585
 20
2995.503696092359
 30
0.0
 11
594.6720907851483
 21
2995.503696092359
 31
0.0
  0
LINE
  5
178B
330
2
100
AcDbEntity
  8
L-ZISSEN
100
AcDbLine
 10
577.6696209621247
 20
2985.294907840335
 30
0.0
 11
583.2323210247893
 21
2985.294907840335
 31
0.0
  0
LINE
  5
178C
330
2
100
AcDbEntity
  8
L-ZISSEN
100
AcDbLine
 10
578.4665489621245
 20
2986.091835840335
 30
0.0
 11
582.4353930247895
 21
2986.091835840335
 31
0.0
  0
LINE
  5
178D
330
2
100
AcDbEntity
  8
L-ZISSEN
100
AcDbLine
 10
568.5328212353335
 20
2996.300624092358
 30
0.0
 11
578.4665489621245
 21
2996.300624092358
 31
0.0
  0
LINE
  5
178E
330
2
100
AcDbEntity
  8
L-ZISSEN
100
AcDbLine
 10
577.6696209621247
 20
2995.503696092359
 30
0.0
 11
578.4665489621245
 21
2996.300624092358
 31
0.0
  0
LINE
  5
178F
330
2
100
AcDbEntity
  8
L-ZISSEN
100
AcDbLine
 10
577.6696209621247
 20
2985.294907840335
 30
0.0
 11
578.4665489621245
 21
2986.091835840335
 31
0.0
  0
LINE
  5
1790
330
2
100
AcDbEntity
  8
L-ZISSEN
100
AcDbLine
 10
578.4665489621245
 20
2986.091835840335
 30
0.0
 11
578.4665489621245
 21
2996.300624092358
 31
0.0
  0
LINE
  5
1791
330
2
100
AcDbEntity
  8
L-ZISSEN
100
AcDbLine
 10
577.6696209621247
 20
2985.294907840335
 30
0.0
 11
577.6696209621247
 21
2995.503696092359
 31
0.0
  0
LINE
  5
1792
330
2
100
AcDbEntity
  8
L-ZISSEN
100
AcDbLine
 10
577.6696209621247
 20
2985.294907840335
 30
0.0
 11
577.6696209621247
 21
2995.503696092359
 31
0.0
  0
LINE
  5
1793
330
2
100
AcDbEntity
  8
L-ZISSEN
100
AcDbLine
 10
568.5328212353335
 20
2996.300624092358
 30
0.0
 11
569.8863546884588
 21
2995.503696092359
 31
0.0
  0
LINE
  5
1794
330
2
100
AcDbEntity
  8
L-ZISSEN
100
AcDbLine
 10
568.5328212353335
 20
2986.091835840335
 30
0.0
 11
569.8863546884588
 21
2985.294907840335
 31
0.0
  0
LINE
  5
1795
330
2
100
AcDbEntity
  8
L-ZISSEN
100
AcDbLine
 10
569.8863546884588
 20
2985.294907840335
 30
0.0
 11
569.8863546884588
 21
2995.503696092359
 31
0.0
  0
LINE
  5
1796
330
2
100
AcDbEntity
  8
L-ZISSEN
100
AcDbLine
 10
568.5328212353335
 20
2986.091835840335
 30
0.0
 11
568.5328212353335
 21
2996.300624092358
 31
0.0
  0
LINE
  5
1797
330
2
100
AcDbEntity
  8
L-ZISSEN
100
AcDbLine
 10
569.8863546884588
 20
2995.503696092359
 30
0.0
 11
577.6696209621247
 21
2995.503696092359
 31
0.0
  0
LINE
  5
1798
330
2
100
AcDbEntity
  8
L-ZISSEN
100
AcDbLine
 10
592.3691207515851
 20
2996.300624092358
 30
0.0
 11
582.4353930247895
 21
2996.300624092358
 31
0.0
  0
LINE
  5
1799
330
2
100
AcDbEntity
  8
L-ZISSEN
100
AcDbLine
 10
592.3691207515851
 20
2996.300624092358
 30
0.0
 11
591.0155872984575
 21
2995.503696092359
 31
0.0
  0
LINE
  5
179A
330
2
100
AcDbEntity
  8
L-ZISSEN
100
AcDbLine
 10
583.2323210247893
 20
2995.503696092359
 30
0.0
 11
582.4353930247895
 21
2996.300624092358
 31
0.0
  0
LINE
  5
179B
330
2
100
AcDbEntity
  8
L-ZISSEN
100
AcDbLine
 10
591.0155872984575
 20
2995.503696092359
 30
0.0
 11
583.2323210247893
 21
2995.503696092359
 31
0.0
  0
LINE
  5
179C
330
2
100
AcDbEntity
  8
L-ZISSEN
100
AcDbLine
 10
592.3691207515851
 20
2986.091835840335
 30
0.0
 11
591.0155872984575
 21
2985.294907840335
 31
0.0
  0
LINE
  5
179D
330
2
100
AcDbEntity
  8
L-ZISSEN
100
AcDbLine
 10
594.6720907851483
 20
2986.091835840335
 30
0.0
 11
592.3691207515851
 21
2986.091835840335
 31
0.0
  0
LINE
  5
179E
330
2
100
AcDbEntity
  8
L-ZISSEN
100
AcDbLine
 10
594.6720907851483
 20
2985.294907840335
 30
0.0
 11
591.0155872984575
 21
2985.294907840335
 31
0.0
  0
LINE
  5
179F
330
2
100
AcDbEntity
  8
L-ZISSEN
100
AcDbLine
 10
583.2323210247893
 20
2985.294907840335
 30
0.0
 11
582.4353930247895
 21
2986.091835840335
 31
0.0
  0
LINE
  5
17A0
330
2
100
AcDbEntity
  8
L-ZISSEN
100
AcDbLine
 10
583.2323210247893
 20
2985.294907840335
 30
0.0
 11
583.2323210247893
 21
2995.503696092359
 31
0.0
  0
LINE
  5
17A1
330
2
100
AcDbEntity
  8
L-ZISSEN
100
AcDbLine
 10
583.2323210247893
 20
2985.294907840335
 30
0.0
 11
583.2323210247893
 21
2995.503696092359
 31
0.0
  0
LINE
  5
17A2
330
2
100
AcDbEntity
  8
L-ZISSEN
100
AcDbLine
 10
582.4353930247895
 20
2986.091835840335
 30
0.0
 11
582.4353930247895
 21
2996.300624092358
 31
0.0
  0
LINE
  5
17A3
330
2
100
AcDbEntity
  8
L-ZISSEN
100
AcDbLine
 10
594.6720907851483
 20
2985.294907840335
 30
0.0
 11
594.6720907851483
 21
2996.300624092358
 31
0.0
  0
LINE
  5
17A4
330
2
100
AcDbEntity
  8
L-ZISSEN
100
AcDbLine
 10
591.0155872984575
 20
2985.294907840335
 30
0.0
 11
591.0155872984575
 21
2995.503696092359
 31
0.0
  0
LINE
  5
17A5
330
2
100
AcDbEntity
  8
L-ZISSEN
100
AcDbLine
 10
592.3691207515851
 20
2986.091835840335
 30
0.0
 11
592.3691207515851
 21
2996.300624092358
 31
0.0
  0
LINE
  5
17A6
330
2
100
AcDbEntity
  8
L-ZISSEN
100
AcDbLine
 10
597.6646157934585
 20
2996.300624092358
 30
0.0
 11
598.4439439388104
 21
2996.300624092358
 31
0.0
  0
LINE
  5
17A7
330
2
100
AcDbEntity
  8
L-ZISSEN
100
AcDbLine
 10
597.6646157934585
 20
2995.503696092359
 30
0.0
 11
598.4439439388104
 21
2996.300624092358
 31
0.0
  0
LINE
  5
17A8
330
2
100
AcDbEntity
  8
L-ZISSEN
100
AcDbLine
 10
597.4569114744469
 20
2985.294907840335
 30
0.0
 11
598.3372089864867
 21
2985.777243137144
 31
0.0
  0
LINE
  5
17A9
330
2
100
AcDbEntity
  8
L-ZISSEN
100
AcDbLine
 10
598.4615437934583
 20
2998.035856752242
 30
0.0
 11
598.3372089864867
 21
2985.777243137144
 31
0.0
  0
LINE
  5
17AA
330
2
100
AcDbEntity
  8
L-ZISSEN
100
AcDbLine
 10
562.4403981934581
 20
2998.035856752242
 30
0.0
 11
562.5647330004296
 21
2985.777243137144
 31
0.0
  0
TEXT
  5
1A6C
330
2
100
AcDbEntity
  8
L-ZISSEN
100
AcDbText
 10
602.7276968625019
 20
3189.928290795739
 30
0.0
 40
4.5
  1
1
100
AcDbText
  0
TEXT
  5
1A6D
330
2
100
AcDbEntity
  8
L-ZISSEN
100
AcDbText
 10
601.9346639974729
 20
3183.90549100736
 30
0.0
 40
4.5
  1
2
100
AcDbText
  0
ENDSEC
  0
SECTION
  2
OBJECTS
  0
DICTIONARY
  5
1A
330
0
100
AcDbDictionary
  3
ACAD_GROUP
350
18
  3
ACAD_LAYOUT
350
41
  3
ACAD_MLINESTYLE
350
19
  3
ACAD_PLOTSETTINGS
350
42
1001
ACAD
1000
TREAT_AS_HARD
1070
     0
  0
DICTIONARY
  5
272
330
A
100
AcDbDictionary
  3
ACAD_LAYERSTATES
350
273
1001
ACAD
1000
TREAT_AS_HARD
1070
     1
  0
DICTIONARY
  5
96F
330
2
100
AcDbDictionary
  3
ACAD_LAYOUTSELFREF
350
1B09
1001
ACAD
1000
TREAT_AS_HARD
1070
     1
  0
DICTIONARY
  5
971
330
7
100
AcDbDictionary
  3
ACAD_LAYOUTSELFREF
350
1B0A
1001
ACAD
1000
TREAT_AS_HARD
1070
     1
  0
DICTIONARY
  5
18
102
{ACAD_REACTORS
330
1A
102
}
330
1A
100
AcDbDictionary
1001
ACAD
1000
TREAT_AS_HARD
1070
     0
  0
DICTIONARY
  5
41
102
{ACAD_REACTORS
330
1A
102
}
330
1A
100
AcDbDictionary
1001
ACAD
1000
TREAT_AS_HARD
1070
     0
  0
DICTIONARY
  5
19
102
{ACAD_REACTORS
330
1A
102
}
330
1A
100
AcDbDictionary
  3
STANDARD
350
1D
1001
ACAD
1000
TREAT_AS_HARD
1070
     0
  0
DICTIONARY
  5
42
102
{ACAD_REACTORS
330
1A
102
}
330
1A
100
AcDbDictionary
1001
ACAD
1000
TREAT_AS_HARD
1070
     0
  0
DICTIONARY
  5
273
102
{ACAD_REACTORS
330
272
102
}
330
272
100
AcDbDictionary
1001
ACAD
1000
TREAT_AS_HARD
1070
     0
  0
XRECORD
  5
1B09
102
{ACAD_REACTORS
330
96F
102
}
330
96F
100
AcDbXrecord
340
2
  0
XRECORD
  5
1B0A
102
{ACAD_REACTORS
330
971
102
}
330
971
100
AcDbXrecord
340
7
  0
MLINESTYLE
  5
1D
102
{ACAD_REACTORS
330
19
102
}
330
19
100
AcDbMlineStyle
  2
STANDARD
 70
     0
  3

 62
     0
 51
90.0
 52
90.0
 71
     2
 49
0.5
 62
   256
  6
BYLAYER
 49
-0.5
 62
   256
  6
BYLAYER
  0
ENDSEC
  0
EOF
