  0
SECTION
  2
HEADER
  9
$ACADVER
  1
AC1012
  9
$DWGCODEPAGE
  3
dos932
  9
$INSBASE
 10
0.0
 20
0.0
 30
0.0
  9
$EXTMIN
 10
-26.40995551657572
 20
-4861.088997477242
 30
0.0
  9
$EXTMAX
 10
755.0511264114249
 20
-4080.199160731339
 30
0.0
  9
$LIMMIN
 10
0.0
 20
0.0
  9
$LIMMAX
 10
2970.0
 20
2100.0
  9
$ORTHOMODE
 70
     1
  9
$REGENMODE
 70
     1
  9
$FILLMODE
 70
     1
  9
$QTEXTMODE
 70
     0
  9
$MIRRTEXT
 70
     1
  9
$DRAGMODE
 70
     2
  9
$LTSCALE
 40
1.0
  9
$OSMODE
 70
    37
  9
$ATTMODE
 70
     1
  9
$TEXTSIZE
 40
12.0
  9
$TRACEWID
 40
0.05
  9
$TEXTSTYLE
  7
STANDARD
  9
$CLAYER
  8
L-ZISSEN
  9
$CELTYPE
  6
BYLAYER
  9
$CECOLOR
 62
   256
  9
$CELTSCALE
 40
1.0
  9
$DELOBJ
 70
     1
  9
$DISPSILH
 70
     0
  9
$DIMSCALE
 40
1.0
  9
$DIMASZ
 40
2.0
  9
$DIMEXO
 40
1.0
  9
$DIMDLI
 40
12.0
  9
$DIMRND
 40
0.0
  9
$DIMDLE
 40
0.0
  9
$DIMEXE
 40
1.0
  9
$DIMTP
 40
0.0
  9
$DIMTM
 40
0.0
  9
$DIMTXT
 40
3.0
  9
$DIMCEN
 40
0.09
  9
$DIMTSZ
 40
0.0
  9
$DIMTOL
 70
     0
  9
$DIMLIM
 70
     0
  9
$DIMTIH
 70
     0
  9
$DIMTOH
 70
     0
  9
$DIMSE1
 70
     0
  9
$DIMSE2
 70
     0
  9
$DIMTAD
 70
     3
  9
$DIMZIN
 70
     8
  9
$DIMBLK
  1

  9
$DIMASO
 70
     1
  9
$DIMSHO
 70
     1
  9
$DIMPOST
  1

  9
$DIMAPOST
  1

  9
$DIMALT
 70
     0
  9
$DIMALTD
 70
     2
  9
$DIMALTF
 40
25.4
  9
$DIMLFAC
 40
1.0
  9
$DIMTOFL
 70
     1
  9
$DIMTVP
 40
0.7
  9
$DIMTIX
 70
     0
  9
$DIMSOXD
 70
     0
  9
$DIMSAH
 70
     0
  9
$DIMBLK1
  1

  9
$DIMBLK2
  1

  9
$DIMSTYLE
  2
STANDARD
  9
$DIMCLRD
 70
     0
  9
$DIMCLRE
 70
     0
  9
$DIMCLRT
 70
     0
  9
$DIMTFAC
 40
0.5
  9
$DIMGAP
 40
1.5
  9
$DIMJUST
 70
     0
  9
$DIMSD1
 70
     0
  9
$DIMSD2
 70
     0
  9
$DIMTOLJ
 70
     1
  9
$DIMTZIN
 70
     0
  9
$DIMALTZ
 70
     0
  9
$DIMALTTZ
 70
     0
  9
$DIMFIT
 70
     3
  9
$DIMUPT
 70
     0
  9
$DIMUNIT
 70
     2
  9
$DIMDEC
 70
     1
  9
$DIMTDEC
 70
     1
  9
$DIMALTU
 70
     2
  9
$DIMALTTD
 70
     2
  9
$DIMTXSTY
  7
STANDARD
  9
$DIMAUNIT
 70
     0
  9
$LUNITS
 70
     2
  9
$LUPREC
 70
     4
  9
$SKETCHINC
 40
0.1
  9
$FILLETRAD
 40
1.0
  9
$AUNITS
 70
     0
  9
$AUPREC
 70
     0
  9
$MENU
  1
acad
  9
$ELEVATION
 40
0.0
  9
$PELEVATION
 40
0.0
  9
$THICKNESS
 40
0.0
  9
$LIMCHECK
 70
     0
  9
$BLIPMODE
 70
     0
  9
$CHAMFERA
 40
0.5
  9
$CHAMFERB
 40
0.5
  9
$CHAMFERC
 40
0.0
  9
$CHAMFERD
 40
0.0
  9
$SKPOLY
 70
     0
  9
$TDCREATE
 40
2450966.640740740
  9
$TDUPDATE
 40
2453224.684685648
  9
$TDINDWG
 40
0.7096430556
  9
$TDUSRTIMER
 40
0.7096430556
  9
$USRTIMER
 70
     1
  9
$ANGBASE
 50
0.0
  9
$ANGDIR
 70
     0
  9
$PDMODE
 70
     0
  9
$PDSIZE
 40
0.0
  9
$PLINEWID
 40
0.0
  9
$COORDS
 70
     0
  9
$SPLFRAME
 70
     0
  9
$SPLINETYPE
 70
     6
  9
$SPLINESEGS
 70
     8
  9
$ATTDIA
 70
     0
  9
$ATTREQ
 70
     1
  9
$HANDLING
 70
-16383
  9
$HANDSEED
  5
394
  9
$SURFTAB1
 70
     6
  9
$SURFTAB2
 70
     6
  9
$SURFTYPE
 70
     6
  9
$SURFU
 70
     6
  9
$SURFV
 70
     6
  9
$UCSNAME
  2

  9
$UCSORG
 10
0.0
 20
0.0
 30
0.0
  9
$UCSXDIR
 10
1.0
 20
0.0
 30
0.0
  9
$UCSYDIR
 10
0.0
 20
1.0
 30
0.0
  9
$PUCSNAME
  2

  9
$PUCSORG
 10
0.0
 20
0.0
 30
0.0
  9
$PUCSXDIR
 10
1.0
 20
0.0
 30
0.0
  9
$PUCSYDIR
 10
0.0
 20
1.0
 30
0.0
  9
$USERI1
 70
     0
  9
$USERI2
 70
     0
  9
$USERI3
 70
     0
  9
$USERI4
 70
     0
  9
$USERI5
 70
     0
  9
$USERR1
 40
0.0
  9
$USERR2
 40
0.0
  9
$USERR3
 40
0.0
  9
$USERR4
 40
0.0
  9
$USERR5
 40
0.0
  9
$WORLDVIEW
 70
     1
  9
$SHADEDGE
 70
     3
  9
$SHADEDIF
 70
    70
  9
$TILEMODE
 70
     1
  9
$MAXACTVP
 70
    16
  9
$PINSBASE
 10
0.0
 20
0.0
 30
0.0
  9
$PLIMCHECK
 70
     0
  9
$PEXTMIN
 10
1.12674994168319
 20
0.7847499828638993
 30
0.0
  9
$PEXTMAX
 10
10.14074947514871
 20
7.062749845775094
 30
0.0
  9
$PLIMMIN
 10
0.0
 20
0.0
  9
$PLIMMAX
 10
594.0
 20
420.0
  9
$UNITMODE
 70
     0
  9
$VISRETAIN
 70
     0
  9
$PLINEGEN
 70
     1
  9
$PSLTSCALE
 70
     0
  9
$TREEDEPTH
 70
  3020
  9
$PICKSTYLE
 70
     1
  9
$CMLSTYLE
  2
STANDARD
  9
$CMLJUST
 70
     0
  9
$CMLSCALE
 40
1.0
  9
$SAVEIMAGES
 70
     1
  0
ENDSEC
  0
SECTION
  2
CLASSES
  0
CLASS
  1
ACDBDICTIONARYWDFLT
  2
AcDbDictionaryWithDefault
  3
AutoCAD 2000
 90
    32768
280
     0
281
     0
  0
CLASS
  1
ACDBPLACEHOLDER
  2
AcDbPlaceHolder
  3
AutoCAD 2000
 90
    32768
280
     0
281
     0
  0
CLASS
  1
LAYOUT
  2
AcDbLayout
  3
AutoCAD 2000
 90
    32768
280
     0
281
     0
  0
CLASS
  1
LONG_TRANSACTION
  2
AcDbLongTransaction
  3
AutoCAD 2000
 90
    32768
280
     0
281
     0
  0
CLASS
  1
LWPOLYLINE
  2
AcDbPolyline
  3
AutoCAD 2000
 90
    32768
280
     0
281
     1
  0
CLASS
  1
HATCH
  2
AcDbHatch
  3
AutoCAD 2000
 90
    32768
280
     0
281
     1
  0
CLASS
  1
XRECORD
  2
AcDbXrecord
  3
AutoCAD 2000
 90
    32768
280
     0
281
     0
  0
CLASS
  1
LONG_TRANSACTION
  2
AcDbLongTransaction
  3
AutoCAD 2000
 90
    32768
280
     0
281
     0
  0
CLASS
  1
LWPOLYLINE
  2
AcDbPolyline
  3
AutoCAD 2000
 90
    32768
280
     0
281
     1
  0
CLASS
  1
HATCH
  2
AcDbHatch
  3
AutoCAD 2000
 90
    32768
280
     0
281
     1
  0
CLASS
  1
XRECORD
  2
AcDbXrecord
  3
AutoCAD 2000
 90
    32768
280
     0
281
     0
  0
CLASS
  1
LONG_TRANSACTION
  2
AcDbLongTransaction
  3
AutoCAD 2000
 90
    32768
280
     0
281
     0
  0
CLASS
  1
LWPOLYLINE
  2
AcDbPolyline
  3
AutoCAD 2000
 90
    32768
280
     0
281
     1
  0
CLASS
  1
HATCH
  2
AcDbHatch
  3
AutoCAD 2000
 90
    32768
280
     0
281
     1
  0
CLASS
  1
XRECORD
  2
AcDbXrecord
  3
AutoCAD 2000
 90
    32768
280
     0
281
     0
  0
CLASS
  1
LONG_TRANSACTION
  2
AcDbLongTransaction
  3
AutoCAD 2000
 90
    32768
280
     0
281
     0
  0
CLASS
  1
LWPOLYLINE
  2
AcDbPolyline
  3
AutoCAD 2000
 90
    32768
280
     0
281
     1
  0
CLASS
  1
HATCH
  2
AcDbHatch
  3
AutoCAD 2000
 90
    32768
280
     0
281
     1
  0
CLASS
  1
XRECORD
  2
AcDbXrecord
  3
AutoCAD 2000
 90
    32768
280
     0
281
     0
  0
CLASS
  1
LONG_TRANSACTION
  2
AcDbLongTransaction
  3
AutoCAD 2000
 90
    32768
280
     0
281
     0
  0
CLASS
  1
LWPOLYLINE
  2
AcDbPolyline
  3
AutoCAD 2000
 90
    32768
280
     0
281
     1
  0
CLASS
  1
HATCH
  2
AcDbHatch
  3
AutoCAD 2000
 90
    32768
280
     0
281
     1
  0
CLASS
  1
XRECORD
  2
AcDbXrecord
  3
AutoCAD 2000
 90
    32768
280
     0
281
     0
  0
CLASS
  1
LONG_TRANSACTION
  2
AcDbLongTransaction
  3
AutoCAD 2000
 90
    32768
280
     0
281
     0
  0
CLASS
  1
LWPOLYLINE
  2
AcDbPolyline
  3
AutoCAD 2000
 90
    32768
280
     0
281
     1
  0
CLASS
  1
HATCH
  2
AcDbHatch
  3
AutoCAD 2000
 90
    32768
280
     0
281
     1
  0
CLASS
  1
XRECORD
  2
AcDbXrecord
  3
AutoCAD 2000
 90
    32768
280
     0
281
     0
  0
CLASS
  1
LONG_TRANSACTION
  2
AcDbLongTransaction
  3
AutoCAD 2000
 90
    32768
280
     0
281
     0
  0
CLASS
  1
LWPOLYLINE
  2
AcDbPolyline
  3
AutoCAD 2000
 90
    32768
280
     0
281
     1
  0
CLASS
  1
HATCH
  2
AcDbHatch
  3
AutoCAD 2000
 90
    32768
280
     0
281
     1
  0
CLASS
  1
XRECORD
  2
AcDbXrecord
  3
AutoCAD 2000
 90
    32768
280
     0
281
     0
  0
CLASS
  1
LONG_TRANSACTION
  2
AcDbLongTransaction
  3
AutoCAD 2000
 90
    32768
280
     0
281
     0
  0
CLASS
  1
LWPOLYLINE
  2
AcDbPolyline
  3
AutoCAD 2000
 90
    32768
280
     0
281
     1
  0
CLASS
  1
HATCH
  2
AcDbHatch
  3
AutoCAD 2000
 90
    32768
280
     0
281
     1
  0
CLASS
  1
XRECORD
  2
AcDbXrecord
  3
AutoCAD 2000
 90
    32768
280
     0
281
     0
  0
CLASS
  1
LONG_TRANSACTION
  2
AcDbLongTransaction
  3
AutoCAD 2000
 90
    32768
280
     0
281
     0
  0
CLASS
  1
LWPOLYLINE
  2
AcDbPolyline
  3
AutoCAD 2000
 90
    32768
280
     0
281
     1
  0
CLASS
  1
HATCH
  2
AcDbHatch
  3
AutoCAD 2000
 90
    32768
280
     0
281
     1
  0
CLASS
  1
XRECORD
  2
AcDbXrecord
  3
AutoCAD 2000
 90
    32768
280
     0
281
     0
  0
CLASS
  1
LONG_TRANSACTION
  2
AcDbLongTransaction
  3
AutoCAD 2000
 90
    32768
280
     0
281
     0
  0
CLASS
  1
LWPOLYLINE
  2
AcDbPolyline
  3
AutoCAD 2000
 90
    32768
280
     0
281
     1
  0
CLASS
  1
HATCH
  2
AcDbHatch
  3
AutoCAD 2000
 90
    32768
280
     0
281
     1
  0
CLASS
  1
XRECORD
  2
AcDbXrecord
  3
AutoCAD 2000
 90
    32768
280
     0
281
     0
  0
CLASS
  1
LONG_TRANSACTION
  2
AcDbLongTransaction
  3
AutoCAD 2000
 90
    32768
280
     0
281
     0
  0
CLASS
  1
LWPOLYLINE
  2
AcDbPolyline
  3
AutoCAD 2000
 90
    32768
280
     0
281
     1
  0
CLASS
  1
HATCH
  2
AcDbHatch
  3
AutoCAD 2000
 90
    32768
280
     0
281
     1
  0
CLASS
  1
XRECORD
  2
AcDbXrecord
  3
AutoCAD 2000
 90
    32768
280
     0
281
     0
  0
CLASS
  1
LONG_TRANSACTION
  2
AcDbLongTransaction
  3
AutoCAD 2000
 90
    32768
280
     0
281
     0
  0
CLASS
  1
LWPOLYLINE
  2
AcDbPolyline
  3
AutoCAD 2000
 90
    32768
280
     0
281
     1
  0
CLASS
  1
HATCH
  2
AcDbHatch
  3
AutoCAD 2000
 90
    32768
280
     0
281
     1
  0
CLASS
  1
XRECORD
  2
AcDbXrecord
  3
AutoCAD 2000
 90
    32768
280
     0
281
     0
  0
CLASS
  1
LONG_TRANSACTION
  2
AcDbLongTransaction
  3
AutoCAD 2000
 90
    32768
280
     0
281
     0
  0
CLASS
  1
LWPOLYLINE
  2
AcDbPolyline
  3
AutoCAD 2000
 90
    32768
280
     0
281
     1
  0
CLASS
  1
HATCH
  2
AcDbHatch
  3
AutoCAD 2000
 90
    32768
280
     0
281
     1
  0
CLASS
  1
XRECORD
  2
AcDbXrecord
  3
AutoCAD 2000
 90
    32768
280
     0
281
     0
  0
CLASS
  1
LONG_TRANSACTION
  2
AcDbLongTransaction
  3
AutoCAD 2000
 90
    32768
280
     0
281
     0
  0
CLASS
  1
LWPOLYLINE
  2
AcDbPolyline
  3
AutoCAD 2000
 90
    32768
280
     0
281
     1
  0
CLASS
  1
HATCH
  2
AcDbHatch
  3
AutoCAD 2000
 90
    32768
280
     0
281
     1
  0
CLASS
  1
XRECORD
  2
AcDbXrecord
  3
AutoCAD 2000
 90
    32768
280
     0
281
     0
  0
CLASS
  1
LONG_TRANSACTION
  2
AcDbLongTransaction
  3
AutoCAD 2000
 90
    32768
280
     0
281
     0
  0
CLASS
  1
LWPOLYLINE
  2
AcDbPolyline
  3
AutoCAD 2000
 90
    32768
280
     0
281
     1
  0
CLASS
  1
HATCH
  2
AcDbHatch
  3
AutoCAD 2000
 90
    32768
280
     0
281
     1
  0
CLASS
  1
XRECORD
  2
AcDbXrecord
  3
AutoCAD 2000
 90
    32768
280
     0
281
     0
  0
CLASS
  1
LONG_TRANSACTION
  2
AcDbLongTransaction
  3
AutoCAD 2000
 90
    32768
280
     0
281
     0
  0
CLASS
  1
LWPOLYLINE
  2
AcDbPolyline
  3
AutoCAD 2000
 90
    32768
280
     0
281
     1
  0
CLASS
  1
HATCH
  2
AcDbHatch
  3
AutoCAD 2000
 90
    32768
280
     0
281
     1
  0
CLASS
  1
XRECORD
  2
AcDbXrecord
  3
AutoCAD 2000
 90
    32768
280
     0
281
     0
  0
CLASS
  1
LONG_TRANSACTION
  2
AcDbLongTransaction
  3
AutoCAD 2000
 90
    32768
280
     0
281
     0
  0
CLASS
  1
LWPOLYLINE
  2
AcDbPolyline
  3
AutoCAD 2000
 90
    32768
280
     0
281
     1
  0
CLASS
  1
HATCH
  2
AcDbHatch
  3
AutoCAD 2000
 90
    32768
280
     0
281
     1
  0
CLASS
  1
XRECORD
  2
AcDbXrecord
  3
AutoCAD 2000
 90
    32768
280
     0
281
     0
  0
CLASS
  1
LONG_TRANSACTION
  2
AcDbLongTransaction
  3
AutoCAD 2000
 90
    32768
280
     0
281
     0
  0
CLASS
  1
LWPOLYLINE
  2
AcDbPolyline
  3
AutoCAD 2000
 90
    32768
280
     0
281
     1
  0
CLASS
  1
HATCH
  2
AcDbHatch
  3
AutoCAD 2000
 90
    32768
280
     0
281
     1
  0
CLASS
  1
XRECORD
  2
AcDbXrecord
  3
AutoCAD 2000
 90
    32768
280
     0
281
     0
  0
CLASS
  1
LONG_TRANSACTION
  2
AcDbLongTransaction
  3
AutoCAD 2000
 90
    32768
280
     0
281
     0
  0
CLASS
  1
LWPOLYLINE
  2
AcDbPolyline
  3
AutoCAD 2000
 90
    32768
280
     0
281
     1
  0
CLASS
  1
HATCH
  2
AcDbHatch
  3
AutoCAD 2000
 90
    32768
280
     0
281
     1
  0
CLASS
  1
XRECORD
  2
AcDbXrecord
  3
AutoCAD 2000
 90
    32768
280
     0
281
     0
  0
CLASS
  1
LONG_TRANSACTION
  2
AcDbLongTransaction
  3
AutoCAD 2000
 90
    32768
280
     0
281
     0
  0
CLASS
  1
LWPOLYLINE
  2
AcDbPolyline
  3
AutoCAD 2000
 90
    32768
280
     0
281
     1
  0
CLASS
  1
HATCH
  2
AcDbHatch
  3
AutoCAD 2000
 90
    32768
280
     0
281
     1
  0
CLASS
  1
XRECORD
  2
AcDbXrecord
  3
AutoCAD 2000
 90
    32768
280
     0
281
     0
  0
CLASS
  1
LONG_TRANSACTION
  2
AcDbLongTransaction
  3
AutoCAD 2000
 90
    32768
280
     0
281
     0
  0
CLASS
  1
LWPOLYLINE
  2
AcDbPolyline
  3
AutoCAD 2000
 90
    32768
280
     0
281
     1
  0
CLASS
  1
HATCH
  2
AcDbHatch
  3
AutoCAD 2000
 90
    32768
280
     0
281
     1
  0
CLASS
  1
XRECORD
  2
AcDbXrecord
  3
AutoCAD 2000
 90
    32768
280
     0
281
     0
  0
CLASS
  1
LONG_TRANSACTION
  2
AcDbLongTransaction
  3
AutoCAD 2000
 90
    32768
280
     0
281
     0
  0
CLASS
  1
LWPOLYLINE
  2
AcDbPolyline
  3
AutoCAD 2000
 90
    32768
280
     0
281
     1
  0
CLASS
  1
HATCH
  2
AcDbHatch
  3
AutoCAD 2000
 90
    32768
280
     0
281
     1
  0
CLASS
  1
XRECORD
  2
AcDbXrecord
  3
AutoCAD 2000
 90
    32768
280
     0
281
     0
  0
CLASS
  1
LONG_TRANSACTION
  2
AcDbLongTransaction
  3
AutoCAD 2000
 90
    32768
280
     0
281
     0
  0
CLASS
  1
LWPOLYLINE
  2
AcDbPolyline
  3
AutoCAD 2000
 90
    32768
280
     0
281
     1
  0
CLASS
  1
HATCH
  2
AcDbHatch
  3
AutoCAD 2000
 90
    32768
280
     0
281
     1
  0
CLASS
  1
XRECORD
  2
AcDbXrecord
  3
AutoCAD 2000
 90
    32768
280
     0
281
     0
  0
CLASS
  1
LONG_TRANSACTION
  2
AcDbLongTransaction
  3
AutoCAD 2000
 90
    32768
280
     0
281
     0
  0
CLASS
  1
LWPOLYLINE
  2
AcDbPolyline
  3
AutoCAD 2000
 90
    32768
280
     0
281
     1
  0
CLASS
  1
HATCH
  2
AcDbHatch
  3
AutoCAD 2000
 90
    32768
280
     0
281
     1
  0
CLASS
  1
XRECORD
  2
AcDbXrecord
  3
AutoCAD 2000
 90
    32768
280
     0
281
     0
  0
CLASS
  1
LONG_TRANSACTION
  2
AcDbLongTransaction
  3
AutoCAD 2000
 90
    32768
280
     0
281
     0
  0
CLASS
  1
LWPOLYLINE
  2
AcDbPolyline
  3
AutoCAD 2000
 90
    32768
280
     0
281
     1
  0
CLASS
  1
HATCH
  2
AcDbHatch
  3
AutoCAD 2000
 90
    32768
280
     0
281
     1
  0
CLASS
  1
XRECORD
  2
AcDbXrecord
  3
AutoCAD 2000
 90
    32768
280
     0
281
     0
  0
CLASS
  1
LONG_TRANSACTION
  2
AcDbLongTransaction
  3
AutoCAD 2000
 90
    32768
280
     0
281
     0
  0
CLASS
  1
LWPOLYLINE
  2
AcDbPolyline
  3
AutoCAD 2000
 90
    32768
280
     0
281
     1
  0
CLASS
  1
HATCH
  2
AcDbHatch
  3
AutoCAD 2000
 90
    32768
280
     0
281
     1
  0
CLASS
  1
XRECORD
  2
AcDbXrecord
  3
AutoCAD 2000
 90
    32768
280
     0
281
     0
  0
CLASS
  1
LONG_TRANSACTION
  2
AcDbLongTransaction
  3
AutoCAD 2000
 90
    32768
280
     0
281
     0
  0
CLASS
  1
LWPOLYLINE
  2
AcDbPolyline
  3
AutoCAD 2000
 90
    32768
280
     0
281
     1
  0
CLASS
  1
HATCH
  2
AcDbHatch
  3
AutoCAD 2000
 90
    32768
280
     0
281
     1
  0
CLASS
  1
XRECORD
  2
AcDbXrecord
  3
AutoCAD 2000
 90
    32768
280
     0
281
     0
  0
CLASS
  1
LONG_TRANSACTION
  2
AcDbLongTransaction
  3
AutoCAD 2000
 90
    32768
280
     0
281
     0
  0
CLASS
  1
LWPOLYLINE
  2
AcDbPolyline
  3
AutoCAD 2000
 90
    32768
280
     0
281
     1
  0
CLASS
  1
HATCH
  2
AcDbHatch
  3
AutoCAD 2000
 90
    32768
280
     0
281
     1
  0
CLASS
  1
XRECORD
  2
AcDbXrecord
  3
AutoCAD 2000
 90
    32768
280
     0
281
     0
  0
CLASS
  1
LONG_TRANSACTION
  2
AcDbLongTransaction
  3
AutoCAD 2000
 90
    32768
280
     0
281
     0
  0
CLASS
  1
LWPOLYLINE
  2
AcDbPolyline
  3
AutoCAD 2000
 90
    32768
280
     0
281
     1
  0
CLASS
  1
HATCH
  2
AcDbHatch
  3
AutoCAD 2000
 90
    32768
280
     0
281
     1
  0
CLASS
  1
XRECORD
  2
AcDbXrecord
  3
AutoCAD 2000
 90
    32768
280
     0
281
     0
  0
CLASS
  1
LONG_TRANSACTION
  2
AcDbLongTransaction
  3
AutoCAD 2000
 90
    32768
280
     0
281
     0
  0
CLASS
  1
LWPOLYLINE
  2
AcDbPolyline
  3
AutoCAD 2000
 90
    32768
280
     0
281
     1
  0
CLASS
  1
HATCH
  2
AcDbHatch
  3
AutoCAD 2000
 90
    32768
280
     0
281
     1
  0
CLASS
  1
XRECORD
  2
AcDbXrecord
  3
AutoCAD 2000
 90
    32768
280
     0
281
     0
  0
CLASS
  1
LONG_TRANSACTION
  2
AcDbLongTransaction
  3
AutoCAD 2000
 90
    32768
280
     0
281
     0
  0
CLASS
  1
LWPOLYLINE
  2
AcDbPolyline
  3
AutoCAD 2000
 90
    32768
280
     0
281
     1
  0
CLASS
  1
HATCH
  2
AcDbHatch
  3
AutoCAD 2000
 90
    32768
280
     0
281
     1
  0
CLASS
  1
XRECORD
  2
AcDbXrecord
  3
AutoCAD 2000
 90
    32768
280
     0
281
     0
  0
ENDSEC
  0
SECTION
  2
TABLES
  0
TABLE
  2
VPORT
  5
1E
330
0
100
AcDbSymbolTable
 70
     3
  0
VPORT
  5
391
330
1E
100
AcDbSymbolTableRecord
100
AcDbViewportTableRecord
  2
*ACTIVE
 70
     0
 10
0.0
 20
0.0
 11
1.0
 21
1.0
 12
364.3205854474247
 22
-4470.644079104292
 13
0.0
 23
0.0
 14
1.0
 24
1.0
 15
0.0
 25
0.0
 16
0.0
 26
0.0
 36
1.0
 17
0.0
 27
0.0
 37
0.0
 40
790.0052823110304
 41
1.454191033138401
 42
50.0
 43
0.0
 44
0.0
 50
0.0
 51
0.0
 71
     0
 72
   100
 73
     1
 74
     1
 75
     0
 76
     0
 77
     0
 78
     0
  0
ENDTAB
  0
TABLE
  2
LTYPE
  5
19
330
0
100
AcDbSymbolTable
 70
     2
  0
LTYPE
  5
1A
330
19
100
AcDbSymbolTableRecord
100
AcDbLinetypeTableRecord
  2
BYBLOCK
 70
     0
  3

 72
    65
 73
     0
 40
0.0
  0
LTYPE
  5
1B
330
19
100
AcDbSymbolTableRecord
100
AcDbLinetypeTableRecord
  2
BYLAYER
 70
     0
  3

 72
    65
 73
     0
 40
0.0
  0
LTYPE
  5
B
330
19
100
AcDbSymbolTableRecord
100
AcDbLinetypeTableRecord
  2
CONTINUOUS
 70
     0
  3
Solid line
 72
    65
 73
     0
 40
0.0
  0
LTYPE
  5
2B
330
19
100
AcDbSymbolTableRecord
100
AcDbLinetypeTableRecord
  2
CENTER
 70
     0
  3
- ･ - ･ - ･ - ･ 
 72
    65
 73
     4
 40
50.5
 49
30.0
 74
     0
 49
-9.0
 74
     0
 49
2.5
 74
     0
 49
-9.0
 74
     0
  0
ENDTAB
  0
TABLE
  2
LAYER
  5
15
330
0
100
AcDbSymbolTable
 70
     3
  0
LAYER
  5
6
330
15
100
AcDbSymbolTableRecord
100
AcDbLayerTableRecord
  2
0
 70
     0
 62
     7
  6
CONTINUOUS
  0
LAYER
  5
26
330
15
100
AcDbSymbolTableRecord
100
AcDbLayerTableRecord
  2
L-ZISSEN
 70
     0
 62
     7
  6
CONTINUOUS
  0
LAYER
  5
2A
330
15
100
AcDbSymbolTableRecord
100
AcDbLayerTableRecord
  2
L-TYUSIN
 70
     0
 62
     1
  6
CENTER
  0
ENDTAB
  0
TABLE
  2
STYLE
  5
16
330
0
100
AcDbSymbolTable
 70
     1
  0
STYLE
  5
17
330
16
100
AcDbSymbolTableRecord
100
AcDbTextStyleTableRecord
  2
STANDARD
 70
     0
 40
2.799999999999999
 41
0.8
 50
0.0
 71
     0
 42
12.0
  3
txt.shx
  4

  0
ENDTAB
  0
TABLE
  2
VIEW
  5
1C
330
0
100
AcDbSymbolTable
 70
     0
  0
ENDTAB
  0
TABLE
  2
UCS
  5
1D
330
0
100
AcDbSymbolTable
 70
     0
  0
ENDTAB
  0
TABLE
  2
APPID
  5
20
330
0
100
AcDbSymbolTable
 70
     1
  0
APPID
  5
A
330
20
100
AcDbSymbolTableRecord
100
AcDbRegAppTableRecord
  2
ACAD
 70
     0
  0
ENDTAB
  0
TABLE
  2
DIMSTYLE
  5
21
330
0
100
AcDbSymbolTable
 70
     1
  0
DIMSTYLE
105
28
330
21
100
AcDbSymbolTableRecord
100
AcDbDimStyleTableRecord
  2
STANDARD
 70
     0
  3

  4

  5

  6

  7

 40
1.0
 41
0.18
 42
0.0625
 43
0.38
 44
0.18
 45
0.0
 46
0.0
 47
0.0
 48
0.0
140
0.18
141
0.09
142
0.0
143
25.4
144
1.0
145
0.0
146
1.0
147
0.09
 71
     0
 72
     0
 73
     1
 74
     1
 75
     0
 76
     0
 77
     0
 78
     0
170
     0
171
     2
172
     0
173
     0
174
     0
175
     0
176
     0
177
     0
178
     0
270
     2
271
     4
272
     4
273
     2
274
     2
340
17
275
     0
280
     0
281
     0
282
     0
283
     1
284
     0
285
     0
286
     0
287
     0
288
     0
  0
ENDTAB
  0
TABLE
  2
BLOCK_RECORD
  5
1
330
0
100
AcDbSymbolTable
 70
     0
  0
BLOCK_RECORD
  5
2
102
{ACAD_XDICTIONARY
360
3
102
}
330
1
100
AcDbSymbolTableRecord
100
AcDbBlockTableRecord
  2
*MODEL_SPACE
  0
BLOCK_RECORD
  5
F
102
{ACAD_XDICTIONARY
360
10
102
}
330
1
100
AcDbSymbolTableRecord
100
AcDbBlockTableRecord
  2
*PAPER_SPACE
  0
ENDTAB
  0
ENDSEC
  0
SECTION
  2
BLOCKS
  0
BLOCK
  5
5
330
2
100
AcDbEntity
  8
0
100
AcDbBlockBegin
  2
*MODEL_SPACE
 70
     0
 10
0.0
 20
0.0
 30
0.0
  3
*MODEL_SPACE
  1

  0
ENDBLK
  5
C
330
2
100
AcDbEntity
  8
0
100
AcDbBlockEnd
  0
BLOCK
  5
12
330
F
100
AcDbEntity
 67
     1
  8
0
100
AcDbBlockBegin
  2
*PAPER_SPACE
 70
     0
 10
0.0
 20
0.0
 30
0.0
  3
*PAPER_SPACE
  1

  0
ENDBLK
  5
13
330
F
100
AcDbEntity
 67
     1
  8
0
100
AcDbBlockEnd
  0
ENDSEC
  0
SECTION
  2
ENTITIES
  0
LINE
  5
29
330
2
100
AcDbEntity
  8
L-TYUSIN
100
AcDbLine
 10
529.5598327835811
 20
-4254.688287214675
 30
0.0
 11
724.5598327835812
 21
-4254.688287214675
 31
0.0
  0
LINE
  5
2C
330
2
100
AcDbEntity
  8
L-TYUSIN
100
AcDbLine
 10
529.5598327835811
 20
-4486.012181327217
 30
0.0
 11
724.5598327835812
 21
-4486.012181327217
 31
0.0
  0
CIRCLE
  5
2D
330
2
100
AcDbEntity
  8
L-ZISSEN
100
AcDbCircle
 10
66.24972975802212
 20
-4591.272918246597
 30
0.0
 40
3.7
  0
LINE
  5
2E
330
2
100
AcDbEntity
  8
L-ZISSEN
100
AcDbLine
 10
64.09972975802225
 20
-4595.652918246614
 30
0.0
 11
68.39972975802197
 21
-4595.652918246614
 31
0.0
  0
LINE
  5
2F
330
2
100
AcDbEntity
  8
L-ZISSEN
100
AcDbLine
 10
68.39972975802197
 20
-4668.452918246596
 30
0.0
 11
64.09972975802225
 21
-4668.452918246596
 31
0.0
  0
CIRCLE
  5
30
330
2
100
AcDbEntity
  8
L-ZISSEN
100
AcDbCircle
 10
66.24972975802212
 20
-4672.82292024661
 30
0.0
 40
3.7
  0
TEXT
  5
31
330
2
100
AcDbEntity
  8
L-ZISSEN
100
AcDbText
 10
43.01276986343942
 20
-4293.406441651002
 30
0.0
 40
4.5
  1
B73G-*B*-A**-**
100
AcDbText
  0
LINE
  5
32
330
2
100
AcDbEntity
  8
L-ZISSEN
100
AcDbLine
 10
79.84447475802165
 20
-4423.972918246593
 30
0.0
 11
32.76316475802173
 21
-4423.972918246593
 31
0.0
  0
LINE
  5
33
330
2
100
AcDbEntity
  8
L-ZISSEN
100
AcDbLine
 10
77.32527075802159
 20
-4469.072918246596
 30
0.0
 11
35.70105875802153
 21
-4469.072918246596
 31
0.0
  0
LINE
  5
34
330
2
100
AcDbEntity
  8
L-ZISSEN
100
AcDbLine
 10
77.2728987580216
 20
-4467.072918246608
 30
0.0
 11
35.75343075802152
 21
-4467.072918246608
 31
0.0
  0
LINE
  5
35
330
2
100
AcDbEntity
  8
L-ZISSEN
100
AcDbLine
 10
73.2631647580215
 20
-4411.972918246595
 30
0.0
 11
56.51316475802173
 21
-4411.972918246595
 31
0.0
  0
LINE
  5
36
330
2
100
AcDbEntity
  8
L-ZISSEN
100
AcDbLine
 10
59.93566875802162
 20
-4461.972918246595
 30
0.0
 11
77.12846475802155
 21
-4461.972918246595
 31
0.0
  0
LINE
  5
37
330
2
100
AcDbEntity
  8
L-ZISSEN
100
AcDbLine
 10
80.00577275802198
 20
-4683.7189762466
 30
0.0
 11
66.79972975802195
 21
-4689.872918246593
 31
0.0
  0
LINE
  5
38
330
2
100
AcDbEntity
  8
L-ZISSEN
100
AcDbLine
 10
57.999729758022
 20
-4680.052918246606
 30
0.0
 11
74.499729758022
 21
-4680.052918246606
 31
0.0
  0
CIRCLE
  5
39
330
2
100
AcDbEntity
  8
L-ZISSEN
100
AcDbCircle
 10
66.24972975802212
 20
-4538.572918246607
 30
0.0
 40
6.5
  0
LINE
  5
3A
330
2
100
AcDbEntity
  8
L-ZISSEN
100
AcDbLine
 10
24.02005775802194
 20
-4513.172918246606
 30
0.0
 11
70.94077774617971
 21
-4513.172918246606
 31
0.0
  0
LINE
  5
3B
330
2
100
AcDbEntity
  8
L-ZISSEN
100
AcDbLine
 10
22.51110175802193
 20
-4515.172918246594
 30
0.0
 11
76.17764429021566
 21
-4515.172918246594
 31
0.0
  0
LINE
  5
3C
330
2
100
AcDbEntity
  8
L-ZISSEN
100
AcDbLine
 10
24.32377575802195
 20
-4581.372918246608
 30
0.0
 11
88.67568375802205
 21
-4581.372918246608
 31
0.0
  0
LINE
  5
3D
330
2
100
AcDbEntity
  8
L-ZISSEN
100
AcDbLine
 10
38.69396275802182
 20
-4584.918885246593
 30
0.0
 11
74.30549775802211
 21
-4584.918885246593
 31
0.0
  0
LINE
  5
3E
330
2
100
AcDbEntity
  8
L-ZISSEN
100
AcDbLine
 10
35.03035775802198
 20
-4494.172918246605
 30
0.0
 11
77.96910275802201
 21
-4494.172918246605
 31
0.0
  0
LINE
  5
3F
330
2
100
AcDbEntity
  8
L-ZISSEN
100
AcDbLine
 10
32.99972975802211
 20
-4507.172918246597
 30
0.0
 11
79.99972975802188
 21
-4507.172918246597
 31
0.0
  0
LINE
  5
40
330
2
100
AcDbEntity
  8
L-TYUSIN
100
AcDbLine
 10
104.4304549362523
 20
-4538.650319563106
 30
0.0
 11
7.066026158215379
 21
-4538.650319563106
 31
0.0
  0
LINE
  5
41
330
2
100
AcDbEntity
  8
L-ZISSEN
100
AcDbLine
 10
56.49972975802217
 20
-4586.418885246596
 30
0.0
 11
56.49972975802217
 21
-4678.552918246603
 31
0.0
  0
LINE
  5
42
330
2
100
AcDbEntity
  8
L-ZISSEN
100
AcDbLine
 10
60.89972975802209
 20
-4665.252918246597
 30
0.0
 11
60.89972975802209
 21
-4598.852918246612
 31
0.0
  0
LINE
  5
43
330
2
100
AcDbEntity
  8
L-TYUSIN
100
AcDbLine
 10
56.51316475802173
 20
-4735.152316141008
 30
0.0
 11
56.51316475802173
 21
-4377.786056889635
 31
0.0
  0
LINE
  5
44
330
2
100
AcDbEntity
  8
L-ZISSEN
100
AcDbLine
 10
30.10513875802195
 20
-4584.578327246601
 30
0.0
 11
30.10513875802195
 21
-4679.18704824661
 31
0.0
  0
LINE
  5
45
330
2
100
AcDbEntity
  8
L-ZISSEN
100
AcDbLine
 10
32.99368775802202
 20
-4683.7189762466
 30
0.0
 11
46.19972975802198
 21
-4689.872918246593
 31
0.0
  0
LINE
  5
46
330
2
100
AcDbEntity
  8
L-ZISSEN
100
AcDbLine
 10
30.10513875802195
 20
-4679.18704824661
 30
0.0
 11
30.23343375802187
 21
-4680.312249246605
 31
0.0
  0
LINE
  5
47
330
2
100
AcDbEntity
  8
L-ZISSEN
100
AcDbLine
 10
30.23343375802187
 20
-4680.312249246605
 30
0.0
 11
30.61146275802207
 21
-4681.379166246602
 31
0.0
  0
LINE
  5
48
330
2
100
AcDbEntity
  8
L-ZISSEN
100
AcDbLine
 10
30.61146275802207
 20
-4681.379166246602
 30
0.0
 11
31.219761758022
 21
-4682.3336462466
 31
0.0
  0
LINE
  5
49
330
2
100
AcDbEntity
  8
L-ZISSEN
100
AcDbLine
 10
32.02745675802214
 20
-4683.127129246609
 30
0.0
 11
32.99371575802195
 21
-4683.718973246614
 31
0.0
  0
LINE
  5
4A
330
2
100
AcDbEntity
  8
L-ZISSEN
100
AcDbLine
 10
31.219761758022
 20
-4682.3336462466
 30
0.0
 11
32.02745675802214
 21
-4683.127129246609
 31
0.0
  0
LINE
  5
4B
330
2
100
AcDbEntity
  8
L-ZISSEN
100
AcDbLine
 10
46.19972975802198
 20
-4689.372918246607
 30
0.0
 11
46.19972975802198
 21
-4693.897918246615
 31
0.0
  0
LINE
  5
4C
330
2
100
AcDbEntity
  8
L-ZISSEN
100
AcDbLine
 10
60.39806875802145
 20
-4693.897918246615
 30
0.0
 11
60.39806875802145
 21
-4690.372918246601
 31
0.0
  0
LINE
  5
4D
330
2
100
AcDbEntity
  8
L-ZISSEN
100
AcDbLine
 10
66.79961575802156
 20
-4693.897918246615
 30
0.0
 11
66.79961575802156
 21
-4690.722918246614
 31
0.0
  0
LINE
  5
4E
330
2
100
AcDbEntity
  8
L-ZISSEN
100
AcDbLine
 10
62.79911575802157
 20
-4700.400318246599
 30
0.0
 11
56.51316475802173
 21
-4700.400318246599
 31
0.0
  0
LINE
  5
4F
330
2
100
AcDbEntity
  8
L-ZISSEN
100
AcDbLine
 10
62.79911575802157
 20
-4695.320318246603
 30
0.0
 11
56.51316475802173
 21
-4695.320318246603
 31
0.0
  0
LINE
  5
50
330
2
100
AcDbEntity
  8
L-ZISSEN
100
AcDbLine
 10
64.38026575802144
 20
-4693.897918246615
 30
0.0
 11
56.51316475802173
 21
-4693.897918246615
 31
0.0
  0
LINE
  5
51
330
2
100
AcDbEntity
  8
L-ZISSEN
100
AcDbLine
 10
62.79911575802157
 20
-4700.400318246599
 30
0.0
 11
62.79911575802157
 21
-4695.320318246603
 31
0.0
  0
LINE
  5
52
330
2
100
AcDbEntity
  8
L-ZISSEN
100
AcDbLine
 10
62.02948375802169
 20
-4700.400318246599
 30
0.0
 11
62.02948375802169
 21
-4695.320318246603
 31
0.0
  0
LINE
  5
53
330
2
100
AcDbEntity
  8
L-ZISSEN
100
AcDbLine
 10
63.66843075802177
 20
-4694.939318246595
 30
0.0
 11
63.66843075802177
 21
-4695.320318246603
 31
0.0
  0
LINE
  5
54
330
2
100
AcDbEntity
  8
L-ZISSEN
100
AcDbLine
 10
66.79961575802156
 20
-4693.897918246615
 30
0.0
 11
64.38026575802144
 21
-4693.897918246615
 31
0.0
  0
LINE
  5
55
330
2
100
AcDbEntity
  8
L-ZISSEN
100
AcDbLine
 10
63.66843075802177
 20
-4693.897918246615
 30
0.0
 11
63.66843075802177
 21
-4694.939318246595
 31
0.0
  0
LINE
  5
56
330
2
100
AcDbEntity
  8
L-ZISSEN
100
AcDbLine
 10
63.66843075802177
 20
-4695.320318246603
 30
0.0
 11
62.79911575802157
 21
-4695.320318246603
 31
0.0
  0
ARC
  5
57
330
2
100
AcDbEntity
  8
L-ZISSEN
100
AcDbCircle
 10
64.09972975802225
 20
-4665.252918246597
 30
0.0
 40
3.199999999999999
100
AcDbArc
 50
180.0
 51
270.0
  0
ARC
  5
58
330
2
100
AcDbEntity
  8
L-ZISSEN
100
AcDbCircle
 10
57.999729758022
 20
-4678.552918246603
 30
0.0
 40
1.5
100
AcDbArc
 50
180.0
 51
270.0
  0
LINE
  5
59
330
2
100
AcDbEntity
  8
L-ZISSEN
100
AcDbLine
 10
66.79972975802195
 20
-4689.372918246607
 30
0.0
 11
66.79972975802195
 21
-4690.722918246614
 31
0.0
  0
LINE
  5
5A
330
2
100
AcDbEntity
  8
L-ZISSEN
100
AcDbLine
 10
66.79900075802208
 20
-4689.372918246607
 30
0.0
 11
66.79900075802208
 21
-4690.722918246614
 31
0.0
  0
LINE
  5
5B
330
2
100
AcDbEntity
  8
L-ZISSEN
100
AcDbLine
 10
66.79900075802208
 20
-4689.872918246593
 30
0.0
 11
66.79900075802208
 21
-4690.722918246614
 31
0.0
  0
LINE
  5
5C
330
2
100
AcDbEntity
  8
L-ZISSEN
100
AcDbLine
 10
46.19900075802212
 20
-4689.872918246593
 30
0.0
 11
46.19900075802212
 21
-4690.722918246614
 31
0.0
  0
LINE
  5
5D
330
2
100
AcDbEntity
  8
L-ZISSEN
100
AcDbLine
 10
49.35789875802169
 20
-4695.320318246603
 30
0.0
 11
50.22721375802189
 21
-4695.320318246603
 31
0.0
  0
LINE
  5
5E
330
2
100
AcDbEntity
  8
L-ZISSEN
100
AcDbLine
 10
49.35789875802169
 20
-4693.897918246615
 30
0.0
 11
49.35789875802169
 21
-4694.939318246595
 31
0.0
  0
LINE
  5
5F
330
2
100
AcDbEntity
  8
L-ZISSEN
100
AcDbLine
 10
46.19972975802198
 20
-4693.897918246615
 30
0.0
 11
48.64606375802202
 21
-4693.897918246615
 31
0.0
  0
LINE
  5
60
330
2
100
AcDbEntity
  8
L-ZISSEN
100
AcDbLine
 10
49.35789875802169
 20
-4694.939318246595
 30
0.0
 11
49.35789875802169
 21
-4695.320318246603
 31
0.0
  0
LINE
  5
61
330
2
100
AcDbEntity
  8
L-ZISSEN
100
AcDbLine
 10
50.99684575802178
 20
-4700.400318246599
 30
0.0
 11
50.99684575802178
 21
-4695.320318246603
 31
0.0
  0
LINE
  5
62
330
2
100
AcDbEntity
  8
L-ZISSEN
100
AcDbLine
 10
50.22721375802189
 20
-4700.400318246599
 30
0.0
 11
50.22721375802189
 21
-4695.320318246603
 31
0.0
  0
LINE
  5
63
330
2
100
AcDbEntity
  8
L-ZISSEN
100
AcDbLine
 10
48.64606375802202
 20
-4693.897918246615
 30
0.0
 11
56.51316475802173
 21
-4693.897918246615
 31
0.0
  0
LINE
  5
64
330
2
100
AcDbEntity
  8
L-ZISSEN
100
AcDbLine
 10
50.22721375802189
 20
-4695.320318246603
 30
0.0
 11
56.51316475802173
 21
-4695.320318246603
 31
0.0
  0
LINE
  5
65
330
2
100
AcDbEntity
  8
L-ZISSEN
100
AcDbLine
 10
50.22721375802189
 20
-4700.400318246599
 30
0.0
 11
56.51316475802173
 21
-4700.400318246599
 31
0.0
  0
LINE
  5
66
330
2
100
AcDbEntity
  8
L-ZISSEN
100
AcDbLine
 10
52.62826075802201
 20
-4693.897918246615
 30
0.0
 11
52.62826075802201
 21
-4690.372918246601
 31
0.0
  0
LINE
  5
67
330
2
100
AcDbEntity
  8
L-ZISSEN
100
AcDbLine
 10
66.79972975802195
 20
-4689.372918246607
 30
0.0
 11
46.19972975802198
 21
-4689.372918246607
 31
0.0
  0
LINE
  5
68
330
2
100
AcDbEntity
  8
L-ZISSEN
100
AcDbLine
 10
66.79972975802195
 20
-4689.372918246607
 30
0.0
 11
46.19972975802198
 21
-4689.372918246607
 31
0.0
  0
LINE
  5
69
330
2
100
AcDbEntity
  8
L-ZISSEN
100
AcDbLine
 10
46.21362675802169
 20
-4690.372918246601
 30
0.0
 11
66.81270175802177
 21
-4690.372918246601
 31
0.0
  0
LINE
  5
6A
330
2
100
AcDbEntity
  8
L-ZISSEN
100
AcDbLine
 10
66.81243575802205
 20
-4690.372918246601
 30
0.0
 11
46.21243575802203
 21
-4690.372918246601
 31
0.0
  0
LINE
  5
6B
330
2
100
AcDbEntity
  8
L-ZISSEN
100
AcDbLine
 10
66.81243575802205
 20
-4690.372918246601
 30
0.0
 11
46.21243575802203
 21
-4690.372918246601
 31
0.0
  0
LINE
  5
6C
330
2
100
AcDbEntity
  8
L-ZISSEN
100
AcDbLine
 10
46.22543575802183
 20
-4690.372918246601
 30
0.0
 11
66.7994357580219
 21
-4690.372918246601
 31
0.0
  0
LINE
  5
6D
330
2
100
AcDbEntity
  8
L-ZISSEN
100
AcDbLine
 10
46.22761175802145
 20
-4690.372918246601
 30
0.0
 11
66.82668675802154
 21
-4690.372918246601
 31
0.0
  0
LINE
  5
6E
330
2
100
AcDbEntity
  8
L-ZISSEN
100
AcDbLine
 10
15.38907385609583
 20
-4536.90965534871
 30
0.0
 11
-4.569568771999399
 21
-4507.020587350146
 31
0.0
  0
TEXT
  5
6F
330
2
100
AcDbEntity
  8
L-ZISSEN
100
AcDbText
 10
-15.30290424020306
 20
-4509.046620622386
 30
0.0
 40
4.599999999999999
  1
IN
100
AcDbText
  0
TEXT
  5
70
330
2
100
AcDbEntity
  8
L-ZISSEN
100
AcDbText
 10
-26.40995551657572
 20
-4517.087375564424
 30
0.0
 40
4.599999999999999
  1
Rc3/8
100
AcDbText
  0
TEXT
  5
71
330
2
100
AcDbEntity
  8
L-ZISSEN
100
AcDbText
 10
-26.40995551657572
 20
-4524.388153794993
 30
0.0
 40
4.599999999999999
  1
Rc1/2
100
AcDbText
  0
LINE
  5
72
330
2
100
AcDbEntity
  8
L-ZISSEN
100
AcDbLine
 10
-4.569568771999399
 20
-4507.020587350146
 30
0.0
 11
-8.476499338095891
 21
-4507.020587350146
 31
0.0
  0
ARC
  5
73
330
2
100
AcDbEntity
  8
L-ZISSEN
100
AcDbCircle
 10
24.24972975802188
 20
-4508.672918246599
 30
0.0
 40
1.5
100
AcDbArc
 50
90.0
 51
180.0
  0
TEXT
  5
74
330
2
100
AcDbEntity
  8
L-ZISSEN
100
AcDbText
 10
29.15877474933489
 20
-4525.822918246606
 30
0.0
 40
4.5
  1
P.P
100
AcDbText
  0
LINE
  5
75
330
2
100
AcDbEntity
  8
L-ZISSEN
100
AcDbLine
 10
38.69396275802182
 20
-4584.918885246593
 30
0.0
 11
36.70986675802192
 21
-4584.774110246594
 31
0.0
  0
SOLID
  5
76
330
2
100
AcDbEntity
  8
L-ZISSEN
100
AcDbTrace
 10
15.66628433907847
 20
-4536.724546031723
 30
0.0
 11
15.11186337311319
 21
-4537.094764665698
 31
0.0
 12
16.49972975802188
 22
-4538.572918246607
 32
0.0
 13
16.49972975802188
 23
-4538.572918246607
 33
0.0
  0
LINE
  5
77
330
2
100
AcDbEntity
  8
L-ZISSEN
100
AcDbLine
 10
27.79972975802184
 20
-4582.272918246605
 30
0.0
 11
27.79972975802184
 21
-4581.372918246608
 31
0.0
  0
ARC
  5
78
330
2
100
AcDbEntity
  8
L-ZISSEN
100
AcDbCircle
 10
24.02005775802194
 20
-4514.672918246609
 30
0.0
 40
1.5
100
AcDbArc
 50
147.6502731447294
 51
179.0000000000242
  0
LINE
  5
79
330
2
100
AcDbEntity
  8
L-ZISSEN
100
AcDbLine
 10
23.34972975802213
 20
-4513.172918246606
 30
0.0
 11
32.6497297580218
 21
-4513.172918246606
 31
0.0
  0
LINE
  5
7A
330
2
100
AcDbEntity
  8
L-ZISSEN
100
AcDbLine
 10
36.71179175802183
 20
-4513.172918246606
 30
0.0
 11
22.74972975802188
 21
-4513.172918246606
 31
0.0
  0
LINE
  5
7B
330
2
100
AcDbEntity
  8
L-ZISSEN
100
AcDbLine
 10
22.74972975802188
 20
-4513.868306246595
 30
0.0
 11
22.74972975802188
 21
-4508.672918246599
 31
0.0
  0
LINE
  5
7C
330
2
100
AcDbEntity
  8
L-ZISSEN
100
AcDbLine
 10
18.49972975802211
 20
-4520.822918246592
 30
0.0
 11
16.49972975802188
 21
-4520.822918246592
 31
0.0
  0
LINE
  5
7D
330
2
100
AcDbEntity
  8
L-ZISSEN
100
AcDbLine
 10
18.49972975802211
 20
-4520.822918246592
 30
0.0
 11
20.02970775802191
 21
-4523.472918246607
 31
0.0
  0
LINE
  5
7E
330
2
100
AcDbEntity
  8
L-ZISSEN
100
AcDbLine
 10
22.36622475802181
 20
-4523.472918246607
 30
0.0
 11
20.02970775802191
 21
-4523.472918246607
 31
0.0
  0
LINE
  5
7F
330
2
100
AcDbEntity
  8
L-ZISSEN
100
AcDbLine
 10
18.49972975802211
 20
-4556.322918246598
 30
0.0
 11
16.49972975802188
 21
-4556.322918246598
 31
0.0
  0
LINE
  5
80
330
2
100
AcDbEntity
  8
L-ZISSEN
100
AcDbLine
 10
18.49972975802211
 20
-4556.322918246598
 30
0.0
 11
20.02970775802191
 21
-4553.672918246606
 31
0.0
  0
LINE
  5
81
330
2
100
AcDbEntity
  8
L-ZISSEN
100
AcDbLine
 10
16.49972975802188
 20
-4556.322918246598
 30
0.0
 11
16.49972975802188
 21
-4538.572918246607
 31
0.0
  0
LINE
  5
82
330
2
100
AcDbEntity
  8
L-ZISSEN
100
AcDbLine
 10
22.36622475802181
 20
-4553.672918246606
 30
0.0
 11
20.02970775802191
 21
-4553.672918246606
 31
0.0
  0
LINE
  5
83
330
2
100
AcDbEntity
  8
L-ZISSEN
100
AcDbLine
 10
36.70986675802192
 20
-4584.774110246594
 30
0.0
 11
34.65155375802192
 21
-4584.324756246604
 31
0.0
  0
LINE
  5
84
330
2
100
AcDbEntity
  8
L-ZISSEN
100
AcDbLine
 10
32.54463375802203
 20
-4583.567541246608
 30
0.0
 11
30.40219175802201
 21
-4582.516497246597
 31
0.0
  0
LINE
  5
85
330
2
100
AcDbEntity
  8
L-ZISSEN
100
AcDbLine
 10
30.40219175802201
 20
-4582.516497246597
 30
0.0
 11
30.32626675802214
 21
-4583.470910246608
 31
0.0
  0
LINE
  5
86
330
2
100
AcDbEntity
  8
L-ZISSEN
100
AcDbLine
 10
30.32626675802214
 20
-4583.470910246608
 30
0.0
 11
30.25105975802205
 21
-4584.139251246599
 31
0.0
  0
LINE
  5
87
330
2
100
AcDbEntity
  8
L-ZISSEN
100
AcDbLine
 10
30.25105975802205
 20
-4584.139251246599
 30
0.0
 11
30.17705975802204
 21
-4584.507344246603
 31
0.0
  0
LINE
  5
88
330
2
100
AcDbEntity
  8
L-ZISSEN
100
AcDbLine
 10
30.17705975802204
 20
-4584.507344246603
 30
0.0
 11
30.10513875802195
 21
-4584.578327246601
 31
0.0
  0
LINE
  5
89
330
2
100
AcDbEntity
  8
L-ZISSEN
100
AcDbLine
 10
27.79972975802184
 20
-4582.272918246605
 30
0.0
 11
30.10513875802195
 21
-4584.578327246601
 31
0.0
  0
ARC
  5
8A
330
2
100
AcDbEntity
  8
L-ZISSEN
100
AcDbCircle
 10
24.32377575802195
 20
-4579.872918246606
 30
0.0
 40
1.5
100
AcDbArc
 50
180.9999999999757
 51
270.0
  0
LINE
  5
8B
330
2
100
AcDbEntity
  8
L-ZISSEN
100
AcDbLine
 10
34.65155375802192
 20
-4584.324756246604
 30
0.0
 11
32.54463375802203
 21
-4583.567541246608
 31
0.0
  0
LINE
  5
8C
330
2
100
AcDbEntity
  8
L-ZISSEN
100
AcDbLine
 10
22.82400475802199
 20
-4579.899097246601
 30
0.0
 11
22.10265275802191
 21
-4538.572918246607
 31
0.0
  0
LINE
  5
8D
330
2
100
AcDbEntity
  8
L-ZISSEN
100
AcDbLine
 10
16.49972975802188
 20
-4520.822918246592
 30
0.0
 11
16.49972975802188
 21
-4538.572918246607
 31
0.0
  0
LINE
  5
8E
330
2
100
AcDbEntity
  8
L-ZISSEN
100
AcDbLine
 10
22.52028575802194
 20
-4514.646740246595
 30
0.0
 11
22.10265275802191
 21
-4538.572918246607
 31
0.0
  0
LINE
  5
8F
330
2
100
AcDbEntity
  8
L-TYUSIN
  6
CENTER
 62
     1
100
AcDbLine
 10
66.24972975802212
 20
-4528.572918246606
 30
0.0
 11
66.24972975802212
 21
-4548.572918246606
 31
0.0
  0
SOLID
  5
90
330
2
100
AcDbEntity
  8
L-ZISSEN
100
AcDbTrace
 10
54.86324893525318
 20
-4537.394406944629
 30
0.0
 11
55.33465345604418
 21
-4536.923002423837
 31
0.0
 12
56.51316475802173
 22
-4538.572918246607
 32
0.0
 13
56.51316475802173
 23
-4538.572918246607
 33
0.0
  0
ARC
  5
91
330
2
100
AcDbEntity
  8
L-ZISSEN
100
AcDbCircle
 10
57.999729758022
 20
-4586.418885246596
 30
0.0
 40
1.5
100
AcDbArc
 50
90.0
 51
180.0
  0
ARC
  5
92
330
2
100
AcDbEntity
  8
L-ZISSEN
100
AcDbCircle
 10
64.09972975802225
 20
-4598.852918246612
 30
0.0
 40
3.199999999999999
100
AcDbArc
 50
90.0
 51
180.0
  0
LINE
  5
93
330
2
100
AcDbEntity
  8
L-ZISSEN
100
AcDbLine
 10
41.51316475802173
 20
-4523.572918246606
 30
0.0
 11
39.51316475802173
 21
-4523.572918246606
 31
0.0
  0
LINE
  5
94
330
2
100
AcDbEntity
  8
L-ZISSEN
100
AcDbLine
 10
55.09895119564863
 20
-4537.158704684233
 30
0.0
 11
41.51316475802173
 21
-4523.572918246606
 31
0.0
  0
ARC
  5
95
330
2
100
AcDbEntity
  8
L-ZISSEN
100
AcDbCircle
 10
39.76316475802161
 20
-4418.9729182466
 30
0.0
 40
7.0
100
AcDbArc
 50
90.0
 51
180.0
  0
LINE
  5
96
330
2
100
AcDbEntity
  8
L-ZISSEN
100
AcDbLine
 10
59.93566875802162
 20
-4461.972918246595
 30
0.0
 11
35.88697875802171
 21
-4461.972918246595
 31
0.0
  0
LINE
  5
97
330
2
100
AcDbEntity
  8
L-ZISSEN
100
AcDbLine
 10
35.88697875802171
 20
-4461.972918246595
 30
0.0
 11
35.04379275802154
 21
-4494.172918246605
 31
0.0
  0
LINE
  5
98
330
2
100
AcDbEntity
  8
L-ZISSEN
100
AcDbLine
 10
32.76316475802173
 20
-4423.972918246593
 30
0.0
 11
32.76316475802173
 21
-4418.9729182466
 31
0.0
  0
LINE
  5
99
330
2
100
AcDbEntity
  8
L-ZISSEN
100
AcDbLine
 10
33.51316475802156
 20
-4458.472918246605
 30
0.0
 11
33.18185475802147
 21
-4458.472918246605
 31
0.0
  0
LINE
  5
9A
330
2
100
AcDbEntity
  8
L-ZISSEN
100
AcDbLine
 10
33.51316475802156
 20
-4461.972918246595
 30
0.0
 11
33.51316475802156
 21
-4458.472918246605
 31
0.0
  0
LINE
  5
9B
330
2
100
AcDbEntity
  8
L-ZISSEN
100
AcDbLine
 10
35.88697875802171
 20
-4461.972918246595
 30
0.0
 11
33.51316475802156
 21
-4461.972918246595
 31
0.0
  0
LINE
  5
9C
330
2
100
AcDbEntity
  8
L-ZISSEN
100
AcDbLine
 10
33.18185475802147
 20
-4458.472918246605
 30
0.0
 11
33.18185475802147
 21
-4423.972918246593
 31
0.0
  0
LINE
  5
9D
330
2
100
AcDbEntity
  8
L-ZISSEN
100
AcDbLine
 10
34.19972975802181
 20
-4507.172918246597
 30
0.0
 11
34.19972975802181
 21
-4494.172918246605
 31
0.0
  0
LINE
  5
9E
330
2
100
AcDbEntity
  8
L-ZISSEN
100
AcDbLine
 10
24.24972975802188
 20
-4507.172918246597
 30
0.0
 11
32.99972975802211
 21
-4507.172918246597
 31
0.0
  0
LINE
  5
9F
330
2
100
AcDbEntity
  8
L-ZISSEN
100
AcDbLine
 10
32.99972975802211
 20
-4507.172918246597
 30
0.0
 11
32.99972975802211
 21
-4494.172918246605
 31
0.0
  0
LINE
  5
A0
330
2
100
AcDbEntity
  8
L-ZISSEN
100
AcDbLine
 10
32.99972975802211
 20
-4494.172918246605
 30
0.0
 11
35.03035775802198
 21
-4494.172918246605
 31
0.0
  0
LINE
  5
A1
330
2
100
AcDbEntity
  8
L-ZISSEN
100
AcDbLine
 10
39.76316475802161
 20
-4411.972918246595
 30
0.0
 11
56.51316475802173
 21
-4411.972918246595
 31
0.0
  0
ARC
  5
A2
330
2
100
AcDbEntity
  8
L-ZISSEN
100
AcDbCircle
 10
461.2115557174998
 20
-4634.211959094577
 30
0.0
 40
21.46935
100
AcDbArc
 50
188.5718588325102
 51
351.4281411674897
  0
LINE
  5
A3
330
2
100
AcDbEntity
  8
L-ZISSEN
100
AcDbLine
 10
82.89432175802199
 20
-4584.578327246601
 30
0.0
 11
82.89432175802199
 21
-4679.18704824661
 31
0.0
  0
LINE
  5
A4
330
2
100
AcDbEntity
  8
L-ZISSEN
100
AcDbLine
 10
75.99972975802206
 20
-4586.418885246596
 30
0.0
 11
75.99972975802206
 21
-4678.552918246603
 31
0.0
  0
LINE
  5
A5
330
2
100
AcDbEntity
  8
L-ZISSEN
100
AcDbLine
 10
71.59972975802197
 20
-4598.852918246612
 30
0.0
 11
71.59972975802197
 21
-4665.252918246597
 31
0.0
  0
LINE
  5
A6
330
2
100
AcDbEntity
  8
L-TYUSIN
100
AcDbLine
 10
205.0988308520804
 20
-4723.428054548826
 30
0.0
 11
205.0988308520804
 21
-4403.343210916639
 31
0.0
  0
LINE
  5
A7
330
2
100
AcDbEntity
  8
L-ZISSEN
100
AcDbLine
 10
184.7959108520805
 20
-4618.745849246607
 30
0.0
 11
185.7219208520802
 21
-4645.925979246612
 31
0.0
  0
LINE
  5
A8
330
2
100
AcDbEntity
  8
L-ZISSEN
100
AcDbLine
 10
169.6993808520803
 20
-4678.552918246603
 30
0.0
 11
169.6993808520803
 21
-4586.418885246596
 31
0.0
  0
LINE
  5
A9
330
2
100
AcDbEntity
  8
L-ZISSEN
100
AcDbLine
 10
231.1534138520802
 20
-4584.418885246607
 30
0.0
 11
228.6753898520802
 21
-4679.050809246597
 31
0.0
  0
LINE
  5
AA
330
2
100
AcDbEntity
  8
L-ZISSEN
100
AcDbLine
 10
171.1993808520803
 20
-4680.052918246606
 30
0.0
 11
185.3562248520804
 21
-4680.052918246606
 31
0.0
  0
LINE
  5
AB
330
2
100
AcDbEntity
  8
L-ZISSEN
100
AcDbLine
 10
184.0519088520804
 20
-4683.267376246614
 30
0.0
 11
194.7993808520804
 21
-4689.372918246607
 31
0.0
  0
LINE
  5
AC
330
2
100
AcDbEntity
  8
L-ZISSEN
100
AcDbLine
 10
82.89432175802199
 20
-4679.18704824661
 30
0.0
 11
82.76602575802213
 21
-4680.312249246605
 31
0.0
  0
LINE
  5
AD
330
2
100
AcDbEntity
  8
L-ZISSEN
100
AcDbLine
 10
82.76602575802213
 20
-4680.312249246605
 30
0.0
 11
82.38799775802192
 21
-4681.379166246602
 31
0.0
  0
LINE
  5
AE
330
2
100
AcDbEntity
  8
L-ZISSEN
100
AcDbLine
 10
82.38799775802192
 20
-4681.379166246602
 30
0.0
 11
81.77969875802194
 21
-4682.3336462466
 31
0.0
  0
ARC
  5
AF
330
2
100
AcDbEntity
  8
L-ZISSEN
100
AcDbCircle
 10
74.499729758022
 20
-4678.552918246603
 30
0.0
 40
1.5
100
AcDbArc
 50
270.0
 51
0.0
  0
LINE
  5
B0
330
2
100
AcDbEntity
  8
L-ZISSEN
100
AcDbLine
 10
80.97200275802185
 20
-4683.127129246609
 30
0.0
 11
80.00574475802199
 21
-4683.718973246614
 31
0.0
  0
LINE
  5
B1
330
2
100
AcDbEntity
  8
L-ZISSEN
100
AcDbLine
 10
81.77969875802194
 20
-4682.3336462466
 30
0.0
 11
80.97200275802185
 21
-4683.127129246609
 31
0.0
  0
ARC
  5
B2
330
2
100
AcDbEntity
  8
L-ZISSEN
100
AcDbCircle
 10
68.39972975802197
 20
-4665.252918246597
 30
0.0
 40
3.199999999999999
100
AcDbArc
 50
270.0
 51
0.0
  0
ARC
  5
B3
330
2
100
AcDbEntity
  8
L-ZISSEN
100
AcDbCircle
 10
171.1993808520803
 20
-4678.552918246603
 30
0.0
 40
1.5
100
AcDbArc
 50
180.0
 51
270.0
  0
ARC
  5
B4
330
2
100
AcDbEntity
  8
L-ZISSEN
100
AcDbCircle
 10
186.5216578520803
 20
-4678.919924246609
 30
0.0
 40
4.999999999999999
100
AcDbArc
 50
193.096911000024
 51
240.3994819999873
  0
LINE
  5
B5
330
2
100
AcDbEntity
  8
L-ZISSEN
100
AcDbLine
 10
215.3712973520804
 20
-4693.897918246615
 30
0.0
 11
212.9519473520803
 21
-4693.897918246615
 31
0.0
  0
LINE
  5
B6
330
2
100
AcDbEntity
  8
L-ZISSEN
100
AcDbLine
 10
215.3714113520809
 20
-4689.372918246607
 30
0.0
 11
194.7714113520809
 21
-4689.372918246607
 31
0.0
  0
LINE
  5
B7
330
2
100
AcDbEntity
  8
L-ZISSEN
100
AcDbLine
 10
215.3714113520809
 20
-4689.372918246607
 30
0.0
 11
194.7714113520809
 21
-4689.372918246607
 31
0.0
  0
LINE
  5
B8
330
2
100
AcDbEntity
  8
L-ZISSEN
100
AcDbLine
 10
194.7853083520806
 20
-4690.372918246601
 30
0.0
 11
215.3843833520807
 21
-4690.372918246601
 31
0.0
  0
LINE
  5
B9
330
2
100
AcDbEntity
  8
L-ZISSEN
100
AcDbLine
 10
215.3841173520809
 20
-4690.372918246601
 30
0.0
 11
194.7841173520809
 21
-4690.372918246601
 31
0.0
  0
LINE
  5
BA
330
2
100
AcDbEntity
  8
L-ZISSEN
100
AcDbLine
 10
215.3841173520809
 20
-4690.372918246601
 30
0.0
 11
194.7841173520809
 21
-4690.372918246601
 31
0.0
  0
LINE
  5
BB
330
2
100
AcDbEntity
  8
L-ZISSEN
100
AcDbLine
 10
194.7971173520807
 20
-4690.372918246601
 30
0.0
 11
215.3711173520808
 21
-4690.372918246601
 31
0.0
  0
LINE
  5
BC
330
2
100
AcDbEntity
  8
L-ZISSEN
100
AcDbLine
 10
194.7992933520803
 20
-4690.372918246601
 30
0.0
 11
215.3983683520804
 21
-4690.372918246601
 31
0.0
  0
LINE
  5
BD
330
2
100
AcDbEntity
  8
L-ZISSEN
100
AcDbLine
 10
208.9697503520803
 20
-4693.897918246615
 30
0.0
 11
208.9697503520803
 21
-4690.372918246601
 31
0.0
  0
LINE
  5
BE
330
2
100
AcDbEntity
  8
L-ZISSEN
100
AcDbLine
 10
211.3707973520805
 20
-4700.400318246599
 30
0.0
 11
205.0848463520806
 21
-4700.400318246599
 31
0.0
  0
LINE
  5
BF
330
2
100
AcDbEntity
  8
L-ZISSEN
100
AcDbLine
 10
211.3707973520805
 20
-4695.320318246603
 30
0.0
 11
205.0848463520806
 21
-4695.320318246603
 31
0.0
  0
LINE
  5
C0
330
2
100
AcDbEntity
  8
L-ZISSEN
100
AcDbLine
 10
212.9519473520803
 20
-4693.897918246615
 30
0.0
 11
205.0848463520806
 21
-4693.897918246615
 31
0.0
  0
LINE
  5
C1
330
2
100
AcDbEntity
  8
L-ZISSEN
100
AcDbLine
 10
211.3707973520805
 20
-4700.400318246599
 30
0.0
 11
211.3707973520805
 21
-4695.320318246603
 31
0.0
  0
LINE
  5
C2
330
2
100
AcDbEntity
  8
L-ZISSEN
100
AcDbLine
 10
210.6011653520805
 20
-4700.400318246599
 30
0.0
 11
210.6011653520805
 21
-4695.320318246603
 31
0.0
  0
LINE
  5
C3
330
2
100
AcDbEntity
  8
L-ZISSEN
100
AcDbLine
 10
212.2401123520806
 20
-4694.939318246595
 30
0.0
 11
212.2401123520806
 21
-4695.320318246603
 31
0.0
  0
LINE
  5
C4
330
2
100
AcDbEntity
  8
L-ZISSEN
100
AcDbLine
 10
212.2401123520806
 20
-4693.897918246615
 30
0.0
 11
212.2401123520806
 21
-4694.939318246595
 31
0.0
  0
LINE
  5
C5
330
2
100
AcDbEntity
  8
L-ZISSEN
100
AcDbLine
 10
212.2401123520806
 20
-4695.320318246603
 30
0.0
 11
211.3707973520805
 21
-4695.320318246603
 31
0.0
  0
LINE
  5
C6
330
2
100
AcDbEntity
  8
L-ZISSEN
100
AcDbLine
 10
194.7714113520809
 20
-4689.372918246607
 30
0.0
 11
194.7714113520809
 21
-4693.897918246615
 31
0.0
  0
LINE
  5
C7
330
2
100
AcDbEntity
  8
L-ZISSEN
100
AcDbLine
 10
194.770682352081
 20
-4689.872918246593
 30
0.0
 11
194.770682352081
 21
-4690.722918246614
 31
0.0
  0
LINE
  5
C8
330
2
100
AcDbEntity
  8
L-ZISSEN
100
AcDbLine
 10
194.7714113520809
 20
-4693.897918246615
 30
0.0
 11
197.2177453520809
 21
-4693.897918246615
 31
0.0
  0
LINE
  5
C9
330
2
100
AcDbEntity
  8
L-ZISSEN
100
AcDbLine
 10
197.9295803520806
 20
-4695.320318246603
 30
0.0
 11
198.7988953520808
 21
-4695.320318246603
 31
0.0
  0
LINE
  5
CA
330
2
100
AcDbEntity
  8
L-ZISSEN
100
AcDbLine
 10
197.9295803520806
 20
-4693.897918246615
 30
0.0
 11
197.9295803520806
 21
-4694.939318246595
 31
0.0
  0
LINE
  5
CB
330
2
100
AcDbEntity
  8
L-ZISSEN
100
AcDbLine
 10
197.9295803520806
 20
-4694.939318246595
 30
0.0
 11
197.9295803520806
 21
-4695.320318246603
 31
0.0
  0
LINE
  5
CC
330
2
100
AcDbEntity
  8
L-ZISSEN
100
AcDbLine
 10
199.5685273520807
 20
-4700.400318246599
 30
0.0
 11
199.5685273520807
 21
-4695.320318246603
 31
0.0
  0
LINE
  5
CD
330
2
100
AcDbEntity
  8
L-ZISSEN
100
AcDbLine
 10
198.7988953520808
 20
-4700.400318246599
 30
0.0
 11
198.7988953520808
 21
-4695.320318246603
 31
0.0
  0
LINE
  5
CE
330
2
100
AcDbEntity
  8
L-ZISSEN
100
AcDbLine
 10
201.1999423520809
 20
-4693.897918246615
 30
0.0
 11
201.1999423520809
 21
-4690.372918246601
 31
0.0
  0
LINE
  5
CF
330
2
100
AcDbEntity
  8
L-ZISSEN
100
AcDbLine
 10
197.2177453520809
 20
-4693.897918246615
 30
0.0
 11
205.0848463520806
 21
-4693.897918246615
 31
0.0
  0
LINE
  5
D0
330
2
100
AcDbEntity
  8
L-ZISSEN
100
AcDbLine
 10
198.7988953520808
 20
-4695.320318246603
 30
0.0
 11
205.0848463520806
 21
-4695.320318246603
 31
0.0
  0
LINE
  5
D1
330
2
100
AcDbEntity
  8
L-ZISSEN
100
AcDbLine
 10
198.7988953520808
 20
-4700.400318246599
 30
0.0
 11
205.0848463520806
 21
-4700.400318246599
 31
0.0
  0
ARC
  5
D2
330
2
100
AcDbEntity
  8
L-ZISSEN
100
AcDbCircle
 10
185.3562248520804
 20
-4678.552918246603
 30
0.0
 40
1.5
100
AcDbArc
 50
270.0
 51
1.99272799997855
  0
LINE
  5
D3
330
2
100
AcDbEntity
  8
L-ZISSEN
100
AcDbLine
 10
185.7219208520802
 20
-4645.925979246612
 30
0.0
 11
186.8553168520804
 21
-4678.500759246613
 31
0.0
  0
ARC
  5
D4
330
2
100
AcDbEntity
  8
L-ZISSEN
100
AcDbCircle
 10
223.6771028520805
 20
-4678.919924246609
 30
0.0
 40
4.999999999999999
100
AcDbArc
 50
299.6005180000127
 51
358.5000000000103
  0
LINE
  5
D5
330
2
100
AcDbEntity
  8
L-ZISSEN
100
AcDbLine
 10
215.3712973520804
 20
-4693.897918246615
 30
0.0
 11
215.3712973520804
 21
-4690.722918246614
 31
0.0
  0
LINE
  5
D6
330
2
100
AcDbEntity
  8
L-ZISSEN
100
AcDbLine
 10
215.3714113520809
 20
-4689.372918246607
 30
0.0
 11
215.3714113520809
 21
-4690.722918246614
 31
0.0
  0
LINE
  5
D7
330
2
100
AcDbEntity
  8
L-ZISSEN
100
AcDbLine
 10
215.370682352081
 20
-4689.372918246607
 30
0.0
 11
215.370682352081
 21
-4690.722918246614
 31
0.0
  0
LINE
  5
D8
330
2
100
AcDbEntity
  8
L-ZISSEN
100
AcDbLine
 10
215.370682352081
 20
-4689.872918246593
 30
0.0
 11
215.370682352081
 21
-4690.722918246614
 31
0.0
  0
LINE
  5
D9
330
2
100
AcDbEntity
  8
L-ZISSEN
100
AcDbLine
 10
226.1468518520804
 20
-4683.267376246614
 30
0.0
 11
215.3993808520804
 21
-4689.372918246607
 31
0.0
  0
LINE
  5
DA
330
2
100
AcDbEntity
  8
L-ZISSEN
100
AcDbLine
 10
354.3927535834439
 20
-4761.175908477244
 30
0.0
 11
360.1645495834437
 21
-4761.175908477244
 31
0.0
  0
LINE
  5
DB
330
2
100
AcDbEntity
  8
L-ZISSEN
100
AcDbLine
 10
351.6817425834428
 20
-4816.688997477243
 30
0.0
 11
394.6204875834428
 21
-4816.688997477243
 31
0.0
  0
LINE
  5
DC
330
2
100
AcDbEntity
  8
L-ZISSEN
100
AcDbLine
 10
353.7445495834432
 20
-4782.975908477233
 30
0.0
 11
373.1645495834436
 21
-4782.975908477233
 31
0.0
  0
LINE
  5
DD
330
2
100
AcDbEntity
  8
L-ZISSEN
100
AcDbLine
 10
353.7445495834432
 20
-4776.175908477246
 30
0.0
 11
392.5845495834427
 21
-4776.175908477246
 31
0.0
  0
LINE
  5
DE
330
2
100
AcDbEntity
  8
L-ZISSEN
100
AcDbLine
 10
351.6817425834428
 20
-4816.688997477243
 30
0.0
 11
394.6204875834428
 21
-4816.688997477243
 31
0.0
  0
LINE
  5
DF
330
2
100
AcDbEntity
  8
L-ZISSEN
100
AcDbLine
 10
393.9632205834439
 20
-4791.588997477233
 30
0.0
 11
352.3390085834428
 21
-4791.588997477233
 31
0.0
  0
LINE
  5
E0
330
2
100
AcDbEntity
  8
L-ZISSEN
100
AcDbLine
 10
353.9145495834437
 20
-4780.267921477236
 30
0.0
 11
353.9145495834437
 21
-4776.345908477236
 31
0.0
  0
LINE
  5
E1
330
2
100
AcDbEntity
  8
L-ZISSEN
100
AcDbLine
 10
352.3390085834428
 20
-4791.588997477233
 30
0.0
 11
351.6817425834428
 21
-4816.688997477243
 31
0.0
  0
ARC
  5
E2
330
2
100
AcDbEntity
  8
L-ZISSEN
100
AcDbCircle
 10
351.9177375834437
 20
-4788.575908477232
 30
0.0
 40
0.5
100
AcDbArc
 50
270.0
 51
358.5000000000102
  0
ARC
  5
E3
330
2
100
AcDbEntity
  8
L-ZISSEN
100
AcDbCircle
 10
351.8391795834426
 20
-4791.575908477237
 30
0.0
 40
0.5
100
AcDbArc
 50
358.5000000000102
 51
90.0
  0
LINE
  5
E4
330
2
100
AcDbEntity
  8
L-ZISSEN
100
AcDbLine
 10
350.514549583443
 20
-4790.575908477243
 30
0.0
 11
350.514549583443
 21
-4789.575908477249
 31
0.0
  0
ARC
  5
E5
330
2
100
AcDbEntity
  8
L-ZISSEN
100
AcDbCircle
 10
351.0145495834429
 20
-4789.575908477249
 30
0.0
 40
0.5
100
AcDbArc
 50
90.0
 51
180.0
  0
ARC
  5
E6
330
2
100
AcDbEntity
  8
L-ZISSEN
100
AcDbCircle
 10
351.0145495834429
 20
-4790.575908477243
 30
0.0
 40
0.5
100
AcDbArc
 50
180.0
 51
270.0
  0
LINE
  5
E7
330
2
100
AcDbEntity
  8
L-ZISSEN
100
AcDbLine
 10
351.0145495834429
 20
-4789.075908477241
 30
0.0
 11
351.9177375834437
 21
-4789.075908477241
 31
0.0
  0
LINE
  5
E8
330
2
100
AcDbEntity
  8
L-ZISSEN
100
AcDbLine
 10
351.0145495834429
 20
-4791.075908477228
 30
0.0
 11
351.8391795834426
 21
-4791.075908477228
 31
0.0
  0
ARC
  5
E9
330
2
100
AcDbEntity
  8
L-ZISSEN
100
AcDbCircle
 10
353.1490435834439
 20
-4783.575908477239
 30
0.0
 40
0.6
100
AcDbArc
 50
90.0
 51
178.5000000000102
  0
LINE
  5
EA
330
2
100
AcDbEntity
  8
L-ZISSEN
100
AcDbLine
 10
353.9145495834437
 20
-4782.805908477243
 30
0.0
 11
353.9145495834437
 21
-4780.267921477236
 31
0.0
  0
ARC
  5
EB
330
2
100
AcDbEntity
  8
L-ZISSEN
100
AcDbCircle
 10
353.7445495834432
 20
-4782.805908477243
 30
0.0
 40
0.17
100
AcDbArc
 50
270.0
 51
0.0
  0
LINE
  5
EC
330
2
100
AcDbEntity
  8
L-ZISSEN
100
AcDbLine
 10
353.1490435834439
 20
-4782.975908477233
 30
0.0
 11
353.7445495834432
 21
-4782.975908477233
 31
0.0
  0
LINE
  5
ED
330
2
100
AcDbEntity
  8
L-ZISSEN
100
AcDbLine
 10
352.5492495834435
 20
-4783.560202477242
 30
0.0
 11
352.4175655834435
 21
-4788.58899747725
 31
0.0
  0
LINE
  5
EE
330
2
100
AcDbEntity
  8
L-ZISSEN
100
AcDbLine
 10
353.0233085834434
 20
-4762.475463477239
 30
0.0
 11
352.6691175834439
 21
-4776.001458477237
 31
0.0
  0
LINE
  5
EF
330
2
100
AcDbEntity
  8
L-ZISSEN
100
AcDbLine
 10
352.8390595834437
 20
-4776.175908477246
 30
0.0
 11
353.7445495834432
 21
-4776.175908477246
 31
0.0
  0
ARC
  5
F0
330
2
100
AcDbEntity
  8
L-ZISSEN
100
AcDbCircle
 10
352.8390595834437
 20
-4776.005908477233
 30
0.0
 40
0.17
100
AcDbArc
 50
178.4999989999854
 51
270.0
  0
ARC
  5
F1
330
2
100
AcDbEntity
  8
L-ZISSEN
100
AcDbCircle
 10
353.7445495834432
 20
-4776.345908477236
 30
0.0
 40
0.17
100
AcDbArc
 50
0.0
 51
90.0
  0
LINE
  5
F2
330
2
100
AcDbEntity
  8
L-ZISSEN
100
AcDbLine
 10
354.3927535834439
 20
-4761.175908477244
 30
0.0
 11
353.0233085834434
 21
-4762.475463477239
 31
0.0
  0
LINE
  5
F3
330
2
100
AcDbEntity
  8
L-ZISSEN
100
AcDbLine
 10
392.4145495834435
 20
-4780.267921477236
 30
0.0
 11
392.4145495834435
 21
-4776.345908477236
 31
0.0
  0
LINE
  5
F4
330
2
100
AcDbEntity
  8
L-ZISSEN
100
AcDbLine
 10
388.1511150834427
 20
-4846.088997477242
 30
0.0
 11
390.1511150834427
 21
-4846.088997477242
 31
0.0
  0
LINE
  5
F5
330
2
100
AcDbEntity
  8
L-ZISSEN
100
AcDbLine
 10
392.5845495834427
 20
-4782.975908477233
 30
0.0
 11
373.1645495834436
 21
-4782.975908477233
 31
0.0
  0
SOLID
  5
F6
330
2
100
AcDbEntity
  8
L-ZISSEN
100
AcDbTrace
 10
374.8010309062113
 20
-4859.910486175265
 30
0.0
 11
374.3296263854203
 21
-4859.439081654474
 31
0.0
 12
373.1511150834427
 22
-4861.088997477242
 32
0.0
 13
373.1511150834427
 23
-4861.088997477242
 33
0.0
  0
LINE
  5
F7
330
2
100
AcDbEntity
  8
L-ZISSEN
100
AcDbLine
 10
374.5653286458158
 20
-4859.674783914869
 30
0.0
 11
388.1511150834427
 21
-4846.088997477242
 31
0.0
  0
LINE
  5
F8
330
2
100
AcDbEntity
  8
L-ZISSEN
100
AcDbLine
 10
393.9900915834434
 20
-4791.588997477233
 30
0.0
 11
394.6204875834428
 21
-4816.688997477243
 31
0.0
  0
ARC
  5
F9
330
2
100
AcDbEntity
  8
L-ZISSEN
100
AcDbCircle
 10
394.4113625834439
 20
-4788.575908477232
 30
0.0
 40
0.5
100
AcDbArc
 50
181.4999999999897
 51
270.0
  0
LINE
  5
FA
330
2
100
AcDbEntity
  8
L-ZISSEN
100
AcDbLine
 10
394.4113625834439
 20
-4789.075908477241
 30
0.0
 11
395.3145495834429
 21
-4789.075908477241
 31
0.0
  0
LINE
  5
FB
330
2
100
AcDbEntity
  8
L-ZISSEN
100
AcDbLine
 10
394.4899205834436
 20
-4791.075908477228
 30
0.0
 11
395.3145495834429
 21
-4791.075908477228
 31
0.0
  0
ARC
  5
FC
330
2
100
AcDbEntity
  8
L-ZISSEN
100
AcDbCircle
 10
394.4899205834436
 20
-4791.575908477237
 30
0.0
 40
0.5
100
AcDbArc
 50
90.0
 51
181.4999999999897
  0
LINE
  5
FD
330
2
100
AcDbEntity
  8
L-ZISSEN
100
AcDbLine
 10
395.8145495834428
 20
-4790.575908477243
 30
0.0
 11
395.8145495834428
 21
-4789.575908477249
 31
0.0
  0
ARC
  5
FE
330
2
100
AcDbEntity
  8
L-ZISSEN
100
AcDbCircle
 10
395.3145495834429
 20
-4789.575908477249
 30
0.0
 40
0.5
100
AcDbArc
 50
0.0
 51
90.0
  0
ARC
  5
FF
330
2
100
AcDbEntity
  8
L-ZISSEN
100
AcDbCircle
 10
395.3145495834429
 20
-4790.575908477243
 30
0.0
 40
0.5
100
AcDbArc
 50
270.0
 51
0.0
  0
LINE
  5
100
330
2
100
AcDbEntity
  8
L-ZISSEN
100
AcDbLine
 10
392.4145495834435
 20
-4782.805908477243
 30
0.0
 11
392.4145495834435
 21
-4780.267921477236
 31
0.0
  0
ARC
  5
101
330
2
100
AcDbEntity
  8
L-ZISSEN
100
AcDbCircle
 10
392.5845495834427
 20
-4782.805908477243
 30
0.0
 40
0.17
100
AcDbArc
 50
180.0
 51
270.0
  0
LINE
  5
102
330
2
100
AcDbEntity
  8
L-ZISSEN
100
AcDbLine
 10
393.1800555834433
 20
-4782.975908477233
 30
0.0
 11
392.5845495834427
 21
-4782.975908477233
 31
0.0
  0
ARC
  5
103
330
2
100
AcDbEntity
  8
L-ZISSEN
100
AcDbCircle
 10
393.1800555834433
 20
-4783.575908477239
 30
0.0
 40
0.6
100
AcDbArc
 50
1.499999999989714
 51
90.0
  0
LINE
  5
104
330
2
100
AcDbEntity
  8
L-ZISSEN
100
AcDbLine
 10
393.7798495834438
 20
-4783.560202477242
 30
0.0
 11
393.9115335834437
 21
-4788.58899747725
 31
0.0
  0
TEXT
  5
105
330
2
100
AcDbEntity
  8
L-ZISSEN
100
AcDbText
 10
392.1511150834427
 20
-4848.338997477243
 30
0.0
 40
4.5
  1
P.P
100
AcDbText
  0
LINE
  5
106
330
2
100
AcDbEntity
  8
L-ZISSEN
100
AcDbLine
 10
391.9363455834434
 20
-4761.175908477244
 30
0.0
 11
386.1645495834435
 21
-4761.175908477244
 31
0.0
  0
CIRCLE
  5
107
330
2
100
AcDbEntity
  8
L-ZISSEN
100
AcDbCircle
 10
373.1645495834436
 20
-4717.868644477243
 30
0.0
 40
3.2
  0
LINE
  5
108
330
2
100
AcDbEntity
  8
L-ZISSEN
100
AcDbLine
 10
378.7207995834436
 20
-4730.225909477247
 30
0.0
 11
378.7207995834436
 21
-4717.868644477243
 31
0.0
  0
LINE
  5
109
330
2
100
AcDbEntity
  8
L-ZISSEN
100
AcDbLine
 10
367.6082995834436
 20
-4729.241659477231
 30
0.0
 11
367.6082995834436
 21
-4717.868644477243
 31
0.0
  0
LINE
  5
10A
330
2
100
AcDbEntity
  8
L-ZISSEN
100
AcDbLine
 10
378.625549583443
 20
-4748.37357575723
 30
0.0
 11
378.625549583443
 21
-4733.400909477247
 31
0.0
  0
LINE
  5
10B
330
2
100
AcDbEntity
  8
L-ZISSEN
100
AcDbLine
 10
367.7035495834428
 20
-4748.37357575723
 30
0.0
 11
367.7035495834428
 21
-4733.400909477247
 31
0.0
  0
LINE
  5
10C
330
2
100
AcDbEntity
  8
L-ZISSEN
100
AcDbLine
 10
380.5450705834433
 20
-4754.675908477248
 30
0.0
 11
373.1645495834436
 21
-4754.675908477248
 31
0.0
  0
LINE
  5
10D
330
2
100
AcDbEntity
  8
L-ZISSEN
100
AcDbLine
 10
373.1645495834436
 20
-4754.675908477248
 30
0.0
 11
380.5450705834433
 21
-4754.675908477248
 31
0.0
  0
LINE
  5
10E
330
2
100
AcDbEntity
  8
L-ZISSEN
100
AcDbLine
 10
386.1645495834435
 20
-4761.175908477244
 30
0.0
 11
373.1645495834436
 21
-4761.175908477244
 31
0.0
  0
LINE
  5
10F
330
2
100
AcDbEntity
  8
L-ZISSEN
100
AcDbLine
 10
367.7035495834428
 20
-4748.325908477249
 30
0.0
 11
378.625549583443
 21
-4748.325908477249
 31
0.0
  0
LINE
  5
110
330
2
100
AcDbEntity
  8
L-ZISSEN
100
AcDbLine
 10
365.7840285834439
 20
-4754.675908477248
 30
0.0
 11
373.1645495834436
 21
-4754.675908477248
 31
0.0
  0
LINE
  5
111
330
2
100
AcDbEntity
  8
L-ZISSEN
100
AcDbLine
 10
368.1235605834429
 20
-4754.675908477248
 30
0.0
 11
373.1645495834436
 21
-4754.675908477248
 31
0.0
  0
LINE
  5
112
330
2
100
AcDbEntity
  8
L-ZISSEN
100
AcDbLine
 10
364.4332995834436
 20
-4748.325908477249
 30
0.0
 11
367.7035495834428
 21
-4748.325908477249
 31
0.0
  0
LINE
  5
113
330
2
100
AcDbEntity
  8
L-ZISSEN
100
AcDbLine
 10
364.4332995834436
 20
-4754.675908477248
 30
0.0
 11
364.4332995834436
 21
-4748.325908477249
 31
0.0
  0
LINE
  5
114
330
2
100
AcDbEntity
  8
L-ZISSEN
100
AcDbLine
 10
365.7840285834439
 20
-4754.675908477248
 30
0.0
 11
368.1235605834429
 21
-4754.675908477248
 31
0.0
  0
LINE
  5
115
330
2
100
AcDbEntity
  8
L-ZISSEN
100
AcDbLine
 10
373.1645495834436
 20
-4753.896065477245
 30
0.0
 11
373.1645495834436
 21
-4749.105752477232
 31
0.0
  0
LINE
  5
116
330
2
100
AcDbEntity
  8
L-ZISSEN
100
AcDbLine
 10
385.1645495834438
 20
-4760.17590847725
 30
0.0
 11
385.1645495834438
 21
-4755.675908477242
 31
0.0
  0
ARC
  5
117
330
2
100
AcDbEntity
  8
L-ZISSEN
100
AcDbCircle
 10
386.1645495834435
 20
-4760.17590847725
 30
0.0
 40
0.9999999999999998
100
AcDbArc
 50
180.0
 51
270.0
  0
LINE
  5
118
330
2
100
AcDbEntity
  8
L-ZISSEN
100
AcDbLine
 10
384.1645495834425
 20
-4754.675908477248
 30
0.0
 11
380.5450705834433
 21
-4754.675908477248
 31
0.0
  0
LINE
  5
119
330
2
100
AcDbEntity
  8
L-ZISSEN
100
AcDbLine
 10
378.625549583443
 20
-4754.675908477248
 30
0.0
 11
378.625549583443
 21
-4754.628242197246
 31
0.0
  0
LINE
  5
11A
330
2
100
AcDbEntity
  8
L-ZISSEN
100
AcDbLine
 10
378.625549583443
 20
-4748.325908477249
 30
0.0
 11
381.8957995834436
 21
-4748.325908477249
 31
0.0
  0
LINE
  5
11B
330
2
100
AcDbEntity
  8
L-ZISSEN
100
AcDbLine
 10
381.8957995834436
 20
-4754.675908477248
 30
0.0
 11
381.8957995834436
 21
-4748.325908477249
 31
0.0
  0
ARC
  5
11C
330
2
100
AcDbEntity
  8
L-ZISSEN
100
AcDbCircle
 10
384.1645495834425
 20
-4755.675908477242
 30
0.0
 40
0.9999999999999998
100
AcDbArc
 50
0.0
 51
90.0
  0
LINE
  5
11D
330
2
100
AcDbEntity
  8
L-ZISSEN
100
AcDbLine
 10
378.625549583443
 20
-4733.400909477247
 30
0.0
 11
373.1645495834436
 21
-4733.400909477247
 31
0.0
  0
LINE
  5
11E
330
2
100
AcDbEntity
  8
L-ZISSEN
100
AcDbLine
 10
378.7207995834436
 20
-4730.225909477247
 30
0.0
 11
373.1645495834436
 21
-4730.225909477247
 31
0.0
  0
LINE
  5
11F
330
2
100
AcDbEntity
  8
L-ZISSEN
100
AcDbLine
 10
367.7035495834428
 20
-4733.400909477247
 30
0.0
 11
373.1645495834436
 21
-4733.400909477247
 31
0.0
  0
LINE
  5
120
330
2
100
AcDbEntity
  8
L-ZISSEN
100
AcDbLine
 10
367.6082995834436
 20
-4730.225909477247
 30
0.0
 11
373.1645495834436
 21
-4730.225909477247
 31
0.0
  0
LINE
  5
121
330
2
100
AcDbEntity
  8
L-ZISSEN
100
AcDbLine
 10
368.5925495834434
 20
-4733.400909477247
 30
0.0
 11
368.5925495834434
 21
-4730.225909477247
 31
0.0
  0
LINE
  5
122
330
2
100
AcDbEntity
  8
L-ZISSEN
100
AcDbLine
 10
377.7365495834438
 20
-4733.400909477247
 30
0.0
 11
377.7365495834438
 21
-4730.225909477247
 31
0.0
  0
LINE
  5
123
330
2
100
AcDbEntity
  8
L-ZISSEN
100
AcDbLine
 10
378.7207995834436
 20
-4710.756644477249
 30
0.0
 11
373.1645495834436
 21
-4710.756644477249
 31
0.0
  0
LINE
  5
124
330
2
100
AcDbEntity
  8
L-ZISSEN
100
AcDbLine
 10
367.6082995834436
 20
-4717.868644477243
 30
0.0
 11
367.6082995834436
 21
-4710.756644477249
 31
0.0
  0
LINE
  5
125
330
2
100
AcDbEntity
  8
L-ZISSEN
100
AcDbLine
 10
367.6082995834436
 20
-4710.756644477249
 30
0.0
 11
373.1645495834436
 21
-4710.756644477249
 31
0.0
  0
LINE
  5
126
330
2
100
AcDbEntity
  8
L-ZISSEN
100
AcDbLine
 10
378.7207995834436
 20
-4717.868644477243
 30
0.0
 11
378.7207995834436
 21
-4710.756644477249
 31
0.0
  0
LINE
  5
127
330
2
100
AcDbEntity
  8
L-ZISSEN
100
AcDbLine
 10
367.6082995834436
 20
-4729.241659477231
 30
0.0
 11
367.6082995834436
 21
-4730.225909477247
 31
0.0
  0
LINE
  5
128
330
2
100
AcDbEntity
  8
L-ZISSEN
100
AcDbLine
 10
361.1645495834435
 20
-4760.17590847725
 30
0.0
 11
361.1645495834435
 21
-4755.675908477242
 31
0.0
  0
ARC
  5
129
330
2
100
AcDbEntity
  8
L-ZISSEN
100
AcDbCircle
 10
360.1645495834437
 20
-4760.17590847725
 30
0.0
 40
0.9999999999999998
100
AcDbArc
 50
270.0
 51
0.0
  0
ARC
  5
12A
330
2
100
AcDbEntity
  8
L-ZISSEN
100
AcDbCircle
 10
362.1645495834432
 20
-4755.675908477242
 30
0.0
 40
0.9999999999999998
100
AcDbArc
 50
90.0
 51
180.0
  0
LINE
  5
12B
330
2
100
AcDbEntity
  8
L-ZISSEN
100
AcDbLine
 10
362.1645495834432
 20
-4754.675908477248
 30
0.0
 11
365.7840285834439
 21
-4754.675908477248
 31
0.0
  0
LINE
  5
12C
330
2
100
AcDbEntity
  8
L-ZISSEN
100
AcDbLine
 10
360.1645495834437
 20
-4761.175908477244
 30
0.0
 11
373.1645495834436
 21
-4761.175908477244
 31
0.0
  0
LINE
  5
12D
330
2
100
AcDbEntity
  8
L-ZISSEN
100
AcDbLine
 10
393.3057905834438
 20
-4762.475463477239
 30
0.0
 11
393.6599815834433
 21
-4776.001458477237
 31
0.0
  0
ARC
  5
12E
330
2
100
AcDbEntity
  8
L-ZISSEN
100
AcDbCircle
 10
392.5845495834427
 20
-4776.345908477236
 30
0.0
 40
0.17
100
AcDbArc
 50
90.0
 51
180.0
  0
ARC
  5
12F
330
2
100
AcDbEntity
  8
L-ZISSEN
100
AcDbCircle
 10
393.4900395834435
 20
-4776.005908477233
 30
0.0
 40
0.17
100
AcDbArc
 50
270.0
 51
1.500001000014574
  0
LINE
  5
130
330
2
100
AcDbEntity
  8
L-ZISSEN
100
AcDbLine
 10
393.4900395834435
 20
-4776.175908477246
 30
0.0
 11
392.5845495834427
 21
-4776.175908477246
 31
0.0
  0
LINE
  5
131
330
2
100
AcDbEntity
  8
L-ZISSEN
100
AcDbLine
 10
391.9363455834434
 20
-4761.175908477244
 30
0.0
 11
393.3057905834438
 21
-4762.475463477239
 31
0.0
  0
LINE
  5
132
330
2
100
AcDbEntity
  8
L-ZISSEN
100
AcDbLine
 10
476.377520828181
 20
-4846.088997477242
 30
0.0
 11
478.3775208281809
 21
-4846.088997477242
 31
0.0
  0
LINE
  5
133
330
2
100
AcDbEntity
  8
L-ZISSEN
100
AcDbLine
 10
493.1409553281818
 20
-4721.043644477243
 30
0.0
 11
466.9472053281818
 21
-4721.043644477243
 31
0.0
  0
LINE
  5
134
330
2
100
AcDbEntity
  8
L-ZISSEN
100
AcDbLine
 10
493.1409553281818
 20
-4714.693644477242
 30
0.0
 11
466.9472053281818
 21
-4714.693644477242
 31
0.0
  0
LINE
  5
135
330
2
100
AcDbEntity
  8
L-ZISSEN
100
AcDbLine
 10
480.1627513281816
 20
-4761.175908477244
 30
0.0
 11
474.3909553281818
 21
-4761.175908477244
 31
0.0
  0
LINE
  5
136
330
2
100
AcDbEntity
  8
L-ZISSEN
100
AcDbLine
 10
480.8109553281808
 20
-4782.975908477233
 30
0.0
 11
461.3909553281819
 21
-4782.975908477233
 31
0.0
  0
LINE
  5
137
330
2
100
AcDbEntity
  8
L-ZISSEN
100
AcDbLine
 10
482.189626328182
 20
-4791.588997477233
 30
0.0
 11
440.565414328181
 21
-4791.588997477233
 31
0.0
  0
LINE
  5
138
330
2
100
AcDbEntity
  8
L-ZISSEN
100
AcDbLine
 10
439.908148328181
 20
-4816.688997477243
 30
0.0
 11
482.846893328181
 21
-4816.688997477243
 31
0.0
  0
LINE
  5
139
330
2
100
AcDbEntity
  8
L-ZISSEN
100
AcDbLine
 10
441.9709553281814
 20
-4776.175908477246
 30
0.0
 11
480.8109553281808
 21
-4776.175908477246
 31
0.0
  0
LINE
  5
13A
330
2
100
AcDbEntity
  8
L-ZISSEN
100
AcDbLine
 10
442.1409553281819
 20
-4780.267921477236
 30
0.0
 11
442.1409553281819
 21
-4776.345908477236
 31
0.0
  0
LINE
  5
13B
330
2
100
AcDbEntity
  8
L-ZISSEN
100
AcDbLine
 10
441.9709553281814
 20
-4782.975908477233
 30
0.0
 11
461.3909553281819
 21
-4782.975908477233
 31
0.0
  0
LINE
  5
13C
330
2
100
AcDbEntity
  8
L-ZISSEN
100
AcDbLine
 10
440.7756553281816
 20
-4783.560202477242
 30
0.0
 11
440.6439713281817
 21
-4788.58899747725
 31
0.0
  0
LINE
  5
13D
330
2
100
AcDbEntity
  8
L-ZISSEN
100
AcDbLine
 10
441.3754493281821
 20
-4782.975908477233
 30
0.0
 11
441.9709553281814
 21
-4782.975908477233
 31
0.0
  0
ARC
  5
13E
330
2
100
AcDbEntity
  8
L-ZISSEN
100
AcDbCircle
 10
441.9709553281814
 20
-4782.805908477243
 30
0.0
 40
0.17
100
AcDbArc
 50
270.0
 51
0.0
  0
LINE
  5
13F
330
2
100
AcDbEntity
  8
L-ZISSEN
100
AcDbLine
 10
442.1409553281819
 20
-4782.805908477243
 30
0.0
 11
442.1409553281819
 21
-4780.267921477236
 31
0.0
  0
ARC
  5
140
330
2
100
AcDbEntity
  8
L-ZISSEN
100
AcDbCircle
 10
441.3754493281821
 20
-4783.575908477239
 30
0.0
 40
0.6
100
AcDbArc
 50
90.0
 51
178.5000000000102
  0
LINE
  5
141
330
2
100
AcDbEntity
  8
L-ZISSEN
100
AcDbLine
 10
439.2409553281811
 20
-4791.075908477228
 30
0.0
 11
440.0655853281808
 21
-4791.075908477228
 31
0.0
  0
LINE
  5
142
330
2
100
AcDbEntity
  8
L-ZISSEN
100
AcDbLine
 10
439.2409553281811
 20
-4789.075908477241
 30
0.0
 11
440.1441433281819
 21
-4789.075908477241
 31
0.0
  0
ARC
  5
143
330
2
100
AcDbEntity
  8
L-ZISSEN
100
AcDbCircle
 10
439.2409553281811
 20
-4790.575908477243
 30
0.0
 40
0.5
100
AcDbArc
 50
180.0
 51
270.0
  0
ARC
  5
144
330
2
100
AcDbEntity
  8
L-ZISSEN
100
AcDbCircle
 10
439.2409553281811
 20
-4789.575908477249
 30
0.0
 40
0.5
100
AcDbArc
 50
90.0
 51
180.0
  0
LINE
  5
145
330
2
100
AcDbEntity
  8
L-ZISSEN
100
AcDbLine
 10
438.7409553281812
 20
-4790.575908477243
 30
0.0
 11
438.7409553281812
 21
-4789.575908477249
 31
0.0
  0
ARC
  5
146
330
2
100
AcDbEntity
  8
L-ZISSEN
100
AcDbCircle
 10
440.0655853281808
 20
-4791.575908477237
 30
0.0
 40
0.5
100
AcDbArc
 50
358.5000000000102
 51
90.0
  0
ARC
  5
147
330
2
100
AcDbEntity
  8
L-ZISSEN
100
AcDbCircle
 10
440.1441433281819
 20
-4788.575908477232
 30
0.0
 40
0.5
100
AcDbArc
 50
270.0
 51
358.5000000000102
  0
LINE
  5
148
330
2
100
AcDbEntity
  8
L-ZISSEN
100
AcDbLine
 10
440.565414328181
 20
-4791.588997477233
 30
0.0
 11
439.908148328181
 21
-4816.688997477243
 31
0.0
  0
SOLID
  5
149
330
2
100
AcDbEntity
  8
L-ZISSEN
100
AcDbTrace
 10
463.0274366509495
 20
-4859.910486175265
 30
0.0
 11
462.5560321301585
 21
-4859.439081654474
 31
0.0
 12
461.3775208281809
 22
-4861.088997477242
 32
0.0
 13
461.3775208281809
 23
-4861.088997477242
 33
0.0
  0
LINE
  5
14A
330
2
100
AcDbEntity
  8
L-ZISSEN
100
AcDbLine
 10
462.7917343905541
 20
-4859.674783914869
 30
0.0
 11
476.377520828181
 21
-4846.088997477242
 31
0.0
  0
LINE
  5
14B
330
2
100
AcDbEntity
  8
L-ZISSEN
100
AcDbLine
 10
442.6191593281821
 20
-4761.175908477244
 30
0.0
 11
448.3909553281819
 21
-4761.175908477244
 31
0.0
  0
LINE
  5
14C
330
2
100
AcDbEntity
  8
L-ZISSEN
100
AcDbLine
 10
429.6409553281818
 20
-4721.043644477243
 30
0.0
 11
455.8347053281818
 21
-4721.043644477243
 31
0.0
  0
LINE
  5
14D
330
2
100
AcDbEntity
  8
L-ZISSEN
100
AcDbLine
 10
429.6409553281818
 20
-4714.693644477242
 30
0.0
 11
455.8347053281818
 21
-4714.693644477242
 31
0.0
  0
LINE
  5
14E
330
2
100
AcDbEntity
  8
L-ZISSEN
100
AcDbLine
 10
442.6191593281821
 20
-4761.175908477244
 30
0.0
 11
441.2497143281816
 21
-4762.475463477239
 31
0.0
  0
LINE
  5
14F
330
2
100
AcDbEntity
  8
L-ZISSEN
100
AcDbLine
 10
429.6409553281818
 20
-4721.043644477243
 30
0.0
 11
429.6409553281818
 21
-4714.693644477242
 31
0.0
  0
ARC
  5
150
330
2
100
AcDbEntity
  8
L-ZISSEN
100
AcDbCircle
 10
441.9709553281814
 20
-4776.345908477236
 30
0.0
 40
0.17
100
AcDbArc
 50
0.0
 51
90.0
  0
ARC
  5
151
330
2
100
AcDbEntity
  8
L-ZISSEN
100
AcDbCircle
 10
441.0654653281819
 20
-4776.005908477233
 30
0.0
 40
0.17
100
AcDbArc
 50
178.4999989999854
 51
270.0
  0
LINE
  5
152
330
2
100
AcDbEntity
  8
L-ZISSEN
100
AcDbLine
 10
441.0654653281819
 20
-4776.175908477246
 30
0.0
 11
441.9709553281814
 21
-4776.175908477246
 31
0.0
  0
LINE
  5
153
330
2
100
AcDbEntity
  8
L-ZISSEN
100
AcDbLine
 10
441.2497143281816
 20
-4762.475463477239
 30
0.0
 11
440.8955233281822
 21
-4776.001458477237
 31
0.0
  0
LINE
  5
154
330
2
100
AcDbEntity
  8
L-ZISSEN
100
AcDbLine
 10
455.8347053281818
 20
-4729.241659477231
 30
0.0
 11
455.8347053281818
 21
-4730.225909477247
 31
0.0
  0
LINE
  5
155
330
2
100
AcDbEntity
  8
L-ZISSEN
100
AcDbLine
 10
466.9472053281818
 20
-4717.868644477243
 30
0.0
 11
466.9472053281818
 21
-4710.756644477249
 31
0.0
  0
LINE
  5
156
330
2
100
AcDbEntity
  8
L-ZISSEN
100
AcDbLine
 10
455.8347053281818
 20
-4710.756644477249
 30
0.0
 11
461.3909553281819
 21
-4710.756644477249
 31
0.0
  0
LINE
  5
157
330
2
100
AcDbEntity
  8
L-ZISSEN
100
AcDbLine
 10
455.8347053281818
 20
-4717.868644477243
 30
0.0
 11
455.8347053281818
 21
-4710.756644477249
 31
0.0
  0
LINE
  5
158
330
2
100
AcDbEntity
  8
L-ZISSEN
100
AcDbLine
 10
466.9472053281818
 20
-4710.756644477249
 30
0.0
 11
461.3909553281819
 21
-4710.756644477249
 31
0.0
  0
LINE
  5
159
330
2
100
AcDbEntity
  8
L-ZISSEN
100
AcDbLine
 10
465.962955328182
 20
-4733.400909477247
 30
0.0
 11
465.962955328182
 21
-4730.225909477247
 31
0.0
  0
LINE
  5
15A
330
2
100
AcDbEntity
  8
L-ZISSEN
100
AcDbLine
 10
456.8189553281817
 20
-4733.400909477247
 30
0.0
 11
456.8189553281817
 21
-4730.225909477247
 31
0.0
  0
LINE
  5
15B
330
2
100
AcDbEntity
  8
L-ZISSEN
100
AcDbLine
 10
455.8347053281818
 20
-4730.225909477247
 30
0.0
 11
461.3909553281819
 21
-4730.225909477247
 31
0.0
  0
LINE
  5
15C
330
2
100
AcDbEntity
  8
L-ZISSEN
100
AcDbLine
 10
455.929955328181
 20
-4733.400909477247
 30
0.0
 11
461.3909553281819
 21
-4733.400909477247
 31
0.0
  0
LINE
  5
15D
330
2
100
AcDbEntity
  8
L-ZISSEN
100
AcDbLine
 10
466.9472053281818
 20
-4730.225909477247
 30
0.0
 11
461.3909553281819
 21
-4730.225909477247
 31
0.0
  0
LINE
  5
15E
330
2
100
AcDbEntity
  8
L-ZISSEN
100
AcDbLine
 10
466.8519553281812
 20
-4733.400909477247
 30
0.0
 11
461.3909553281819
 21
-4733.400909477247
 31
0.0
  0
ARC
  5
15F
330
2
100
AcDbEntity
  8
L-ZISSEN
100
AcDbCircle
 10
472.3909553281807
 20
-4755.675908477242
 30
0.0
 40
0.9999999999999998
100
AcDbArc
 50
0.0
 51
90.0
  0
LINE
  5
160
330
2
100
AcDbEntity
  8
L-ZISSEN
100
AcDbLine
 10
470.1222053281818
 20
-4754.675908477248
 30
0.0
 11
470.1222053281818
 21
-4748.325908477249
 31
0.0
  0
LINE
  5
161
330
2
100
AcDbEntity
  8
L-ZISSEN
100
AcDbLine
 10
466.8519553281812
 20
-4748.325908477249
 30
0.0
 11
470.1222053281818
 21
-4748.325908477249
 31
0.0
  0
LINE
  5
162
330
2
100
AcDbEntity
  8
L-ZISSEN
100
AcDbLine
 10
466.8519553281812
 20
-4754.675908477248
 30
0.0
 11
466.8519553281812
 21
-4754.628242197246
 31
0.0
  0
LINE
  5
163
330
2
100
AcDbEntity
  8
L-ZISSEN
100
AcDbLine
 10
472.3909553281807
 20
-4754.675908477248
 30
0.0
 11
468.7714763281816
 21
-4754.675908477248
 31
0.0
  0
ARC
  5
164
330
2
100
AcDbEntity
  8
L-ZISSEN
100
AcDbCircle
 10
474.3909553281818
 20
-4760.17590847725
 30
0.0
 40
0.9999999999999998
100
AcDbArc
 50
180.0
 51
270.0
  0
LINE
  5
165
330
2
100
AcDbEntity
  8
L-ZISSEN
100
AcDbLine
 10
473.390955328182
 20
-4760.17590847725
 30
0.0
 11
473.390955328182
 21
-4755.675908477242
 31
0.0
  0
LINE
  5
166
330
2
100
AcDbEntity
  8
L-ZISSEN
100
AcDbLine
 10
461.3909553281819
 20
-4753.896065477245
 30
0.0
 11
461.3909553281819
 21
-4749.105752477232
 31
0.0
  0
LINE
  5
167
330
2
100
AcDbEntity
  8
L-ZISSEN
100
AcDbLine
 10
454.0104343281821
 20
-4754.675908477248
 30
0.0
 11
456.3499663281811
 21
-4754.675908477248
 31
0.0
  0
LINE
  5
168
330
2
100
AcDbEntity
  8
L-ZISSEN
100
AcDbLine
 10
452.6597053281818
 20
-4754.675908477248
 30
0.0
 11
452.6597053281818
 21
-4748.325908477249
 31
0.0
  0
LINE
  5
169
330
2
100
AcDbEntity
  8
L-ZISSEN
100
AcDbLine
 10
452.6597053281818
 20
-4748.325908477249
 30
0.0
 11
455.929955328181
 21
-4748.325908477249
 31
0.0
  0
LINE
  5
16A
330
2
100
AcDbEntity
  8
L-ZISSEN
100
AcDbLine
 10
456.3499663281811
 20
-4754.675908477248
 30
0.0
 11
461.3909553281819
 21
-4754.675908477248
 31
0.0
  0
LINE
  5
16B
330
2
100
AcDbEntity
  8
L-ZISSEN
100
AcDbLine
 10
454.0104343281821
 20
-4754.675908477248
 30
0.0
 11
461.3909553281819
 21
-4754.675908477248
 31
0.0
  0
LINE
  5
16C
330
2
100
AcDbEntity
  8
L-ZISSEN
100
AcDbLine
 10
455.929955328181
 20
-4748.325908477249
 30
0.0
 11
466.8519553281812
 21
-4748.325908477249
 31
0.0
  0
LINE
  5
16D
330
2
100
AcDbEntity
  8
L-ZISSEN
100
AcDbLine
 10
474.3909553281818
 20
-4761.175908477244
 30
0.0
 11
461.3909553281819
 21
-4761.175908477244
 31
0.0
  0
LINE
  5
16E
330
2
100
AcDbEntity
  8
L-ZISSEN
100
AcDbLine
 10
461.3909553281819
 20
-4754.675908477248
 30
0.0
 11
468.7714763281816
 21
-4754.675908477248
 31
0.0
  0
LINE
  5
16F
330
2
100
AcDbEntity
  8
L-ZISSEN
100
AcDbLine
 10
468.7714763281816
 20
-4754.675908477248
 30
0.0
 11
461.3909553281819
 21
-4754.675908477248
 31
0.0
  0
LINE
  5
170
330
2
100
AcDbEntity
  8
L-ZISSEN
100
AcDbLine
 10
455.929955328181
 20
-4748.37357575723
 30
0.0
 11
455.929955328181
 21
-4733.400909477247
 31
0.0
  0
LINE
  5
171
330
2
100
AcDbEntity
  8
L-ZISSEN
100
AcDbLine
 10
466.8519553281812
 20
-4748.37357575723
 30
0.0
 11
466.8519553281812
 21
-4733.400909477247
 31
0.0
  0
LINE
  5
172
330
2
100
AcDbEntity
  8
L-ZISSEN
100
AcDbLine
 10
455.8347053281818
 20
-4729.241659477231
 30
0.0
 11
455.8347053281818
 21
-4717.868644477243
 31
0.0
  0
LINE
  5
173
330
2
100
AcDbEntity
  8
L-ZISSEN
100
AcDbLine
 10
466.9472053281818
 20
-4730.225909477247
 30
0.0
 11
466.9472053281818
 21
-4717.868644477243
 31
0.0
  0
ARC
  5
174
330
2
100
AcDbEntity
  8
L-ZISSEN
100
AcDbCircle
 10
450.3909553281814
 20
-4755.675908477242
 30
0.0
 40
0.9999999999999998
100
AcDbArc
 50
90.0
 51
180.0
  0
ARC
  5
175
330
2
100
AcDbEntity
  8
L-ZISSEN
100
AcDbCircle
 10
448.3909553281819
 20
-4760.17590847725
 30
0.0
 40
0.9999999999999998
100
AcDbArc
 50
270.0
 51
0.0
  0
LINE
  5
176
330
2
100
AcDbEntity
  8
L-ZISSEN
100
AcDbLine
 10
449.3909553281817
 20
-4760.17590847725
 30
0.0
 11
449.3909553281817
 21
-4755.675908477242
 31
0.0
  0
LINE
  5
177
330
2
100
AcDbEntity
  8
L-ZISSEN
100
AcDbLine
 10
448.3909553281819
 20
-4761.175908477244
 30
0.0
 11
461.3909553281819
 21
-4761.175908477244
 31
0.0
  0
LINE
  5
178
330
2
100
AcDbEntity
  8
L-ZISSEN
100
AcDbLine
 10
450.3909553281814
 20
-4754.675908477248
 30
0.0
 11
454.0104343281821
 21
-4754.675908477248
 31
0.0
  0
LINE
  5
179
330
2
100
AcDbEntity
  8
L-ZISSEN
100
AcDbLine
 10
480.6409553281818
 20
-4780.267921477236
 30
0.0
 11
480.6409553281818
 21
-4776.345908477236
 31
0.0
  0
TEXT
  5
17A
330
2
100
AcDbEntity
  8
L-ZISSEN
100
AcDbText
 10
480.377520828181
 20
-4848.338997477243
 30
0.0
 40
4.5
  1
P.P
100
AcDbText
  0
LINE
  5
17B
330
2
100
AcDbEntity
  8
L-ZISSEN
100
AcDbLine
 10
482.006255328182
 20
-4783.560202477242
 30
0.0
 11
482.1379393281819
 21
-4788.58899747725
 31
0.0
  0
ARC
  5
17C
330
2
100
AcDbEntity
  8
L-ZISSEN
100
AcDbCircle
 10
481.4064613281815
 20
-4783.575908477239
 30
0.0
 40
0.6
100
AcDbArc
 50
1.499999999989714
 51
90.0
  0
LINE
  5
17D
330
2
100
AcDbEntity
  8
L-ZISSEN
100
AcDbLine
 10
481.4064613281815
 20
-4782.975908477233
 30
0.0
 11
480.8109553281808
 21
-4782.975908477233
 31
0.0
  0
ARC
  5
17E
330
2
100
AcDbEntity
  8
L-ZISSEN
100
AcDbCircle
 10
480.8109553281808
 20
-4782.805908477243
 30
0.0
 40
0.17
100
AcDbArc
 50
180.0
 51
270.0
  0
LINE
  5
17F
330
2
100
AcDbEntity
  8
L-ZISSEN
100
AcDbLine
 10
480.6409553281818
 20
-4782.805908477243
 30
0.0
 11
480.6409553281818
 21
-4780.267921477236
 31
0.0
  0
ARC
  5
180
330
2
100
AcDbEntity
  8
L-ZISSEN
100
AcDbCircle
 10
483.5409553281811
 20
-4790.575908477243
 30
0.0
 40
0.5
100
AcDbArc
 50
270.0
 51
0.0
  0
ARC
  5
181
330
2
100
AcDbEntity
  8
L-ZISSEN
100
AcDbCircle
 10
483.5409553281811
 20
-4789.575908477249
 30
0.0
 40
0.5
100
AcDbArc
 50
0.0
 51
90.0
  0
LINE
  5
182
330
2
100
AcDbEntity
  8
L-ZISSEN
100
AcDbLine
 10
484.040955328181
 20
-4790.575908477243
 30
0.0
 11
484.040955328181
 21
-4789.575908477249
 31
0.0
  0
ARC
  5
183
330
2
100
AcDbEntity
  8
L-ZISSEN
100
AcDbCircle
 10
482.7163263281818
 20
-4791.575908477237
 30
0.0
 40
0.5
100
AcDbArc
 50
90.0
 51
181.4999999999897
  0
LINE
  5
184
330
2
100
AcDbEntity
  8
L-ZISSEN
100
AcDbLine
 10
482.7163263281818
 20
-4791.075908477228
 30
0.0
 11
483.5409553281811
 21
-4791.075908477228
 31
0.0
  0
LINE
  5
185
330
2
100
AcDbEntity
  8
L-ZISSEN
100
AcDbLine
 10
482.6377683281821
 20
-4789.075908477241
 30
0.0
 11
483.5409553281811
 21
-4789.075908477241
 31
0.0
  0
ARC
  5
186
330
2
100
AcDbEntity
  8
L-ZISSEN
100
AcDbCircle
 10
482.6377683281821
 20
-4788.575908477232
 30
0.0
 40
0.5
100
AcDbArc
 50
181.4999999999897
 51
270.0
  0
LINE
  5
187
330
2
100
AcDbEntity
  8
L-ZISSEN
100
AcDbLine
 10
482.2164973281815
 20
-4791.588997477233
 30
0.0
 11
482.846893328181
 21
-4816.688997477243
 31
0.0
  0
LINE
  5
188
330
2
100
AcDbEntity
  8
L-ZISSEN
100
AcDbLine
 10
480.1627513281816
 20
-4761.175908477244
 30
0.0
 11
481.532196328182
 21
-4762.475463477239
 31
0.0
  0
LINE
  5
189
330
2
100
AcDbEntity
  8
L-ZISSEN
100
AcDbLine
 10
493.1409553281818
 20
-4721.043644477243
 30
0.0
 11
493.1409553281818
 21
-4714.693644477242
 31
0.0
  0
LINE
  5
18A
330
2
100
AcDbEntity
  8
L-ZISSEN
100
AcDbLine
 10
481.7164453281817
 20
-4776.175908477246
 30
0.0
 11
480.8109553281808
 21
-4776.175908477246
 31
0.0
  0
ARC
  5
18B
330
2
100
AcDbEntity
  8
L-ZISSEN
100
AcDbCircle
 10
481.7164453281817
 20
-4776.005908477233
 30
0.0
 40
0.17
100
AcDbArc
 50
270.0
 51
1.500001000014574
  0
ARC
  5
18C
330
2
100
AcDbEntity
  8
L-ZISSEN
100
AcDbCircle
 10
480.8109553281808
 20
-4776.345908477236
 30
0.0
 40
0.17
100
AcDbArc
 50
90.0
 51
180.0
  0
LINE
  5
18D
330
2
100
AcDbEntity
  8
L-ZISSEN
100
AcDbLine
 10
481.532196328182
 20
-4762.475463477239
 30
0.0
 11
481.8863873281815
 21
-4776.001458477237
 31
0.0
  0
LINE
  5
18E
330
2
100
AcDbEntity
  8
L-ZISSEN
100
AcDbLine
 10
184.4726448520804
 20
-4461.972918246595
 30
0.0
 11
182.0988308520802
 21
-4461.972918246595
 31
0.0
  0
LINE
  5
18F
330
2
100
AcDbEntity
  8
L-ZISSEN
100
AcDbLine
 10
184.4726448520804
 20
-4461.972918246595
 30
0.0
 11
183.6294588520802
 21
-4494.172918246605
 31
0.0
  0
LINE
  5
190
330
2
100
AcDbEntity
  8
L-ZISSEN
100
AcDbLine
 10
178.4012118520803
 20
-4513.172918246606
 30
0.0
 11
186.5988308520803
 21
-4513.172918246606
 31
0.0
  0
LINE
  5
191
330
2
100
AcDbEntity
  8
L-ZISSEN
100
AcDbLine
 10
179.0453468520802
 20
-4584.418885246607
 30
0.0
 11
186.0791988520803
 21
-4584.418885246607
 31
0.0
  0
LINE
  5
192
330
2
100
AcDbEntity
  8
L-ZISSEN
100
AcDbLine
 10
183.7137008520802
 20
-4586.368776246612
 30
0.0
 11
184.7959108520805
 21
-4618.745849246607
 31
0.0
  0
LINE
  5
193
330
2
100
AcDbEntity
  8
L-ZISSEN
100
AcDbLine
 10
181.7675208520801
 20
-4423.972918246593
 30
0.0
 11
228.4301408520803
 21
-4423.972918246593
 31
0.0
  0
LINE
  5
194
330
2
100
AcDbEntity
  8
L-ZISSEN
100
AcDbLine
 10
203.5994750903267
 20
-4277.298879863947
 30
0.0
 11
181.7524750903265
 21
-4277.298879863947
 31
0.0
  0
LINE
  5
195
330
2
100
AcDbEntity
  8
L-ZISSEN
100
AcDbLine
 10
203.5994750903267
 20
-4346.092879863935
 30
0.0
 11
181.7524750903265
 21
-4346.092879863935
 31
0.0
  0
CIRCLE
  5
196
330
2
100
AcDbEntity
  8
L-ZISSEN
100
AcDbCircle
 10
203.5994750903267
 20
-4311.695879863941
 30
0.0
 40
23.75
  0
LINE
  5
197
330
2
100
AcDbEntity
  8
L-TYUSIN
100
AcDbLine
 10
161.8438568689628
 20
-4311.695879863941
 30
0.0
 11
244.9962940903265
 21
-4311.695879863941
 31
0.0
  0
ARC
  5
198
330
2
100
AcDbEntity
  8
L-ZISSEN
100
AcDbCircle
 10
188.3488308520802
 20
-4418.9729182466
 30
0.0
 40
7.0
100
AcDbArc
 50
90.0
 51
180.0
  0
LINE
  5
199
330
2
100
AcDbEntity
  8
L-ZISSEN
100
AcDbLine
 10
179.9036193520802
 20
-4507.172918246597
 30
0.0
 11
210.0988308520803
 21
-4507.172918246597
 31
0.0
  0
LINE
  5
19A
330
2
100
AcDbEntity
  8
L-ZISSEN
100
AcDbLine
 10
205.0988308520804
 20
-4494.172918246605
 30
0.0
 11
183.6294588520802
 21
-4494.172918246605
 31
0.0
  0
LINE
  5
19B
330
2
100
AcDbEntity
  8
L-ZISSEN
100
AcDbLine
 10
171.0728768520803
 20
-4581.372918246608
 30
0.0
 11
205.0988308520804
 21
-4581.372918246608
 31
0.0
  0
LINE
  5
19C
330
2
100
AcDbEntity
  8
L-TYUSIN
100
AcDbLine
 10
259.5201910621544
 20
-4538.650319563106
 30
0.0
 11
152.5617527709464
 21
-4538.650319563106
 31
0.0
  0
ARC
  5
19D
330
2
100
AcDbEntity
  8
L-ZISSEN
100
AcDbCircle
 10
88.74972975802199
 20
-4508.672918246599
 30
0.0
 40
1.5
100
AcDbArc
 50
0.0
 51
90.0
  0
LINE
  5
19E
330
2
100
AcDbEntity
  8
L-ZISSEN
100
AcDbLine
 10
94.49972975802182
 20
-4520.822918246592
 30
0.0
 11
96.49972975802212
 21
-4520.822918246592
 31
0.0
  0
LINE
  5
19F
330
2
100
AcDbEntity
  8
L-ZISSEN
100
AcDbLine
 10
94.49972975802182
 20
-4556.322918246598
 30
0.0
 11
96.49972975802212
 21
-4556.322918246598
 31
0.0
  0
LINE
  5
1A0
330
2
100
AcDbEntity
  8
L-ZISSEN
100
AcDbLine
 10
70.94077774617971
 20
-4513.172918246606
 30
0.0
 11
88.97940175802204
 21
-4513.172918246606
 31
0.0
  0
ARC
  5
1A1
330
2
100
AcDbEntity
  8
L-ZISSEN
100
AcDbCircle
 10
88.97940175802204
 20
-4514.672918246609
 30
0.0
 40
1.5
100
AcDbArc
 50
0.9999999999757248
 51
32.34972685527056
  0
ARC
  5
1A2
330
2
100
AcDbEntity
  8
L-ZISSEN
100
AcDbCircle
 10
88.97940175802204
 20
-4514.672918246609
 30
0.0
 40
1.5
100
AcDbArc
 50
32.34972685527056
 51
90.0
  0
LINE
  5
1A3
330
2
100
AcDbEntity
  8
L-ZISSEN
100
AcDbLine
 10
94.49972975802182
 20
-4520.822918246592
 30
0.0
 11
92.96975175802202
 21
-4523.472918246607
 31
0.0
  0
LINE
  5
1A4
330
2
100
AcDbEntity
  8
L-ZISSEN
100
AcDbLine
 10
90.63323475802212
 20
-4523.472918246607
 30
0.0
 11
92.96975175802202
 21
-4523.472918246607
 31
0.0
  0
LINE
  5
1A5
330
2
100
AcDbEntity
  8
L-ZISSEN
100
AcDbLine
 10
76.17764429021566
 20
-4515.172918246594
 30
0.0
 11
90.48835775802201
 21
-4515.172918246594
 31
0.0
  0
LINE
  5
1A6
330
2
100
AcDbEntity
  8
L-ZISSEN
100
AcDbLine
 10
90.24972975802212
 20
-4513.868306246595
 30
0.0
 11
90.24972975802212
 21
-4508.672918246599
 31
0.0
  0
LINE
  5
1A7
330
2
100
AcDbEntity
  8
L-ZISSEN
100
AcDbLine
 10
94.49972975802182
 20
-4556.322918246598
 30
0.0
 11
92.96975175802202
 21
-4553.672918246606
 31
0.0
  0
LINE
  5
1A8
330
2
100
AcDbEntity
  8
L-ZISSEN
100
AcDbLine
 10
90.63323475802212
 20
-4553.672918246606
 30
0.0
 11
92.96975175802202
 21
-4553.672918246606
 31
0.0
  0
LINE
  5
1A9
330
2
100
AcDbEntity
  8
L-ZISSEN
100
AcDbLine
 10
85.19972975802216
 20
-4582.272918246605
 30
0.0
 11
84.79815375802207
 21
-4582.486124246606
 31
0.0
  0
LINE
  5
1AA
330
2
100
AcDbEntity
  8
L-ZISSEN
100
AcDbLine
 10
85.19972975802216
 20
-4581.372918246608
 30
0.0
 11
85.19972975802216
 21
-4582.272918246605
 31
0.0
  0
ARC
  5
1AB
330
2
100
AcDbEntity
  8
L-ZISSEN
100
AcDbCircle
 10
88.67568375802205
 20
-4579.872918246606
 30
0.0
 40
1.5
100
AcDbArc
 50
270.0
 51
359.0000000000242
  0
LINE
  5
1AC
330
2
100
AcDbEntity
  8
L-ZISSEN
100
AcDbLine
 10
82.59726875802199
 20
-4582.516497246597
 30
0.0
 11
80.45480575802196
 21
-4583.567550246615
 31
0.0
  0
LINE
  5
1AD
330
2
100
AcDbEntity
  8
L-ZISSEN
100
AcDbLine
 10
80.45480575802196
 20
-4583.567550246615
 30
0.0
 11
78.34786475802201
 21
-4584.324768246596
 31
0.0
  0
LINE
  5
1AE
330
2
100
AcDbEntity
  8
L-ZISSEN
100
AcDbLine
 10
82.89432175802199
 20
-4584.578327246601
 30
0.0
 11
82.82239975802189
 21
-4584.507343246598
 31
0.0
  0
LINE
  5
1AF
330
2
100
AcDbEntity
  8
L-ZISSEN
100
AcDbLine
 10
82.82239975802189
 20
-4584.507343246598
 30
0.0
 11
82.74839875802195
 21
-4584.139243246596
 31
0.0
  0
LINE
  5
1B0
330
2
100
AcDbEntity
  8
L-ZISSEN
100
AcDbLine
 10
82.74839875802195
 20
-4584.139243246596
 30
0.0
 11
82.67319275802185
 21
-4583.470905246614
 31
0.0
  0
LINE
  5
1B1
330
2
100
AcDbEntity
  8
L-ZISSEN
100
AcDbLine
 10
82.67319275802185
 20
-4583.470905246614
 30
0.0
 11
82.59726875802199
 21
-4582.516497246597
 31
0.0
  0
LINE
  5
1B2
330
2
100
AcDbEntity
  8
L-ZISSEN
100
AcDbLine
 10
76.28958575802198
 20
-4584.774111246598
 30
0.0
 11
74.30549775802211
 21
-4584.918885246593
 31
0.0
  0
LINE
  5
1B3
330
2
100
AcDbEntity
  8
L-ZISSEN
100
AcDbLine
 10
78.34786475802201
 20
-4584.324768246596
 30
0.0
 11
76.28958575802198
 21
-4584.774111246598
 31
0.0
  0
ARC
  5
1B4
330
2
100
AcDbEntity
  8
L-ZISSEN
100
AcDbCircle
 10
74.499729758022
 20
-4586.418885246596
 30
0.0
 40
1.5
100
AcDbArc
 50
0.0
 51
90.0
  0
LINE
  5
1B5
330
2
100
AcDbEntity
  8
L-ZISSEN
100
AcDbLine
 10
85.19972975802216
 20
-4582.272918246605
 30
0.0
 11
82.89432175802199
 21
-4584.578327246601
 31
0.0
  0
LINE
  5
1B6
330
2
100
AcDbEntity
  8
L-ZISSEN
100
AcDbLine
 10
90.17545575802193
 20
-4579.899097246601
 30
0.0
 11
90.78054701716666
 21
-4545.233435610675
 31
0.0
  0
LINE
  5
1B7
330
2
100
AcDbEntity
  8
L-ZISSEN
100
AcDbLine
 10
90.47917375802194
 20
-4514.646740246595
 30
0.0
 11
90.78054701716666
 21
-4545.233435610675
 31
0.0
  0
ARC
  5
1B8
330
2
100
AcDbEntity
  8
L-ZISSEN
100
AcDbCircle
 10
68.39972975802197
 20
-4598.852918246612
 30
0.0
 40
3.199999999999999
100
AcDbArc
 50
0.0
 51
90.0
  0
LINE
  5
1B9
330
2
100
AcDbEntity
  8
L-ZISSEN
100
AcDbLine
 10
96.49972975802212
 20
-4556.322918246598
 30
0.0
 11
96.49972975802212
 21
-4538.572918246607
 31
0.0
  0
LINE
  5
1BA
330
2
100
AcDbEntity
  8
L-ZISSEN
100
AcDbLine
 10
96.49972975802212
 20
-4520.822918246592
 30
0.0
 11
96.49972975802212
 21
-4538.572918246607
 31
0.0
  0
LINE
  5
1BB
330
2
100
AcDbEntity
  8
L-ZISSEN
100
AcDbLine
 10
79.51316475802156
 20
-4458.472918246605
 30
0.0
 11
79.84447475802165
 21
-4458.472918246605
 31
0.0
  0
LINE
  5
1BC
330
2
100
AcDbEntity
  8
L-ZISSEN
100
AcDbLine
 10
77.13935041141008
 20
-4461.972918246595
 30
0.0
 11
77.98253775802152
 21
-4494.172918246605
 31
0.0
  0
ARC
  5
1BD
330
2
100
AcDbEntity
  8
L-ZISSEN
100
AcDbCircle
 10
73.2631647580215
 20
-4418.9729182466
 30
0.0
 40
7.0
100
AcDbArc
 50
0.0
 51
90.0
  0
LINE
  5
1BE
330
2
100
AcDbEntity
  8
L-ZISSEN
100
AcDbLine
 10
79.84447475802165
 20
-4423.972918246593
 30
0.0
 11
80.26316475802138
 21
-4423.972918246593
 31
0.0
  0
LINE
  5
1BF
330
2
100
AcDbEntity
  8
L-ZISSEN
100
AcDbLine
 10
80.26316475802138
 20
-4423.972918246593
 30
0.0
 11
80.26316475802138
 21
-4418.9729182466
 31
0.0
  0
LINE
  5
1C0
330
2
100
AcDbEntity
  8
L-ZISSEN
100
AcDbLine
 10
79.51316475802156
 20
-4461.972918246595
 30
0.0
 11
79.51316475802156
 21
-4458.472918246605
 31
0.0
  0
LINE
  5
1C1
330
2
100
AcDbEntity
  8
L-ZISSEN
100
AcDbLine
 10
77.12846475802155
 20
-4461.972918246595
 30
0.0
 11
79.51316475802156
 21
-4461.972918246595
 31
0.0
  0
LINE
  5
1C2
330
2
100
AcDbEntity
  8
L-ZISSEN
100
AcDbLine
 10
79.84447475802165
 20
-4458.472918246605
 30
0.0
 11
79.84447475802165
 21
-4423.972918246593
 31
0.0
  0
LINE
  5
1C3
330
2
100
AcDbEntity
  8
L-ZISSEN
100
AcDbLine
 10
77.96910275802201
 20
-4494.172918246605
 30
0.0
 11
79.99972975802188
 21
-4494.172918246605
 31
0.0
  0
LINE
  5
1C4
330
2
100
AcDbEntity
  8
L-ZISSEN
100
AcDbLine
 10
79.99972975802188
 20
-4507.172918246597
 30
0.0
 11
79.99972975802188
 21
-4494.172918246605
 31
0.0
  0
LINE
  5
1C5
330
2
100
AcDbEntity
  8
L-ZISSEN
100
AcDbLine
 10
78.79972975802218
 20
-4507.172918246597
 30
0.0
 11
78.79972975802218
 21
-4494.172918246605
 31
0.0
  0
LINE
  5
1C6
330
2
100
AcDbEntity
  8
L-ZISSEN
100
AcDbLine
 10
79.99972975802188
 20
-4507.172918246597
 30
0.0
 11
88.74972975802199
 21
-4507.172918246597
 31
0.0
  0
LINE
  5
1C7
330
2
100
AcDbEntity
  8
L-ZISSEN
100
AcDbLine
 10
178.4012118520803
 20
-4513.172918246606
 30
0.0
 11
178.6107368520804
 21
-4507.172918246597
 31
0.0
  0
ARC
  5
1C8
330
2
100
AcDbEntity
  8
L-ZISSEN
100
AcDbCircle
 10
171.9164328520802
 20
-4514.672918246609
 30
0.0
 40
1.5
100
AcDbArc
 50
90.0
 51
134.9999999999951
  0
ARC
  5
1C9
330
2
100
AcDbEntity
  8
L-ZISSEN
100
AcDbCircle
 10
170.7487768520802
 20
-4515.840574246602
 30
0.0
 40
1.5
100
AcDbArc
 50
134.9999999999951
 51
179.0000000000242
  0
LINE
  5
1CA
330
2
100
AcDbEntity
  8
L-ZISSEN
100
AcDbLine
 10
170.8557728520803
 20
-4513.612258246612
 30
0.0
 11
169.6881168520803
 21
-4514.779914246605
 31
0.0
  0
LINE
  5
1CB
330
2
100
AcDbEntity
  8
L-ZISSEN
100
AcDbLine
 10
171.9164328520802
 20
-4513.172918246606
 30
0.0
 11
178.4012118520803
 21
-4513.172918246606
 31
0.0
  0
LINE
  5
1CC
330
2
100
AcDbEntity
  8
L-ZISSEN
100
AcDbLine
 10
179.0453468520802
 20
-4584.418885246607
 30
0.0
 11
179.0584388520803
 21
-4584.918885246593
 31
0.0
  0
ARC
  5
1CD
330
2
100
AcDbEntity
  8
L-ZISSEN
100
AcDbCircle
 10
182.2145388520805
 20
-4586.418885246596
 30
0.0
 40
1.5
100
AcDbArc
 50
1.914407999983684
 51
90.0
  0
ARC
  5
1CE
330
2
100
AcDbEntity
  8
L-ZISSEN
100
AcDbCircle
 10
171.0728768520803
 20
-4579.872918246606
 30
0.0
 40
1.5
100
AcDbArc
 50
180.9999999999757
 51
270.0
  0
ARC
  5
1CF
330
2
100
AcDbEntity
  8
L-ZISSEN
100
AcDbCircle
 10
171.1993808520803
 20
-4586.418885246596
 30
0.0
 40
1.5
100
AcDbArc
 50
90.0
 51
180.0
  0
LINE
  5
1D0
330
2
100
AcDbEntity
  8
L-ZISSEN
100
AcDbLine
 10
171.1993808520803
 20
-4584.918885246593
 30
0.0
 11
182.2145388520805
 21
-4584.918885246593
 31
0.0
  0
LINE
  5
1D1
330
2
100
AcDbEntity
  8
L-ZISSEN
100
AcDbLine
 10
175.9993808520803
 20
-4581.372918246608
 30
0.0
 11
179.0453468520802
 21
-4584.418885246607
 31
0.0
  0
LINE
  5
1D2
330
2
100
AcDbEntity
  8
L-ZISSEN
100
AcDbLine
 10
169.5731058520803
 20
-4579.899097246601
 30
0.0
 11
168.8965688520803
 21
-4541.140331246601
 31
0.0
  0
LINE
  5
1D3
330
2
100
AcDbEntity
  8
L-ZISSEN
100
AcDbLine
 10
169.2490058520803
 20
-4515.81439624661
 30
0.0
 11
168.8965688520803
 21
-4541.140331246601
 31
0.0
  0
LINE
  5
1D4
330
2
100
AcDbEntity
  8
L-ZISSEN
100
AcDbLine
 10
181.7675208520801
 20
-4458.472918246605
 30
0.0
 11
182.0988308520802
 21
-4458.472918246605
 31
0.0
  0
LINE
  5
1D5
330
2
100
AcDbEntity
  8
L-ZISSEN
100
AcDbLine
 10
181.7675208520801
 20
-4423.972918246593
 30
0.0
 11
181.3488308520804
 21
-4423.972918246593
 31
0.0
  0
LINE
  5
1D6
330
2
100
AcDbEntity
  8
L-ZISSEN
100
AcDbLine
 10
181.3488308520804
 20
-4423.972918246593
 30
0.0
 11
181.3488308520804
 21
-4418.9729182466
 31
0.0
  0
LINE
  5
1D7
330
2
100
AcDbEntity
  8
L-ZISSEN
100
AcDbLine
 10
182.0988308520802
 20
-4461.972918246595
 30
0.0
 11
182.0988308520802
 21
-4458.472918246605
 31
0.0
  0
ARC
  5
1D8
330
2
100
AcDbEntity
  8
L-ZISSEN
100
AcDbCircle
 10
180.0239978520804
 20
-4496.290068246612
 30
0.0
 40
0.225167
100
AcDbArc
 50
120.0000000000103
 51
239.9999999999896
  0
LINE
  5
1D9
330
2
100
AcDbEntity
  8
L-ZISSEN
100
AcDbLine
 10
179.9114138520804
 20
-4496.485068246601
 30
0.0
 11
181.4060008520805
 21
-4497.347968246605
 31
0.0
  0
LINE
  5
1DA
330
2
100
AcDbEntity
  8
L-ZISSEN
100
AcDbLine
 10
179.9114138520804
 20
-4496.095068246599
 30
0.0
 11
181.4075598520802
 21
-4495.231268246605
 31
0.0
  0
ARC
  5
1DB
330
2
100
AcDbEntity
  8
L-ZISSEN
100
AcDbCircle
 10
180.0224388520802
 20
-4498.406768246613
 30
0.0
 40
0.225167
100
AcDbArc
 50
120.0000000000103
 51
239.9999999999896
  0
LINE
  5
1DC
330
2
100
AcDbEntity
  8
L-ZISSEN
100
AcDbLine
 10
179.9098548520802
 20
-4498.2117682466
 30
0.0
 11
181.4060008520805
 21
-4497.347968246605
 31
0.0
  0
LINE
  5
1DD
330
2
100
AcDbEntity
  8
L-ZISSEN
100
AcDbLine
 10
181.4075598520802
 20
-4495.231268246605
 30
0.0
 11
181.4075598520802
 21
-4494.172918246605
 31
0.0
  0
LINE
  5
1DE
330
2
100
AcDbEntity
  8
L-ZISSEN
100
AcDbLine
 10
183.6294588520802
 20
-4494.172918246605
 30
0.0
 11
181.4075598520802
 21
-4494.172918246605
 31
0.0
  0
LINE
  5
1DF
330
2
100
AcDbEntity
  8
L-ZISSEN
100
AcDbLine
 10
179.9067378520803
 20
-4502.835168246604
 30
0.0
 11
181.4013238520804
 21
-4503.698068246607
 31
0.0
  0
ARC
  5
1E0
330
2
100
AcDbEntity
  8
L-ZISSEN
100
AcDbCircle
 10
180.0177618520802
 20
-4504.756868246614
 30
0.0
 40
0.225167
100
AcDbArc
 50
120.0000000000103
 51
239.9999999999896
  0
LINE
  5
1E1
330
2
100
AcDbEntity
  8
L-ZISSEN
100
AcDbLine
 10
179.9051788520802
 20
-4504.951868246604
 30
0.0
 11
181.3997658520803
 21
-4505.814768246607
 31
0.0
  0
LINE
  5
1E2
330
2
100
AcDbEntity
  8
L-ZISSEN
100
AcDbLine
 10
179.9051788520802
 20
-4504.561868246602
 30
0.0
 11
181.4013238520804
 21
-4503.698068246607
 31
0.0
  0
ARC
  5
1E3
330
2
100
AcDbEntity
  8
L-ZISSEN
100
AcDbCircle
 10
180.0162028520804
 20
-4506.873568246614
 30
0.0
 40
0.225167
100
AcDbArc
 50
120.0000000000103
 51
239.9999999999896
  0
LINE
  5
1E4
330
2
100
AcDbEntity
  8
L-ZISSEN
100
AcDbLine
 10
179.9036198520804
 20
-4507.068568246604
 30
0.0
 11
180.0843598520804
 21
-4507.172918246597
 31
0.0
  0
LINE
  5
1E5
330
2
100
AcDbEntity
  8
L-ZISSEN
100
AcDbLine
 10
179.9036198520804
 20
-4506.678568246602
 30
0.0
 11
181.3997658520803
 21
-4505.814768246607
 31
0.0
  0
LINE
  5
1E6
330
2
100
AcDbEntity
  8
L-ZISSEN
100
AcDbLine
 10
178.6107368520804
 20
-4507.172918246597
 30
0.0
 11
179.9036193520802
 21
-4507.172918246597
 31
0.0
  0
LINE
  5
1E7
330
2
100
AcDbEntity
  8
L-ZISSEN
100
AcDbLine
 10
179.9067378520803
 20
-4502.445168246601
 30
0.0
 11
181.4028828520802
 21
-4501.581368246607
 31
0.0
  0
ARC
  5
1E8
330
2
100
AcDbEntity
  8
L-ZISSEN
100
AcDbCircle
 10
180.0208798520804
 20
-4500.523468246614
 30
0.0
 40
0.225167
100
AcDbArc
 50
120.0000000000103
 51
239.9999999999896
  0
LINE
  5
1E9
330
2
100
AcDbEntity
  8
L-ZISSEN
100
AcDbLine
 10
179.9082968520805
 20
-4500.718468246603
 30
0.0
 11
181.4028828520802
 21
-4501.581368246607
 31
0.0
  0
LINE
  5
1EA
330
2
100
AcDbEntity
  8
L-ZISSEN
100
AcDbLine
 10
179.9082968520805
 20
-4500.328468246601
 30
0.0
 11
181.4044418520803
 21
-4499.464668246606
 31
0.0
  0
ARC
  5
1EB
330
2
100
AcDbEntity
  8
L-ZISSEN
100
AcDbCircle
 10
180.0193208520803
 20
-4502.640168246613
 30
0.0
 40
0.225167
100
AcDbArc
 50
120.0000000000103
 51
239.9999999999896
  0
LINE
  5
1EC
330
2
100
AcDbEntity
  8
L-ZISSEN
100
AcDbLine
 10
179.9098548520802
 20
-4498.601768246603
 30
0.0
 11
181.4044418520803
 21
-4499.464668246606
 31
0.0
  0
LINE
  5
1ED
330
2
100
AcDbEntity
  8
L-ZISSEN
100
AcDbLine
 10
181.7675208520801
 20
-4458.472918246605
 30
0.0
 11
181.7675208520801
 21
-4423.972918246593
 31
0.0
  0
ARC
  5
1EE
330
2
100
AcDbEntity
  8
L-ZISSEN
100
AcDbCircle
 10
181.7524750903265
 20
-4278.798879863948
 30
0.0
 40
1.5
100
AcDbArc
 50
90.0
 51
180.0
  0
LINE
  5
1EF
330
2
100
AcDbEntity
  8
L-ZISSEN
100
AcDbLine
 10
180.2524750903264
 20
-4278.798879863948
 30
0.0
 11
180.2524750903264
 21
-4282.521863863944
 31
0.0
  0
LINE
  5
1F0
330
2
100
AcDbEntity
  8
L-ZISSEN
100
AcDbLine
 10
167.4620980903266
 20
-4310.822379863942
 30
0.0
 11
166.8524750903266
 21
-4310.822379863942
 31
0.0
  0
ARC
  5
1F1
330
2
100
AcDbEntity
  8
L-ZISSEN
100
AcDbCircle
 10
207.0994750903266
 20
-4311.695879863941
 30
0.0
 40
39.647
100
AcDbArc
 50
132.6214000000042
 51
178.7375610000188
  0
ARC
  5
1F2
330
2
100
AcDbEntity
  8
L-ZISSEN
100
AcDbCircle
 10
168.3524750903266
 20
-4330.569379863947
 30
0.0
 40
1.5
100
AcDbArc
 50
180.0
 51
270.0
  0
LINE
  5
1F3
330
2
100
AcDbEntity
  8
L-ZISSEN
100
AcDbLine
 10
172.7061690903264
 20
-4332.069379863949
 30
0.0
 11
168.3524750903266
 21
-4332.069379863949
 31
0.0
  0
ARC
  5
1F4
330
2
100
AcDbEntity
  8
L-ZISSEN
100
AcDbCircle
 10
181.7524750903265
 20
-4344.592879863932
 30
0.0
 40
1.5
100
AcDbArc
 50
180.0
 51
270.0
  0
LINE
  5
1F5
330
2
100
AcDbEntity
  8
L-ZISSEN
100
AcDbLine
 10
180.2524750903264
 20
-4344.592879863932
 30
0.0
 11
180.2524750903264
 21
-4340.809720863939
 31
0.0
  0
LINE
  5
1F6
330
2
100
AcDbEntity
  8
L-ZISSEN
100
AcDbLine
 10
172.7061690903264
 20
-4332.069379863949
 30
0.0
 11
180.2524750903264
 21
-4340.809720863939
 31
0.0
  0
LINE
  5
1F7
330
2
100
AcDbEntity
  8
L-ZISSEN
100
AcDbLine
 10
166.8524750903266
 20
-4310.822379863942
 30
0.0
 11
166.8524750903266
 21
-4330.569379863947
 31
0.0
  0
LINE
  5
1F8
330
2
100
AcDbEntity
  8
L-ZISSEN
100
AcDbLine
 10
231.7964498520804
 20
-4513.172918246606
 30
0.0
 11
231.5869248520803
 21
-4507.172918246597
 31
0.0
  0
LINE
  5
1F9
330
2
100
AcDbEntity
  8
L-ZISSEN
100
AcDbLine
 10
193.8488308520804
 20
-4520.822918246592
 30
0.0
 11
216.3488308520804
 21
-4520.822918246592
 31
0.0
  0
LINE
  5
1FA
330
2
100
AcDbEntity
  8
L-ZISSEN
100
AcDbLine
 10
213.5439198520801
 20
-4582.9709102466
 30
0.0
 11
210.6719048520803
 21
-4583.639251246614
 31
0.0
  0
LINE
  5
1FB
330
2
100
AcDbEntity
  8
L-ZISSEN
100
AcDbLine
 10
193.8488308520804
 20
-4556.322918246598
 30
0.0
 11
216.3488308520804
 21
-4556.322918246598
 31
0.0
  0
LINE
  5
1FC
330
2
100
AcDbEntity
  8
L-ZISSEN
100
AcDbLine
 10
206.5130444144535
 20
-4537.236106000733
 30
0.0
 11
220.0988308520804
 21
-4523.650319563106
 31
0.0
  0
LINE
  5
1FD
330
2
100
AcDbEntity
  8
L-ZISSEN
100
AcDbLine
 10
211.5988308520804
 20
-4513.172918246606
 30
0.0
 11
223.5988308520802
 21
-4513.172918246606
 31
0.0
  0
LINE
  5
1FE
330
2
100
AcDbEntity
  8
L-ZISSEN
100
AcDbLine
 10
223.0464498520802
 20
-4513.172918246606
 30
0.0
 11
213.1488308520804
 21
-4513.172918246606
 31
0.0
  0
LINE
  5
1FF
330
2
100
AcDbEntity
  8
L-ZISSEN
100
AcDbLine
 10
222.4488308520804
 20
-4513.172918246606
 30
0.0
 11
213.1488308520804
 21
-4513.172918246606
 31
0.0
  0
LINE
  5
200
330
2
100
AcDbEntity
  8
L-ZISSEN
100
AcDbLine
 10
239.1247848520803
 20
-4581.372918246608
 30
0.0
 11
205.0988308520804
 21
-4581.372918246608
 31
0.0
  0
LINE
  5
201
330
2
100
AcDbEntity
  8
L-ZISSEN
100
AcDbLine
 10
222.9940688520802
 20
-4517.672918246613
 30
0.0
 11
187.2035938520802
 21
-4517.672918246613
 31
0.0
  0
LINE
  5
202
330
2
100
AcDbEntity
  8
L-ZISSEN
100
AcDbLine
 10
223.5988308520802
 20
-4517.672918246613
 30
0.0
 11
186.5988308520803
 21
-4517.672918246613
 31
0.0
  0
SOLID
  5
203
330
2
100
AcDbEntity
  8
L-ZISSEN
100
AcDbTrace
 10
206.7487466748489
 20
-4537.471808261129
 30
0.0
 11
206.2773421540579
 21
-4537.000403740337
 31
0.0
 12
205.0988308520804
 22
-4538.650319563106
 32
0.0
 13
205.0988308520804
 23
-4538.650319563106
 33
0.0
  0
CIRCLE
  5
204
330
2
100
AcDbEntity
  8
L-ZISSEN
100
AcDbCircle
 10
205.0988308520804
 20
-4538.572918246607
 30
0.0
 40
6.7
  0
LINE
  5
205
330
2
100
AcDbEntity
  8
L-ZISSEN
100
AcDbLine
 10
207.8459528520803
 20
-4584.007344246593
 30
0.0
 11
205.0993808520802
 21
-4584.078327246593
 31
0.0
  0
LINE
  5
206
330
2
100
AcDbEntity
  8
L-ZISSEN
100
AcDbLine
 10
210.6719048520803
 20
-4583.639251246614
 30
0.0
 11
207.8459528520803
 21
-4584.007344246593
 31
0.0
  0
LINE
  5
207
330
2
100
AcDbEntity
  8
L-ZISSEN
100
AcDbLine
 10
202.3527978520805
 20
-4584.007343246613
 30
0.0
 11
199.5268118520801
 21
-4583.639243246611
 31
0.0
  0
LINE
  5
208
330
2
100
AcDbEntity
  8
L-ZISSEN
100
AcDbLine
 10
199.5268118520801
 20
-4583.639243246611
 30
0.0
 11
196.6548208520802
 21
-4582.970905246606
 31
0.0
  0
LINE
  5
209
330
2
100
AcDbEntity
  8
L-ZISSEN
100
AcDbLine
 10
191.7874098520801
 20
-4583.067550246606
 30
0.0
 11
189.8421548520803
 21
-4583.824768246611
 31
0.0
  0
LINE
  5
20A
330
2
100
AcDbEntity
  8
L-ZISSEN
100
AcDbLine
 10
193.7553778520804
 20
-4582.016497246612
 30
0.0
 11
191.7874098520801
 21
-4583.067550246606
 31
0.0
  0
LINE
  5
20B
330
2
100
AcDbEntity
  8
L-ZISSEN
100
AcDbLine
 10
196.6548208520802
 20
-4582.970905246606
 30
0.0
 11
193.7553778520804
 21
-4582.016497246612
 31
0.0
  0
LINE
  5
20C
330
2
100
AcDbEntity
  8
L-ZISSEN
100
AcDbLine
 10
205.0993808520802
 20
-4584.078327246593
 30
0.0
 11
202.3527978520805
 21
-4584.007343246613
 31
0.0
  0
LINE
  5
20D
330
2
100
AcDbEntity
  8
L-ZISSEN
100
AcDbLine
 10
189.8421548520803
 20
-4583.824768246611
 30
0.0
 11
187.9314128520802
 21
-4584.274111246612
 31
0.0
  0
LINE
  5
20E
330
2
100
AcDbEntity
  8
L-ZISSEN
100
AcDbLine
 10
186.5988308520803
 20
-4517.672918246613
 30
0.0
 11
186.5988308520803
 21
-4513.172918246606
 31
0.0
  0
LINE
  5
20F
330
2
100
AcDbEntity
  8
L-ZISSEN
100
AcDbLine
 10
187.3488308520805
 20
-4549.822918246603
 30
0.0
 11
187.3488308520805
 21
-4527.322918246611
 31
0.0
  0
LINE
  5
210
330
2
100
AcDbEntity
  8
L-ZISSEN
100
AcDbLine
 10
187.3488308520805
 20
-4527.322918246611
 30
0.0
 11
193.8488308520804
 21
-4520.822918246592
 31
0.0
  0
LINE
  5
211
330
2
100
AcDbEntity
  8
L-ZISSEN
100
AcDbLine
 10
186.5988308520803
 20
-4513.172918246606
 30
0.0
 11
211.5988308520804
 21
-4513.172918246606
 31
0.0
  0
LINE
  5
212
330
2
100
AcDbEntity
  8
L-ZISSEN
100
AcDbLine
 10
197.0488308520804
 20
-4513.172918246606
 30
0.0
 11
187.7488308520804
 21
-4513.172918246606
 31
0.0
  0
LINE
  5
213
330
2
100
AcDbEntity
  8
L-ZISSEN
100
AcDbLine
 10
197.0488308520804
 20
-4513.172918246606
 30
0.0
 11
187.7488308520804
 21
-4513.172918246606
 31
0.0
  0
LINE
  5
214
330
2
100
AcDbEntity
  8
L-ZISSEN
100
AcDbLine
 10
187.3488308520805
 20
-4549.822918246603
 30
0.0
 11
193.8488308520804
 21
-4556.322918246598
 31
0.0
  0
LINE
  5
215
330
2
100
AcDbEntity
  8
L-ZISSEN
100
AcDbLine
 10
187.9314128520802
 20
-4584.274111246612
 30
0.0
 11
186.0791988520803
 21
-4584.418885246607
 31
0.0
  0
LINE
  5
216
330
2
100
AcDbEntity
  8
L-ZISSEN
100
AcDbLine
 10
220.0988308520804
 20
-4523.650319563106
 30
0.0
 11
222.0988308520804
 21
-4523.650319563106
 31
0.0
  0
TEXT
  5
217
330
2
100
AcDbEntity
  8
L-ZISSEN
100
AcDbText
 10
224.0988308520804
 20
-4525.900319563106
 30
0.0
 40
4.5
  1
P.P
100
AcDbText
  0
ARC
  5
218
330
2
100
AcDbEntity
  8
L-ZISSEN
100
AcDbCircle
 10
238.2812288520803
 20
-4514.672918246609
 30
0.0
 40
1.5
100
AcDbArc
 50
45.00000000000489
 51
90.0
  0
LINE
  5
219
330
2
100
AcDbEntity
  8
L-ZISSEN
100
AcDbLine
 10
239.3418888520802
 20
-4513.612258246612
 30
0.0
 11
240.5095448520803
 21
-4514.779914246605
 31
0.0
  0
LINE
  5
21A
330
2
100
AcDbEntity
  8
L-ZISSEN
100
AcDbLine
 10
238.2812288520803
 20
-4513.172918246606
 30
0.0
 11
231.7964498520804
 21
-4513.172918246606
 31
0.0
  0
LINE
  5
21B
330
2
100
AcDbEntity
  8
L-ZISSEN
100
AcDbLine
 10
223.5988308520802
 20
-4517.672918246613
 30
0.0
 11
223.5988308520802
 21
-4513.172918246606
 31
0.0
  0
LINE
  5
21C
330
2
100
AcDbEntity
  8
L-ZISSEN
100
AcDbLine
 10
231.7964498520804
 20
-4513.172918246606
 30
0.0
 11
223.5988308520802
 21
-4513.172918246606
 31
0.0
  0
ARC
  5
21D
330
2
100
AcDbEntity
  8
L-ZISSEN
100
AcDbCircle
 10
239.4488848520803
 20
-4515.840574246602
 30
0.0
 40
1.5
100
AcDbArc
 50
0.9999999999757248
 51
45.00000000000489
  0
LINE
  5
21E
330
2
100
AcDbEntity
  8
L-ZISSEN
100
AcDbLine
 10
234.1993808520804
 20
-4581.372918246608
 30
0.0
 11
231.1534138520802
 21
-4584.418885246607
 31
0.0
  0
LINE
  5
21F
330
2
100
AcDbEntity
  8
L-ZISSEN
100
AcDbLine
 10
224.1195618520801
 20
-4584.418885246607
 30
0.0
 11
222.2673418520802
 21
-4584.274110246609
 31
0.0
  0
LINE
  5
220
330
2
100
AcDbEntity
  8
L-ZISSEN
100
AcDbLine
 10
220.3565668520805
 20
-4583.824756246595
 30
0.0
 11
218.4113328520802
 21
-4583.067541246601
 31
0.0
  0
LINE
  5
221
330
2
100
AcDbEntity
  8
L-ZISSEN
100
AcDbLine
 10
222.2673418520802
 20
-4584.274110246609
 30
0.0
 11
220.3565668520805
 21
-4583.824756246595
 31
0.0
  0
LINE
  5
222
330
2
100
AcDbEntity
  8
L-ZISSEN
100
AcDbLine
 10
224.1195618520801
 20
-4584.418885246607
 30
0.0
 11
231.1534138520802
 21
-4584.418885246607
 31
0.0
  0
ARC
  5
223
330
2
100
AcDbEntity
  8
L-ZISSEN
100
AcDbCircle
 10
239.1247848520803
 20
-4579.872918246606
 30
0.0
 40
1.5
100
AcDbArc
 50
270.0
 51
359.0000000000242
  0
LINE
  5
224
330
2
100
AcDbEntity
  8
L-ZISSEN
100
AcDbLine
 10
240.6245568520802
 20
-4579.899097246601
 30
0.0
 11
241.3010938520804
 21
-4541.140331246601
 31
0.0
  0
LINE
  5
225
330
2
100
AcDbEntity
  8
L-ZISSEN
100
AcDbLine
 10
222.8488308520803
 20
-4549.822918246603
 30
0.0
 11
222.8488308520803
 21
-4527.322918246611
 31
0.0
  0
LINE
  5
226
330
2
100
AcDbEntity
  8
L-ZISSEN
100
AcDbLine
 10
240.9486558520804
 20
-4515.81439624661
 30
0.0
 11
241.3010938520804
 21
-4541.140331246601
 31
0.0
  0
LINE
  5
227
330
2
100
AcDbEntity
  8
L-ZISSEN
100
AcDbLine
 10
216.4433828520804
 20
-4582.016497246612
 30
0.0
 11
213.5439198520801
 21
-4582.9709102466
 31
0.0
  0
LINE
  5
228
330
2
100
AcDbEntity
  8
L-ZISSEN
100
AcDbLine
 10
216.3488308520804
 20
-4520.822918246592
 30
0.0
 11
222.8488308520803
 21
-4527.322918246611
 31
0.0
  0
LINE
  5
229
330
2
100
AcDbEntity
  8
L-ZISSEN
100
AcDbLine
 10
216.3488308520804
 20
-4556.322918246598
 30
0.0
 11
222.8488308520803
 21
-4549.822918246603
 31
0.0
  0
LINE
  5
22A
330
2
100
AcDbEntity
  8
L-ZISSEN
100
AcDbLine
 10
218.4113328520802
 20
-4583.067541246601
 30
0.0
 11
216.4433828520804
 21
-4582.016497246612
 31
0.0
  0
LINE
  5
22B
330
2
100
AcDbEntity
  8
L-ZISSEN
100
AcDbLine
 10
221.8488308520802
 20
-4411.972918246595
 30
0.0
 11
205.0988308520804
 21
-4411.972918246595
 31
0.0
  0
LINE
  5
22C
330
2
100
AcDbEntity
  8
L-ZISSEN
100
AcDbLine
 10
228.7916608520803
 20
-4507.172918246597
 30
0.0
 11
210.0988308520803
 21
-4507.172918246597
 31
0.0
  0
LINE
  5
22D
330
2
100
AcDbEntity
  8
L-ZISSEN
100
AcDbLine
 10
205.0988308520804
 20
-4494.172918246605
 30
0.0
 11
226.5682038520802
 21
-4494.172918246605
 31
0.0
  0
LINE
  5
22E
330
2
100
AcDbEntity
  8
L-ZISSEN
100
AcDbLine
 10
208.5213348520803
 20
-4461.972918246595
 30
0.0
 11
225.7141308520802
 21
-4461.972918246595
 31
0.0
  0
LINE
  5
22F
330
2
100
AcDbEntity
  8
L-ZISSEN
100
AcDbLine
 10
225.9109368520802
 20
-4469.072918246596
 30
0.0
 11
184.2867248520802
 21
-4469.072918246596
 31
0.0
  0
LINE
  5
230
330
2
100
AcDbEntity
  8
L-ZISSEN
100
AcDbLine
 10
225.8585648520802
 20
-4467.072918246608
 30
0.0
 11
184.3390968520802
 21
-4467.072918246608
 31
0.0
  0
LINE
  5
231
330
2
100
AcDbEntity
  8
L-ZISSEN
100
AcDbLine
 10
188.3488308520802
 20
-4411.972918246595
 30
0.0
 11
205.0988308520804
 21
-4411.972918246595
 31
0.0
  0
LINE
  5
232
330
2
100
AcDbEntity
  8
L-ZISSEN
100
AcDbLine
 10
208.0931758520804
 20
-4507.172918246597
 30
0.0
 11
208.0931758520804
 21
-4494.172918246605
 31
0.0
  0
LINE
  5
233
330
2
100
AcDbEntity
  8
L-ZISSEN
100
AcDbLine
 10
202.1044858520804
 20
-4507.172918246597
 30
0.0
 11
202.1044858520804
 21
-4494.172918246605
 31
0.0
  0
LINE
  5
234
330
2
100
AcDbEntity
  8
L-ZISSEN
100
AcDbLine
 10
208.5213348520803
 20
-4461.972918246595
 30
0.0
 11
184.4726448520804
 21
-4461.972918246595
 31
0.0
  0
LINE
  5
235
330
2
100
AcDbEntity
  8
L-ZISSEN
100
AcDbLine
 10
228.0988308520802
 20
-4458.924158246601
 30
0.0
 11
228.4301408520803
 21
-4458.924158246601
 31
0.0
  0
ARC
  5
236
330
2
100
AcDbEntity
  8
L-ZISSEN
100
AcDbCircle
 10
221.8488308520802
 20
-4418.9729182466
 30
0.0
 40
7.0
100
AcDbArc
 50
0.0
 51
90.0
  0
LINE
  5
237
330
2
100
AcDbEntity
  8
L-ZISSEN
100
AcDbLine
 10
228.4301408520803
 20
-4423.972918246593
 30
0.0
 11
228.84883085208
 21
-4423.972918246593
 31
0.0
  0
LINE
  5
238
330
2
100
AcDbEntity
  8
L-ZISSEN
100
AcDbLine
 10
228.84883085208
 20
-4423.972918246593
 30
0.0
 11
228.84883085208
 21
-4418.9729182466
 31
0.0
  0
LINE
  5
239
330
2
100
AcDbEntity
  8
L-ZISSEN
100
AcDbLine
 10
228.0988308520802
 20
-4461.972918246595
 30
0.0
 11
228.0988308520802
 21
-4458.924158246601
 31
0.0
  0
LINE
  5
23A
330
2
100
AcDbEntity
  8
L-ZISSEN
100
AcDbLine
 10
225.7141308520802
 20
-4461.972918246595
 30
0.0
 11
228.0988308520802
 21
-4461.972918246595
 31
0.0
  0
LINE
  5
23B
330
2
100
AcDbEntity
  8
L-ZISSEN
100
AcDbLine
 10
230.2862478520804
 20
-4495.426718246601
 30
0.0
 11
228.7916608520803
 21
-4496.289618246605
 31
0.0
  0
ARC
  5
23C
330
2
100
AcDbEntity
  8
L-ZISSEN
100
AcDbCircle
 10
230.1736638520804
 20
-4495.231718246612
 30
0.0
 40
0.225167
100
AcDbArc
 50
300.0000000000103
 51
59.99999999998969
  0
ARC
  5
23D
330
2
100
AcDbEntity
  8
L-ZISSEN
100
AcDbCircle
 10
230.1736638520804
 20
-4497.348418246613
 30
0.0
 40
0.225167
100
AcDbArc
 50
300.0000000000103
 51
59.99999999998969
  0
LINE
  5
23E
330
2
100
AcDbEntity
  8
L-ZISSEN
100
AcDbLine
 10
230.2862478520804
 20
-4497.543418246602
 30
0.0
 11
228.7916608520803
 21
-4498.406318246606
 31
0.0
  0
LINE
  5
23F
330
2
100
AcDbEntity
  8
L-ZISSEN
100
AcDbLine
 10
230.2862478520804
 20
-4497.153418246599
 30
0.0
 11
228.7901018520802
 21
-4496.289618246605
 31
0.0
  0
LINE
  5
240
330
2
100
AcDbEntity
  8
L-ZISSEN
100
AcDbLine
 10
230.2862478520804
 20
-4495.036718246599
 30
0.0
 11
228.7901018520802
 21
-4494.172918246605
 31
0.0
  0
LINE
  5
241
330
2
100
AcDbEntity
  8
L-ZISSEN
100
AcDbLine
 10
230.2862478520804
 20
-4503.503518246602
 30
0.0
 11
228.7901018520802
 21
-4502.639718246607
 31
0.0
  0
ARC
  5
242
330
2
100
AcDbEntity
  8
L-ZISSEN
100
AcDbCircle
 10
230.1736638520804
 20
-4503.698518246614
 30
0.0
 40
0.225167
100
AcDbArc
 50
300.0000000000103
 51
59.99999999998969
  0
LINE
  5
243
330
2
100
AcDbEntity
  8
L-ZISSEN
100
AcDbLine
 10
230.2862478520804
 20
-4503.893518246604
 30
0.0
 11
228.7916608520803
 21
-4504.756418246607
 31
0.0
  0
ARC
  5
244
330
2
100
AcDbEntity
  8
L-ZISSEN
100
AcDbCircle
 10
230.1736638520804
 20
-4505.815218246614
 30
0.0
 40
0.225167
100
AcDbArc
 50
300.0000000000103
 51
59.99999999998969
  0
LINE
  5
245
330
2
100
AcDbEntity
  8
L-ZISSEN
100
AcDbLine
 10
230.2862478520804
 20
-4506.010218246604
 30
0.0
 11
228.7916608520803
 21
-4506.873118246608
 31
0.0
  0
LINE
  5
246
330
2
100
AcDbEntity
  8
L-ZISSEN
100
AcDbLine
 10
230.2862478520804
 20
-4505.620218246602
 30
0.0
 11
228.7901018520802
 21
-4504.756418246607
 31
0.0
  0
LINE
  5
247
330
2
100
AcDbEntity
  8
L-ZISSEN
100
AcDbLine
 10
228.7916608520803
 20
-4506.873118246608
 30
0.0
 11
228.7916608520803
 21
-4507.172918246597
 31
0.0
  0
LINE
  5
248
330
2
100
AcDbEntity
  8
L-ZISSEN
100
AcDbLine
 10
231.5869248520803
 20
-4507.172918246597
 30
0.0
 11
228.7916608520803
 21
-4507.172918246597
 31
0.0
  0
ARC
  5
249
330
2
100
AcDbEntity
  8
L-ZISSEN
100
AcDbCircle
 10
230.1736638520804
 20
-4499.465118246614
 30
0.0
 40
0.225167
100
AcDbArc
 50
300.0000000000103
 51
59.99999999998969
  0
LINE
  5
24A
330
2
100
AcDbEntity
  8
L-ZISSEN
100
AcDbLine
 10
230.2862478520804
 20
-4499.660118246603
 30
0.0
 11
228.7916608520803
 21
-4500.523018246606
 31
0.0
  0
ARC
  5
24B
330
2
100
AcDbEntity
  8
L-ZISSEN
100
AcDbCircle
 10
230.1736638520804
 20
-4501.581818246614
 30
0.0
 40
0.225167
100
AcDbArc
 50
300.0000000000103
 51
59.99999999998969
  0
LINE
  5
24C
330
2
100
AcDbEntity
  8
L-ZISSEN
100
AcDbLine
 10
230.2862478520804
 20
-4501.386818246601
 30
0.0
 11
228.7901018520802
 21
-4500.523018246606
 31
0.0
  0
LINE
  5
24D
330
2
100
AcDbEntity
  8
L-ZISSEN
100
AcDbLine
 10
230.2862478520804
 20
-4501.776818246603
 30
0.0
 11
228.7916608520803
 21
-4502.639718246607
 31
0.0
  0
LINE
  5
24E
330
2
100
AcDbEntity
  8
L-ZISSEN
100
AcDbLine
 10
230.2862478520804
 20
-4499.270118246601
 30
0.0
 11
228.7901018520802
 21
-4498.406318246606
 31
0.0
  0
LINE
  5
24F
330
2
100
AcDbEntity
  8
L-ZISSEN
100
AcDbLine
 10
226.5682038520802
 20
-4494.172918246605
 30
0.0
 11
228.7901018520802
 21
-4494.172918246605
 31
0.0
  0
LINE
  5
250
330
2
100
AcDbEntity
  8
L-ZISSEN
100
AcDbLine
 10
225.7250165054687
 20
-4461.972918246595
 30
0.0
 11
226.5682038520802
 21
-4494.172918246605
 31
0.0
  0
LINE
  5
251
330
2
100
AcDbEntity
  8
L-ZISSEN
100
AcDbLine
 10
228.4301408520803
 20
-4458.924158246601
 30
0.0
 11
228.4301408520803
 21
-4423.972918246593
 31
0.0
  0
LINE
  5
252
330
2
100
AcDbEntity
  8
L-ZISSEN
100
AcDbLine
 10
204.8342890420178
 20
-4310.281666301567
 30
0.0
 11
218.4200754796447
 21
-4296.695879863941
 31
0.0
  0
LINE
  5
253
330
2
100
AcDbEntity
  8
L-ZISSEN
100
AcDbLine
 10
203.5994750903267
 20
-4277.298879863947
 30
0.0
 11
225.4464750903265
 21
-4277.298879863947
 31
0.0
  0
LINE
  5
254
330
2
100
AcDbEntity
  8
L-ZISSEN
100
AcDbLine
 10
221.3494750903266
 20
-4271.695879863949
 30
0.0
 11
203.5994750903267
 21
-4271.695879863949
 31
0.0
  0
LINE
  5
255
330
2
100
AcDbEntity
  8
L-ZISSEN
100
AcDbLine
 10
203.5994750903267
 20
-4346.092879863935
 30
0.0
 11
225.4464750903265
 21
-4346.092879863935
 31
0.0
  0
LINE
  5
256
330
2
100
AcDbEntity
  8
L-ZISSEN
100
AcDbLine
 10
221.3494750903266
 20
-4351.695879863931
 30
0.0
 11
203.5994750903267
 21
-4351.695879863931
 31
0.0
  0
SOLID
  5
257
330
2
100
AcDbEntity
  8
L-ZISSEN
100
AcDbTrace
 10
205.0699913024132
 20
-4310.517368561963
 30
0.0
 11
204.5985867816222
 21
-4310.045964041171
 31
0.0
 12
203.4200754796446
 22
-4311.695879863941
 32
0.0
 13
203.4200754796446
 23
-4311.695879863941
 33
0.0
  0
POINT
  5
258
330
2
100
AcDbEntity
  8
L-ZISSEN
100
AcDbPoint
 10
203.5994750903267
 20
-4311.695879863941
 30
0.0
  0
LINE
  5
259
330
2
100
AcDbEntity
  8
L-ZISSEN
100
AcDbLine
 10
188.4994750903265
 20
-4275.225857863942
 30
0.0
 11
188.4994750903265
 21
-4277.298879863947
 31
0.0
  0
LINE
  5
25A
330
2
100
AcDbEntity
  8
L-ZISSEN
100
AcDbLine
 10
188.4994750903265
 20
-4348.165901863938
 30
0.0
 11
188.4994750903265
 21
-4346.092879863935
 31
0.0
  0
LINE
  5
25B
330
2
100
AcDbEntity
  8
L-TYUSIN
100
AcDbLine
 10
203.5994750903267
 20
-4254.173179594095
 30
0.0
 11
203.5994750903267
 21
-4361.054883165203
 31
0.0
  0
LINE
  5
25C
330
2
100
AcDbEntity
  8
L-ZISSEN
100
AcDbLine
 10
185.8494750903267
 20
-4271.695879863949
 30
0.0
 11
185.8494750903267
 21
-4273.695879863938
 31
0.0
  0
LINE
  5
25D
330
2
100
AcDbEntity
  8
L-ZISSEN
100
AcDbLine
 10
185.8494750903267
 20
-4351.695879863931
 30
0.0
 11
185.8494750903267
 21
-4349.695879863943
 31
0.0
  0
LINE
  5
25E
330
2
100
AcDbEntity
  8
L-ZISSEN
100
AcDbLine
 10
185.8494750903267
 20
-4273.695879863938
 30
0.0
 11
188.4994750903265
 21
-4275.225857863942
 31
0.0
  0
LINE
  5
25F
330
2
100
AcDbEntity
  8
L-ZISSEN
100
AcDbLine
 10
185.8494750903267
 20
-4271.695879863949
 30
0.0
 11
203.5994750903267
 21
-4271.695879863949
 31
0.0
  0
LINE
  5
260
330
2
100
AcDbEntity
  8
L-ZISSEN
100
AcDbLine
 10
185.8494750903267
 20
-4349.695879863943
 30
0.0
 11
188.4994750903265
 21
-4348.165901863938
 31
0.0
  0
LINE
  5
261
330
2
100
AcDbEntity
  8
L-ZISSEN
100
AcDbLine
 10
185.8494750903267
 20
-4351.695879863931
 30
0.0
 11
203.5994750903267
 21
-4351.695879863931
 31
0.0
  0
LINE
  5
262
330
2
100
AcDbEntity
  8
L-ZISSEN
100
AcDbLine
 10
218.4200754796447
 20
-4296.695879863941
 30
0.0
 11
220.4200754796447
 21
-4296.695879863941
 31
0.0
  0
TEXT
  5
263
330
2
100
AcDbEntity
  8
L-ZISSEN
100
AcDbText
 10
222.4200754796447
 20
-4298.945879863941
 30
0.0
 40
4.5
  1
P.P
100
AcDbText
  0
LINE
  5
264
330
2
100
AcDbEntity
  8
L-ZISSEN
100
AcDbLine
 10
234.4927800903266
 20
-4291.322379863932
 30
0.0
 11
238.8464750903265
 21
-4291.322379863932
 31
0.0
  0
ARC
  5
265
330
2
100
AcDbEntity
  8
L-ZISSEN
100
AcDbCircle
 10
225.4464750903265
 20
-4278.798879863948
 30
0.0
 40
1.5
100
AcDbArc
 50
0.0
 51
90.0
  0
LINE
  5
266
330
2
100
AcDbEntity
  8
L-ZISSEN
100
AcDbLine
 10
221.3494750903266
 20
-4271.695879863949
 30
0.0
 11
221.3494750903266
 21
-4273.695879863938
 31
0.0
  0
LINE
  5
267
330
2
100
AcDbEntity
  8
L-ZISSEN
100
AcDbLine
 10
218.6994750903267
 20
-4275.225857863942
 30
0.0
 11
218.6994750903267
 21
-4277.298879863947
 31
0.0
  0
LINE
  5
268
330
2
100
AcDbEntity
  8
L-ZISSEN
100
AcDbLine
 10
221.3494750903266
 20
-4273.695879863938
 30
0.0
 11
218.6994750903267
 21
-4275.225857863942
 31
0.0
  0
LINE
  5
269
330
2
100
AcDbEntity
  8
L-ZISSEN
100
AcDbLine
 10
226.9464750903265
 20
-4278.798879863948
 30
0.0
 11
226.9464750903265
 21
-4282.582038863943
 31
0.0
  0
LINE
  5
26A
330
2
100
AcDbEntity
  8
L-ZISSEN
100
AcDbLine
 10
234.4927800903266
 20
-4291.322379863932
 30
0.0
 11
226.9464750903265
 21
-4282.582038863943
 31
0.0
  0
LINE
  5
26B
330
2
100
AcDbEntity
  8
L-ZISSEN
100
AcDbLine
 10
239.7368510903267
 20
-4312.56937986394
 30
0.0
 11
240.3464750903266
 21
-4312.56937986394
 31
0.0
  0
LINE
  5
26C
330
2
100
AcDbEntity
  8
L-ZISSEN
100
AcDbLine
 10
240.3464750903266
 20
-4312.56937986394
 30
0.0
 11
240.3464750903266
 21
-4292.822379863934
 31
0.0
  0
ARC
  5
26D
330
2
100
AcDbEntity
  8
L-ZISSEN
100
AcDbCircle
 10
238.8464750903265
 20
-4292.822379863934
 30
0.0
 40
1.5
100
AcDbArc
 50
0.0
 51
90.0
  0
ARC
  5
26E
330
2
100
AcDbEntity
  8
L-ZISSEN
100
AcDbCircle
 10
238.2446930903267
 20
-4330.224879863946
 30
0.0
 40
1.5
100
AcDbArc
 50
270.0
 51
0.0
  0
LINE
  5
26F
330
2
100
AcDbEntity
  8
L-ZISSEN
100
AcDbLine
 10
234.3153150903265
 20
-4331.724879863948
 30
0.0
 11
238.2446930903267
 21
-4331.724879863948
 31
0.0
  0
LINE
  5
270
330
2
100
AcDbEntity
  8
L-ZISSEN
100
AcDbLine
 10
226.9464750903265
 20
-4344.592879863932
 30
0.0
 11
226.9464750903265
 21
-4340.869895863938
 31
0.0
  0
ARC
  5
271
330
2
100
AcDbEntity
  8
L-ZISSEN
100
AcDbCircle
 10
225.4464750903265
 20
-4344.592879863932
 30
0.0
 40
1.5
100
AcDbArc
 50
270.0
 51
0.0
  0
LINE
  5
272
330
2
100
AcDbEntity
  8
L-ZISSEN
100
AcDbLine
 10
221.3494750903266
 20
-4349.695879863943
 30
0.0
 11
218.6994750903267
 21
-4348.165901863938
 31
0.0
  0
LINE
  5
273
330
2
100
AcDbEntity
  8
L-ZISSEN
100
AcDbLine
 10
221.3494750903266
 20
-4351.695879863931
 30
0.0
 11
221.3494750903266
 21
-4349.695879863943
 31
0.0
  0
LINE
  5
274
330
2
100
AcDbEntity
  8
L-ZISSEN
100
AcDbLine
 10
218.6994750903267
 20
-4348.165901863938
 30
0.0
 11
218.6994750903267
 21
-4346.092879863935
 31
0.0
  0
ARC
  5
275
330
2
100
AcDbEntity
  8
L-ZISSEN
100
AcDbCircle
 10
200.0994750903267
 20
-4311.695879863941
 30
0.0
 40
39.647
100
AcDbArc
 50
312.6214000000043
 51
329.6564829999894
  0
LINE
  5
276
330
2
100
AcDbEntity
  8
L-ZISSEN
100
AcDbLine
 10
239.7446930903267
 20
-4312.56937986394
 30
0.0
 11
239.7446930903267
 21
-4330.224879863946
 31
0.0
  0
TEXT
  5
277
330
2
100
AcDbEntity
  8
L-ZISSEN
100
AcDbText
 10
413.8519327305455
 20
-4371.46681706323
 30
0.0
 40
4.5
  1
10
100
AcDbText
  0
TEXT
  5
278
330
2
100
AcDbEntity
  8
L-ZISSEN
100
AcDbText
 10
413.8519327305455
 20
-4377.716817063229
 30
0.0
 40
4.5
  1
04
100
AcDbText
  0
TEXT
  5
279
330
2
100
AcDbEntity
  8
L-ZISSEN
100
AcDbText
 10
325.1167393533144
 20
-4579.526241954414
 30
0.0
 40
4.5
  1
MODEL NO. : B74G-**T-***-***
100
AcDbText
  0
TEXT
  5
27A
330
2
100
AcDbEntity
  8
L-ZISSEN
100
AcDbText
 10
338.8519327305455
 20
-4375.21681706323
 30
0.0
 40
4.5
  1
MODEL NO. : GAB502  0
100
AcDbText
  0
LINE
  5
27B
330
2
100
AcDbEntity
  8
L-TYUSIN
100
AcDbLine
 10
323.8519327305455
 20
-4350.21681706323
 30
0.0
 11
508.8519327305455
 21
-4350.21681706323
 31
0.0
  0
LINE
  5
27C
330
2
100
AcDbEntity
  8
L-TYUSIN
100
AcDbLine
 10
323.8519327305455
 20
-4543.714311358812
 30
0.0
 11
508.8519327305455
 21
-4543.714311358812
 31
0.0
  0
LINE
  5
27D
330
2
100
AcDbEntity
  8
L-ZISSEN
100
AcDbLine
 10
361.5295812929182
 20
-4503.802603500857
 30
0.0
 11
359.5295812929182
 21
-4503.802603500857
 31
0.0
  0
TEXT
  5
27E
330
2
100
AcDbEntity
  8
L-ZISSEN
100
AcDbText
 10
325.1167393533144
 20
-4569.526241954413
 30
0.0
 40
4.5
  1
T-HANDLE ADJUSTMENT
100
AcDbText
  0
TEXT
  5
27F
330
2
100
AcDbEntity
  8
L-ZISSEN
100
AcDbText
 10
356.8519327305456
 20
-4396.584055063232
 30
0.0
 40
4.5
  1
P.P
100
AcDbText
  0
LINE
  5
280
330
2
100
AcDbEntity
  8
L-ZISSEN
100
AcDbLine
 10
357.8519327305456
 20
-4426.96681706323
 30
0.0
 11
411.8519327305452
 21
-4426.96681706323
 31
0.0
  0
LINE
  5
281
330
2
100
AcDbEntity
  8
L-ZISSEN
100
AcDbLine
 10
357.8519327305456
 20
-4450.46681706323
 30
0.0
 11
411.8519327305452
 21
-4450.46681706323
 31
0.0
  0
CIRCLE
  5
282
330
2
100
AcDbEntity
  8
L-ZISSEN
100
AcDbCircle
 10
384.8519327305455
 20
-4490.216817063231
 30
0.0
 40
27.0
  0
TEXT
  5
283
330
2
100
AcDbEntity
  8
L-ZISSEN
100
AcDbText
 10
348.5295812929182
 20
-4506.052603500857
 30
0.0
 40
4.5
  1
P.P
100
AcDbText
  0
LINE
  5
284
330
2
100
AcDbEntity
  8
L-ZISSEN
100
AcDbLine
 10
357.8519327305456
 20
-4426.96681706323
 30
0.0
 11
357.8519327305456
 21
-4450.46681706323
 31
0.0
  0
LINE
  5
285
330
2
100
AcDbEntity
  8
L-ZISSEN
100
AcDbLine
 10
369.2955835444415
 20
-4474.660467877126
 30
0.0
 11
393.3372141047841
 21
-4498.702098437469
 31
0.0
  0
SOLID
  5
286
330
2
100
AcDbEntity
  8
L-ZISSEN
100
AcDbTrace
 10
373.4654519077765
 20
-4491.395328365208
 30
0.0
 11
373.9368564285675
 21
-4491.866732885999
 31
0.0
 12
375.1153677305451
 22
-4490.216817063231
 32
0.0
 13
375.1153677305451
 23
-4490.216817063231
 33
0.0
  0
SOLID
  5
287
330
2
100
AcDbEntity
  8
L-ZISSEN
100
AcDbTrace
 10
383.1020953714625
 20
-4382.858350102694
 30
0.0
 11
383.5288849712388
 21
-4383.370497622425
 31
0.0
 12
384.8519327305454
 22
-4381.834055063231
 32
0.0
 13
384.8519327305454
 23
-4381.834055063231
 33
0.0
  0
LINE
  5
288
330
2
100
AcDbEntity
  8
L-ZISSEN
100
AcDbLine
 10
369.8519327305456
 20
-4394.334055063231
 30
0.0
 11
367.8519327305456
 21
-4394.334055063231
 31
0.0
  0
LINE
  5
289
330
2
100
AcDbEntity
  8
L-ZISSEN
100
AcDbLine
 10
383.3154901713506
 20
-4383.114423862561
 30
0.0
 11
369.8519327305456
 21
-4394.334055063231
 31
0.0
  0
LINE
  5
28A
330
2
100
AcDbEntity
  8
L-ZISSEN
100
AcDbLine
 10
378.2734327305419
 20
-4426.96681706323
 30
0.0
 11
378.2734327305419
 21
-4412.966817063231
 31
0.0
  0
LINE
  5
28B
330
2
100
AcDbEntity
  8
L-ZISSEN
100
AcDbLine
 10
375.1153677305451
 20
-4490.216817063231
 30
0.0
 11
361.5295812929182
 21
-4503.802603500857
 31
0.0
  0
LINE
  5
28C
330
2
100
AcDbEntity
  8
L-ZISSEN
100
AcDbLine
 10
411.8519327305452
 20
-4426.96681706323
 30
0.0
 11
411.8519327305452
 21
-4450.46681706323
 31
0.0
  0
LINE
  5
28D
330
2
100
AcDbEntity
  8
L-ZISSEN
100
AcDbLine
 10
391.4304327305491
 20
-4426.96681706323
 30
0.0
 11
391.4304327305491
 21
-4412.966817063231
 31
0.0
  0
TEXT
  5
28E
330
2
100
AcDbEntity
  8
L-ZISSEN
100
AcDbText
 10
338.8519327305455
 20
-4365.21681706323
 30
0.0
 40
4.5
  1
PRESSURE GAUGE
100
AcDbText
  0
LINE
  5
28F
330
2
100
AcDbEntity
  8
L-ZISSEN
100
AcDbLine
 10
377.5167714727448
 20
-4289.859452688525
 30
0.0
 11
396.4159374727447
 21
-4289.859452688525
 31
0.0
  0
LINE
  5
290
330
2
100
AcDbEntity
  8
L-ZISSEN
100
AcDbLine
 10
377.5167714727448
 20
-4293.661897688525
 30
0.0
 11
396.4159374727447
 21
-4293.661897688525
 31
0.0
  0
LINE
  5
291
330
2
100
AcDbEntity
  8
L-ZISSEN
100
AcDbLine
 10
381.2529834727448
 20
-4313.961848688525
 30
0.0
 11
392.6797254727448
 21
-4313.961848688525
 31
0.0
  0
LINE
  5
292
330
2
100
AcDbEntity
  8
L-ZISSEN
100
AcDbLine
 10
378.4852489972811
 20
-4289.859452688525
 30
0.0
 11
378.4852489972811
 21
-4289.058183688526
 31
0.0
  0
LINE
  5
293
330
2
100
AcDbEntity
  8
L-ZISSEN
100
AcDbLine
 10
379.0703274727448
 20
-4303.788722688525
 30
0.0
 11
379.0703274727448
 21
-4293.661897688525
 31
0.0
  0
LINE
  5
294
330
2
100
AcDbEntity
  8
L-ZISSEN
100
AcDbLine
 10
377.5167714727448
 20
-4293.661897688525
 30
0.0
 11
377.5167714727448
 21
-4289.859452688525
 31
0.0
  0
LINE
  5
295
330
2
100
AcDbEntity
  8
L-ZISSEN
100
AcDbLine
 10
381.2529834727448
 20
-4307.163072096412
 30
0.0
 11
381.2529834727448
 21
-4313.961848688525
 31
0.0
  0
LINE
  5
296
330
2
100
AcDbEntity
  8
L-ZISSEN
100
AcDbLine
 10
381.2529834727448
 20
-4307.163072096412
 30
0.0
 11
379.0703274727448
 21
-4303.788722688525
 31
0.0
  0
LINE
  5
297
330
2
100
AcDbEntity
  8
L-ZISSEN
100
AcDbLine
 10
415.8157214727447
 20
-4297.061896688526
 30
0.0
 11
415.8157214727447
 21
-4301.911899685478
 31
0.0
  0
LINE
  5
298
330
2
100
AcDbEntity
  8
L-ZISSEN
100
AcDbLine
 10
395.4474599482084
 20
-4289.859452688525
 30
0.0
 11
395.4474599482084
 21
-4289.058183688526
 31
0.0
  0
LINE
  5
299
330
2
100
AcDbEntity
  8
L-ZISSEN
100
AcDbLine
 10
402.214974970924
 20
-4297.061883293458
 30
0.0
 11
402.2149749709239
 21
-4295.761899688526
 31
0.0
  0
LINE
  5
29A
330
2
100
AcDbEntity
  8
L-ZISSEN
100
AcDbLine
 10
402.3358465967199
 20
-4301.911900082911
 30
0.0
 11
402.3358465967199
 21
-4303.788722688525
 31
0.0
  0
LINE
  5
29B
330
2
100
AcDbEntity
  8
L-ZISSEN
100
AcDbLine
 10
394.8623814727448
 20
-4303.788722688525
 30
0.0
 11
394.8623814727448
 21
-4293.661897688525
 31
0.0
  0
LINE
  5
29C
330
2
100
AcDbEntity
  8
L-ZISSEN
100
AcDbLine
 10
402.2149749709239
 20
-4295.761899688526
 30
0.0
 11
394.8623814727448
 21
-4295.761899688526
 31
0.0
  0
LINE
  5
29D
330
2
100
AcDbEntity
  8
L-ZISSEN
100
AcDbLine
 10
394.8623814727448
 20
-4303.788722688525
 30
0.0
 11
402.3358465967199
 21
-4303.788722688525
 31
0.0
  0
LINE
  5
29E
330
2
100
AcDbEntity
  8
L-ZISSEN
100
AcDbLine
 10
396.4159374727447
 20
-4293.661897688525
 30
0.0
 11
396.4159374727447
 21
-4289.859452688525
 31
0.0
  0
LINE
  5
29F
330
2
100
AcDbEntity
  8
L-ZISSEN
100
AcDbLine
 10
402.214974970924
 20
-4297.061883293458
 30
0.0
 11
415.8157214727447
 21
-4297.061896688526
 31
0.0
  0
LINE
  5
2A0
330
2
100
AcDbEntity
  8
L-ZISSEN
100
AcDbLine
 10
415.8157214727447
 20
-4297.061896688526
 30
0.0
 11
402.214974970924
 21
-4297.061883293458
 31
0.0
  0
LINE
  5
2A1
330
2
100
AcDbEntity
  8
L-ZISSEN
100
AcDbLine
 10
402.3358465967199
 20
-4301.911900082911
 30
0.0
 11
415.8157214727447
 21
-4301.911899685478
 31
0.0
  0
LINE
  5
2A2
330
2
100
AcDbEntity
  8
L-ZISSEN
100
AcDbLine
 10
392.6797254727448
 20
-4307.163072096412
 30
0.0
 11
392.6797254727448
 21
-4313.961848688525
 31
0.0
  0
LINE
  5
2A3
330
2
100
AcDbEntity
  8
L-ZISSEN
100
AcDbLine
 10
392.6797254727448
 20
-4307.163072096412
 30
0.0
 11
394.8623814727448
 21
-4303.788722688525
 31
0.0
  0
LINE
  5
2A4
330
2
100
AcDbEntity
  8
L-ZISSEN
100
AcDbLine
 10
388.3805680351177
 20
-4136.347635126152
 30
0.0
 11
401.9663544727446
 21
-4122.761848688525
 31
0.0
  0
SOLID
  5
2A5
330
2
100
AcDbEntity
  8
L-ZISSEN
100
AcDbTrace
 10
388.6162702955131
 20
-4136.583337386547
 30
0.0
 11
388.1448657747221
 21
-4136.111932865757
 31
0.0
 12
386.9663544727446
 22
-4137.761848688525
 32
0.0
 13
386.9663544727446
 23
-4137.761848688525
 33
0.0
  0
TEXT
  5
2A6
330
2
100
AcDbEntity
  8
L-ZISSEN
100
AcDbText
 10
405.9663544727446
 20
-4125.011848688525
 30
0.0
 40
4.5
  1
P.P
100
AcDbText
  0
LINE
  5
2A7
330
2
100
AcDbEntity
  8
L-ZISSEN
100
AcDbLine
 10
401.9663544727446
 20
-4122.761848688525
 30
0.0
 11
403.9663544727446
 21
-4122.761848688525
 31
0.0
  0
LINE
  5
2A8
330
2
100
AcDbEntity
  8
L-ZISSEN
100
AcDbLine
 10
476.2115557174999
 20
-4619.211959094577
 30
0.0
 11
478.2115557174998
 21
-4619.211959094577
 31
0.0
  0
LINE
  5
2A9
330
2
100
AcDbEntity
  8
L-ZISSEN
100
AcDbLine
 10
465.746145004304
 20
-4631.011959094577
 30
0.0
 11
493.1409553281818
 21
-4631.011959094577
 31
0.0
  0
LINE
  5
2AA
330
2
100
AcDbEntity
  8
L-ZISSEN
100
AcDbLine
 10
493.1409553281818
 20
-4637.411959094577
 30
0.0
 11
465.7461450043046
 21
-4637.411959094576
 31
0.0
  0
ARC
  5
2AB
330
2
100
AcDbEntity
  8
L-ZISSEN
100
AcDbCircle
 10
461.2115557174998
 20
-4634.211959094577
 30
0.0
 40
21.46935
100
AcDbArc
 50
8.57185883251024
 51
171.4281411674898
  0
TEXT
  5
2AC
330
2
100
AcDbEntity
  8
L-ZISSEN
100
AcDbText
 10
472.2757789666753
 20
-4512.46681706323
 30
0.0
 40
4.5
  1
P.P
100
AcDbText
  0
LINE
  5
2AD
330
2
100
AcDbEntity
  8
L-ZISSEN
100
AcDbLine
 10
456.8757789666753
 20
-4463.216817063231
 30
0.0
 11
456.8757789666753
 21
-4517.21681706323
 31
0.0
  0
LINE
  5
2AE
330
2
100
AcDbEntity
  8
L-ZISSEN
100
AcDbLine
 10
433.3757789666752
 20
-4463.216817063231
 30
0.0
 11
433.3757789666752
 21
-4517.21681706323
 31
0.0
  0
LINE
  5
2AF
330
2
100
AcDbEntity
  8
L-ZISSEN
100
AcDbLine
 10
456.6769664306951
 20
-4637.411959094576
 30
0.0
 11
429.6409553281818
 21
-4637.411959094577
 31
0.0
  0
LINE
  5
2B0
330
2
100
AcDbEntity
  8
L-ZISSEN
100
AcDbLine
 10
429.6409553281818
 20
-4631.011959094577
 30
0.0
 11
456.6769664306957
 21
-4631.011959094577
 31
0.0
  0
LINE
  5
2B1
330
2
100
AcDbEntity
  8
L-ZISSEN
100
AcDbLine
 10
456.8757789666753
 20
-4517.21681706323
 30
0.0
 11
433.3757789666752
 21
-4517.21681706323
 31
0.0
  0
LINE
  5
2B2
330
2
100
AcDbEntity
  8
L-ZISSEN
100
AcDbLine
 10
429.6409553281818
 20
-4631.011959094577
 30
0.0
 11
429.6409553281818
 21
-4637.411959094577
 31
0.0
  0
LINE
  5
2B3
330
2
100
AcDbEntity
  8
L-ZISSEN
100
AcDbLine
 10
462.625769279873
 20
-4632.797745532204
 30
0.0
 11
476.2115557174999
 21
-4619.211959094577
 31
0.0
  0
SOLID
  5
2B4
330
2
100
AcDbEntity
  8
L-ZISSEN
100
AcDbTrace
 10
462.8614715402684
 20
-4633.033447792598
 30
0.0
 11
462.3900670194774
 21
-4632.562043271808
 31
0.0
 12
461.2115557174998
 22
-4634.211959094577
 32
0.0
 13
461.2115557174998
 23
-4634.211959094577
 33
0.0
  0
CIRCLE
  5
2B5
330
2
100
AcDbEntity
  8
L-ZISSEN
100
AcDbCircle
 10
461.2115557174998
 20
-4634.211959094577
 30
0.0
 40
5.549999999999999
  0
LINE
  5
2B6
330
2
100
AcDbEntity
  8
L-ZISSEN
100
AcDbLine
 10
456.8757789666753
 20
-4463.216817063231
 30
0.0
 11
433.3757789666752
 21
-4463.216817063231
 31
0.0
  0
LINE
  5
2B7
330
2
100
AcDbEntity
  8
L-ZISSEN
100
AcDbLine
 10
456.8757789666753
 20
-4483.638317063227
 30
0.0
 11
470.8757789666752
 21
-4483.638317063227
 31
0.0
  0
LINE
  5
2B8
330
2
100
AcDbEntity
  8
L-ZISSEN
100
AcDbLine
 10
456.8757789666753
 20
-4496.795317063234
 30
0.0
 11
470.8757789666752
 21
-4496.795317063234
 31
0.0
  0
LINE
  5
2B9
330
2
100
AcDbEntity
  8
L-ZISSEN
100
AcDbLine
 10
500.7416436227195
 20
-4491.750112996312
 30
0.0
 11
485.2757789666753
 21
-4510.21681706323
 31
0.0
  0
TEXT
  5
2BA
330
2
100
AcDbEntity
  8
L-ZISSEN
100
AcDbText
 10
480.2115557174999
 20
-4621.461959094577
 30
0.0
 40
4.5
  1
P.P
100
AcDbText
  0
LINE
  5
2BB
330
2
100
AcDbEntity
  8
L-ZISSEN
100
AcDbLine
 10
493.1409553281818
 20
-4631.011959094577
 30
0.0
 11
493.1409553281818
 21
-4637.411959094577
 31
0.0
  0
LINE
  5
2BC
330
2
100
AcDbEntity
  8
L-ZISSEN
100
AcDbLine
 10
485.2757789666753
 20
-4510.21681706323
 30
0.0
 11
483.2757789666754
 21
-4510.21681706323
 31
0.0
  0
SOLID
  5
2BD
330
2
100
AcDbEntity
  8
L-ZISSEN
100
AcDbTrace
 10
500.4860943005393
 20
-4491.536090438986
 30
0.0
 11
500.9971929448998
 21
-4491.964135553637
 31
0.0
 12
502.0257789666752
 22
-4490.21681706323
 32
0.0
 13
502.0257789666752
 23
-4490.21681706323
 33
0.0
  0
LINE
  5
2BE
330
2
100
AcDbEntity
  8
L-ZISSEN
100
AcDbLine
 10
442.1084857173648
 20
-4289.859452688525
 30
0.0
 11
442.1084857173648
 21
-4289.058183688526
 31
0.0
  0
LINE
  5
2BF
330
2
100
AcDbEntity
  8
L-ZISSEN
100
AcDbLine
 10
443.6273802419012
 20
-4297.061883293458
 30
0.0
 11
443.6273802419012
 21
-4301.911900082911
 31
0.0
  0
LINE
  5
2C0
330
2
100
AcDbEntity
  8
L-ZISSEN
100
AcDbLine
 10
439.6273802419012
 20
-4293.661897688525
 30
0.0
 11
439.6273802419012
 21
-4297.061883293458
 31
0.0
  0
LINE
  5
2C1
330
2
100
AcDbEntity
  8
L-ZISSEN
100
AcDbLine
 10
443.0769632419011
 20
-4293.661897688525
 30
0.0
 11
443.0769632419011
 21
-4289.859452688525
 31
0.0
  0
LINE
  5
2C2
330
2
100
AcDbEntity
  8
L-ZISSEN
100
AcDbLine
 10
425.1462747664374
 20
-4289.859452688525
 30
0.0
 11
425.1462747664374
 21
-4289.058183688526
 31
0.0
  0
LINE
  5
2C3
330
2
100
AcDbEntity
  8
L-ZISSEN
100
AcDbLine
 10
427.6273802419011
 20
-4293.661897688525
 30
0.0
 11
427.6273802419011
 21
-4297.061883293458
 31
0.0
  0
LINE
  5
2C4
330
2
100
AcDbEntity
  8
L-ZISSEN
100
AcDbLine
 10
423.6273802419011
 20
-4297.061883293458
 30
0.0
 11
423.6273802419011
 21
-4301.911900082911
 31
0.0
  0
LINE
  5
2C5
330
2
100
AcDbEntity
  8
L-ZISSEN
100
AcDbLine
 10
424.1777972419011
 20
-4293.661897688525
 30
0.0
 11
424.1777972419011
 21
-4289.859452688525
 31
0.0
  0
LINE
  5
2C6
330
2
100
AcDbEntity
  8
L-ZISSEN
100
AcDbLine
 10
443.6273802419012
 20
-4301.911900082911
 30
0.0
 11
423.6273802419011
 21
-4301.911900082911
 31
0.0
  0
LINE
  5
2C7
330
2
100
AcDbEntity
  8
L-ZISSEN
100
AcDbLine
 10
424.1777972419011
 20
-4289.859452688525
 30
0.0
 11
443.0769632419011
 21
-4289.859452688525
 31
0.0
  0
LINE
  5
2C8
330
2
100
AcDbEntity
  8
L-ZISSEN
100
AcDbLine
 10
424.1777972419011
 20
-4293.661897688525
 30
0.0
 11
443.0769632419011
 21
-4293.661897688525
 31
0.0
  0
LINE
  5
2C9
330
2
100
AcDbEntity
  8
L-ZISSEN
100
AcDbLine
 10
443.6273802419012
 20
-4297.061883293458
 30
0.0
 11
423.6273802419011
 21
-4297.061883293458
 31
0.0
  0
LINE
  5
2CA
330
2
100
AcDbEntity
  8
L-ZISSEN
100
AcDbLine
 10
427.6273802419011
 20
-4313.961848688525
 30
0.0
 11
439.6273802419012
 21
-4313.961848688525
 31
0.0
  0
LINE
  5
2CB
330
2
100
AcDbEntity
  8
L-ZISSEN
100
AcDbLine
 10
427.6273802419011
 20
-4301.911900082911
 30
0.0
 11
427.6273802419011
 21
-4313.961848688525
 31
0.0
  0
LINE
  5
2CC
330
2
100
AcDbEntity
  8
L-ZISSEN
100
AcDbLine
 10
439.6273802419012
 20
-4301.911900082911
 30
0.0
 11
439.6273802419012
 21
-4313.961848688525
 31
0.0
  0
LINE
  5
2CD
330
2
100
AcDbEntity
  8
L-ZISSEN
100
AcDbLine
 10
435.0415938042742
 20
-4136.347635126152
 30
0.0
 11
448.6273802419012
 21
-4122.761848688525
 31
0.0
  0
SOLID
  5
2CE
330
2
100
AcDbEntity
  8
L-ZISSEN
100
AcDbTrace
 10
435.2772960646698
 20
-4136.583337386547
 30
0.0
 11
434.8058915438787
 21
-4136.111932865757
 31
0.0
 12
433.6273802419012
 22
-4137.761848688525
 32
0.0
 13
433.6273802419012
 23
-4137.761848688525
 33
0.0
  0
TEXT
  5
2CF
330
2
100
AcDbEntity
  8
L-ZISSEN
100
AcDbText
 10
452.6273802419011
 20
-4125.011848688525
 30
0.0
 40
4.5
  1
P.P
100
AcDbText
  0
LINE
  5
2D0
330
2
100
AcDbEntity
  8
L-ZISSEN
100
AcDbLine
 10
448.6273802419012
 20
-4122.761848688525
 30
0.0
 11
450.6273802419012
 21
-4122.761848688525
 31
0.0
  0
TEXT
  5
2D1
330
2
100
AcDbEntity
  8
L-ZISSEN
100
AcDbText
 10
351.9654831059838
 20
-4094.699160731339
 30
0.0
 40
4.5
  1
MODEL NO. : B74G-***-Q**-***
100
AcDbText
  0
TEXT
  5
2D2
330
2
100
AcDbEntity
  8
L-ZISSEN
100
AcDbText
 10
351.9654831059838
 20
-4084.699160731338
 30
0.0
 40
4.5
  1
MANUAL DRAIN
100
AcDbText
  0
LINE
  5
2D3
330
2
100
AcDbEntity
  8
L-ZISSEN
100
AcDbLine
 10
705.0598327835814
 20
-4426.888287214675
 30
0.0
 11
648.0598327835809
 21
-4426.888287214675
 31
0.0
  0
LINE
  5
2D4
330
2
100
AcDbEntity
  8
L-ZISSEN
100
AcDbLine
 10
676.5598327835812
 20
-4426.888287214675
 30
0.0
 11
645.5598327835812
 21
-4426.888287214675
 31
0.0
  0
LINE
  5
2D5
330
2
100
AcDbEntity
  8
L-ZISSEN
100
AcDbLine
 10
648.0598327835809
 20
-4426.888287214675
 30
0.0
 11
707.5598327835812
 21
-4426.888287214675
 31
0.0
  0
LINE
  5
2D6
330
2
100
AcDbEntity
  8
L-ZISSEN
100
AcDbLine
 10
707.5598327835812
 20
-4435.888287214675
 30
0.0
 11
645.5598327835812
 21
-4435.888287214675
 31
0.0
  0
LINE
  5
2D7
330
2
100
AcDbEntity
  8
L-ZISSEN
100
AcDbLine
 10
642.5598327835812
 20
-4435.888287214675
 30
0.0
 11
676.5598327835812
 21
-4435.888287214675
 31
0.0
  0
TEXT
  5
2D8
330
2
100
AcDbEntity
  8
L-ZISSEN
100
AcDbText
 10
544.5598327835812
 20
-4278.021469459288
 30
0.0
 40
4.5
  1
MOUNTING BRACKET & PANEL NUT
100
AcDbText
  0
LINE
  5
2D9
330
2
100
AcDbEntity
  8
L-ZISSEN
100
AcDbLine
 10
725.559832783581
 20
-4435.888287214675
 30
0.0
 11
642.5598327835812
 21
-4435.888287214675
 31
0.0
  0
LINE
  5
2DA
330
2
100
AcDbEntity
  8
L-ZISSEN
100
AcDbLine
 10
728.5598327835811
 20
-4438.188287214675
 30
0.0
 11
642.5598327835812
 21
-4438.188287214675
 31
0.0
  0
CIRCLE
  5
2DB
330
2
100
AcDbEntity
  8
L-ZISSEN
100
AcDbCircle
 10
589.5598327835812
 20
-4354.688287214675
 30
0.0
 40
29.0
  0
LINE
  5
2DC
330
2
100
AcDbEntity
  8
L-ZISSEN
100
AcDbLine
 10
591.096275342776
 20
-4355.968656014004
 30
0.0
 11
619.5598327835812
 21
-4379.688287214675
 31
0.0
  0
ARC
  5
2DD
330
2
100
AcDbEntity
  8
L-ZISSEN
100
AcDbCircle
 10
589.5598327835812
 20
-4356.688287214676
 30
0.0
 40
31.99999999999994
100
AcDbArc
 50
192.1129986902214
 51
347.8870013097369
  0
LINE
  5
2DE
330
2
100
AcDbEntity
  8
L-ZISSEN
100
AcDbLine
 10
595.5511264114246
 20
-4601.900210813225
 30
0.0
 11
587.5511264114248
 21
-4601.900210813225
 31
0.0
  0
LINE
  5
2DF
330
2
100
AcDbEntity
  8
L-ZISSEN
100
AcDbLine
 10
595.5511264114246
 20
-4551.921158487053
 30
0.0
 11
585.5511264114246
 21
-4551.921158487053
 31
0.0
  0
LINE
  5
2E0
330
2
100
AcDbEntity
  8
L-TYUSIN
100
AcDbLine
 10
584.5511264114247
 20
-4604.400210813224
 30
0.0
 11
643.551126411425
 21
-4604.400210813224
 31
0.0
  0
LINE
  5
2E1
330
2
100
AcDbEntity
  8
L-TYUSIN
100
AcDbLine
 10
580.0511264114247
 20
-4554.421158487054
 30
0.0
 11
648.0511264114251
 21
-4554.421158487054
 31
0.0
  0
LINE
  5
2E2
330
2
100
AcDbEntity
  8
L-ZISSEN
100
AcDbLine
 10
618.0598327835814
 20
-4426.188287214675
 30
0.0
 11
561.0598327835809
 21
-4426.188287214675
 31
0.0
  0
LINE
  5
2E3
330
2
100
AcDbEntity
  8
L-ZISSEN
100
AcDbLine
 10
561.0598327835809
 20
-4426.188287214675
 30
0.0
 11
620.5598327835812
 21
-4426.188287214675
 31
0.0
  0
LINE
  5
2E4
330
2
100
AcDbEntity
  8
L-ZISSEN
100
AcDbLine
 10
620.5598327835812
 20
-4435.188287214675
 30
0.0
 11
558.5598327835811
 21
-4435.188287214675
 31
0.0
  0
LINE
  5
2E5
330
2
100
AcDbEntity
  8
L-ZISSEN
100
AcDbLine
 10
587.5511264114248
 20
-4606.900210813225
 30
0.0
 11
605.5511264114247
 21
-4606.900210813225
 31
0.0
  0
LINE
  5
2E6
330
2
100
AcDbEntity
  8
L-ZISSEN
100
AcDbLine
 10
585.5511264114246
 20
-4556.921158487053
 30
0.0
 11
605.5511264114247
 21
-4556.921158487053
 31
0.0
  0
LINE
  5
2E7
330
2
100
AcDbEntity
  8
L-ZISSEN
100
AcDbLine
 10
614.0511264114247
 20
-4609.400210813224
 30
0.0
 11
577.5511264114247
 21
-4609.400210813224
 31
0.0
  0
LINE
  5
2E8
330
2
100
AcDbEntity
  8
L-ZISSEN
100
AcDbLine
 10
578.8011264114247
 20
-4548.400210813224
 30
0.0
 11
614.0511264114248
 21
-4548.400210813224
 31
0.0
  0
LINE
  5
2E9
330
2
100
AcDbEntity
  8
L-ZISSEN
100
AcDbLine
 10
623.3098327835811
 20
-4400.188287214675
 30
0.0
 11
545.0598327835811
 21
-4400.188287214675
 31
0.0
  0
LINE
  5
2EA
330
2
100
AcDbEntity
  8
L-ZISSEN
100
AcDbLine
 10
590.9740463459542
 20
-4468.274073652303
 30
0.0
 11
604.5598327835811
 21
-4454.688287214675
 31
0.0
  0
LINE
  5
2EB
330
2
100
AcDbEntity
  8
L-ZISSEN
100
AcDbLine
 10
634.0598327835813
 20
-4438.188287214675
 30
0.0
 11
545.0598327835812
 21
-4438.188287214675
 31
0.0
  0
LINE
  5
2EC
330
2
100
AcDbEntity
  8
L-ZISSEN
100
AcDbLine
 10
634.0598327835813
 20
-4435.188287214675
 30
0.0
 11
545.0598327835812
 21
-4435.188287214675
 31
0.0
  0
TEXT
  5
2ED
330
2
100
AcDbEntity
  8
L-ZISSEN
100
AcDbText
 10
560.3396980098075
 20
-4517.29094750227
 30
0.0
 40
4.5
  1
MOUNTING BRACKET 
100
AcDbText
  0
TEXT
  5
2EE
330
2
100
AcDbEntity
  8
L-ZISSEN
100
AcDbText
 10
560.3396980098075
 20
-4527.29094750227
 30
0.0
 40
4.5
  1
MODEL NO. : 4324-50
100
AcDbText
  0
LINE
  5
2EF
330
2
100
AcDbEntity
  8
L-ZISSEN
100
AcDbLine
 10
577.5511264114247
 20
-4609.400210813224
 30
0.0
 11
577.5511264114247
 21
-4574.400210813224
 31
0.0
  0
LINE
  5
2F0
330
2
100
AcDbEntity
  8
L-ZISSEN
100
AcDbLine
 10
578.8011264114247
 20
-4574.400210813224
 30
0.0
 11
578.8011264114247
 21
-4548.400210813224
 31
0.0
  0
ARC
  5
2F1
330
2
100
AcDbEntity
  8
L-ZISSEN
100
AcDbCircle
 10
585.5511264114246
 20
-4554.421158487054
 30
0.0
 40
2.5
100
AcDbArc
 50
90.0
 51
270.0
  0
LINE
  5
2F2
330
2
100
AcDbEntity
  8
L-ZISSEN
100
AcDbLine
 10
587.5511264114248
 20
-4574.400210813224
 30
0.0
 11
587.5511264114248
 21
-4609.400210813224
 31
0.0
  0
LINE
  5
2F3
330
2
100
AcDbEntity
  8
L-ZISSEN
100
AcDbLine
 10
577.5511264114247
 20
-4574.400210813224
 30
0.0
 11
587.5511264114248
 21
-4574.400210813224
 31
0.0
  0
CIRCLE
  5
2F4
330
2
100
AcDbEntity
  8
L-ZISSEN
100
AcDbCircle
 10
582.5511264114247
 20
-4580.400210813224
 30
0.0
 40
2.0
  0
LINE
  5
2F5
330
2
100
AcDbEntity
  8
L-ZISSEN
100
AcDbLine
 10
589.5598327835812
 20
-4426.188287214675
 30
0.0
 11
558.5598327835811
 21
-4426.188287214675
 31
0.0
  0
LINE
  5
2F6
330
2
100
AcDbEntity
  8
L-ZISSEN
100
AcDbLine
 10
561.5598327835813
 20
-4411.688287214675
 30
0.0
 11
573.5598327835813
 21
-4411.688287214675
 31
0.0
  0
LINE
  5
2F7
330
2
100
AcDbEntity
  8
L-ZISSEN
100
AcDbLine
 10
561.5598327835813
 20
-4418.688287214675
 30
0.0
 11
573.5598327835813
 21
-4418.688287214675
 31
0.0
  0
LINE
  5
2F8
330
2
100
AcDbEntity
  8
L-TYUSIN
100
AcDbLine
 10
546.5598327835813
 20
-4415.188287214674
 30
0.0
 11
576.5598327835813
 21
-4415.188287214674
 31
0.0
  0
LINE
  5
2F9
330
2
100
AcDbEntity
  8
L-ZISSEN
100
AcDbLine
 10
558.5598327835811
 20
-4426.188287214675
 30
0.0
 11
558.5598327835811
 21
-4435.188287214675
 31
0.0
  0
ARC
  5
2FA
330
2
100
AcDbEntity
  8
L-ZISSEN
100
AcDbCircle
 10
549.5598327835813
 20
-4415.188287214674
 30
0.0
 40
3.5
100
AcDbArc
 50
90.0
 51
270.0
  0
LINE
  5
2FB
330
2
100
AcDbEntity
  8
L-ZISSEN
100
AcDbLine
 10
561.5598327835813
 20
-4418.688287214675
 30
0.0
 11
549.5598327835813
 21
-4418.688287214675
 31
0.0
  0
LINE
  5
2FC
330
2
100
AcDbEntity
  8
L-ZISSEN
100
AcDbLine
 10
561.5598327835813
 20
-4411.688287214675
 30
0.0
 11
549.5598327835813
 21
-4411.688287214675
 31
0.0
  0
LINE
  5
2FD
330
2
100
AcDbEntity
  8
L-ZISSEN
100
AcDbLine
 10
545.0598327835811
 20
-4400.188287214675
 30
0.0
 11
545.0598327835812
 21
-4438.188287214675
 31
0.0
  0
LINE
  5
2FE
330
2
100
AcDbEntity
  8
L-TYUSIN
100
AcDbLine
 10
561.5598327835813
 20
-4405.188287214675
 30
0.0
 11
561.5598327835813
 21
-4425.188287214675
 31
0.0
  0
SOLID
  5
2FF
330
2
100
AcDbEntity
  8
L-ZISSEN
100
AcDbTrace
 10
591.2097486063498
 20
-4468.509775912698
 30
0.0
 11
590.7383440855587
 21
-4468.038371391907
 31
0.0
 12
589.5598327835812
 22
-4469.688287214675
 32
0.0
 13
589.5598327835812
 23
-4469.688287214675
 33
0.0
  0
ARC
  5
300
330
2
100
AcDbEntity
  8
L-ZISSEN
100
AcDbCircle
 10
573.5598327835813
 20
-4415.188287214674
 30
0.0
 40
3.5
100
AcDbArc
 50
270.0
 51
90.0
  0
LINE
  5
301
330
2
100
AcDbEntity
  8
L-ZISSEN
100
AcDbLine
 10
615.4653399737981
 20
-4582.985997250851
 30
0.0
 11
629.051126411425
 21
-4569.400210813224
 31
0.0
  0
LINE
  5
302
330
2
100
AcDbEntity
  8
L-ZISSEN
100
AcDbLine
 10
642.5511264114251
 20
-4556.921158487053
 30
0.0
 11
622.5511264114251
 21
-4556.921158487053
 31
0.0
  0
LINE
  5
303
330
2
100
AcDbEntity
  8
L-ZISSEN
100
AcDbLine
 10
622.5511264114251
 20
-4551.921158487053
 30
0.0
 11
632.5511264114251
 21
-4551.921158487053
 31
0.0
  0
LINE
  5
304
330
2
100
AcDbEntity
  8
L-ZISSEN
100
AcDbLine
 10
622.5511264114251
 20
-4601.900210813225
 30
0.0
 11
632.5511264114251
 21
-4601.900210813225
 31
0.0
  0
LINE
  5
305
330
2
100
AcDbEntity
  8
L-ZISSEN
100
AcDbLine
 10
640.551126411425
 20
-4606.900210813225
 30
0.0
 11
622.5511264114251
 21
-4606.900210813225
 31
0.0
  0
LINE
  5
306
330
2
100
AcDbEntity
  8
L-ZISSEN
100
AcDbLine
 10
649.301126411425
 20
-4548.400210813224
 30
0.0
 11
614.0511264114248
 21
-4548.400210813224
 31
0.0
  0
LINE
  5
307
330
2
100
AcDbEntity
  8
L-ZISSEN
100
AcDbLine
 10
614.051126411425
 20
-4609.400210813224
 30
0.0
 11
650.5511264114249
 21
-4609.400210813224
 31
0.0
  0
SOLID
  5
308
330
2
100
AcDbEntity
  8
L-ZISSEN
100
AcDbTrace
 10
615.7010422341937
 20
-4583.221699511247
 30
0.0
 11
615.2296377134026
 21
-4582.750294990455
 31
0.0
 12
614.0511264114251
 22
-4584.400210813224
 32
0.0
 13
614.0511264114251
 23
-4584.400210813224
 33
0.0
  0
ARC
  5
309
330
2
100
AcDbEntity
  8
L-ZISSEN
100
AcDbCircle
 10
605.5511264114247
 20
-4604.400210813224
 30
0.0
 40
2.5
100
AcDbArc
 50
270.0
 51
90.0
  0
ARC
  5
30A
330
2
100
AcDbEntity
  8
L-ZISSEN
100
AcDbCircle
 10
605.5511264114247
 20
-4554.421158487054
 30
0.0
 40
2.5
100
AcDbArc
 50
270.0
 51
90.0
  0
ARC
  5
30B
330
2
100
AcDbEntity
  8
L-ZISSEN
100
AcDbCircle
 10
622.5511264114251
 20
-4554.421158487054
 30
0.0
 40
2.5
100
AcDbArc
 50
90.0
 51
270.0
  0
ARC
  5
30C
330
2
100
AcDbEntity
  8
L-ZISSEN
100
AcDbCircle
 10
622.5511264114251
 20
-4604.400210813224
 30
0.0
 40
2.5
100
AcDbArc
 50
90.0
 51
270.0
  0
LINE
  5
30D
330
2
100
AcDbEntity
  8
L-ZISSEN
100
AcDbLine
 10
605.5511264114247
 20
-4601.900210813225
 30
0.0
 11
595.5511264114246
 21
-4601.900210813225
 31
0.0
  0
LINE
  5
30E
330
2
100
AcDbEntity
  8
L-ZISSEN
100
AcDbLine
 10
605.5511264114247
 20
-4551.921158487053
 30
0.0
 11
595.5511264114246
 21
-4551.921158487053
 31
0.0
  0
TEXT
  5
30F
330
2
100
AcDbEntity
  8
L-ZISSEN
100
AcDbText
 10
633.051126411425
 20
-4571.650210813224
 30
0.0
 40
4.5
  1
P.P
100
AcDbText
  0
LINE
  5
310
330
2
100
AcDbEntity
  8
L-ZISSEN
100
AcDbLine
 10
629.0506264114251
 20
-4569.400210813224
 30
0.0
 11
631.0506264114251
 21
-4569.400210813224
 31
0.0
  0
CIRCLE
  5
311
330
2
100
AcDbEntity
  8
L-ZISSEN
100
AcDbCircle
 10
645.551126411425
 20
-4580.400210813224
 30
0.0
 40
2.0
  0
LINE
  5
312
330
2
100
AcDbEntity
  8
L-ZISSEN
100
AcDbLine
 10
640.551126411425
 20
-4574.400210813224
 30
0.0
 11
640.551126411425
 21
-4609.400210813224
 31
0.0
  0
LINE
  5
313
330
2
100
AcDbEntity
  8
L-ZISSEN
100
AcDbLine
 10
650.5511264114249
 20
-4574.400210813224
 30
0.0
 11
640.551126411425
 21
-4574.400210813224
 31
0.0
  0
LINE
  5
314
330
2
100
AcDbEntity
  8
L-ZISSEN
100
AcDbLine
 10
650.5511264114249
 20
-4609.400210813224
 30
0.0
 11
650.5511264114249
 21
-4574.400210813224
 31
0.0
  0
ARC
  5
315
330
2
100
AcDbEntity
  8
L-ZISSEN
100
AcDbCircle
 10
642.5511264114251
 20
-4554.421158487054
 30
0.0
 40
2.5
100
AcDbArc
 50
270.0
 51
90.0
  0
LINE
  5
316
330
2
100
AcDbEntity
  8
L-ZISSEN
100
AcDbLine
 10
632.5511264114251
 20
-4551.921158487053
 30
0.0
 11
642.5511264114251
 21
-4551.921158487053
 31
0.0
  0
LINE
  5
317
330
2
100
AcDbEntity
  8
L-ZISSEN
100
AcDbLine
 10
632.5511264114251
 20
-4601.900210813225
 30
0.0
 11
640.551126411425
 21
-4601.900210813225
 31
0.0
  0
LINE
  5
318
330
2
100
AcDbEntity
  8
L-ZISSEN
100
AcDbLine
 10
649.301126411425
 20
-4574.400210813224
 30
0.0
 11
649.301126411425
 21
-4548.400210813224
 31
0.0
  0
LINE
  5
319
330
2
100
AcDbEntity
  8
L-ZISSEN
100
AcDbLine
 10
617.5598327835812
 20
-4411.688287214675
 30
0.0
 11
629.5598327835811
 21
-4411.688287214675
 31
0.0
  0
LINE
  5
31A
330
2
100
AcDbEntity
  8
L-ZISSEN
100
AcDbLine
 10
617.5598327835812
 20
-4418.688287214675
 30
0.0
 11
629.5598327835811
 21
-4418.688287214675
 31
0.0
  0
LINE
  5
31B
330
2
100
AcDbEntity
  8
L-TYUSIN
100
AcDbLine
 10
632.5598327835812
 20
-4415.188287214674
 30
0.0
 11
602.5598327835812
 21
-4415.188287214674
 31
0.0
  0
LINE
  5
31C
330
2
100
AcDbEntity
  8
L-ZISSEN
100
AcDbLine
 10
620.5598327835812
 20
-4426.188287214675
 30
0.0
 11
620.5598327835812
 21
-4435.188287214675
 31
0.0
  0
LINE
  5
31D
330
2
100
AcDbEntity
  8
L-ZISSEN
100
AcDbLine
 10
617.5598327835812
 20
-4418.688287214675
 30
0.0
 11
605.5598327835812
 21
-4418.688287214675
 31
0.0
  0
ARC
  5
31E
330
2
100
AcDbEntity
  8
L-ZISSEN
100
AcDbCircle
 10
605.5598327835812
 20
-4415.188287214674
 30
0.0
 40
3.5
100
AcDbArc
 50
90.0
 51
270.0
  0
LINE
  5
31F
330
2
100
AcDbEntity
  8
L-ZISSEN
100
AcDbLine
 10
617.5598327835812
 20
-4411.688287214675
 30
0.0
 11
605.5598327835812
 21
-4411.688287214675
 31
0.0
  0
LINE
  5
320
330
2
100
AcDbEntity
  8
L-ZISSEN
100
AcDbLine
 10
619.5598327835812
 20
-4379.688287214675
 30
0.0
 11
621.5598327835812
 21
-4379.688287214675
 31
0.0
  0
TEXT
  5
321
330
2
100
AcDbEntity
  8
L-ZISSEN
100
AcDbText
 10
608.5598327835811
 20
-4456.938287214675
 30
0.0
 40
4.5
  1
P.P
100
AcDbText
  0
LINE
  5
322
330
2
100
AcDbEntity
  8
L-ZISSEN
100
AcDbLine
 10
604.5598327835811
 20
-4454.688287214675
 30
0.0
 11
606.5598327835812
 21
-4454.688287214675
 31
0.0
  0
LINE
  5
323
330
2
100
AcDbEntity
  8
L-TYUSIN
100
AcDbLine
 10
617.5598327835812
 20
-4405.188287214675
 30
0.0
 11
617.5598327835812
 21
-4425.188287214675
 31
0.0
  0
LINE
  5
324
330
2
100
AcDbEntity
  8
L-ZISSEN
100
AcDbLine
 10
645.5598327835812
 20
-4426.888287214675
 30
0.0
 11
645.5598327835812
 21
-4435.888287214675
 31
0.0
  0
ARC
  5
325
330
2
100
AcDbEntity
  8
L-ZISSEN
100
AcDbCircle
 10
629.5598327835811
 20
-4415.188287214674
 30
0.0
 40
3.5
100
AcDbArc
 50
270.0
 51
90.0
  0
LINE
  5
326
330
2
100
AcDbEntity
  8
L-ZISSEN
100
AcDbLine
 10
642.5598327835813
 20
-4435.888287214675
 30
0.0
 11
642.5598327835813
 21
-4438.188287214675
 31
0.0
  0
LINE
  5
327
330
2
100
AcDbEntity
  8
L-ZISSEN
100
AcDbLine
 10
634.0598327835813
 20
-4438.188287214675
 30
0.0
 11
634.0598327835813
 21
-4400.188287214675
 31
0.0
  0
TEXT
  5
328
330
2
100
AcDbEntity
  8
L-ZISSEN
100
AcDbText
 10
623.5598327835812
 20
-4381.938287214675
 30
0.0
 40
4.5
  1
P.P
100
AcDbText
  0
LINE
  5
329
330
2
100
AcDbEntity
  8
L-ZISSEN
100
AcDbLine
 10
634.0598327835813
 20
-4400.188287214675
 30
0.0
 11
623.3098327835811
 21
-4400.188287214675
 31
0.0
  0
LINE
  5
32A
330
2
100
AcDbEntity
  8
L-ZISSEN
100
AcDbLine
 10
616.14908843457
 20
-4202.441433117414
 30
0.0
 11
554.14908843457
 21
-4202.441433117414
 31
0.0
  0
LINE
  5
32B
330
2
100
AcDbEntity
  8
L-ZISSEN
100
AcDbLine
 10
556.6490884345697
 20
-4193.441433117413
 30
0.0
 11
616.14908843457
 21
-4193.441433117413
 31
0.0
  0
CIRCLE
  5
32C
330
2
100
AcDbEntity
  8
L-ZISSEN
100
AcDbCircle
 10
585.1490884345699
 20
-4150.766391028798
 30
0.0
 40
31.0
  0
LINE
  5
32D
330
2
100
AcDbEntity
  8
L-ZISSEN
100
AcDbLine
 10
613.6490884345702
 20
-4193.441433117413
 30
0.0
 11
556.6490884345697
 21
-4193.441433117413
 31
0.0
  0
LINE
  5
32E
330
2
100
AcDbEntity
  8
L-ZISSEN
100
AcDbLine
 10
586.5633019969431
 20
-4152.180604591172
 30
0.0
 11
610.1490884345699
 21
-4175.766391028798
 31
0.0
  0
LINE
  5
32F
330
2
100
AcDbEntity
  8
L-ZISSEN
100
AcDbLine
 10
586.5633019969431
 20
-4245.427219555041
 30
0.0
 11
600.14908843457
 21
-4231.841433117414
 31
0.0
  0
LINE
  5
330
330
2
100
AcDbEntity
  8
L-ZISSEN
100
AcDbLine
 10
634.0598327835813
 20
-4305.688287214675
 30
0.0
 11
545.0598327835812
 21
-4305.688287214675
 31
0.0
  0
LINE
  5
331
330
2
100
AcDbEntity
  8
L-ZISSEN
100
AcDbLine
 10
634.0598327835813
 20
-4302.688287214675
 30
0.0
 11
545.0598327835812
 21
-4302.688287214675
 31
0.0
  0
TEXT
  5
332
330
2
100
AcDbEntity
  8
L-ZISSEN
100
AcDbText
 10
544.5598327835812
 20
-4288.021469459287
 30
0.0
 40
4.5
  1
MODEL NO. : 4368-51
100
AcDbText
  0
TEXT
  5
333
330
2
100
AcDbEntity
  8
L-ZISSEN
100
AcDbText
 10
544.5598327835812
 20
-4109.688287214675
 30
0.0
 40
4.5
  1
MODEL NO. : 4348-89
100
AcDbText
  0
LINE
  5
334
330
2
100
AcDbEntity
  8
L-ZISSEN
100
AcDbLine
 10
545.0598327835812
 20
-4305.688287214675
 30
0.0
 11
558.2722918093513
 21
-4363.403179602935
 31
0.0
  0
LINE
  5
335
330
2
100
AcDbEntity
  8
L-ZISSEN
100
AcDbLine
 10
545.0598327835812
 20
-4305.688287214675
 30
0.0
 11
558.2722918093519
 21
-4363.403179602935
 31
0.0
  0
LINE
  5
336
330
2
100
AcDbEntity
  8
L-ZISSEN
100
AcDbLine
 10
545.0598327835812
 20
-4302.688287214675
 30
0.0
 11
545.0598327835812
 21
-4305.688287214675
 31
0.0
  0
LINE
  5
337
330
2
100
AcDbEntity
  8
L-TYUSIN
100
AcDbLine
 10
561.5598327835812
 20
-4298.688287214675
 30
0.0
 11
561.5598327835812
 21
-4309.988287214675
 31
0.0
  0
SOLID
  5
338
330
2
100
AcDbEntity
  8
L-ZISSEN
100
AcDbTrace
 10
586.7990042573385
 20
-4245.662921815436
 30
0.0
 11
586.3275997365475
 21
-4245.191517294645
 31
0.0
 12
585.1490884345699
 22
-4246.841433117413
 32
0.0
 13
585.1490884345699
 23
-4246.841433117413
 33
0.0
  0
SOLID
  5
339
330
2
100
AcDbEntity
  8
L-ZISSEN
100
AcDbTrace
 10
590.8828805428878
 20
-4356.22472977387
 30
0.0
 11
591.3096701426641
 21
-4355.712582254138
 31
0.0
 12
589.5598327835812
 22
-4354.688287214675
 32
0.0
 13
589.5598327835812
 23
-4354.688287214675
 33
0.0
  0
LINE
  5
33A
330
2
100
AcDbEntity
  8
L-ZISSEN
100
AcDbLine
 10
585.1490884345699
 20
-4193.441433117413
 30
0.0
 11
554.14908843457
 21
-4193.441433117413
 31
0.0
  0
LINE
  5
33B
330
2
100
AcDbEntity
  8
L-ZISSEN
100
AcDbLine
 10
554.14908843457
 20
-4193.441433117413
 30
0.0
 11
554.14908843457
 21
-4202.441433117414
 31
0.0
  0
SOLID
  5
33C
330
2
100
AcDbEntity
  8
L-ZISSEN
100
AcDbTrace
 10
586.3275997365475
 20
-4152.416306851567
 30
0.0
 11
586.7990042573386
 21
-4151.944902330776
 31
0.0
 12
585.1490884345699
 22
-4150.766391028798
 32
0.0
 13
585.1490884345699
 23
-4150.766391028798
 33
0.0
  0
LINE
  5
33D
330
2
100
AcDbEntity
  8
L-ZISSEN
100
AcDbLine
 10
634.0598327835812
 20
-4305.688287214677
 30
0.0
 11
620.847373757811
 21
-4363.403179602938
 31
0.0
  0
LINE
  5
33E
330
2
100
AcDbEntity
  8
L-TYUSIN
100
AcDbLine
 10
617.5598327835812
 20
-4298.688287214675
 30
0.0
 11
617.5598327835812
 21
-4309.988287214675
 31
0.0
  0
LINE
  5
33F
330
2
100
AcDbEntity
  8
L-ZISSEN
100
AcDbLine
 10
634.0598327835813
 20
-4302.688287214675
 30
0.0
 11
634.0598327835812
 21
-4305.688287214675
 31
0.0
  0
TEXT
  5
340
330
2
100
AcDbEntity
  8
L-ZISSEN
100
AcDbText
 10
614.1490884345699
 20
-4178.016391028798
 30
0.0
 40
4.5
  1
P.P
100
AcDbText
  0
LINE
  5
341
330
2
100
AcDbEntity
  8
L-ZISSEN
100
AcDbLine
 10
616.14908843457
 20
-4193.441433117413
 30
0.0
 11
616.14908843457
 21
-4202.441433117414
 31
0.0
  0
LINE
  5
342
330
2
100
AcDbEntity
  8
L-ZISSEN
100
AcDbLine
 10
610.1490884345699
 20
-4175.766391028798
 30
0.0
 11
612.14908843457
 21
-4175.766391028798
 31
0.0
  0
LINE
  5
343
330
2
100
AcDbEntity
  8
L-ZISSEN
100
AcDbLine
 10
600.14908843457
 20
-4231.841433117414
 30
0.0
 11
602.1490884345699
 21
-4231.841433117414
 31
0.0
  0
TEXT
  5
344
330
2
100
AcDbEntity
  8
L-ZISSEN
100
AcDbText
 10
604.14908843457
 20
-4234.091433117413
 30
0.0
 40
4.5
  1
P.P
100
AcDbText
  0
LINE
  5
345
330
2
100
AcDbEntity
  8
L-ZISSEN
100
AcDbLine
 10
685.3791264114249
 20
-4600.312869000829
 30
0.0
 11
716.6621264114251
 21
-4600.312869000829
 31
0.0
  0
LINE
  5
346
330
2
100
AcDbEntity
  8
L-ZISSEN
100
AcDbLine
 10
723.4976276273715
 20
-4606.674739945506
 30
0.0
 11
678.4976276273716
 21
-4606.674739945506
 31
0.0
  0
LINE
  5
347
330
2
100
AcDbEntity
  8
L-ZISSEN
100
AcDbLine
 10
688.4976276273715
 20
-4601.674739945506
 30
0.0
 11
723.4976276273715
 21
-4601.674739945506
 31
0.0
  0
LINE
  5
348
330
2
100
AcDbEntity
  8
L-ZISSEN
100
AcDbLine
 10
701.9653399737981
 20
-4582.785997250851
 30
0.0
 11
715.551126411425
 21
-4569.200210813225
 31
0.0
  0
LINE
  5
349
330
2
100
AcDbEntity
  8
L-ZISSEN
100
AcDbLine
 10
751.551126411425
 20
-4609.400210813224
 30
0.0
 11
672.551126411425
 21
-4609.400210813224
 31
0.0
  0
LINE
  5
34A
330
2
100
AcDbEntity
  8
L-ZISSEN
100
AcDbLine
 10
678.4976276273716
 20
-4601.674739945506
 30
0.0
 11
688.4976276273715
 21
-4601.674739945506
 31
0.0
  0
LINE
  5
34B
330
2
100
AcDbEntity
  8
L-ZISSEN
100
AcDbLine
 10
672.551126411425
 20
-4573.928210813225
 30
0.0
 11
685.379126411425
 21
-4573.928210813225
 31
0.0
  0
ARC
  5
34C
330
2
100
AcDbEntity
  8
L-ZISSEN
100
AcDbCircle
 10
678.4976276273716
 20
-4604.174739945506
 30
0.0
 40
2.5
100
AcDbArc
 50
90.0
 51
270.0
  0
LINE
  5
34D
330
2
100
AcDbEntity
  8
L-ZISSEN
100
AcDbLine
 10
672.551126411425
 20
-4609.400210813224
 30
0.0
 11
672.551126411425
 21
-4573.928210813225
 31
0.0
  0
SOLID
  5
34E
330
2
100
AcDbEntity
  8
L-ZISSEN
100
AcDbTrace
 10
702.2010422341936
 20
-4583.021699511247
 30
0.0
 11
701.7296377134025
 21
-4582.550294990456
 31
0.0
 12
700.5511264114249
 22
-4584.200210813224
 32
0.0
 13
700.5511264114249
 23
-4584.200210813224
 33
0.0
  0
LINE
  5
34F
330
2
100
AcDbEntity
  8
L-ZISSEN
100
AcDbLine
 10
685.379126411425
 20
-4573.928210813225
 30
0.0
 11
685.3791264114249
 21
-4600.312869000829
 31
0.0
  0
LINE
  5
350
330
2
100
AcDbEntity
  8
L-ZISSEN
100
AcDbLine
 10
679.3109984520027
 20
-4468.274073652303
 30
0.0
 11
692.8967848896296
 21
-4454.688287214675
 31
0.0
  0
SOLID
  5
351
330
2
100
AcDbEntity
  8
L-ZISSEN
100
AcDbTrace
 10
679.5467007123983
 20
-4468.509775912698
 30
0.0
 11
679.0752961916072
 21
-4468.038371391907
 31
0.0
 12
677.8967848896296
 22
-4469.688287214675
 32
0.0
 13
677.8967848896296
 23
-4469.688287214675
 33
0.0
  0
LINE
  5
352
330
2
100
AcDbEntity
  8
L-ZISSEN
100
AcDbLine
 10
707.5598327835812
 20
-4426.888287214675
 30
0.0
 11
707.5598327835812
 21
-4435.888287214675
 31
0.0
  0
LINE
  5
353
330
2
100
AcDbEntity
  8
L-ZISSEN
100
AcDbLine
 10
692.8967848896296
 20
-4454.688287214675
 30
0.0
 11
694.8967848896296
 21
-4454.688287214675
 31
0.0
  0
TEXT
  5
354
330
2
100
AcDbEntity
  8
L-ZISSEN
100
AcDbText
 10
696.8967848896296
 20
-4456.938287214675
 30
0.0
 40
4.5
  1
P.P
100
AcDbText
  0
LINE
  5
355
330
2
100
AcDbEntity
  8
L-ZISSEN
100
AcDbLine
 10
716.6621264114251
 20
-4573.928210813225
 30
0.0
 11
749.915126411425
 21
-4573.928210813225
 31
0.0
  0
ARC
  5
356
330
2
100
AcDbEntity
  8
L-ZISSEN
100
AcDbCircle
 10
723.4976276273715
 20
-4604.174739945506
 30
0.0
 40
2.5
100
AcDbArc
 50
270.0
 51
90.0
  0
TEXT
  5
357
330
2
100
AcDbEntity
  8
L-ZISSEN
100
AcDbText
 10
719.551126411425
 20
-4571.450210813224
 30
0.0
 40
4.5
  1
P.P
100
AcDbText
  0
LINE
  5
358
330
2
100
AcDbEntity
  8
L-ZISSEN
100
AcDbLine
 10
715.550626411425
 20
-4569.200210813225
 30
0.0
 11
717.5506264114249
 21
-4569.200210813225
 31
0.0
  0
LINE
  5
359
330
2
100
AcDbEntity
  8
L-ZISSEN
100
AcDbLine
 10
716.6621264114251
 20
-4600.312869000829
 30
0.0
 11
716.6621264114251
 21
-4573.928210813225
 31
0.0
  0
LINE
  5
35A
330
2
100
AcDbEntity
  8
L-ZISSEN
100
AcDbLine
 10
749.915126411425
 20
-4548.404210813224
 30
0.0
 11
751.551126411425
 21
-4548.404210813224
 31
0.0
  0
LINE
  5
35B
330
2
100
AcDbEntity
  8
L-TYUSIN
100
AcDbLine
 10
746.415126411425
 20
-4554.443811294283
 30
0.0
 11
755.0511264114249
 21
-4554.443811294283
 31
0.0
  0
LINE
  5
35C
330
2
100
AcDbEntity
  8
L-ZISSEN
100
AcDbLine
 10
749.915126411425
 20
-4573.928210813225
 30
0.0
 11
749.915126411425
 21
-4548.404210813224
 31
0.0
  0
LINE
  5
35D
330
2
100
AcDbEntity
  8
L-ZISSEN
100
AcDbLine
 10
751.551126411425
 20
-4548.404210813224
 30
0.0
 11
751.551126411425
 21
-4609.400210813224
 31
0.0
  0
LINE
  5
35E
330
2
100
AcDbEntity
  8
L-ZISSEN
100
AcDbLine
 10
728.5598327835811
 20
-4400.188287214675
 30
0.0
 11
725.559832783581
 21
-4400.188287214675
 31
0.0
  0
LINE
  5
35F
330
2
100
AcDbEntity
  8
L-TYUSIN
100
AcDbLine
 10
732.4849617302215
 20
-4415.188287214674
 30
0.0
 11
722.4098327835811
 21
-4415.188287214674
 31
0.0
  0
LINE
  5
360
330
2
100
AcDbEntity
  8
L-ZISSEN
100
AcDbLine
 10
728.5598327835811
 20
-4438.188287214675
 30
0.0
 11
728.5598327835811
 21
-4400.188287214675
 31
0.0
  0
LINE
  5
361
330
2
100
AcDbEntity
  8
L-ZISSEN
100
AcDbLine
 10
725.559832783581
 20
-4435.888287214675
 30
0.0
 11
725.559832783581
 21
-4400.188287214675
 31
0.0
  0
TEXT
  5
362
330
2
100
AcDbEntity
  8
L-ZISSEN
100
AcDbText
 10
544.5598327835812
 20
-4099.688287214675
 30
0.0
 40
4.5
  1
METAL PANEL NUT
100
AcDbText
  0
ENDSEC
  0
SECTION
  2
OBJECTS
  0
DICTIONARY
  5
9
330
0
100
AcDbDictionary
  3
ACAD_GROUP
350
23
  3
ACAD_LAYOUT
350
E
  3
ACAD_MLINESTYLE
350
24
  3
ACAD_PLOTSETTINGS
350
25
1001
ACAD
1000
TREAT_AS_HARD
1070
     0
  0
DICTIONARY
  5
3
330
2
100
AcDbDictionary
  3
ACAD_LAYOUTSELFREF
350
392
1001
ACAD
1000
TREAT_AS_HARD
1070
     1
  0
DICTIONARY
  5
10
330
F
100
AcDbDictionary
  3
ACAD_LAYOUTSELFREF
350
393
1001
ACAD
1000
TREAT_AS_HARD
1070
     1
  0
DICTIONARY
  5
23
102
{ACAD_REACTORS
330
9
102
}
330
9
100
AcDbDictionary
1001
ACAD
1000
TREAT_AS_HARD
1070
     0
  0
DICTIONARY
  5
E
102
{ACAD_REACTORS
330
9
102
}
330
9
100
AcDbDictionary
1001
ACAD
1000
TREAT_AS_HARD
1070
     0
  0
DICTIONARY
  5
24
102
{ACAD_REACTORS
330
9
102
}
330
9
100
AcDbDictionary
  3
STANDARD
350
27
1001
ACAD
1000
TREAT_AS_HARD
1070
     0
  0
DICTIONARY
  5
25
102
{ACAD_REACTORS
330
9
102
}
330
9
100
AcDbDictionary
1001
ACAD
1000
TREAT_AS_HARD
1070
     0
  0
XRECORD
  5
392
102
{ACAD_REACTORS
330
3
102
}
330
3
100
AcDbXrecord
340
2
  0
XRECORD
  5
393
102
{ACAD_REACTORS
330
10
102
}
330
10
100
AcDbXrecord
340
F
  0
MLINESTYLE
  5
27
102
{ACAD_REACTORS
330
24
102
}
330
24
100
AcDbMlineStyle
  2
STANDARD
 70
     0
  3

 62
     0
 51
90.00000000000019
 52
90.00000000000019
 71
     2
 49
0.5
 62
   256
  6
BYLAYER
 49
-0.5
 62
   256
  6
BYLAYER
  0
ENDSEC
  0
EOF
