  0
SECTION
  2
HEADER
  9
$ACADVER
  1
AC1012
  9
$DWGCODEPAGE
  3
dos932
  9
$INSBASE
 10
0.0
 20
0.0
 30
0.0
  9
$EXTMIN
 10
60.29999967993091
 20
-586.1633451604165
 30
0.0
  9
$EXTMAX
 10
851.5675172475541
 20
-204.7528839322824
 30
0.0
  9
$LIMMIN
 10
0.0
 20
0.0
  9
$LIMMAX
 10
297.0
 20
210.0
  9
$ORTHOMODE
 70
     1
  9
$REGENMODE
 70
     1
  9
$FILLMODE
 70
     1
  9
$QTEXTMODE
 70
     0
  9
$MIRRTEXT
 70
     1
  9
$DRAGMODE
 70
     2
  9
$LTSCALE
 40
2.0
  9
$OSMODE
 70
    37
  9
$ATTMODE
 70
     1
  9
$TEXTSIZE
 40
5.599999999999999
  9
$TRACEWID
 40
0.05
  9
$TEXTSTYLE
  7
STANDARD
  9
$CLAYER
  8
L-ZISSEN
  9
$CELTYPE
  6
BYLAYER
  9
$CECOLOR
 62
   256
  9
$CELTSCALE
 40
1.0
  9
$DELOBJ
 70
     1
  9
$DISPSILH
 70
     0
  9
$DIMSCALE
 40
2.0
  9
$DIMASZ
 40
1.5
  9
$DIMEXO
 40
1.0
  9
$DIMDLI
 40
8.0
  9
$DIMRND
 40
0.0
  9
$DIMDLE
 40
0.0
  9
$DIMEXE
 40
1.0
  9
$DIMTP
 40
0.0
  9
$DIMTM
 40
0.0
  9
$DIMTXT
 40
2.799999999999999
  9
$DIMCEN
 40
0.8
  9
$DIMTSZ
 40
0.0
  9
$DIMTOL
 70
     0
  9
$DIMLIM
 70
     0
  9
$DIMTIH
 70
     0
  9
$DIMTOH
 70
     0
  9
$DIMSE1
 70
     0
  9
$DIMSE2
 70
     0
  9
$DIMTAD
 70
     1
  9
$DIMZIN
 70
     8
  9
$DIMBLK
  1

  9
$DIMASO
 70
     1
  9
$DIMSHO
 70
     0
  9
$DIMPOST
  1

  9
$DIMAPOST
  1

  9
$DIMALT
 70
     0
  9
$DIMALTD
 70
     2
  9
$DIMALTF
 40
25.4
  9
$DIMLFAC
 40
1.0
  9
$DIMTOFL
 70
     1
  9
$DIMTVP
 40
1.0
  9
$DIMTIX
 70
     1
  9
$DIMSOXD
 70
     0
  9
$DIMSAH
 70
     1
  9
$DIMBLK1
  1
OPEN
  9
$DIMBLK2
  1
OPEN
  9
$DIMSTYLE
  2
STANDARD
  9
$DIMCLRD
 70
     0
  9
$DIMCLRE
 70
     0
  9
$DIMCLRT
 70
     0
  9
$DIMTFAC
 40
1.0
  9
$DIMGAP
 40
1.399999999999999
  9
$DIMJUST
 70
     0
  9
$DIMSD1
 70
     0
  9
$DIMSD2
 70
     0
  9
$DIMTOLJ
 70
     1
  9
$DIMTZIN
 70
     8
  9
$DIMALTZ
 70
     0
  9
$DIMALTTZ
 70
     0
  9
$DIMFIT
 70
     3
  9
$DIMUPT
 70
     0
  9
$DIMUNIT
 70
     2
  9
$DIMDEC
 70
     4
  9
$DIMTDEC
 70
     4
  9
$DIMALTU
 70
     2
  9
$DIMALTTD
 70
     2
  9
$DIMTXSTY
  7
KANJI
  9
$DIMAUNIT
 70
     0
  9
$LUNITS
 70
     2
  9
$LUPREC
 70
     4
  9
$SKETCHINC
 40
0.1
  9
$FILLETRAD
 40
0.0
  9
$AUNITS
 70
     0
  9
$AUPREC
 70
     0
  9
$MENU
  1
C:\ACAD
  9
$ELEVATION
 40
0.0
  9
$PELEVATION
 40
0.0
  9
$THICKNESS
 40
0.0
  9
$LIMCHECK
 70
     0
  9
$BLIPMODE
 70
     0
  9
$CHAMFERA
 40
0.5
  9
$CHAMFERB
 40
0.5
  9
$CHAMFERC
 40
0.0
  9
$CHAMFERD
 40
0.0
  9
$SKPOLY
 70
     0
  9
$TDCREATE
 40
2449954.598049536
  9
$TDUPDATE
 40
2453194.593600810
  9
$TDINDWG
 40
3.8488675926
  9
$TDUSRTIMER
 40
3.8488675926
  9
$USRTIMER
 70
     1
  9
$ANGBASE
 50
0.0
  9
$ANGDIR
 70
     0
  9
$PDMODE
 70
     0
  9
$PDSIZE
 40
0.0
  9
$PLINEWID
 40
0.0
  9
$COORDS
 70
     0
  9
$SPLFRAME
 70
     0
  9
$SPLINETYPE
 70
     6
  9
$SPLINESEGS
 70
     8
  9
$ATTDIA
 70
     0
  9
$ATTREQ
 70
     1
  9
$HANDLING
 70
-16383
  9
$HANDSEED
  5
2C9
  9
$SURFTAB1
 70
     6
  9
$SURFTAB2
 70
     6
  9
$SURFTYPE
 70
     6
  9
$SURFU
 70
     6
  9
$SURFV
 70
     6
  9
$UCSNAME
  2

  9
$UCSORG
 10
0.0
 20
0.0
 30
0.0
  9
$UCSXDIR
 10
1.0
 20
0.0
 30
0.0
  9
$UCSYDIR
 10
0.0
 20
1.0
 30
0.0
  9
$PUCSNAME
  2

  9
$PUCSORG
 10
0.0
 20
0.0
 30
0.0
  9
$PUCSXDIR
 10
1.0
 20
0.0
 30
0.0
  9
$PUCSYDIR
 10
0.0
 20
1.0
 30
0.0
  9
$USERI1
 70
     0
  9
$USERI2
 70
     0
  9
$USERI3
 70
     0
  9
$USERI4
 70
     0
  9
$USERI5
 70
     0
  9
$USERR1
 40
0.0
  9
$USERR2
 40
0.0
  9
$USERR3
 40
0.0
  9
$USERR4
 40
0.0
  9
$USERR5
 40
0.0
  9
$WORLDVIEW
 70
     1
  9
$SHADEDGE
 70
     3
  9
$SHADEDIF
 70
    70
  9
$TILEMODE
 70
     1
  9
$MAXACTVP
 70
    16
  9
$PINSBASE
 10
0.0
 20
0.0
 30
0.0
  9
$PLIMCHECK
 70
     0
  9
$PEXTMIN
 10
1.000000000000000E+20
 20
1.000000000000000E+20
 30
1.000000000000000E+20
  9
$PEXTMAX
 10
-1.000000000000000E+20
 20
-1.000000000000000E+20
 30
-1.000000000000000E+20
  9
$PLIMMIN
 10
0.0
 20
0.0
  9
$PLIMMAX
 10
12.0
 20
9.0
  9
$UNITMODE
 70
     0
  9
$VISRETAIN
 70
     0
  9
$PLINEGEN
 70
     0
  9
$PSLTSCALE
 70
     0
  9
$TREEDEPTH
 70
  3020
  9
$PICKSTYLE
 70
     1
  9
$CMLSTYLE
  2
STANDARD
  9
$CMLJUST
 70
     0
  9
$CMLSCALE
 40
1.0
  9
$SAVEIMAGES
 70
     1
  0
ENDSEC
  0
SECTION
  2
CLASSES
  0
CLASS
  1
OLE2FRAME
  2
AcDbOle2Frame
  3
AutoCAD 2000
 90
    32768
280
     0
281
     1
  0
CLASS
  1
ACDBDICTIONARYWDFLT
  2
AcDbDictionaryWithDefault
  3
AutoCAD 2000
 90
    32768
280
     0
281
     0
  0
CLASS
  1
ACDBPLACEHOLDER
  2
AcDbPlaceHolder
  3
AutoCAD 2000
 90
    32768
280
     0
281
     0
  0
CLASS
  1
LAYOUT
  2
AcDbLayout
  3
AutoCAD 2000
 90
    32768
280
     0
281
     0
  0
CLASS
  1
LONG_TRANSACTION
  2
AcDbLongTransaction
  3
AutoCAD 2000
 90
    32768
280
     0
281
     0
  0
CLASS
  1
LWPOLYLINE
  2
AcDbPolyline
  3
AutoCAD 2000
 90
    32768
280
     0
281
     1
  0
CLASS
  1
HATCH
  2
AcDbHatch
  3
AutoCAD 2000
 90
    32768
280
     0
281
     1
  0
CLASS
  1
XRECORD
  2
AcDbXrecord
  3
AutoCAD 2000
 90
    32768
280
     0
281
     0
  0
CLASS
  1
LONG_TRANSACTION
  2
AcDbLongTransaction
  3
AutoCAD 2000
 90
    32768
280
     0
281
     0
  0
CLASS
  1
LWPOLYLINE
  2
AcDbPolyline
  3
AutoCAD 2000
 90
    32768
280
     0
281
     1
  0
CLASS
  1
HATCH
  2
AcDbHatch
  3
AutoCAD 2000
 90
    32768
280
     0
281
     1
  0
CLASS
  1
XRECORD
  2
AcDbXrecord
  3
AutoCAD 2000
 90
    32768
280
     0
281
     0
  0
CLASS
  1
LONG_TRANSACTION
  2
AcDbLongTransaction
  3
AutoCAD 2000
 90
    32768
280
     0
281
     0
  0
CLASS
  1
LWPOLYLINE
  2
AcDbPolyline
  3
AutoCAD 2000
 90
    32768
280
     0
281
     1
  0
CLASS
  1
HATCH
  2
AcDbHatch
  3
AutoCAD 2000
 90
    32768
280
     0
281
     1
  0
CLASS
  1
XRECORD
  2
AcDbXrecord
  3
AutoCAD 2000
 90
    32768
280
     0
281
     0
  0
ENDSEC
  0
SECTION
  2
TABLES
  0
TABLE
  2
VPORT
  5
1E
330
0
100
AcDbSymbolTable
 70
     2
  0
VPORT
  5
280
330
1E
100
AcDbSymbolTableRecord
100
AcDbViewportTableRecord
  2
*ACTIVE
 70
     0
 10
0.0
 20
0.0
 11
1.0
 21
1.0
 12
440.6336194861839
 22
-383.3422372931388
 13
0.0
 23
0.0
 14
1.0
 24
1.0
 15
4.0
 25
4.0
 16
0.0
 26
0.0
 36
1.0
 17
0.0
 27
0.0
 37
0.0
 40
482.6836711444982
 41
1.84990253411306
 42
50.0
 43
0.0
 44
0.0
 50
0.0
 51
0.0
 71
     0
 72
   100
 73
     1
 74
     0
 75
     0
 76
     0
 77
     0
 78
     0
  0
ENDTAB
  0
TABLE
  2
LTYPE
  5
19
330
0
100
AcDbSymbolTable
 70
     2
  0
LTYPE
  5
1A
330
19
100
AcDbSymbolTableRecord
100
AcDbLinetypeTableRecord
  2
BYBLOCK
 70
     0
  3

 72
    65
 73
     0
 40
0.0
  0
LTYPE
  5
1B
330
19
100
AcDbSymbolTableRecord
100
AcDbLinetypeTableRecord
  2
BYLAYER
 70
     0
  3

 72
    65
 73
     0
 40
0.0
  0
LTYPE
  5
B
330
19
100
AcDbSymbolTableRecord
100
AcDbLinetypeTableRecord
  2
CONTINUOUS
 70
     0
  3
Solid line
 72
    65
 73
     0
 40
0.0
  0
LTYPE
  5
3C
330
19
100
AcDbSymbolTableRecord
100
AcDbLinetypeTableRecord
  2
CENTER
 70
     0
  3
----- - ----- - ----- - ----- - ----- - -----
 72
    65
 73
     4
 40
35.0
 49
30.0
 74
     0
 49
-1.5
 74
     0
 49
2.0
 74
     0
 49
-1.5
 74
     0
  0
ENDTAB
  0
TABLE
  2
LAYER
  5
15
330
0
100
AcDbSymbolTable
 70
     3
  0
LAYER
  5
6
330
15
100
AcDbSymbolTableRecord
100
AcDbLayerTableRecord
  2
0
 70
     0
 62
     7
  6
CONTINUOUS
  0
LAYER
  5
26
330
15
100
AcDbSymbolTableRecord
100
AcDbLayerTableRecord
  2
L-ZISSEN
 70
     0
 62
     7
  6
CONTINUOUS
  0
LAYER
  5
3B
330
15
100
AcDbSymbolTableRecord
100
AcDbLayerTableRecord
  2
L-TYUSIN
 70
     0
 62
     1
  6
CENTER
  0
ENDTAB
  0
TABLE
  2
STYLE
  5
16
330
0
100
AcDbSymbolTable
 70
     2
  0
STYLE
  5
17
330
16
100
AcDbSymbolTableRecord
100
AcDbTextStyleTableRecord
  2
STANDARD
 70
     0
 40
0.0
 41
0.8
 50
0.0
 71
     0
 42
5.599999999999999
  3
txt.shx
  4

  0
STYLE
  5
27
330
16
100
AcDbSymbolTableRecord
100
AcDbTextStyleTableRecord
  2
KANJI
 70
     0
 40
0.0
 41
0.8
 50
0.0
 71
     0
 42
5.599999999999999
  3
C:\Program Files\AutoCAD LT\ROMANS
  4
BIGFONT.shx
  0
ENDTAB
  0
TABLE
  2
VIEW
  5
1C
330
0
100
AcDbSymbolTable
 70
     0
  0
ENDTAB
  0
TABLE
  2
UCS
  5
1D
330
0
100
AcDbSymbolTable
 70
     0
  0
ENDTAB
  0
TABLE
  2
APPID
  5
20
330
0
100
AcDbSymbolTable
 70
     1
  0
APPID
  5
A
330
20
100
AcDbSymbolTableRecord
100
AcDbRegAppTableRecord
  2
ACAD
 70
     0
  0
ENDTAB
  0
TABLE
  2
DIMSTYLE
  5
21
330
0
100
AcDbSymbolTable
 70
     1
  0
DIMSTYLE
105
2F
330
21
100
AcDbSymbolTableRecord
100
AcDbDimStyleTableRecord
  2
STANDARD
 70
     0
  3

  4

  5

  6

  7

 40
1.0
 41
0.18
 42
0.0625
 43
0.38
 44
0.18
 45
0.0
 46
0.0
 47
0.0
 48
0.0
140
0.18
141
0.09
142
0.0
143
25.4
144
1.0
145
0.0
146
1.0
147
0.09
 71
     0
 72
     0
 73
     1
 74
     1
 75
     0
 76
     0
 77
     0
 78
     0
170
     0
171
     2
172
     0
173
     0
174
     0
175
     0
176
     0
177
     0
178
     0
270
     2
271
     4
272
     4
273
     2
274
     2
340
17
275
     0
280
     0
281
     0
282
     0
283
     1
284
     0
285
     0
286
     0
287
     3
288
     0
  0
ENDTAB
  0
TABLE
  2
BLOCK_RECORD
  5
1
330
0
100
AcDbSymbolTable
 70
     1
  0
BLOCK_RECORD
  5
2
102
{ACAD_XDICTIONARY
360
3
102
}
330
1
100
AcDbSymbolTableRecord
100
AcDbBlockTableRecord
  2
*MODEL_SPACE
  0
BLOCK_RECORD
  5
F
102
{ACAD_XDICTIONARY
360
10
102
}
330
1
100
AcDbSymbolTableRecord
100
AcDbBlockTableRecord
  2
*PAPER_SPACE
  0
BLOCK_RECORD
  5
28
330
1
100
AcDbSymbolTableRecord
100
AcDbBlockTableRecord
  2
_OPEN
  0
ENDTAB
  0
ENDSEC
  0
SECTION
  2
BLOCKS
  0
BLOCK
  5
5
330
2
100
AcDbEntity
  8
0
100
AcDbBlockBegin
  2
*MODEL_SPACE
 70
     0
 10
0.0
 20
0.0
 30
0.0
  3
*MODEL_SPACE
  1

  0
ENDBLK
  5
C
330
2
100
AcDbEntity
  8
0
100
AcDbBlockEnd
  0
BLOCK
  5
12
330
F
100
AcDbEntity
 67
     1
  8
0
100
AcDbBlockBegin
  2
*PAPER_SPACE
 70
     0
 10
0.0
 20
0.0
 30
0.0
  3
*PAPER_SPACE
  1

  0
ENDBLK
  5
13
330
F
100
AcDbEntity
 67
     1
  8
0
100
AcDbBlockEnd
  0
BLOCK
  5
2C
330
28
100
AcDbEntity
  8
0
100
AcDbBlockBegin
  2
_OPEN
 70
     0
 10
0.0
 20
0.0
 30
0.0
  3
_OPEN
  1

  0
LINE
  5
29
330
28
100
AcDbEntity
  8
0
  6
BYBLOCK
 62
     0
100
AcDbLine
 10
-1.0
 20
0.1666666666666666
 30
0.0
 11
0.0
 21
0.0
 31
0.0
  0
LINE
  5
2A
330
28
100
AcDbEntity
  8
0
  6
BYBLOCK
 62
     0
100
AcDbLine
 10
0.0
 20
0.0
 30
0.0
 11
-1.0
 21
-0.1666666666666666
 31
0.0
  0
LINE
  5
2B
330
28
100
AcDbEntity
  8
0
  6
BYBLOCK
 62
     0
100
AcDbLine
 10
0.0
 20
0.0
 30
0.0
 11
-1.0
 21
0.0
 31
0.0
  0
ENDBLK
  5
2D
330
28
100
AcDbEntity
  8
0
100
AcDbBlockEnd
  0
ENDSEC
  0
SECTION
  2
ENTITIES
  0
LINE
  5
30
330
2
100
AcDbEntity
  8
L-ZISSEN
100
AcDbLine
 10
420.1784168189959
 20
-470.5815456134001
 30
0.0
 11
430.1784168189961
 21
-470.5815456134001
 31
0.0
  0
LINE
  5
31
330
2
100
AcDbEntity
  8
L-ZISSEN
100
AcDbLine
 10
419.1784168189959
 20
-478.0815456134002
 30
0.0
 11
432.1784168189959
 21
-478.0815456134002
 31
0.0
  0
LINE
  5
32
330
2
100
AcDbEntity
  8
L-ZISSEN
100
AcDbLine
 10
419.4284168189961
 20
-476.5815456134001
 30
0.0
 11
430.9284168189959
 21
-476.5815456133999
 31
0.0
  0
LINE
  5
33
330
2
100
AcDbEntity
  8
L-ZISSEN
100
AcDbLine
 10
351.1784168189961
 20
-519.0815456134
 30
0.0
 11
435.178416818996
 21
-519.0815456134003
 31
0.0
  0
LINE
  5
34
330
2
100
AcDbEntity
  8
L-ZISSEN
100
AcDbLine
 10
351.1784168189959
 20
-490.0815456134002
 30
0.0
 11
435.1784168189958
 21
-490.0815456134003
 31
0.0
  0
LINE
  5
35
330
2
100
AcDbEntity
  8
L-ZISSEN
100
AcDbLine
 10
354.1784168189959
 20
-488.0815456134001
 30
0.0
 11
432.1784168189959
 21
-488.0815456134001
 31
0.0
  0
LINE
  5
36
330
2
100
AcDbEntity
  8
L-ZISSEN
100
AcDbLine
 10
354.1784168189958
 20
-489.0815456134001
 30
0.0
 11
432.1784168189958
 21
-489.0815456134003
 31
0.0
  0
LINE
  5
37
330
2
100
AcDbEntity
  8
L-ZISSEN
100
AcDbLine
 10
351.1784168189963
 20
-529.0815456133999
 30
0.0
 11
435.1784168189961
 21
-529.0815456134001
 31
0.0
  0
LINE
  5
38
330
2
100
AcDbEntity
  8
L-ZISSEN
100
AcDbLine
 10
270.6784168189959
 20
-328.5815074971641
 30
0.0
 11
79.67841681899637
 21
-328.5815074971643
 31
0.0
  0
LINE
  5
39
330
2
100
AcDbEntity
  8
L-ZISSEN
100
AcDbLine
 10
270.6784168189959
 20
-276.5815074971641
 30
0.0
 11
79.6784168189966
 21
-276.5815074971653
 31
0.0
  0
LINE
  5
3A
330
2
100
AcDbEntity
  8
L-TYUSIN
100
AcDbLine
 10
282.6784168189943
 20
-302.5815074971641
 30
0.0
 11
67.67841681899454
 21
-302.5815074971641
 31
0.0
  0
LINE
  5
3D
330
2
100
AcDbEntity
  8
L-ZISSEN
100
AcDbLine
 10
166.6784168189979
 20
-429.0815456133998
 30
0.0
 11
151.6784168189978
 21
-429.0815456133998
 31
0.0
  0
LINE
  5
3E
330
2
100
AcDbEntity
  8
L-ZISSEN
100
AcDbLine
 10
166.1784168189979
 20
-428.5815456133998
 30
0.0
 11
152.1784168189979
 21
-428.5815456133998
 31
0.0
  0
LINE
  5
3F
330
2
100
AcDbEntity
  8
L-ZISSEN
100
AcDbLine
 10
176.6784168189978
 20
-440.5815456133998
 30
0.0
 11
141.6784168189979
 21
-440.5815456133998
 31
0.0
  0
LINE
  5
40
330
2
100
AcDbEntity
  8
L-ZISSEN
100
AcDbLine
 10
176.6784168189978
 20
-436.5815456133998
 30
0.0
 11
141.6784168189979
 21
-436.5815456133998
 31
0.0
  0
LINE
  5
41
330
2
100
AcDbEntity
  8
L-ZISSEN
100
AcDbLine
 10
176.1784168189979
 20
-436.0815456133998
 30
0.0
 11
142.1784168189978
 21
-436.0815456133998
 31
0.0
  0
LINE
  5
42
330
2
100
AcDbEntity
  8
L-ZISSEN
100
AcDbLine
 10
145.6784168189965
 20
-488.0815456134001
 30
0.0
 11
240.6784168189963
 21
-488.0815456134002
 31
0.0
  0
LINE
  5
43
330
2
100
AcDbEntity
  8
L-ZISSEN
100
AcDbLine
 10
145.6784168189963
 20
-489.0815456134001
 30
0.0
 11
240.6784168189963
 21
-489.0815456134003
 31
0.0
  0
LINE
  5
44
330
2
100
AcDbEntity
  8
L-ZISSEN
100
AcDbLine
 10
145.678416818997
 20
-488.0815456134001
 30
0.0
 11
240.6784168189976
 21
-488.0815456134001
 31
0.0
  0
LINE
  5
45
330
2
100
AcDbEntity
  8
L-ZISSEN
100
AcDbLine
 10
241.1784168189976
 20
-478.0815456134002
 30
0.0
 11
145.1784168189972
 21
-478.0815456133999
 31
0.0
  0
LINE
  5
46
330
2
100
AcDbEntity
  8
L-TYUSIN
100
AcDbLine
 10
282.6784168189972
 20
-462.5815456134001
 30
0.0
 11
67.678416818997
 21
-462.5815456133997
 31
0.0
  0
LINE
  5
47
330
2
100
AcDbEntity
  8
L-ZISSEN
100
AcDbLine
 10
270.6784168189967
 20
-441.5815456133998
 30
0.0
 11
79.67841681899746
 21
-441.5815456133998
 31
0.0
  0
LINE
  5
48
330
2
100
AcDbEntity
  8
L-ZISSEN
100
AcDbLine
 10
168.6390248048274
 20
-270.5815074971642
 30
0.0
 11
148.6784168189968
 21
-270.5815074971642
 31
0.0
  0
CIRCLE
  5
49
330
2
100
AcDbEntity
  8
L-ZISSEN
100
AcDbCircle
 10
159.1784168189963
 20
-298.0815074971639
 30
0.0
 40
7.500000000001136
  0
LINE
  5
4A
330
2
100
AcDbEntity
  8
L-TYUSIN
100
AcDbLine
 10
146.6784168189963
 20
-298.0815074971639
 30
0.0
 11
171.6784168189963
 21
-298.0815074971639
 31
0.0
  0
CIRCLE
  5
4B
330
2
100
AcDbEntity
  8
L-ZISSEN
100
AcDbCircle
 10
159.1784168189963
 20
-298.0815074971639
 30
0.0
 40
4.099999999999999
  0
LINE
  5
4C
330
2
100
AcDbEntity
  8
L-ZISSEN
100
AcDbLine
 10
163.6390248048274
 20
-334.5815074971641
 30
0.0
 11
148.6784168189968
 21
-334.5815074971641
 31
0.0
  0
CIRCLE
  5
4D
330
2
100
AcDbEntity
  8
L-ZISSEN
100
AcDbCircle
 10
159.1784168189963
 20
-298.0815074971639
 30
0.0
 40
17.5
  0
LINE
  5
4E
330
2
100
AcDbEntity
  8
L-ZISSEN
100
AcDbLine
 10
243.1784168189963
 20
-344.581507497164
 30
0.0
 11
143.1784168189963
 21
-344.581507497164
 31
0.0
  0
LINE
  5
4F
330
2
100
AcDbEntity
  8
L-ZISSEN
100
AcDbLine
 10
243.1784168189963
 20
-260.581507497164
 30
0.0
 11
143.1784168189943
 21
-260.5815074971642
 31
0.0
  0
LINE
  5
50
330
2
100
AcDbEntity
  8
L-ZISSEN
100
AcDbLine
 10
143.1784168189963
 20
-490.0815456134003
 30
0.0
 11
243.1784168189963
 21
-490.0815456134003
 31
0.0
  0
LINE
  5
51
330
2
100
AcDbEntity
  8
L-TYUSIN
100
AcDbLine
 10
145.2009168189965
 20
-504.0815456134001
 30
0.0
 11
171.1559168189965
 21
-504.0815456134001
 31
0.0
  0
CIRCLE
  5
52
330
2
100
AcDbEntity
  8
L-ZISSEN
100
AcDbCircle
 10
158.1784168189964
 20
-504.0815456134001
 30
0.0
 40
9.0
  0
LINE
  5
53
330
2
100
AcDbEntity
  8
L-ZISSEN
100
AcDbLine
 10
123.1784168189965
 20
-529.0815456134001
 30
0.0
 11
263.1784168189963
 21
-529.0815456134002
 31
0.0
  0
TEXT
  5
54
330
2
100
AcDbEntity
  8
L-ZISSEN
100
AcDbText
 10
150.1543080231508
 20
-548.3021752192985
 30
0.0
 40
4.5
  1
Rc 1/4
100
AcDbText
  0
TEXT
  5
55
330
2
100
AcDbEntity
  8
L-ZISSEN
100
AcDbText
 10
150.1543080231508
 20
-568.3021752192985
 30
0.0
 40
4.5
  1
Rc 1/2
100
AcDbText
  0
TEXT
  5
56
330
2
100
AcDbEntity
  8
L-ZISSEN
100
AcDbText
 10
150.1543080231508
 20
-558.3021752192985
 30
0.0
 40
4.5
  1
Rc 3/8
100
AcDbText
  0
TEXT
  5
57
330
2
100
AcDbEntity
  8
L-ZISSEN
100
AcDbText
 10
146.1543080231508
 20
-540.5521752192985
 30
0.0
 40
4.5
  1
"1" PORT
100
AcDbText
  0
LINE
  5
58
330
2
100
AcDbEntity
  8
L-TYUSIN
100
AcDbLine
 10
159.1784168189979
 20
-423.5815456133998
 30
0.0
 11
159.1784168189979
 21
-446.5815456133999
 31
0.0
  0
LINE
  5
59
330
2
100
AcDbEntity
  8
L-ZISSEN
100
AcDbLine
 10
141.6784168189979
 20
-436.5815456133998
 30
0.0
 11
141.6784168189979
 21
-441.5815456133999
 31
0.0
  0
LINE
  5
5A
330
2
100
AcDbEntity
  8
L-TYUSIN
100
AcDbLine
 10
148.6784168189963
 20
-428.5815456133997
 30
0.0
 11
148.6784168189963
 21
-444.0815456133998
 31
0.0
  0
LINE
  5
5B
330
2
100
AcDbEntity
  8
L-ZISSEN
100
AcDbLine
 10
145.1784168189976
 20
-483.5815456133998
 30
0.0
 11
79.67841681899791
 21
-483.5815456133997
 31
0.0
  0
LINE
  5
5C
330
2
100
AcDbEntity
  8
L-ZISSEN
100
AcDbLine
 10
72.678416818997
 20
-454.3315456133998
 30
0.0
 11
72.67841681899746
 21
-482.8315456134
 31
0.0
  0
LINE
  5
5D
330
2
100
AcDbEntity
  8
L-ZISSEN
100
AcDbLine
 10
79.67841681899746
 20
-441.5815456133998
 30
0.0
 11
79.67841681899791
 21
-483.5815456133997
 31
0.0
  0
LINE
  5
5E
330
2
100
AcDbEntity
  8
L-ZISSEN
100
AcDbLine
 10
73.17841681899746
 20
-483.3315456134
 30
0.0
 11
79.67841681899837
 21
-483.3315456134
 31
0.0
  0
LINE
  5
5F
330
2
100
AcDbEntity
  8
L-TYUSIN
100
AcDbLine
 10
76.17841681899746
 20
-475.0815456133989
 30
0.0
 11
66.87841681899728
 21
-475.0815456133989
 31
0.0
  0
LINE
  5
60
330
2
100
AcDbEntity
  8
L-ZISSEN
100
AcDbLine
 10
68.37841681899728
 20
-470.8315456133989
 30
0.0
 11
68.37841681899728
 21
-479.3315456133989
 31
0.0
  0
LINE
  5
61
330
2
100
AcDbEntity
  8
L-ZISSEN
100
AcDbLine
 10
68.37841681899728
 20
-479.3315456133987
 30
0.0
 11
72.67841681899746
 21
-479.3315456133991
 31
0.0
  0
LINE
  5
62
330
2
100
AcDbEntity
  8
L-ZISSEN
100
AcDbLine
 10
68.37841681899728
 20
-470.8315456133989
 30
0.0
 11
72.67841681899724
 21
-470.8315456133989
 31
0.0
  0
ARC
  5
63
330
2
100
AcDbEntity
  8
L-ZISSEN
100
AcDbCircle
 10
73.17841681899746
 20
-482.8315456134
 30
0.0
 40
0.5
100
AcDbArc
 50
180.0000000000007
 51
270.0
  0
LINE
  5
64
330
2
100
AcDbEntity
  8
L-ZISSEN
100
AcDbLine
 10
73.178416818997
 20
-441.8315456133996
 30
0.0
 11
79.67841681899701
 21
-441.8315456133996
 31
0.0
  0
LINE
  5
65
330
2
100
AcDbEntity
  8
L-ZISSEN
100
AcDbLine
 10
74.67841681899701
 20
-441.8315456133997
 30
0.0
 11
74.67841681899746
 21
-455.5815456133996
 31
0.0
  0
LINE
  5
66
330
2
100
AcDbEntity
  8
L-ZISSEN
100
AcDbLine
 10
68.37841681899728
 20
-454.3315456133998
 30
0.0
 11
68.37841681899728
 21
-445.8315456133998
 31
0.0
  0
LINE
  5
67
330
2
100
AcDbEntity
  8
L-ZISSEN
100
AcDbLine
 10
73.37841681899728
 20
-445.4815456133998
 30
0.0
 11
73.3784168189975
 21
-454.6815456133998
 31
0.0
  0
LINE
  5
68
330
2
100
AcDbEntity
  8
L-ZISSEN
100
AcDbLine
 10
68.37841681899728
 20
-454.3315456133998
 30
0.0
 11
73.3784168189975
 21
-454.3315456133997
 31
0.0
  0
LINE
  5
69
330
2
100
AcDbEntity
  8
L-ZISSEN
100
AcDbLine
 10
72.678416818997
 20
-455.5815456133996
 30
0.0
 11
74.67841681899746
 21
-455.5815456133996
 31
0.0
  0
LINE
  5
6A
330
2
100
AcDbEntity
  8
L-ZISSEN
100
AcDbLine
 10
74.67841681899769
 20
-454.6815456133998
 30
0.0
 11
73.3784168189975
 21
-454.6815456133998
 31
0.0
  0
LINE
  5
6B
330
2
100
AcDbEntity
  8
L-TYUSIN
100
AcDbLine
 10
76.17841681899746
 20
-450.0815456133998
 30
0.0
 11
66.87841681899728
 21
-450.0815456133998
 31
0.0
  0
LINE
  5
6C
330
2
100
AcDbEntity
  8
L-ZISSEN
100
AcDbLine
 10
68.37841681899728
 20
-445.8315456134
 30
0.0
 11
73.37841681899728
 21
-445.8315456133998
 31
0.0
  0
LINE
  5
6D
330
2
100
AcDbEntity
  8
L-ZISSEN
100
AcDbLine
 10
72.678416818997
 20
-442.3315456133996
 30
0.0
 11
72.678416818997
 21
-445.8315456133996
 31
0.0
  0
ARC
  5
6E
330
2
100
AcDbEntity
  8
L-ZISSEN
100
AcDbCircle
 10
73.178416818997
 20
-442.3315456133996
 30
0.0
 40
0.5
100
AcDbArc
 50
90.0
 51
180.0000000000007
  0
LINE
  5
6F
330
2
100
AcDbEntity
  8
L-ZISSEN
100
AcDbLine
 10
74.67841681899724
 20
-445.4815456133998
 30
0.0
 11
73.37841681899728
 21
-445.4815456133998
 31
0.0
  0
LINE
  5
70
330
2
100
AcDbEntity
  8
L-TYUSIN
100
AcDbLine
 10
158.1784168189964
 20
-491.1040456134002
 30
0.0
 11
158.1784168189965
 21
-517.0590456134001
 31
0.0
  0
LINE
  5
71
330
2
100
AcDbEntity
  8
L-ZISSEN
100
AcDbLine
 10
143.1784168189963
 20
-490.0815456134003
 30
0.0
 11
143.1784168189963
 21
-519.0815456134003
 31
0.0
  0
LINE
  5
72
330
2
100
AcDbEntity
  8
L-ZISSEN
100
AcDbLine
 10
123.1784168189965
 20
-519.0815456134003
 30
0.0
 11
143.1784168189963
 21
-519.0815456134003
 31
0.0
  0
LINE
  5
73
330
2
100
AcDbEntity
  8
L-ZISSEN
100
AcDbLine
 10
123.1784168189965
 20
-519.0815456134002
 30
0.0
 11
123.1784168189965
 21
-529.0815456134001
 31
0.0
  0
LINE
  5
74
330
2
100
AcDbEntity
  8
L-TYUSIN
100
AcDbLine
 10
133.1784168189962
 20
-516.5815456134002
 30
0.0
 11
133.1784168189962
 21
-531.5815456134002
 31
0.0
  0
LINE
  5
75
330
2
100
AcDbEntity
  8
L-ZISSEN
100
AcDbLine
 10
99.67841681899791
 20
-441.5815456133997
 30
0.0
 11
99.6784168189977
 21
-483.5815456133998
 31
0.0
  0
LINE
  5
76
330
2
100
AcDbEntity
  8
L-ZISSEN
100
AcDbLine
 10
137.1784168189976
 20
-441.5815456133998
 30
0.0
 11
137.1784168189976
 21
-483.5815456133998
 31
0.0
  0
LINE
  5
77
330
2
100
AcDbEntity
  8
L-ZISSEN
100
AcDbLine
 10
145.6784168189968
 20
-490.0815456134003
 30
0.0
 11
145.6784168189976
 21
-478.0815456133999
 31
0.0
  0
LINE
  5
78
330
2
100
AcDbEntity
  8
L-ZISSEN
100
AcDbLine
 10
145.1784168189976
 20
-483.5815456133998
 30
0.0
 11
145.1784168189981
 21
-478.0815456133998
 31
0.0
  0
LINE
  5
79
330
2
100
AcDbEntity
  8
L-ZISSEN
100
AcDbLine
 10
99.67841681899637
 20
-328.5815074971643
 30
0.0
 11
99.67841681899637
 21
-276.581507497165
 31
0.0
  0
LINE
  5
7A
330
2
100
AcDbEntity
  8
L-ZISSEN
100
AcDbLine
 10
72.67841681899591
 20
-277.3315074971636
 30
0.0
 11
72.67841681899591
 21
-318.8315074971638
 31
0.0
  0
LINE
  5
7B
330
2
100
AcDbEntity
  8
L-ZISSEN
100
AcDbLine
 10
79.67841681899637
 20
-328.5815074971644
 30
0.0
 11
79.6784168189966
 21
-276.581507497165
 31
0.0
  0
LINE
  5
7C
330
2
100
AcDbEntity
  8
L-ZISSEN
100
AcDbLine
 10
137.1784168189968
 20
-328.3315074971641
 30
0.0
 11
137.1784168189968
 21
-276.5815074971649
 31
0.0
  0
LINE
  5
7D
330
2
100
AcDbEntity
  8
L-ZISSEN
100
AcDbLine
 10
79.67841681899591
 20
-328.3315074971637
 30
0.0
 11
73.17841681899591
 21
-328.3315074971637
 31
0.0
  0
LINE
  5
7E
330
2
100
AcDbEntity
  8
L-ZISSEN
100
AcDbLine
 10
74.67841681899591
 20
-317.5815074971637
 30
0.0
 11
74.67841681899591
 21
-328.3315074971637
 31
0.0
  0
ARC
  5
7F
330
2
100
AcDbEntity
  8
L-ZISSEN
100
AcDbCircle
 10
73.17841681899591
 20
-327.8315074971637
 30
0.0
 40
0.5
100
AcDbArc
 50
180.0
 51
270.0
  0
LINE
  5
80
330
2
100
AcDbEntity
  8
L-TYUSIN
100
AcDbLine
 10
76.17841681899591
 20
-323.0815074971638
 30
0.0
 11
66.87841681899596
 21
-323.0815074971638
 31
0.0
  0
LINE
  5
81
330
2
100
AcDbEntity
  8
L-ZISSEN
100
AcDbLine
 10
73.37841681899618
 20
-318.8315074971636
 30
0.0
 11
68.37841681899596
 21
-318.8315074971638
 31
0.0
  0
LINE
  5
82
330
2
100
AcDbEntity
  8
L-ZISSEN
100
AcDbLine
 10
72.67841681899591
 20
-327.3315074971637
 30
0.0
 11
72.67841681899591
 21
-327.8315074971637
 31
0.0
  0
LINE
  5
83
330
2
100
AcDbEntity
  8
L-ZISSEN
100
AcDbLine
 10
73.37841681899618
 20
-327.3315074971635
 30
0.0
 11
68.37841681899596
 21
-327.3315074971637
 31
0.0
  0
LINE
  5
84
330
2
100
AcDbEntity
  8
L-ZISSEN
100
AcDbLine
 10
73.37841681899596
 20
-318.4815074971637
 30
0.0
 11
73.37841681899618
 21
-327.6815074971638
 31
0.0
  0
LINE
  5
85
330
2
100
AcDbEntity
  8
L-ZISSEN
100
AcDbLine
 10
68.37841681899596
 20
-318.8315074971638
 30
0.0
 11
68.37841681899596
 21
-327.3315074971637
 31
0.0
  0
LINE
  5
86
330
2
100
AcDbEntity
  8
L-ZISSEN
100
AcDbLine
 10
74.67841681899591
 20
-327.6815074971638
 30
0.0
 11
73.37841681899618
 21
-327.6815074971638
 31
0.0
  0
LINE
  5
87
330
2
100
AcDbEntity
  8
L-ZISSEN
100
AcDbLine
 10
74.67841681899591
 20
-317.5815074971637
 30
0.0
 11
72.67841681899591
 21
-317.5815074971637
 31
0.0
  0
LINE
  5
88
330
2
100
AcDbEntity
  8
L-ZISSEN
100
AcDbLine
 10
74.67841681899591
 20
-318.4815074971637
 30
0.0
 11
73.37841681899618
 21
-318.4815074971637
 31
0.0
  0
LINE
  5
89
330
2
100
AcDbEntity
  8
L-ZISSEN
100
AcDbLine
 10
142.1784168189978
 20
-436.0815456133998
 30
0.0
 11
141.6784168189979
 21
-436.5815456133998
 31
0.0
  0
LINE
  5
8A
330
2
100
AcDbEntity
  8
L-ZISSEN
100
AcDbLine
 10
152.4784168189962
 20
-435.0815456133998
 30
0.0
 11
144.8784168189963
 21
-435.0815456133998
 31
0.0
  0
LINE
  5
8B
330
2
100
AcDbEntity
  8
L-ZISSEN
100
AcDbLine
 10
152.1784168189963
 20
-431.0815456133998
 30
0.0
 11
145.1784168189963
 21
-431.0815456133997
 31
0.0
  0
LINE
  5
8C
330
2
100
AcDbEntity
  8
L-ZISSEN
100
AcDbLine
 10
144.8784168189963
 20
-435.0815456133998
 30
0.0
 11
144.8784168189963
 21
-436.0815456133998
 31
0.0
  0
LINE
  5
8D
330
2
100
AcDbEntity
  8
L-ZISSEN
100
AcDbLine
 10
145.1784168189963
 20
-431.0815456133998
 30
0.0
 11
145.1784168189963
 21
-435.0815456133998
 31
0.0
  0
LINE
  5
8E
330
2
100
AcDbEntity
  8
L-ZISSEN
100
AcDbLine
 10
152.1784168189979
 20
-428.5815456133998
 30
0.0
 11
151.6784168189978
 21
-429.0815456133998
 31
0.0
  0
LINE
  5
8F
330
2
100
AcDbEntity
  8
L-ZISSEN
100
AcDbLine
 10
151.6784168189978
 20
-429.0815456133998
 30
0.0
 11
151.6784168189978
 21
-431.0815456133998
 31
0.0
  0
LINE
  5
90
330
2
100
AcDbEntity
  8
L-ZISSEN
100
AcDbLine
 10
152.4784168189962
 20
-435.0815456133998
 30
0.0
 11
152.4784168189962
 21
-436.0815456133998
 31
0.0
  0
LINE
  5
91
330
2
100
AcDbEntity
  8
L-ZISSEN
100
AcDbLine
 10
152.1784168189963
 20
-431.0815456133998
 30
0.0
 11
152.1784168189963
 21
-435.0815456133998
 31
0.0
  0
ARC
  5
92
330
2
100
AcDbEntity
  8
L-ZISSEN
100
AcDbCircle
 10
133.1784168189963
 20
-332.5815074971641
 30
0.0
 40
10.0
100
AcDbArc
 50
156.4218215217992
 51
259.6111421845295
  0
LINE
  5
93
330
2
100
AcDbEntity
  8
L-TYUSIN
100
AcDbLine
 10
140.1784168189963
 20
-332.5815074971641
 30
0.0
 11
126.1784168189963
 21
-332.5815074971641
 31
0.0
  0
LINE
  5
94
330
2
100
AcDbEntity
  8
L-TYUSIN
100
AcDbLine
 10
158.1784168189964
 20
-349.581507497164
 30
0.0
 11
158.1784168189967
 21
-339.5815074971639
 31
0.0
  0
ARC
  5
95
330
2
100
AcDbEntity
  8
L-ZISSEN
100
AcDbCircle
 10
144.6784168189963
 20
-343.0815074971641
 30
0.0
 40
1.5
100
AcDbArc
 50
180.0
 51
270.0
  0
LINE
  5
96
330
2
100
AcDbEntity
  8
L-ZISSEN
100
AcDbLine
 10
131.3751381304717
 20
-342.4175730709346
 30
0.0
 11
143.1784168189943
 21
-344.581507497164
 31
0.0
  0
LINE
  5
97
330
2
100
AcDbEntity
  8
L-TYUSIN
100
AcDbLine
 10
133.1784168189963
 20
-339.5815074971642
 30
0.0
 11
133.1784168189963
 21
-325.5815074971641
 31
0.0
  0
CIRCLE
  5
98
330
2
100
AcDbEntity
  8
L-ZISSEN
100
AcDbCircle
 10
133.1784168189963
 20
-332.5815074971641
 30
0.0
 40
4.5
  0
LINE
  5
99
330
2
100
AcDbEntity
  8
L-ZISSEN
100
AcDbLine
 10
145.6784168189968
 20
-328.5815074971644
 30
0.0
 11
145.6784168189968
 21
-331.5815074971641
 31
0.0
  0
ARC
  5
9A
330
2
100
AcDbEntity
  8
L-ZISSEN
100
AcDbCircle
 10
148.6784168189968
 20
-331.5815074971641
 30
0.0
 40
3.0
100
AcDbArc
 50
180.0
 51
270.0
  0
LINE
  5
9B
330
2
100
AcDbEntity
  8
L-ZISSEN
100
AcDbLine
 10
143.1784168189963
 20
-343.0815074971641
 30
0.0
 11
143.1784168189963
 21
-328.5815074971643
 31
0.0
  0
TEXT
  5
9C
330
2
100
AcDbEntity
  8
L-ZISSEN
100
AcDbText
 10
60.29999967993091
 20
-252.2337984623016
 30
0.0
 40
4.5
  1
PIROT PORT "12"
100
AcDbText
  0
LINE
  5
9D
330
2
100
AcDbEntity
  8
L-ZISSEN
100
AcDbLine
 10
68.37841681899596
 20
-286.3315074971642
 30
0.0
 11
68.37841681899596
 21
-277.8315074971641
 31
0.0
  0
LINE
  5
9E
330
2
100
AcDbEntity
  8
L-TYUSIN
100
AcDbLine
 10
76.17841681899591
 20
-282.0815074971641
 30
0.0
 11
66.87841681899596
 21
-282.0815074971641
 31
0.0
  0
LINE
  5
9F
330
2
100
AcDbEntity
  8
L-ZISSEN
100
AcDbLine
 10
72.67841681899591
 20
-286.3315074971642
 30
0.0
 11
68.37841681899596
 21
-286.3315074971642
 31
0.0
  0
LINE
  5
A0
330
2
100
AcDbEntity
  8
L-ZISSEN
100
AcDbLine
 10
79.67841681899591
 20
-276.8315074971636
 30
0.0
 11
73.17841681899591
 21
-276.8315074971636
 31
0.0
  0
TEXT
  5
A1
330
2
100
AcDbEntity
  8
L-ZISSEN
100
AcDbText
 10
61.28885135830215
 20
-259.9837984623015
 30
0.0
 40
4.5
  1
Rc 1/8
100
AcDbText
  0
ARC
  5
A2
330
2
100
AcDbEntity
  8
L-ZISSEN
100
AcDbCircle
 10
73.17841681899591
 20
-277.3315074971636
 30
0.0
 40
0.5
100
AcDbArc
 50
90.0
 51
180.0
  0
LINE
  5
A3
330
2
100
AcDbEntity
  8
L-ZISSEN
100
AcDbLine
 10
72.67841681899591
 20
-277.8315074971641
 30
0.0
 11
68.37841681899596
 21
-277.8315074971641
 31
0.0
  0
LINE
  5
A4
330
2
100
AcDbEntity
  8
L-ZISSEN
100
AcDbLine
 10
121.52894929223
 20
-251.0332945045304
 30
0.0
 11
127.2455557384422
 21
-251.0332945045304
 31
0.0
  0
ARC
  5
A5
330
2
100
AcDbEntity
  8
L-ZISSEN
100
AcDbCircle
 10
133.1784168189963
 20
-272.5815074971641
 30
0.0
 40
10.0
100
AcDbArc
 50
100.3888578154704
 51
203.5781784782065
  0
LINE
  5
A6
330
2
100
AcDbEntity
  8
L-TYUSIN
100
AcDbLine
 10
140.1784168189963
 20
-272.5815074971639
 30
0.0
 11
126.1784168189963
 21
-272.5815074971639
 31
0.0
  0
LINE
  5
A7
330
2
100
AcDbEntity
  8
L-ZISSEN
100
AcDbLine
 10
159.1784168189963
 20
-298.0815074971639
 30
0.0
 11
127.2455557384422
 21
-251.0332945045304
 31
0.0
  0
SOLID
  5
A8
330
2
100
AcDbEntity
  8
L-ZISSEN
100
AcDbTrace
 10
158.3463665246584
 20
-296.23250684308
 30
0.0
 11
157.7916663284334
 21
-296.6023069738967
 31
0.0
 12
159.1784168189963
 22
-298.0815074971639
 32
0.0
 13
159.1784168189963
 23
-298.0815074971639
 33
0.0
  0
LINE
  5
A9
330
2
100
AcDbEntity
  8
L-TYUSIN
100
AcDbLine
 10
159.1784168189963
 20
-285.831507497164
 30
0.0
 11
159.1784168189963
 21
-310.3315074971642
 31
0.0
  0
CIRCLE
  5
AA
330
2
100
AcDbEntity
  8
L-ZISSEN
100
AcDbCircle
 10
148.7384168189963
 20
-305.0815074971643
 30
0.0
 40
3.560000000002673
  0
CIRCLE
  5
AB
330
2
100
AcDbEntity
  8
L-ZISSEN
100
AcDbCircle
 10
148.7384168189963
 20
-305.0815074971643
 30
0.0
 40
3.860000000002628
  0
LINE
  5
AC
330
2
100
AcDbEntity
  8
L-TYUSIN
100
AcDbLine
 10
148.6784168189963
 20
-306.831507497164
 30
0.0
 11
148.6784168189963
 21
-303.331507497164
 31
0.0
  0
LINE
  5
AD
330
2
100
AcDbEntity
  8
L-TYUSIN
100
AcDbLine
 10
150.4284168189963
 20
-305.081507497164
 30
0.0
 11
146.9284168189963
 21
-305.081507497164
 31
0.0
  0
ARC
  5
AE
330
2
100
AcDbEntity
  8
L-ZISSEN
100
AcDbCircle
 10
144.6784168189963
 20
-262.0815074971641
 30
0.0
 40
1.5
100
AcDbArc
 50
90.0
 51
180.0
  0
LINE
  5
AF
330
2
100
AcDbEntity
  8
L-ZISSEN
100
AcDbLine
 10
131.3751381304717
 20
-262.7454419233937
 30
0.0
 11
143.1784168189943
 21
-260.5815074971642
 31
0.0
  0
LINE
  5
B0
330
2
100
AcDbEntity
  8
L-TYUSIN
100
AcDbLine
 10
133.1784168189963
 20
-279.5815074971641
 30
0.0
 11
133.1784168189963
 21
-265.5815074971641
 31
0.0
  0
CIRCLE
  5
B1
330
2
100
AcDbEntity
  8
L-ZISSEN
100
AcDbCircle
 10
133.1784168189963
 20
-272.5815074971641
 30
0.0
 40
4.5
  0
LINE
  5
B2
330
2
100
AcDbEntity
  8
L-ZISSEN
100
AcDbLine
 10
143.1784168189963
 20
-276.5815074971649
 30
0.0
 11
143.1784168189963
 21
-262.0815074971641
 31
0.0
  0
LINE
  5
B3
330
2
100
AcDbEntity
  8
L-ZISSEN
100
AcDbLine
 10
145.6784168189968
 20
-273.5815074971641
 30
0.0
 11
145.6784168189968
 21
-276.5815074971648
 31
0.0
  0
ARC
  5
B4
330
2
100
AcDbEntity
  8
L-ZISSEN
100
AcDbCircle
 10
148.6784168189968
 20
-273.5815074971641
 30
0.0
 40
3.0
100
AcDbArc
 50
90.0
 51
180.0
  0
LINE
  5
B5
330
2
100
AcDbEntity
  8
L-TYUSIN
100
AcDbLine
 10
158.1784168189965
 20
-265.5815074971644
 30
0.0
 11
158.1784168189965
 21
-255.5815074971643
 31
0.0
  0
LINE
  5
B6
330
2
100
AcDbEntity
  8
L-ZISSEN
100
AcDbLine
 10
176.6784168189979
 20
-436.5815456133998
 30
0.0
 11
176.6784168189978
 21
-441.5815456133998
 31
0.0
  0
LINE
  5
B7
330
2
100
AcDbEntity
  8
L-TYUSIN
100
AcDbLine
 10
169.6784168189994
 20
-428.5815456133997
 30
0.0
 11
169.6784168189994
 21
-444.0815456133998
 31
0.0
  0
LINE
  5
B8
330
2
100
AcDbEntity
  8
L-ZISSEN
100
AcDbLine
 10
218.6784168189979
 20
-436.5815456133998
 30
0.0
 11
218.6784168189979
 21
-441.5815456133999
 31
0.0
  0
LINE
  5
B9
330
2
100
AcDbEntity
  8
L-TYUSIN
100
AcDbLine
 10
225.6784168189962
 20
-428.5815456133997
 30
0.0
 11
225.6784168189962
 21
-444.0815456133998
 31
0.0
  0
LINE
  5
BA
330
2
100
AcDbEntity
  8
L-ZISSEN
100
AcDbLine
 10
253.6784168189979
 20
-436.5815456133998
 30
0.0
 11
253.6784168189979
 21
-441.5815456133998
 31
0.0
  0
LINE
  5
BB
330
2
100
AcDbEntity
  8
L-TYUSIN
100
AcDbLine
 10
246.6784168189994
 20
-428.5815456133997
 30
0.0
 11
246.6784168189994
 21
-444.0815456133998
 31
0.0
  0
LINE
  5
BC
330
2
100
AcDbEntity
  8
L-TYUSIN
100
AcDbLine
 10
236.1784168189978
 20
-423.5815456133998
 30
0.0
 11
236.1784168189978
 21
-446.5815456133999
 31
0.0
  0
LINE
  5
BD
330
2
100
AcDbEntity
  8
L-ZISSEN
100
AcDbLine
 10
415.1784168189957
 20
-436.5815456134
 30
0.0
 11
415.1784168189957
 21
-441.5815456134001
 31
0.0
  0
LINE
  5
BE
330
2
100
AcDbEntity
  8
L-ZISSEN
100
AcDbLine
 10
406.1784168189957
 20
-436.5815456134
 30
0.0
 11
406.1784168189957
 21
-441.5815456134001
 31
0.0
  0
LINE
  5
BF
330
2
100
AcDbEntity
  8
L-TYUSIN
100
AcDbLine
 10
404.6784168189957
 20
-428.5815456134001
 30
0.0
 11
404.6784168189957
 21
-444.0815456134
 31
0.0
  0
LINE
  5
C0
330
2
100
AcDbEntity
  8
L-ZISSEN
100
AcDbLine
 10
371.1784168189957
 20
-436.5815456134002
 30
0.0
 11
371.1784168189957
 21
-441.5815456134001
 31
0.0
  0
LINE
  5
C1
330
2
100
AcDbEntity
  8
L-TYUSIN
100
AcDbLine
 10
388.6784168189957
 20
-423.5815456134
 30
0.0
 11
388.6784168189957
 21
-446.5815456134001
 31
0.0
  0
LINE
  5
C2
330
2
100
AcDbEntity
  8
L-TYUSIN
100
AcDbLine
 10
388.6784168189957
 20
-423.5815456134
 30
0.0
 11
388.6784168189957
 21
-446.5815456134001
 31
0.0
  0
LINE
  5
C3
330
2
100
AcDbEntity
  8
L-TYUSIN
100
AcDbLine
 10
395.6784168189957
 20
-428.5815456134001
 30
0.0
 11
395.6784168189957
 21
-444.0815456134
 31
0.0
  0
LINE
  5
C4
330
2
100
AcDbEntity
  8
L-TYUSIN
100
AcDbLine
 10
193.1784168189962
 20
-436.5815456133998
 30
0.0
 11
193.1784168189965
 21
-531.5815456134003
 31
0.0
  0
LINE
  5
C5
330
2
100
AcDbEntity
  8
L-TYUSIN
100
AcDbLine
 10
193.1784168189963
 20
-436.5815456134
 30
0.0
 11
193.1784168189965
 21
-534.0815456134001
 31
0.0
  0
LINE
  5
C6
330
2
100
AcDbEntity
  8
L-TYUSIN
100
AcDbLine
 10
226.1784168189972
 20
-451.5815456133998
 30
0.0
 11
234.1784168189972
 21
-451.5815456133998
 31
0.0
  0
LINE
  5
C7
330
2
100
AcDbEntity
  8
L-ZISSEN
100
AcDbLine
 10
253.6784168189979
 20
-440.5815456133998
 30
0.0
 11
218.6784168189979
 21
-440.5815456133998
 31
0.0
  0
CIRCLE
  5
C8
330
2
100
AcDbEntity
  8
L-ZISSEN
100
AcDbCircle
 10
228.1784168189965
 20
-504.0815456134001
 30
0.0
 40
9.0
  0
LINE
  5
C9
330
2
100
AcDbEntity
  8
L-TYUSIN
100
AcDbLine
 10
215.2009168189965
 20
-504.0815456134001
 30
0.0
 11
241.1559168189965
 21
-504.0815456134001
 31
0.0
  0
CIRCLE
  5
CA
330
2
100
AcDbEntity
  8
L-ZISSEN
100
AcDbCircle
 10
193.1784168189961
 20
-504.0815456134001
 30
0.0
 40
9.0
  0
LINE
  5
CB
330
2
100
AcDbEntity
  8
L-TYUSIN
100
AcDbLine
 10
180.2009168189961
 20
-504.0815456134001
 30
0.0
 11
206.1559168189961
 21
-504.0815456134001
 31
0.0
  0
LINE
  5
CC
330
2
100
AcDbEntity
  8
L-TYUSIN
100
AcDbLine
 10
180.2009168189965
 20
-504.0815456134001
 30
0.0
 11
206.1559168189965
 21
-504.0815456134001
 31
0.0
  0
SOLID
  5
CD
330
2
100
AcDbEntity
  8
L-ZISSEN
100
AcDbTrace
 10
192.3781630031772
 20
-505.9445284209905
 30
0.0
 11
193.0256306064941
 21
-506.1033684257108
 31
0.0
 12
193.1784168189966
 22
-504.0815456134001
 32
0.0
 13
193.1784168189966
 23
-504.0815456134001
 33
0.0
  0
LINE
  5
CE
330
2
100
AcDbEntity
  8
L-ZISSEN
100
AcDbLine
 10
192.7018968048356
 20
-506.0239484233506
 30
0.0
 11
184.5800990151124
 21
-539.1302238783002
 31
0.0
  0
LINE
  5
CF
330
2
100
AcDbEntity
  8
L-ZISSEN
100
AcDbLine
 10
184.5800990151124
 20
-539.1302238783002
 30
0.0
 11
178.8634925689002
 21
-539.1302238783002
 31
0.0
  0
SOLID
  5
D0
330
2
100
AcDbEntity
  8
L-ZISSEN
100
AcDbTrace
 10
191.3784168189966
 20
-461.6482122800666
 30
0.0
 11
191.7784168189965
 21
-461.1148789467332
 31
0.0
 12
193.1784168189966
 22
-462.5815456133998
 32
0.0
 13
193.1784168189966
 23
-462.5815456133998
 33
0.0
  0
LINE
  5
D1
330
2
100
AcDbEntity
  8
L-ZISSEN
100
AcDbLine
 10
167.4284168189965
 20
-476.5815456134
 30
0.0
 11
178.9284168189965
 21
-476.5815456133999
 31
0.0
  0
LINE
  5
D2
330
2
100
AcDbEntity
  8
L-ZISSEN
100
AcDbLine
 10
168.1784168189965
 20
-470.5815456134001
 30
0.0
 11
178.1784168189965
 21
-470.5815456134001
 31
0.0
  0
LINE
  5
D3
330
2
100
AcDbEntity
  8
L-TYUSIN
100
AcDbLine
 10
173.1784168189965
 20
-469.0815456134
 30
0.0
 11
173.1784168189965
 21
-490.5815456134002
 31
0.0
  0
LINE
  5
D4
330
2
100
AcDbEntity
  8
L-ZISSEN
100
AcDbLine
 10
166.1784168189965
 20
-478.0815456134
 30
0.0
 11
166.1784168189965
 21
-488.0815456134
 31
0.0
  0
LINE
  5
D5
330
2
100
AcDbEntity
  8
L-ZISSEN
100
AcDbLine
 10
167.4284168189965
 20
-476.5815456134001
 30
0.0
 11
167.4284168189965
 21
-478.0815456134
 31
0.0
  0
LINE
  5
D6
330
2
100
AcDbEntity
  8
L-ZISSEN
100
AcDbLine
 10
168.1784168189965
 20
-470.5815456134001
 30
0.0
 11
168.1784168189965
 21
-476.5815456133999
 31
0.0
  0
LINE
  5
D7
330
2
100
AcDbEntity
  8
L-ZISSEN
100
AcDbLine
 10
180.1784168189965
 20
-478.0815456134
 30
0.0
 11
180.1784168189965
 21
-488.0815456134
 31
0.0
  0
LINE
  5
D8
330
2
100
AcDbEntity
  8
L-ZISSEN
100
AcDbLine
 10
178.1784168189965
 20
-470.5815456134001
 30
0.0
 11
178.1784168189965
 21
-476.5815456133998
 31
0.0
  0
LINE
  5
D9
330
2
100
AcDbEntity
  8
L-ZISSEN
100
AcDbLine
 10
178.9284168189965
 20
-476.5815456134001
 30
0.0
 11
178.9284168189965
 21
-478.0815456133999
 31
0.0
  0
TEXT
  5
DA
330
2
100
AcDbEntity
  8
L-ZISSEN
100
AcDbText
 10
170.1770300882891
 20
-457.6203044889314
 30
0.0
 40
4.5
  1
P.P
100
AcDbText
  0
LINE
  5
DB
330
2
100
AcDbEntity
  8
L-TYUSIN
100
AcDbLine
 10
169.1784168189969
 20
-443.2815456134001
 30
0.0
 11
169.1784168189967
 21
-453.0815456134
 31
0.0
  0
LINE
  5
DC
330
2
100
AcDbEntity
  8
L-ZISSEN
100
AcDbLine
 10
164.9284168189965
 20
-445.5815456134001
 30
0.0
 11
173.4284168189965
 21
-445.5815456134001
 31
0.0
  0
LINE
  5
DD
330
2
100
AcDbEntity
  8
L-ZISSEN
100
AcDbLine
 10
174.1784168189967
 20
-450.5815456134
 30
0.0
 11
164.1784168189967
 21
-450.5815456134
 31
0.0
  0
LINE
  5
DE
330
2
100
AcDbEntity
  8
L-ZISSEN
100
AcDbLine
 10
164.1784168189967
 20
-441.5815456133998
 30
0.0
 11
164.1784168189967
 21
-450.5815456134
 31
0.0
  0
LINE
  5
DF
330
2
100
AcDbEntity
  8
L-ZISSEN
100
AcDbLine
 10
164.9284168189965
 20
-445.5815456134001
 30
0.0
 11
164.9284168189965
 21
-450.5815456134
 31
0.0
  0
LINE
  5
E0
330
2
100
AcDbEntity
  8
L-ZISSEN
100
AcDbLine
 10
174.1784168189967
 20
-441.5815456133998
 30
0.0
 11
174.1784168189967
 21
-450.5815456134
 31
0.0
  0
LINE
  5
E1
330
2
100
AcDbEntity
  8
L-ZISSEN
100
AcDbLine
 10
173.4284168189963
 20
-445.5815456134001
 30
0.0
 11
173.4284168189967
 21
-450.5815456134
 31
0.0
  0
LINE
  5
E2
330
2
100
AcDbEntity
  8
L-ZISSEN
100
AcDbLine
 10
191.5784168189967
 20
-461.3815456134
 30
0.0
 11
183.5634286530386
 21
-455.3703044889314
 31
0.0
  0
LINE
  5
E3
330
2
100
AcDbEntity
  8
L-ZISSEN
100
AcDbLine
 10
183.5634286530386
 20
-455.3703044889314
 30
0.0
 11
180.519892352638
 21
-455.3703044889314
 31
0.0
  0
LINE
  5
E4
330
2
100
AcDbEntity
  8
L-TYUSIN
100
AcDbLine
 10
193.178416818997
 20
-440.7815456134005
 30
0.0
 11
193.1784168189963
 21
-478.0815456133999
 31
0.0
  0
LINE
  5
E5
330
2
100
AcDbEntity
  8
L-ZISSEN
100
AcDbLine
 10
207.4284168189967
 20
-476.5815456134
 30
0.0
 11
218.9284168189965
 21
-476.5815456133999
 31
0.0
  0
LINE
  5
E6
330
2
100
AcDbEntity
  8
L-ZISSEN
100
AcDbLine
 10
208.1784168189965
 20
-470.5815456134001
 30
0.0
 11
218.1784168189967
 21
-470.5815456134001
 31
0.0
  0
LINE
  5
E7
330
2
100
AcDbEntity
  8
L-ZISSEN
100
AcDbLine
 10
206.1784168189963
 20
-478.0815456133999
 30
0.0
 11
206.1784168189965
 21
-488.0815456134
 31
0.0
  0
LINE
  5
E8
330
2
100
AcDbEntity
  8
L-ZISSEN
100
AcDbLine
 10
208.1784168189965
 20
-470.5815456134001
 30
0.0
 11
208.1784168189967
 21
-476.5815456133999
 31
0.0
  0
LINE
  5
E9
330
2
100
AcDbEntity
  8
L-ZISSEN
100
AcDbLine
 10
207.4284168189967
 20
-476.5815456134001
 30
0.0
 11
207.4284168189965
 21
-478.0815456134
 31
0.0
  0
LINE
  5
EA
330
2
100
AcDbEntity
  8
L-TYUSIN
100
AcDbLine
 10
213.1784168189965
 20
-469.0815456134002
 30
0.0
 11
213.1784168189965
 21
-490.5815456134002
 31
0.0
  0
LINE
  5
EB
330
2
100
AcDbEntity
  8
L-ZISSEN
100
AcDbLine
 10
220.1784168189963
 20
-478.0815456133998
 30
0.0
 11
220.1784168189965
 21
-488.0815456134001
 31
0.0
  0
LINE
  5
EC
330
2
100
AcDbEntity
  8
L-ZISSEN
100
AcDbLine
 10
218.1784168189967
 20
-470.5815456134001
 30
0.0
 11
218.1784168189967
 21
-476.5815456133998
 31
0.0
  0
LINE
  5
ED
330
2
100
AcDbEntity
  8
L-ZISSEN
100
AcDbLine
 10
218.9284168189967
 20
-476.5815456134001
 30
0.0
 11
218.9284168189965
 21
-478.0815456133999
 31
0.0
  0
LINE
  5
EE
330
2
100
AcDbEntity
  8
L-TYUSIN
100
AcDbLine
 10
217.1784168189978
 20
-443.2815456133998
 30
0.0
 11
217.1784168189976
 21
-453.0815456133998
 31
0.0
  0
LINE
  5
EF
330
2
100
AcDbEntity
  8
L-ZISSEN
100
AcDbLine
 10
212.9284168189974
 20
-445.5815456133998
 30
0.0
 11
221.4284168189974
 21
-445.5815456133998
 31
0.0
  0
LINE
  5
F0
330
2
100
AcDbEntity
  8
L-ZISSEN
100
AcDbLine
 10
222.1784168189976
 20
-450.5815456133998
 30
0.0
 11
212.1784168189976
 21
-450.5815456133998
 31
0.0
  0
LINE
  5
F1
330
2
100
AcDbEntity
  8
L-ZISSEN
100
AcDbLine
 10
212.1784168189976
 20
-441.5815456134001
 30
0.0
 11
212.1784168189976
 21
-450.5815456133998
 31
0.0
  0
LINE
  5
F2
330
2
100
AcDbEntity
  8
L-ZISSEN
100
AcDbLine
 10
212.9284168189974
 20
-445.5815456133998
 30
0.0
 11
212.9284168189974
 21
-450.5815456133997
 31
0.0
  0
LINE
  5
F3
330
2
100
AcDbEntity
  8
L-ZISSEN
100
AcDbLine
 10
222.1784168189972
 20
-441.5815456134001
 30
0.0
 11
222.1784168189972
 21
-450.5815456133998
 31
0.0
  0
LINE
  5
F4
330
2
100
AcDbEntity
  8
L-ZISSEN
100
AcDbLine
 10
221.4284168189972
 20
-445.5815456133998
 30
0.0
 11
221.4284168189976
 21
-450.5815456133997
 31
0.0
  0
LINE
  5
F5
330
2
100
AcDbEntity
  8
L-TYUSIN
100
AcDbLine
 10
228.1784168189964
 20
-491.1040456134002
 30
0.0
 11
228.1784168189965
 21
-517.0590456134001
 31
0.0
  0
LINE
  5
F6
330
2
100
AcDbEntity
  8
L-ZISSEN
100
AcDbLine
 10
243.1784168189963
 20
-490.0815456134003
 30
0.0
 11
243.1784168189963
 21
-519.0815456134003
 31
0.0
  0
LINE
  5
F7
330
2
100
AcDbEntity
  8
L-ZISSEN
100
AcDbLine
 10
243.1784168189963
 20
-519.0815456134003
 30
0.0
 11
263.1784168189963
 21
-519.0815456134003
 31
0.0
  0
LINE
  5
F8
330
2
100
AcDbEntity
  8
L-TYUSIN
100
AcDbLine
 10
253.1784168189968
 20
-516.5815456134002
 30
0.0
 11
253.1784168189968
 21
-531.5815456134002
 31
0.0
  0
LINE
  5
F9
330
2
100
AcDbEntity
  8
L-ZISSEN
100
AcDbLine
 10
263.1784168189963
 20
-519.0815456134003
 30
0.0
 11
263.1784168189963
 21
-529.0815456134002
 31
0.0
  0
LINE
  5
FA
330
2
100
AcDbEntity
  8
L-ZISSEN
100
AcDbLine
 10
270.6784168189967
 20
-483.5815456133998
 30
0.0
 11
241.1784168189985
 21
-483.5815456133998
 31
0.0
  0
LINE
  5
FB
330
2
100
AcDbEntity
  8
L-ZISSEN
100
AcDbLine
 10
240.6784168189978
 20
-490.0815456134003
 30
0.0
 11
240.6784168189967
 21
-478.0815456133999
 31
0.0
  0
LINE
  5
FC
330
2
100
AcDbEntity
  8
L-ZISSEN
100
AcDbLine
 10
241.1784168189981
 20
-483.5815456133998
 30
0.0
 11
241.1784168189972
 21
-478.0815456133998
 31
0.0
  0
LINE
  5
FD
330
2
100
AcDbEntity
  8
L-TYUSIN
100
AcDbLine
 10
230.1784168189972
 20
-455.5815456133998
 30
0.0
 11
230.1784168189972
 21
-447.5815456133998
 31
0.0
  0
CIRCLE
  5
FE
330
2
100
AcDbEntity
  8
L-ZISSEN
100
AcDbCircle
 10
230.1784168189972
 20
-451.5815456133998
 30
0.0
 40
2.1
  0
LINE
  5
FF
330
2
100
AcDbEntity
  8
L-ZISSEN
100
AcDbLine
 10
270.6784168189967
 20
-441.5815456133998
 30
0.0
 11
270.6784168189967
 21
-483.5815456133998
 31
0.0
  0
LINE
  5
100
330
2
100
AcDbEntity
  8
L-ZISSEN
100
AcDbLine
 10
277.6784168189974
 20
-470.8315456133995
 30
0.0
 11
277.678416818997
 21
-442.3315456133994
 31
0.0
  0
LINE
  5
101
330
2
100
AcDbEntity
  8
L-ZISSEN
100
AcDbLine
 10
276.9784168189973
 20
-479.6815456134001
 30
0.0
 11
275.6784168189974
 21
-479.6815456133999
 31
0.0
  0
LINE
  5
102
330
2
100
AcDbEntity
  8
L-ZISSEN
100
AcDbLine
 10
277.6784168189974
 20
-469.5815456133998
 30
0.0
 11
275.678416818997
 21
-469.5815456133998
 31
0.0
  0
LINE
  5
103
330
2
100
AcDbEntity
  8
L-ZISSEN
100
AcDbLine
 10
276.9784168189969
 20
-470.4815456133998
 30
0.0
 11
275.6784168189972
 21
-470.4815456133998
 31
0.0
  0
LINE
  5
104
330
2
100
AcDbEntity
  8
L-ZISSEN
100
AcDbLine
 10
277.1784168189974
 20
-483.3315456133998
 30
0.0
 11
270.6784168189974
 21
-483.3315456133998
 31
0.0
  0
LINE
  5
105
330
2
100
AcDbEntity
  8
L-TYUSIN
100
AcDbLine
 10
284.4784168189971
 20
-475.0815456134001
 30
0.0
 11
273.178416818997
 21
-475.0815456133998
 31
0.0
  0
LINE
  5
106
330
2
100
AcDbEntity
  8
L-ZISSEN
100
AcDbLine
 10
275.6784168189974
 20
-483.3315456133997
 30
0.0
 11
275.678416818997
 21
-469.5815456133998
 31
0.0
  0
LINE
  5
107
330
2
100
AcDbEntity
  8
L-ZISSEN
100
AcDbLine
 10
281.9784168189972
 20
-470.8315456133996
 30
0.0
 11
281.9784168189972
 21
-479.3315456133996
 31
0.0
  0
LINE
  5
108
330
2
100
AcDbEntity
  8
L-ZISSEN
100
AcDbLine
 10
276.9784168189971
 20
-479.6815456133999
 30
0.0
 11
276.9784168189969
 21
-470.4815456133998
 31
0.0
  0
LINE
  5
109
330
2
100
AcDbEntity
  8
L-ZISSEN
100
AcDbLine
 10
281.9784168189972
 20
-479.3315456133994
 30
0.0
 11
276.9784168189971
 21
-479.3315456133998
 31
0.0
  0
LINE
  5
10A
330
2
100
AcDbEntity
  8
L-ZISSEN
100
AcDbLine
 10
281.9784168189972
 20
-470.8315456133996
 30
0.0
 11
276.9784168189969
 21
-470.8315456133997
 31
0.0
  0
ARC
  5
10B
330
2
100
AcDbEntity
  8
L-ZISSEN
100
AcDbCircle
 10
277.1784168189974
 20
-482.8315456133998
 30
0.0
 40
0.5
100
AcDbArc
 50
270.0
 51
0.0
  0
LINE
  5
10C
330
2
100
AcDbEntity
  8
L-ZISSEN
100
AcDbLine
 10
277.6784168189974
 20
-482.8315456133998
 30
0.0
 11
277.6784168189974
 21
-479.3315456133998
 31
0.0
  0
LINE
  5
10D
330
2
100
AcDbEntity
  8
L-ZISSEN
100
AcDbLine
 10
277.178416818997
 20
-441.8315456133994
 30
0.0
 11
270.678416818996
 21
-441.8315456133994
 31
0.0
  0
LINE
  5
10E
330
2
100
AcDbEntity
  8
L-TYUSIN
100
AcDbLine
 10
284.4784168189971
 20
-450.0815456133998
 30
0.0
 11
273.178416818997
 21
-450.0815456134001
 31
0.0
  0
LINE
  5
10F
330
2
100
AcDbEntity
  8
L-ZISSEN
100
AcDbLine
 10
281.9784168189972
 20
-454.3315456134003
 30
0.0
 11
281.9784168189972
 21
-445.8315456134003
 31
0.0
  0
LINE
  5
110
330
2
100
AcDbEntity
  8
L-ZISSEN
100
AcDbLine
 10
281.9784168189972
 20
-454.3315456134003
 30
0.0
 11
277.6784168189972
 21
-454.3315456134003
 31
0.0
  0
LINE
  5
111
330
2
100
AcDbEntity
  8
L-ZISSEN
100
AcDbLine
 10
281.9784168189972
 20
-445.8315456134005
 30
0.0
 11
277.6784168189972
 21
-445.8315456134
 31
0.0
  0
ARC
  5
112
330
2
100
AcDbEntity
  8
L-ZISSEN
100
AcDbCircle
 10
277.178416818997
 20
-442.3315456133994
 30
0.0
 40
0.5
100
AcDbArc
 50
0.0
 51
90.0
  0
TEXT
  5
113
330
2
100
AcDbEntity
  8
L-ZISSEN
100
AcDbText
 10
354.5033113589149
 20
-449.8315456133999
 30
0.0
 40
4.5
  1
P.P
100
AcDbText
  0
LINE
  5
114
330
2
100
AcDbEntity
  8
L-ZISSEN
100
AcDbLine
 10
356.1784168189959
 20
-470.5815456134001
 30
0.0
 11
366.178416818996
 21
-470.5815456134001
 31
0.0
  0
LINE
  5
115
330
2
100
AcDbEntity
  8
L-ZISSEN
100
AcDbLine
 10
355.4284168189961
 20
-476.5815456134001
 30
0.0
 11
366.9284168189959
 21
-476.5815456134
 31
0.0
  0
LINE
  5
116
330
2
100
AcDbEntity
  8
L-ZISSEN
100
AcDbLine
 10
354.1784168189959
 20
-478.0815456134002
 30
0.0
 11
367.1784168189958
 21
-478.0815456134003
 31
0.0
  0
LINE
  5
117
330
2
100
AcDbEntity
  8
L-ZISSEN
100
AcDbLine
 10
351.1784168189959
 20
-490.0815456134002
 30
0.0
 11
351.1784168189961
 21
-529.0815456134001
 31
0.0
  0
LINE
  5
118
330
2
100
AcDbEntity
  8
L-TYUSIN
100
AcDbLine
 10
353.6784168189959
 20
-504.0815456134001
 30
0.0
 11
348.6784168189959
 21
-504.0815456133999
 31
0.0
  0
LINE
  5
119
330
2
100
AcDbEntity
  8
L-ZISSEN
100
AcDbLine
 10
354.1784168189959
 20
-478.0815456134002
 30
0.0
 11
354.1784168189959
 21
-490.0815456134002
 31
0.0
  0
LINE
  5
11A
330
2
100
AcDbEntity
  8
L-ZISSEN
100
AcDbLine
 10
355.4284168189961
 20
-476.5815456134003
 30
0.0
 11
355.4284168189959
 21
-478.0815456134002
 31
0.0
  0
LINE
  5
11B
330
2
100
AcDbEntity
  8
L-ZISSEN
100
AcDbLine
 10
356.1784168189959
 20
-470.5815456134001
 30
0.0
 11
356.178416818996
 21
-476.5815456134
 31
0.0
  0
LINE
  5
11C
330
2
100
AcDbEntity
  8
L-TYUSIN
100
AcDbLine
 10
393.1784168189957
 20
-439.3315456134001
 30
0.0
 11
393.1784168189963
 21
-534.0815456134
 31
0.0
  0
LINE
  5
11D
330
2
100
AcDbEntity
  8
L-TYUSIN
100
AcDbLine
 10
363.1784168189959
 20
-516.5815456133999
 30
0.0
 11
363.178416818996
 21
-531.5815456134
 31
0.0
  0
LINE
  5
11E
330
2
100
AcDbEntity
  8
L-ZISSEN
100
AcDbLine
 10
380.4989248946846
 20
-519.0815456134002
 30
0.0
 11
380.4989248946846
 21
-529.0815456133999
 31
0.0
  0
LINE
  5
11F
330
2
100
AcDbEntity
  8
L-TYUSIN
100
AcDbLine
 10
423.1784168189961
 20
-516.5815456133999
 30
0.0
 11
423.178416818996
 21
-531.5815456134
 31
0.0
  0
LINE
  5
120
330
2
100
AcDbEntity
  8
L-ZISSEN
100
AcDbLine
 10
405.8579087433073
 20
-519.0815456134002
 30
0.0
 11
405.8579087433073
 21
-529.0815456134001
 31
0.0
  0
LINE
  5
121
330
2
100
AcDbEntity
  8
L-ZISSEN
100
AcDbLine
 10
367.9284168189959
 20
-483.3315456133999
 30
0.0
 11
418.4284168189959
 21
-483.3315456133999
 31
0.0
  0
LINE
  5
122
330
2
100
AcDbEntity
  8
L-ZISSEN
100
AcDbLine
 10
367.1784168189959
 20
-483.5815456133999
 30
0.0
 11
419.1784168189959
 21
-483.5815456134
 31
0.0
  0
LINE
  5
123
330
2
100
AcDbEntity
  8
L-TYUSIN
100
AcDbLine
 10
364.9284168189959
 20
-462.5815456133999
 30
0.0
 11
421.4284168189959
 21
-462.5815456133999
 31
0.0
  0
LINE
  5
124
330
2
100
AcDbEntity
  8
L-ZISSEN
100
AcDbLine
 10
367.9284168189959
 20
-441.8315456134002
 30
0.0
 11
418.4284168189959
 21
-441.8315456133999
 31
0.0
  0
LINE
  5
125
330
2
100
AcDbEntity
  8
L-ZISSEN
100
AcDbLine
 10
367.1784168189959
 20
-441.5815456134002
 30
0.0
 11
419.1784168189959
 21
-441.5815456133998
 31
0.0
  0
LINE
  5
126
330
2
100
AcDbEntity
  8
L-ZISSEN
100
AcDbLine
 10
371.1784168189957
 20
-440.5815456134
 30
0.0
 11
415.1784168189957
 21
-440.5815456134
 31
0.0
  0
LINE
  5
127
330
2
100
AcDbEntity
  8
L-ZISSEN
100
AcDbLine
 10
367.4284168189959
 20
-442.3315456134002
 30
0.0
 11
367.4284168189959
 21
-482.8315456133999
 31
0.0
  0
LINE
  5
128
330
2
100
AcDbEntity
  8
L-ZISSEN
100
AcDbLine
 10
367.1784168189959
 20
-441.5815456134002
 30
0.0
 11
367.1784168189959
 21
-483.5815456133999
 31
0.0
  0
ARC
  5
129
330
2
100
AcDbEntity
  8
L-ZISSEN
100
AcDbCircle
 10
373.1784168189957
 20
-474.5815456133999
 30
0.0
 40
5.0
100
AcDbArc
 50
0.0
 51
90.0
  0
LINE
  5
12A
330
2
100
AcDbEntity
  8
L-TYUSIN
100
AcDbLine
 10
368.6784168189959
 20
-475.0815456133999
 30
0.0
 11
376.6784168189959
 21
-475.0815456133999
 31
0.0
  0
CIRCLE
  5
12B
330
2
100
AcDbEntity
  8
L-ZISSEN
100
AcDbCircle
 10
372.6784168189957
 20
-475.0815456133999
 30
0.0
 40
4.25
  0
CIRCLE
  5
12C
330
2
100
AcDbEntity
  8
L-ZISSEN
100
AcDbCircle
 10
372.6784168189957
 20
-475.0815456133999
 30
0.0
 40
4.599999999999999
  0
LINE
  5
12D
330
2
100
AcDbEntity
  8
L-ZISSEN
100
AcDbLine
 10
361.1784168189959
 20
-478.0815456134002
 30
0.0
 11
361.1784168189959
 21
-488.0815456134002
 31
0.0
  0
LINE
  5
12E
330
2
100
AcDbEntity
  8
L-TYUSIN
100
AcDbLine
 10
361.1784168189959
 20
-469.0815456134
 30
0.0
 11
361.1784168189959
 21
-490.5815456134002
 31
0.0
  0
LINE
  5
12F
330
2
100
AcDbEntity
  8
L-ZISSEN
100
AcDbLine
 10
367.4284168189957
 20
-469.5815456133999
 30
0.0
 11
373.1784168189957
 21
-469.5815456133999
 31
0.0
  0
ARC
  5
130
330
2
100
AcDbEntity
  8
L-ZISSEN
100
AcDbCircle
 10
367.9284168189959
 20
-482.8315456133999
 30
0.0
 40
0.5
100
AcDbArc
 50
180.0
 51
270.0
  0
LINE
  5
131
330
2
100
AcDbEntity
  8
L-ZISSEN
100
AcDbLine
 10
366.928416818996
 20
-476.5815456134003
 30
0.0
 11
366.9284168189959
 21
-478.0815456134
 31
0.0
  0
LINE
  5
132
330
2
100
AcDbEntity
  8
L-ZISSEN
100
AcDbLine
 10
366.178416818996
 20
-470.5815456134001
 30
0.0
 11
366.178416818996
 21
-476.5815456133999
 31
0.0
  0
LINE
  5
133
330
2
100
AcDbEntity
  8
L-TYUSIN
100
AcDbLine
 10
372.6784168189959
 20
-471.0815456133999
 30
0.0
 11
372.6784168189959
 21
-479.0815456133999
 31
0.0
  0
POLYLINE
  5
134
330
2
100
AcDbEntity
  8
L-ZISSEN
100
AcDb2dPolyline
 66
     1
 10
0.0
 20
0.0
 30
0.0
 70
     1
  0
VERTEX
  5
283
330
134
100
AcDbEntity
  8
L-ZISSEN
100
AcDbVertex
100
AcDb2dVertex
 10
371.5237162806164
 20
-473.0815456133999
 30
0.0
  0
VERTEX
  5
284
330
134
100
AcDbEntity
  8
L-ZISSEN
100
AcDbVertex
100
AcDb2dVertex
 10
370.3690157422371
 20
-475.0815456133999
 30
0.0
  0
VERTEX
  5
285
330
134
100
AcDbEntity
  8
L-ZISSEN
100
AcDbVertex
100
AcDb2dVertex
 10
371.5237162806164
 20
-477.0815456133999
 30
0.0
  0
VERTEX
  5
286
330
134
100
AcDbEntity
  8
L-ZISSEN
100
AcDbVertex
100
AcDb2dVertex
 10
373.833117357375
 20
-477.0815456133999
 30
0.0
  0
VERTEX
  5
287
330
134
100
AcDbEntity
  8
L-ZISSEN
100
AcDbVertex
100
AcDb2dVertex
 10
374.9878178957543
 20
-475.0815456133999
 30
0.0
  0
VERTEX
  5
288
330
134
100
AcDbEntity
  8
L-ZISSEN
100
AcDbVertex
100
AcDb2dVertex
 10
373.833117357375
 20
-473.0815456133999
 30
0.0
  0
SEQEND
  5
289
330
134
100
AcDbEntity
  8
L-ZISSEN
  0
LINE
  5
135
330
2
100
AcDbEntity
  8
L-ZISSEN
100
AcDbLine
 10
378.1784168189957
 20
-474.5815456133999
 30
0.0
 11
378.1784168189957
 21
-483.3315456133998
 31
0.0
  0
LINE
  5
136
330
2
100
AcDbEntity
  8
L-ZISSEN
100
AcDbLine
 10
391.5784168189959
 20
-461.3815456134001
 30
0.0
 11
373.1784168189958
 21
-447.5815456133999
 31
0.0
  0
LINE
  5
137
330
2
100
AcDbEntity
  8
L-ZISSEN
100
AcDbLine
 10
373.1784168189958
 20
-447.5815456133999
 30
0.0
 11
364.8461736232638
 21
-447.5815456133999
 31
0.0
  0
ARC
  5
138
330
2
100
AcDbEntity
  8
L-ZISSEN
100
AcDbCircle
 10
367.9284168189959
 20
-442.3315456134002
 30
0.0
 40
0.5
100
AcDbArc
 50
90.0
 51
180.0
  0
LINE
  5
139
330
2
100
AcDbEntity
  8
L-TYUSIN
100
AcDbLine
 10
364.9284168189958
 20
-451.5815456133998
 30
0.0
 11
369.678416818996
 21
-451.5815456133998
 31
0.0
  0
LINE
  5
13A
330
2
100
AcDbEntity
  8
L-ZISSEN
100
AcDbLine
 10
418.9284168189959
 20
-442.3315456133999
 30
0.0
 11
418.9284168189959
 21
-482.8315456133999
 31
0.0
  0
LINE
  5
13B
330
2
100
AcDbEntity
  8
L-ZISSEN
100
AcDbLine
 10
419.1784168189959
 20
-441.5815456133998
 30
0.0
 11
419.1784168189959
 21
-483.5815456134
 31
0.0
  0
LINE
  5
13C
330
2
100
AcDbEntity
  8
L-ZISSEN
100
AcDbLine
 10
425.1784168189959
 20
-478.0815456134002
 30
0.0
 11
425.1784168189959
 21
-488.0815456134002
 31
0.0
  0
LINE
  5
13D
330
2
100
AcDbEntity
  8
L-TYUSIN
100
AcDbLine
 10
425.1784168189958
 20
-469.0815456134
 30
0.0
 11
425.1784168189959
 21
-490.5815456134002
 31
0.0
  0
ARC
  5
13E
330
2
100
AcDbEntity
  8
L-ZISSEN
100
AcDbCircle
 10
418.4284168189959
 20
-482.8315456133999
 30
0.0
 40
0.5
100
AcDbArc
 50
270.0
 51
0.0
  0
LINE
  5
13F
330
2
100
AcDbEntity
  8
L-ZISSEN
100
AcDbLine
 10
419.4284168189961
 20
-476.5815456134002
 30
0.0
 11
419.4284168189959
 21
-478.0815456134001
 31
0.0
  0
LINE
  5
140
330
2
100
AcDbEntity
  8
L-ZISSEN
100
AcDbLine
 10
420.1784168189959
 20
-470.5815456134001
 30
0.0
 11
420.178416818996
 21
-476.5815456133999
 31
0.0
  0
CIRCLE
  5
141
330
2
100
AcDbEntity
  8
L-ZISSEN
100
AcDbCircle
 10
413.678416818996
 20
-450.0815456133999
 30
0.0
 40
4.599999999999999
  0
ARC
  5
142
330
2
100
AcDbEntity
  8
L-ZISSEN
100
AcDbCircle
 10
413.1784168189959
 20
-450.5815456134
 30
0.0
 40
5.0
100
AcDbArc
 50
180.0
 51
270.0
  0
LINE
  5
143
330
2
100
AcDbEntity
  8
L-ZISSEN
100
AcDbLine
 10
408.1784168189959
 20
-450.5815456134
 30
0.0
 11
408.1784168189959
 21
-441.8315456134
 31
0.0
  0
LINE
  5
144
330
2
100
AcDbEntity
  8
L-TYUSIN
100
AcDbLine
 10
413.678416818996
 20
-454.0815456133999
 30
0.0
 11
413.678416818996
 21
-446.0815456133999
 31
0.0
  0
CIRCLE
  5
145
330
2
100
AcDbEntity
  8
L-ZISSEN
100
AcDbCircle
 10
413.678416818996
 20
-450.0815456133999
 30
0.0
 40
4.25
  0
LINE
  5
146
330
2
100
AcDbEntity
  8
L-ZISSEN
100
AcDbLine
 10
418.9284168189959
 20
-455.5815456133999
 30
0.0
 11
413.1784168189959
 21
-455.5815456133999
 31
0.0
  0
LINE
  5
147
330
2
100
AcDbEntity
  8
L-TYUSIN
100
AcDbLine
 10
417.6784168189959
 20
-450.0815456133999
 30
0.0
 11
409.678416818996
 21
-450.0815456133999
 31
0.0
  0
LINE
  5
148
330
2
100
AcDbEntity
  8
L-TYUSIN
100
AcDbLine
 10
416.6784168189961
 20
-451.5815456133999
 30
0.0
 11
421.6784168189958
 21
-451.5815456133999
 31
0.0
  0
LINE
  5
149
330
2
100
AcDbEntity
  8
L-TYUSIN
100
AcDbLine
 10
416.6784168189961
 20
-449.0815456134
 30
0.0
 11
421.6784168189958
 21
-449.0815456134
 31
0.0
  0
POLYLINE
  5
14A
330
2
100
AcDbEntity
  8
L-ZISSEN
100
AcDb2dPolyline
 66
     1
 10
0.0
 20
0.0
 30
0.0
 70
     1
  0
VERTEX
  5
28A
330
14A
100
AcDbEntity
  8
L-ZISSEN
100
AcDbVertex
100
AcDb2dVertex
 10
412.5237162806167
 20
-448.0815456133999
 30
0.0
  0
VERTEX
  5
28B
330
14A
100
AcDbEntity
  8
L-ZISSEN
100
AcDbVertex
100
AcDb2dVertex
 10
411.3690157422373
 20
-450.0815456133999
 30
0.0
  0
VERTEX
  5
28C
330
14A
100
AcDbEntity
  8
L-ZISSEN
100
AcDbVertex
100
AcDb2dVertex
 10
412.5237162806167
 20
-452.0815456133999
 30
0.0
  0
VERTEX
  5
28D
330
14A
100
AcDbEntity
  8
L-ZISSEN
100
AcDbVertex
100
AcDb2dVertex
 10
414.8331173573752
 20
-452.0815456133999
 30
0.0
  0
VERTEX
  5
28E
330
14A
100
AcDbEntity
  8
L-ZISSEN
100
AcDbVertex
100
AcDb2dVertex
 10
415.9878178957545
 20
-450.0815456133999
 30
0.0
  0
VERTEX
  5
28F
330
14A
100
AcDbEntity
  8
L-ZISSEN
100
AcDbVertex
100
AcDb2dVertex
 10
414.8331173573752
 20
-448.0815456133999
 30
0.0
  0
SEQEND
  5
290
330
14A
100
AcDbEntity
  8
L-ZISSEN
  0
ARC
  5
14B
330
2
100
AcDbEntity
  8
L-ZISSEN
100
AcDbCircle
 10
418.4284168189959
 20
-442.3315456133999
 30
0.0
 40
0.5
100
AcDbArc
 50
0.0
 51
90.0
  0
TEXT
  5
14C
330
2
100
AcDbEntity
  8
L-ZISSEN
100
AcDbText
 10
277.3184162983357
 20
-360.3615815645366
 30
0.0
 40
4.5
  1
Rc 1/8
100
AcDbText
  0
TEXT
  5
14D
330
2
100
AcDbEntity
  8
L-ZISSEN
100
AcDbText
 10
273.3184162983357
 20
-352.6115815645366
 30
0.0
 40
4.5
  1
PIROT PORT "14"
100
AcDbText
  0
CIRCLE
  5
14E
330
2
100
AcDbEntity
  8
L-ZISSEN
100
AcDbCircle
 10
236.1784168189963
 20
-307.0815074971643
 30
0.0
 40
7.500000000001136
  0
LINE
  5
14F
330
2
100
AcDbEntity
  8
L-TYUSIN
100
AcDbLine
 10
236.1784168189963
 20
-294.8315074971641
 30
0.0
 11
236.1784168189963
 21
-319.3315074971644
 31
0.0
  0
LINE
  5
150
330
2
100
AcDbEntity
  8
L-ZISSEN
100
AcDbLine
 10
277.6784168189958
 20
-327.8315074971641
 30
0.0
 11
277.6784168189958
 21
-286.3315074971641
 31
0.0
  0
LINE
  5
151
330
2
100
AcDbEntity
  8
L-ZISSEN
100
AcDbLine
 10
270.6784168189959
 20
-276.5815074971641
 30
0.0
 11
270.6784168189959
 21
-328.5815074971641
 31
0.0
  0
LINE
  5
152
330
2
100
AcDbEntity
  8
L-TYUSIN
100
AcDbLine
 10
225.6784168189963
 20
-315.8315074971643
 30
0.0
 11
225.6784168189963
 21
-312.3315074971644
 31
0.0
  0
LINE
  5
153
330
2
100
AcDbEntity
  8
L-TYUSIN
100
AcDbLine
 10
193.1784168189963
 20
-255.5815074971641
 30
0.0
 11
193.1784168189963
 21
-349.581507497164
 31
0.0
  0
CIRCLE
  5
154
330
2
100
AcDbEntity
  8
L-ZISSEN
100
AcDbCircle
 10
236.1784168189963
 20
-307.0815074971643
 30
0.0
 40
17.5
  0
CIRCLE
  5
155
330
2
100
AcDbEntity
  8
L-ZISSEN
100
AcDbCircle
 10
225.7384168189963
 20
-314.0815074971646
 30
0.0
 40
3.560000000002673
  0
CIRCLE
  5
156
330
2
100
AcDbEntity
  8
L-ZISSEN
100
AcDbCircle
 10
225.7384168189963
 20
-314.0815074971646
 30
0.0
 40
3.860000000002628
  0
LINE
  5
157
330
2
100
AcDbEntity
  8
L-TYUSIN
100
AcDbLine
 10
193.1784168189953
 20
-349.5815074971641
 30
0.0
 11
193.1784168189973
 21
-255.5815074971643
 31
0.0
  0
LINE
  5
158
330
2
100
AcDbEntity
  8
L-ZISSEN
100
AcDbLine
 10
237.2878172114452
 20
-308.7456080858399
 30
0.0
 11
265.3468446855677
 21
-350.0863165691325
 31
0.0
  0
LINE
  5
159
330
2
100
AcDbEntity
  8
L-ZISSEN
100
AcDbLine
 10
194.2878172114468
 20
-304.2456080858398
 30
0.0
 11
201.4653134127832
 21
-315.0118523878445
 31
0.0
  0
TEXT
  5
15A
330
2
100
AcDbEntity
  8
L-ZISSEN
100
AcDbText
 10
204.9773265833634
 20
-316.9816012391046
 30
0.0
 40
4.5
  1
P.P
100
AcDbText
  0
LINE
  5
15B
330
2
100
AcDbEntity
  8
L-ZISSEN
100
AcDbLine
 10
229.1784168189963
 20
-431.0815456133998
 30
0.0
 11
222.1784168189963
 21
-431.0815456133997
 31
0.0
  0
LINE
  5
15C
330
2
100
AcDbEntity
  8
L-ZISSEN
100
AcDbLine
 10
229.4784168189962
 20
-435.0815456133998
 30
0.0
 11
221.8784168189963
 21
-435.0815456133998
 31
0.0
  0
LINE
  5
15D
330
2
100
AcDbEntity
  8
L-ZISSEN
100
AcDbLine
 10
253.6784168189979
 20
-436.5815456133998
 30
0.0
 11
218.6784168189979
 21
-436.5815456133998
 31
0.0
  0
LINE
  5
15E
330
2
100
AcDbEntity
  8
L-ZISSEN
100
AcDbLine
 10
253.1784168189978
 20
-436.0815456133998
 30
0.0
 11
219.1784168189979
 21
-436.0815456133998
 31
0.0
  0
LINE
  5
15F
330
2
100
AcDbEntity
  8
L-ZISSEN
100
AcDbLine
 10
237.6784168189968
 20
-334.5815074971641
 30
0.0
 11
222.7178088331661
 21
-334.5815074971641
 31
0.0
  0
LINE
  5
160
330
2
100
AcDbEntity
  8
L-TYUSIN
100
AcDbLine
 10
227.4284168189963
 20
-314.0815074971644
 30
0.0
 11
223.9284168189963
 21
-314.0815074971644
 31
0.0
  0
LINE
  5
161
330
2
100
AcDbEntity
  8
L-ZISSEN
100
AcDbLine
 10
176.1784168189979
 20
-436.0815456133998
 30
0.0
 11
176.6784168189979
 21
-436.5815456133998
 31
0.0
  0
LINE
  5
162
330
2
100
AcDbEntity
  8
L-ZISSEN
100
AcDbLine
 10
166.6784168189979
 20
-431.0815456133998
 30
0.0
 11
173.1784168189995
 21
-431.0815456133997
 31
0.0
  0
LINE
  5
163
330
2
100
AcDbEntity
  8
L-ZISSEN
100
AcDbLine
 10
166.6784168189979
 20
-435.0815456133998
 30
0.0
 11
173.4784168189994
 21
-435.0815456133998
 31
0.0
  0
LINE
  5
164
330
2
100
AcDbEntity
  8
L-ZISSEN
100
AcDbLine
 10
166.1784168189979
 20
-428.5815456133998
 30
0.0
 11
166.6784168189979
 21
-429.0815456133998
 31
0.0
  0
LINE
  5
165
330
2
100
AcDbEntity
  8
L-ZISSEN
100
AcDbLine
 10
166.6784168189979
 20
-429.0815456133998
 30
0.0
 11
166.6784168189979
 21
-436.0815456133998
 31
0.0
  0
LINE
  5
166
330
2
100
AcDbEntity
  8
L-ZISSEN
100
AcDbLine
 10
173.4784168189994
 20
-435.0815456133998
 30
0.0
 11
173.4784168189994
 21
-436.0815456133998
 31
0.0
  0
LINE
  5
167
330
2
100
AcDbEntity
  8
L-ZISSEN
100
AcDbLine
 10
173.1784168189995
 20
-431.0815456133998
 30
0.0
 11
173.1784168189995
 21
-435.0815456133998
 31
0.0
  0
LINE
  5
168
330
2
100
AcDbEntity
  8
L-ZISSEN
100
AcDbLine
 10
219.1784168189979
 20
-436.0815456133998
 30
0.0
 11
218.6784168189979
 21
-436.5815456133998
 31
0.0
  0
LINE
  5
169
330
2
100
AcDbEntity
  8
L-ZISSEN
100
AcDbLine
 10
221.8784168189963
 20
-435.0815456133998
 30
0.0
 11
221.8784168189963
 21
-436.0815456133998
 31
0.0
  0
LINE
  5
16A
330
2
100
AcDbEntity
  8
L-ZISSEN
100
AcDbLine
 10
222.1784168189963
 20
-431.0815456133998
 30
0.0
 11
222.1784168189963
 21
-435.0815456133998
 31
0.0
  0
LINE
  5
16B
330
2
100
AcDbEntity
  8
L-ZISSEN
100
AcDbLine
 10
203.6390248048274
 20
-334.5815074971641
 30
0.0
 11
182.7178088331661
 21
-334.5815074971641
 31
0.0
  0
LINE
  5
16C
330
2
100
AcDbEntity
  8
L-TYUSIN
100
AcDbLine
 10
166.9284168189968
 20
-334.5815074971641
 30
0.0
 11
179.4284168189968
 21
-334.5815074971641
 31
0.0
  0
ARC
  5
16D
330
2
100
AcDbEntity
  8
L-ZISSEN
100
AcDbCircle
 10
173.1784168189968
 20
-334.5815074971641
 30
0.0
 40
7.0
100
AcDbArc
 50
197.4576031237219
 51
342.542396876278
  0
CIRCLE
  5
16E
330
2
100
AcDbEntity
  8
L-ZISSEN
100
AcDbCircle
 10
173.1784168189968
 20
-334.5815074971641
 30
0.0
 40
5.0
  0
CIRCLE
  5
16F
330
2
100
AcDbEntity
  8
L-ZISSEN
100
AcDbCircle
 10
173.1784168189968
 20
-334.5815074971641
 30
0.0
 40
5.75
  0
LINE
  5
170
330
2
100
AcDbEntity
  8
L-ZISSEN
100
AcDbLine
 10
174.1784168189959
 20
-323.5815074971639
 30
0.0
 11
174.1784168189963
 21
-328.5815074971637
 31
0.0
  0
LINE
  5
171
330
2
100
AcDbEntity
  8
L-ZISSEN
100
AcDbLine
 10
164.1784168189959
 20
-323.5815074971641
 30
0.0
 11
164.1784168189959
 21
-328.5815074971637
 31
0.0
  0
LINE
  5
172
330
2
100
AcDbEntity
  8
L-TYUSIN
  6
CONTINUOUS
100
AcDbLine
 10
169.1784168189959
 20
-318.3315074971641
 30
0.0
 11
169.1784168189959
 21
-328.8315074971642
 31
0.0
  0
ARC
  5
173
330
2
100
AcDbEntity
  8
L-ZISSEN
100
AcDbCircle
 10
163.6390248048274
 20
-337.5815074971642
 30
0.0
 40
3.0
100
AcDbArc
 50
17.45760312372197
 51
90.0
  0
LINE
  5
174
330
2
100
AcDbEntity
  8
L-TYUSIN
100
AcDbLine
 10
173.1784168189968
 20
-340.8315074971641
 30
0.0
 11
173.1784168189968
 21
-328.3315074971641
 31
0.0
  0
POLYLINE
  5
175
330
2
100
AcDbEntity
  8
L-ZISSEN
100
AcDb2dPolyline
 66
     1
 10
0.0
 20
0.0
 30
0.0
 70
     1
  0
VERTEX
  5
291
330
175
100
AcDbEntity
  8
L-ZISSEN
100
AcDbVertex
100
AcDb2dVertex
 10
171.7350411460227
 20
-332.0815074971641
 30
0.0
  0
VERTEX
  5
292
330
175
100
AcDbEntity
  8
L-ZISSEN
100
AcDbVertex
100
AcDb2dVertex
 10
170.2916654730485
 20
-334.5815074971641
 30
0.0
  0
VERTEX
  5
293
330
175
100
AcDbEntity
  8
L-ZISSEN
100
AcDbVertex
100
AcDb2dVertex
 10
171.7350411460227
 20
-337.0815074971641
 30
0.0
  0
VERTEX
  5
294
330
175
100
AcDbEntity
  8
L-ZISSEN
100
AcDbVertex
100
AcDb2dVertex
 10
174.6217924919708
 20
-337.0815074971641
 30
0.0
  0
VERTEX
  5
295
330
175
100
AcDbEntity
  8
L-ZISSEN
100
AcDbVertex
100
AcDb2dVertex
 10
176.065168164945
 20
-334.5815074971641
 30
0.0
  0
VERTEX
  5
296
330
175
100
AcDbEntity
  8
L-ZISSEN
100
AcDbVertex
100
AcDb2dVertex
 10
174.6217924919708
 20
-332.0815074971641
 30
0.0
  0
SEQEND
  5
297
330
175
100
AcDbEntity
  8
L-ZISSEN
  0
LINE
  5
176
330
2
100
AcDbEntity
  8
L-TYUSIN
  6
CONTINUOUS
100
AcDbLine
 10
174.4284168189959
 20
-323.5815074971641
 30
0.0
 11
163.9284168189959
 21
-323.5815074971641
 31
0.0
  0
CIRCLE
  5
177
330
2
100
AcDbEntity
  8
L-ZISSEN
100
AcDbCircle
 10
169.1784168189959
 20
-323.5815074971641
 30
0.0
 40
4.25
  0
ARC
  5
178
330
2
100
AcDbEntity
  8
L-ZISSEN
100
AcDbCircle
 10
169.1784168189959
 20
-323.5815074971641
 30
0.0
 40
5.0
100
AcDbArc
 50
0.0000000000024427
 51
180.0
  0
POLYLINE
  5
179
330
2
100
AcDbEntity
  8
L-ZISSEN
100
AcDb2dPolyline
 66
     1
 10
0.0
 20
0.0
 30
0.0
 70
     1
  0
VERTEX
  5
298
330
179
100
AcDbEntity
  8
L-ZISSEN
100
AcDbVertex
100
AcDb2dVertex
 10
168.0237162806166
 20
-321.5815074971641
 30
0.0
  0
VERTEX
  5
299
330
179
100
AcDbEntity
  8
L-ZISSEN
100
AcDbVertex
100
AcDb2dVertex
 10
166.8690157422373
 20
-323.5815074971641
 30
0.0
  0
VERTEX
  5
29A
330
179
100
AcDbEntity
  8
L-ZISSEN
100
AcDbVertex
100
AcDb2dVertex
 10
168.0237162806166
 20
-325.5815074971641
 30
0.0
  0
VERTEX
  5
29B
330
179
100
AcDbEntity
  8
L-ZISSEN
100
AcDbVertex
100
AcDb2dVertex
 10
170.3331173573752
 20
-325.5815074971641
 30
0.0
  0
VERTEX
  5
29C
330
179
100
AcDbEntity
  8
L-ZISSEN
100
AcDbVertex
100
AcDb2dVertex
 10
171.4878178957545
 20
-323.5815074971641
 30
0.0
  0
VERTEX
  5
29D
330
179
100
AcDbEntity
  8
L-ZISSEN
100
AcDbVertex
100
AcDb2dVertex
 10
170.3331173573752
 20
-321.5815074971641
 30
0.0
  0
SEQEND
  5
29E
330
179
100
AcDbEntity
  8
L-ZISSEN
  0
ARC
  5
17A
330
2
100
AcDbEntity
  8
L-ZISSEN
100
AcDbCircle
 10
182.7178088331661
 20
-337.5815074971642
 30
0.0
 40
3.0
100
AcDbArc
 50
90.0
 51
162.542396876278
  0
LINE
  5
17B
330
2
100
AcDbEntity
  8
L-TYUSIN
100
AcDbLine
 10
206.9284168189968
 20
-334.5815074971641
 30
0.0
 11
219.4284168189968
 21
-334.5815074971641
 31
0.0
  0
ARC
  5
17C
330
2
100
AcDbEntity
  8
L-ZISSEN
100
AcDbCircle
 10
213.1784168189968
 20
-334.5815074971641
 30
0.0
 40
7.0
100
AcDbArc
 50
197.4576031237219
 51
342.542396876278
  0
CIRCLE
  5
17D
330
2
100
AcDbEntity
  8
L-ZISSEN
100
AcDbCircle
 10
213.1784168189968
 20
-334.5815074971641
 30
0.0
 40
5.0
  0
CIRCLE
  5
17E
330
2
100
AcDbEntity
  8
L-ZISSEN
100
AcDbCircle
 10
213.1784168189968
 20
-334.5815074971641
 30
0.0
 40
5.75
  0
ARC
  5
17F
330
2
100
AcDbEntity
  8
L-ZISSEN
100
AcDbCircle
 10
203.6390248048274
 20
-337.5815074971642
 30
0.0
 40
3.0
100
AcDbArc
 50
17.45760312372197
 51
90.0
  0
LINE
  5
180
330
2
100
AcDbEntity
  8
L-ZISSEN
100
AcDbLine
 10
201.4653134127832
 20
-315.0118523878445
 30
0.0
 11
203.3637955132847
 21
-315.0118523878445
 31
0.0
  0
LINE
  5
181
330
2
100
AcDbEntity
  8
L-ZISSEN
100
AcDbLine
 10
222.1784168189968
 20
-323.5815074971641
 30
0.0
 11
222.1784168189968
 21
-328.5815074971637
 31
0.0
  0
LINE
  5
182
330
2
100
AcDbEntity
  8
L-ZISSEN
100
AcDbLine
 10
212.1784168189968
 20
-323.5815074971639
 30
0.0
 11
212.1784168189963
 21
-328.5815074971637
 31
0.0
  0
LINE
  5
183
330
2
100
AcDbEntity
  8
L-TYUSIN
  6
CONTINUOUS
100
AcDbLine
 10
217.1784168189968
 20
-318.3315074971641
 30
0.0
 11
217.1784168189968
 21
-328.8315074971642
 31
0.0
  0
LINE
  5
184
330
2
100
AcDbEntity
  8
L-TYUSIN
100
AcDbLine
 10
213.1784168189968
 20
-340.8315074971641
 30
0.0
 11
213.1784168189968
 21
-328.3315074971641
 31
0.0
  0
POLYLINE
  5
185
330
2
100
AcDbEntity
  8
L-ZISSEN
100
AcDb2dPolyline
 66
     1
 10
0.0
 20
0.0
 30
0.0
 70
     1
  0
VERTEX
  5
29F
330
185
100
AcDbEntity
  8
L-ZISSEN
100
AcDbVertex
100
AcDb2dVertex
 10
211.7350411460227
 20
-332.0815074971641
 30
0.0
  0
VERTEX
  5
2A0
330
185
100
AcDbEntity
  8
L-ZISSEN
100
AcDbVertex
100
AcDb2dVertex
 10
210.2916654730485
 20
-334.5815074971641
 30
0.0
  0
VERTEX
  5
2A1
330
185
100
AcDbEntity
  8
L-ZISSEN
100
AcDbVertex
100
AcDb2dVertex
 10
211.7350411460227
 20
-337.0815074971641
 30
0.0
  0
VERTEX
  5
2A2
330
185
100
AcDbEntity
  8
L-ZISSEN
100
AcDbVertex
100
AcDb2dVertex
 10
214.6217924919708
 20
-337.0815074971641
 30
0.0
  0
VERTEX
  5
2A3
330
185
100
AcDbEntity
  8
L-ZISSEN
100
AcDbVertex
100
AcDb2dVertex
 10
216.065168164945
 20
-334.5815074971641
 30
0.0
  0
VERTEX
  5
2A4
330
185
100
AcDbEntity
  8
L-ZISSEN
100
AcDbVertex
100
AcDb2dVertex
 10
214.6217924919708
 20
-332.0815074971641
 30
0.0
  0
SEQEND
  5
2A5
330
185
100
AcDbEntity
  8
L-ZISSEN
  0
ARC
  5
186
330
2
100
AcDbEntity
  8
L-ZISSEN
100
AcDbCircle
 10
222.7178088331661
 20
-337.5815074971642
 30
0.0
 40
3.0
100
AcDbArc
 50
90.0
 51
162.542396876278
  0
LINE
  5
187
330
2
100
AcDbEntity
  8
L-TYUSIN
  6
CONTINUOUS
100
AcDbLine
 10
211.9284168189968
 20
-323.5815074971641
 30
0.0
 11
222.4284168189968
 21
-323.5815074971641
 31
0.0
  0
CIRCLE
  5
188
330
2
100
AcDbEntity
  8
L-ZISSEN
100
AcDbCircle
 10
217.1784168189968
 20
-323.5815074971641
 30
0.0
 40
4.25
  0
ARC
  5
189
330
2
100
AcDbEntity
  8
L-ZISSEN
100
AcDbCircle
 10
217.1784168189968
 20
-323.5815074971641
 30
0.0
 40
5.0
100
AcDbArc
 50
0.0
 51
179.9999999999975
  0
POLYLINE
  5
18A
330
2
100
AcDbEntity
  8
L-ZISSEN
100
AcDb2dPolyline
 66
     1
 10
0.0
 20
0.0
 30
0.0
 70
     1
  0
VERTEX
  5
2A6
330
18A
100
AcDbEntity
  8
L-ZISSEN
100
AcDbVertex
100
AcDb2dVertex
 10
216.0237162806175
 20
-321.5815074971641
 30
0.0
  0
VERTEX
  5
2A7
330
18A
100
AcDbEntity
  8
L-ZISSEN
100
AcDbVertex
100
AcDb2dVertex
 10
214.8690157422382
 20
-323.5815074971641
 30
0.0
  0
VERTEX
  5
2A8
330
18A
100
AcDbEntity
  8
L-ZISSEN
100
AcDbVertex
100
AcDb2dVertex
 10
216.0237162806175
 20
-325.5815074971641
 30
0.0
  0
VERTEX
  5
2A9
330
18A
100
AcDbEntity
  8
L-ZISSEN
100
AcDbVertex
100
AcDb2dVertex
 10
218.3331173573761
 20
-325.5815074971641
 30
0.0
  0
VERTEX
  5
2AA
330
18A
100
AcDbEntity
  8
L-ZISSEN
100
AcDbVertex
100
AcDb2dVertex
 10
219.4878178957554
 20
-323.5815074971641
 30
0.0
  0
VERTEX
  5
2AB
330
18A
100
AcDbEntity
  8
L-ZISSEN
100
AcDbVertex
100
AcDb2dVertex
 10
218.3331173573761
 20
-321.5815074971641
 30
0.0
  0
SEQEND
  5
2AC
330
18A
100
AcDbEntity
  8
L-ZISSEN
  0
LINE
  5
18B
330
2
100
AcDbEntity
  8
L-ZISSEN
100
AcDbLine
 10
243.6784168189979
 20
-429.0815456133998
 30
0.0
 11
228.6784168189979
 21
-429.0815456133998
 31
0.0
  0
LINE
  5
18C
330
2
100
AcDbEntity
  8
L-ZISSEN
100
AcDbLine
 10
243.1784168189979
 20
-428.5815456133998
 30
0.0
 11
229.1784168189979
 21
-428.5815456133998
 31
0.0
  0
LINE
  5
18D
330
2
100
AcDbEntity
  8
L-ZISSEN
100
AcDbLine
 10
229.1784168189979
 20
-428.5815456133998
 30
0.0
 11
228.6784168189979
 21
-429.0815456133998
 31
0.0
  0
LINE
  5
18E
330
2
100
AcDbEntity
  8
L-ZISSEN
100
AcDbLine
 10
228.6784168189979
 20
-429.0815456133998
 30
0.0
 11
228.6784168189979
 21
-431.0815456133998
 31
0.0
  0
LINE
  5
18F
330
2
100
AcDbEntity
  8
L-ZISSEN
100
AcDbLine
 10
229.4784168189962
 20
-435.0815456133998
 30
0.0
 11
229.4784168189962
 21
-436.0815456133998
 31
0.0
  0
LINE
  5
190
330
2
100
AcDbEntity
  8
L-ZISSEN
100
AcDbLine
 10
229.1784168189963
 20
-431.0815456133998
 30
0.0
 11
229.1784168189963
 21
-435.0815456133998
 31
0.0
  0
LINE
  5
191
330
2
100
AcDbEntity
  8
L-ZISSEN
100
AcDbLine
 10
250.4784168189994
 20
-435.0815456133998
 30
0.0
 11
250.4784168189994
 21
-436.0815456133998
 31
0.0
  0
LINE
  5
192
330
2
100
AcDbEntity
  8
L-ZISSEN
100
AcDbLine
 10
250.1784168189995
 20
-431.0815456133998
 30
0.0
 11
250.1784168189995
 21
-435.0815456133998
 31
0.0
  0
LINE
  5
193
330
2
100
AcDbEntity
  8
L-ZISSEN
100
AcDbLine
 10
243.1784168189979
 20
-428.5815456133998
 30
0.0
 11
243.6784168189979
 21
-429.0815456133998
 31
0.0
  0
LINE
  5
194
330
2
100
AcDbEntity
  8
L-ZISSEN
100
AcDbLine
 10
243.6784168189979
 20
-429.0815456133998
 30
0.0
 11
243.6784168189979
 21
-436.0815456133998
 31
0.0
  0
LINE
  5
195
330
2
100
AcDbEntity
  8
L-ZISSEN
100
AcDbLine
 10
243.6784168189979
 20
-435.0815456133998
 30
0.0
 11
250.4784168189994
 21
-435.0815456133998
 31
0.0
  0
LINE
  5
196
330
2
100
AcDbEntity
  8
L-ZISSEN
100
AcDbLine
 10
243.6784168189979
 20
-431.0815456133998
 30
0.0
 11
250.1784168189995
 21
-431.0815456133997
 31
0.0
  0
LINE
  5
197
330
2
100
AcDbEntity
  8
L-ZISSEN
100
AcDbLine
 10
253.1784168189978
 20
-436.0815456133998
 30
0.0
 11
253.6784168189979
 21
-436.5815456133998
 31
0.0
  0
ARC
  5
198
330
2
100
AcDbEntity
  8
L-ZISSEN
100
AcDbCircle
 10
253.1784168189963
 20
-332.5815074971641
 30
0.0
 40
10.0
100
AcDbArc
 50
280.3888578154704
 51
23.57817847819946
  0
LINE
  5
199
330
2
100
AcDbEntity
  8
L-TYUSIN
100
AcDbLine
 10
246.1784168189963
 20
-332.5815074971641
 30
0.0
 11
260.1784168189963
 21
-332.5815074971641
 31
0.0
  0
ARC
  5
19A
330
2
100
AcDbEntity
  8
L-ZISSEN
100
AcDbCircle
 10
241.6784168189963
 20
-343.0815074971641
 30
0.0
 40
1.5
100
AcDbArc
 50
270.0
 51
0.0
  0
LINE
  5
19B
330
2
100
AcDbEntity
  8
L-TYUSIN
100
AcDbLine
 10
228.1784168189965
 20
-349.581507497164
 30
0.0
 11
228.1784168189965
 21
-339.5815074971639
 31
0.0
  0
LINE
  5
19C
330
2
100
AcDbEntity
  8
L-ZISSEN
100
AcDbLine
 10
254.981695507521
 20
-342.4175730709346
 30
0.0
 11
243.1784168189984
 21
-344.581507497164
 31
0.0
  0
LINE
  5
19D
330
2
100
AcDbEntity
  8
L-TYUSIN
100
AcDbLine
 10
230.1784168189963
 20
-326.0815074971639
 30
0.0
 11
230.1784168189966
 21
-331.0815074971638
 31
0.0
  0
LINE
  5
19E
330
2
100
AcDbEntity
  8
L-ZISSEN
100
AcDbLine
 10
240.6784168189968
 20
-328.5815074971643
 30
0.0
 11
240.6784168189968
 21
-331.5815074971641
 31
0.0
  0
ARC
  5
19F
330
2
100
AcDbEntity
  8
L-ZISSEN
100
AcDbCircle
 10
237.6784168189968
 20
-331.5815074971641
 30
0.0
 40
3.0
100
AcDbArc
 50
270.0
 51
0.0
  0
LINE
  5
1A0
330
2
100
AcDbEntity
  8
L-TYUSIN
100
AcDbLine
 10
253.1784168189963
 20
-339.5815074971642
 30
0.0
 11
253.1784168189963
 21
-325.5815074971641
 31
0.0
  0
CIRCLE
  5
1A1
330
2
100
AcDbEntity
  8
L-ZISSEN
100
AcDbCircle
 10
253.1784168189963
 20
-332.5815074971641
 30
0.0
 40
4.5
  0
LINE
  5
1A2
330
2
100
AcDbEntity
  8
L-ZISSEN
100
AcDbLine
 10
243.1784168189963
 20
-343.0815074971641
 30
0.0
 11
243.1784168189963
 21
-328.5815074971643
 31
0.0
  0
LINE
  5
1A3
330
2
100
AcDbEntity
  8
L-ZISSEN
100
AcDbLine
 10
271.0634511317798
 20
-350.0863165691325
 30
0.0
 11
265.3468446855677
 21
-350.0863165691325
 31
0.0
  0
LINE
  5
1A4
330
2
100
AcDbEntity
  8
L-TYUSIN
100
AcDbLine
 10
284.4784168189958
 20
-323.0815074971639
 30
0.0
 11
273.1784168189959
 21
-323.0815074971641
 31
0.0
  0
LINE
  5
1A5
330
2
100
AcDbEntity
  8
L-ZISSEN
100
AcDbLine
 10
270.6784168189959
 20
-328.3315074971641
 30
0.0
 11
277.1784168189959
 21
-328.3315074971641
 31
0.0
  0
ARC
  5
1A6
330
2
100
AcDbEntity
  8
L-ZISSEN
100
AcDbCircle
 10
277.1784168189959
 20
-327.8315074971641
 30
0.0
 40
0.5
100
AcDbArc
 50
270.0
 51
0.0
  0
LINE
  5
1A7
330
2
100
AcDbEntity
  8
L-ZISSEN
100
AcDbLine
 10
281.9784168189958
 20
-318.8315074971639
 30
0.0
 11
277.6784168189958
 21
-318.8315074971639
 31
0.0
  0
LINE
  5
1A8
330
2
100
AcDbEntity
  8
L-ZISSEN
100
AcDbLine
 10
281.9784168189958
 20
-327.3315074971644
 30
0.0
 11
277.6784168189958
 21
-327.3315074971644
 31
0.0
  0
LINE
  5
1A9
330
2
100
AcDbEntity
  8
L-ZISSEN
100
AcDbLine
 10
281.9784168189958
 20
-327.3315074971644
 30
0.0
 11
281.9784168189958
 21
-318.8315074971639
 31
0.0
  0
LINE
  5
1AA
330
2
100
AcDbEntity
  8
L-ZISSEN
100
AcDbLine
 10
237.6784168189968
 20
-270.5815074971642
 30
0.0
 11
217.7178088331662
 21
-270.5815074971642
 31
0.0
  0
LINE
  5
1AB
330
2
100
AcDbEntity
  8
L-TYUSIN
100
AcDbLine
 10
223.6784168189963
 20
-307.0815074971643
 30
0.0
 11
248.6784168189963
 21
-307.0815074971643
 31
0.0
  0
LINE
  5
1AC
330
2
100
AcDbEntity
  8
L-ZISSEN
100
AcDbLine
 10
198.6390248048274
 20
-270.5815074971642
 30
0.0
 11
187.7178088331661
 21
-270.5815074971642
 31
0.0
  0
LINE
  5
1AD
330
2
100
AcDbEntity
  8
L-ZISSEN
100
AcDbLine
 10
169.1784168189959
 20
-281.5815074971641
 30
0.0
 11
169.1784168189959
 21
-276.5815074971646
 31
0.0
  0
CIRCLE
  5
1AE
330
2
100
AcDbEntity
  8
L-ZISSEN
100
AcDbCircle
 10
174.1784168189959
 20
-281.5815074971641
 30
0.0
 40
4.25
  0
LINE
  5
1AF
330
2
100
AcDbEntity
  8
L-ZISSEN
100
AcDbLine
 10
179.1784168189959
 20
-281.5815074971644
 30
0.0
 11
179.1784168189963
 21
-276.5815074971646
 31
0.0
  0
LINE
  5
1B0
330
2
100
AcDbEntity
  8
L-TYUSIN
  6
CONTINUOUS
100
AcDbLine
 10
174.1784168189959
 20
-286.8315074971641
 30
0.0
 11
174.1784168189959
 21
-276.3315074971641
 31
0.0
  0
POLYLINE
  5
1B1
330
2
100
AcDbEntity
  8
L-ZISSEN
100
AcDb2dPolyline
 66
     1
 10
0.0
 20
0.0
 30
0.0
 70
     1
  0
VERTEX
  5
2AD
330
1B1
100
AcDbEntity
  8
L-ZISSEN
100
AcDbVertex
100
AcDb2dVertex
 10
173.0237162806166
 20
-279.5815074971641
 30
0.0
  0
VERTEX
  5
2AE
330
1B1
100
AcDbEntity
  8
L-ZISSEN
100
AcDbVertex
100
AcDb2dVertex
 10
171.8690157422373
 20
-281.5815074971641
 30
0.0
  0
VERTEX
  5
2AF
330
1B1
100
AcDbEntity
  8
L-ZISSEN
100
AcDbVertex
100
AcDb2dVertex
 10
173.0237162806166
 20
-283.5815074971641
 30
0.0
  0
VERTEX
  5
2B0
330
1B1
100
AcDbEntity
  8
L-ZISSEN
100
AcDbVertex
100
AcDb2dVertex
 10
175.3331173573752
 20
-283.5815074971641
 30
0.0
  0
VERTEX
  5
2B1
330
1B1
100
AcDbEntity
  8
L-ZISSEN
100
AcDbVertex
100
AcDb2dVertex
 10
176.4878178957545
 20
-281.5815074971641
 30
0.0
  0
VERTEX
  5
2B2
330
1B1
100
AcDbEntity
  8
L-ZISSEN
100
AcDbVertex
100
AcDb2dVertex
 10
175.3331173573752
 20
-279.5815074971641
 30
0.0
  0
SEQEND
  5
2B3
330
1B1
100
AcDbEntity
  8
L-ZISSEN
  0
LINE
  5
1B2
330
2
100
AcDbEntity
  8
L-TYUSIN
  6
CONTINUOUS
100
AcDbLine
 10
179.4284168189959
 20
-281.5815074971641
 30
0.0
 11
168.9284168189959
 21
-281.5815074971641
 31
0.0
  0
ARC
  5
1B3
330
2
100
AcDbEntity
  8
L-ZISSEN
100
AcDbCircle
 10
174.1784168189959
 20
-281.5815074971641
 30
0.0
 40
5.0
100
AcDbArc
 50
180.0
 51
359.9999999999975
  0
LINE
  5
1B4
330
2
100
AcDbEntity
  8
L-TYUSIN
100
AcDbLine
 10
171.3684168189964
 20
-291.0815074971636
 30
0.0
 11
167.8684168189964
 21
-291.0815074971636
 31
0.0
  0
CIRCLE
  5
1B5
330
2
100
AcDbEntity
  8
L-ZISSEN
100
AcDbCircle
 10
169.6184168189964
 20
-291.0815074971636
 30
0.0
 40
3.560000000002673
  0
CIRCLE
  5
1B6
330
2
100
AcDbEntity
  8
L-ZISSEN
100
AcDbCircle
 10
169.6184168189964
 20
-291.0815074971636
 30
0.0
 40
3.860000000002628
  0
LINE
  5
1B7
330
2
100
AcDbEntity
  8
L-TYUSIN
100
AcDbLine
 10
169.6184168189964
 20
-292.8315074971635
 30
0.0
 11
169.6184168189964
 21
-289.3315074971636
 31
0.0
  0
CIRCLE
  5
1B8
330
2
100
AcDbEntity
  8
L-ZISSEN
100
AcDbCircle
 10
178.1784168189968
 20
-270.5815074971642
 30
0.0
 40
5.0
  0
CIRCLE
  5
1B9
330
2
100
AcDbEntity
  8
L-ZISSEN
100
AcDbCircle
 10
178.1784168189968
 20
-270.5815074971642
 30
0.0
 40
5.75
  0
ARC
  5
1BA
330
2
100
AcDbEntity
  8
L-ZISSEN
100
AcDbCircle
 10
178.1784168189968
 20
-270.5815074971642
 30
0.0
 40
7.0
100
AcDbArc
 50
17.45760312372197
 51
162.542396876278
  0
LINE
  5
1BB
330
2
100
AcDbEntity
  8
L-TYUSIN
100
AcDbLine
 10
171.9284168189968
 20
-270.5815074971642
 30
0.0
 11
184.4284168189968
 21
-270.5815074971642
 31
0.0
  0
POLYLINE
  5
1BC
330
2
100
AcDbEntity
  8
L-ZISSEN
100
AcDb2dPolyline
 66
     1
 10
0.0
 20
0.0
 30
0.0
 70
     1
  0
VERTEX
  5
2B4
330
1BC
100
AcDbEntity
  8
L-ZISSEN
100
AcDbVertex
100
AcDb2dVertex
 10
176.7350411460227
 20
-268.0815074971641
 30
0.0
  0
VERTEX
  5
2B5
330
1BC
100
AcDbEntity
  8
L-ZISSEN
100
AcDbVertex
100
AcDb2dVertex
 10
175.2916654730485
 20
-270.5815074971642
 30
0.0
  0
VERTEX
  5
2B6
330
1BC
100
AcDbEntity
  8
L-ZISSEN
100
AcDbVertex
100
AcDb2dVertex
 10
176.7350411460227
 20
-273.0815074971641
 30
0.0
  0
VERTEX
  5
2B7
330
1BC
100
AcDbEntity
  8
L-ZISSEN
100
AcDbVertex
100
AcDb2dVertex
 10
179.6217924919709
 20
-273.0815074971641
 30
0.0
  0
VERTEX
  5
2B8
330
1BC
100
AcDbEntity
  8
L-ZISSEN
100
AcDbVertex
100
AcDb2dVertex
 10
181.065168164945
 20
-270.5815074971642
 30
0.0
  0
VERTEX
  5
2B9
330
1BC
100
AcDbEntity
  8
L-ZISSEN
100
AcDbVertex
100
AcDb2dVertex
 10
179.6217924919709
 20
-268.0815074971641
 30
0.0
  0
SEQEND
  5
2BA
330
1BC
100
AcDbEntity
  8
L-ZISSEN
  0
LINE
  5
1BD
330
2
100
AcDbEntity
  8
L-TYUSIN
100
AcDbLine
 10
165.1784168189963
 20
-274.0815074971646
 30
0.0
 11
165.1784168189963
 21
-279.0815074971646
 31
0.0
  0
ARC
  5
1BE
330
2
100
AcDbEntity
  8
L-ZISSEN
100
AcDbCircle
 10
168.6390248048274
 20
-267.5815074971641
 30
0.0
 40
3.0
100
AcDbArc
 50
270.0
 51
342.5423968762772
  0
LINE
  5
1BF
330
2
100
AcDbEntity
  8
L-TYUSIN
100
AcDbLine
 10
178.1784168189968
 20
-276.8315074971642
 30
0.0
 11
178.1784168189968
 21
-264.3315074971642
 31
0.0
  0
ARC
  5
1C0
330
2
100
AcDbEntity
  8
L-ZISSEN
100
AcDbCircle
 10
187.7178088331661
 20
-267.5815074971641
 30
0.0
 40
3.0
100
AcDbArc
 50
197.4576031237227
 51
270.0
  0
LINE
  5
1C1
330
2
100
AcDbEntity
  8
L-ZISSEN
100
AcDbLine
 10
217.1784168189968
 20
-281.5815074971641
 30
0.0
 11
217.1784168189968
 21
-276.5815074971646
 31
0.0
  0
LINE
  5
1C2
330
2
100
AcDbEntity
  8
L-ZISSEN
100
AcDbLine
 10
207.1784168189968
 20
-281.5815074971644
 30
0.0
 11
207.1784168189963
 21
-276.5815074971646
 31
0.0
  0
CIRCLE
  5
1C3
330
2
100
AcDbEntity
  8
L-ZISSEN
100
AcDbCircle
 10
212.1784168189968
 20
-281.5815074971641
 30
0.0
 40
4.25
  0
LINE
  5
1C4
330
2
100
AcDbEntity
  8
L-TYUSIN
  6
CONTINUOUS
100
AcDbLine
 10
212.1784168189968
 20
-286.8315074971641
 30
0.0
 11
212.1784168189968
 21
-276.3315074971641
 31
0.0
  0
POLYLINE
  5
1C5
330
2
100
AcDbEntity
  8
L-ZISSEN
100
AcDb2dPolyline
 66
     1
 10
0.0
 20
0.0
 30
0.0
 70
     1
  0
VERTEX
  5
2BB
330
1C5
100
AcDbEntity
  8
L-ZISSEN
100
AcDbVertex
100
AcDb2dVertex
 10
211.0237162806175
 20
-279.5815074971641
 30
0.0
  0
VERTEX
  5
2BC
330
1C5
100
AcDbEntity
  8
L-ZISSEN
100
AcDbVertex
100
AcDb2dVertex
 10
209.8690157422382
 20
-281.5815074971641
 30
0.0
  0
VERTEX
  5
2BD
330
1C5
100
AcDbEntity
  8
L-ZISSEN
100
AcDbVertex
100
AcDb2dVertex
 10
211.0237162806175
 20
-283.5815074971641
 30
0.0
  0
VERTEX
  5
2BE
330
1C5
100
AcDbEntity
  8
L-ZISSEN
100
AcDbVertex
100
AcDb2dVertex
 10
213.3331173573761
 20
-283.5815074971641
 30
0.0
  0
VERTEX
  5
2BF
330
1C5
100
AcDbEntity
  8
L-ZISSEN
100
AcDbVertex
100
AcDb2dVertex
 10
214.4878178957554
 20
-281.5815074971641
 30
0.0
  0
VERTEX
  5
2C0
330
1C5
100
AcDbEntity
  8
L-ZISSEN
100
AcDbVertex
100
AcDb2dVertex
 10
213.3331173573761
 20
-279.5815074971641
 30
0.0
  0
SEQEND
  5
2C1
330
1C5
100
AcDbEntity
  8
L-ZISSEN
  0
LINE
  5
1C6
330
2
100
AcDbEntity
  8
L-TYUSIN
  6
CONTINUOUS
100
AcDbLine
 10
206.9284168189968
 20
-281.5815074971641
 30
0.0
 11
217.4284168189968
 21
-281.5815074971641
 31
0.0
  0
ARC
  5
1C7
330
2
100
AcDbEntity
  8
L-ZISSEN
100
AcDbCircle
 10
212.1784168189968
 20
-281.5815074971641
 30
0.0
 40
5.0
100
AcDbArc
 50
180.0000000000024
 51
0.0
  0
SOLID
  5
1C8
330
2
100
AcDbEntity
  8
L-ZISSEN
100
AcDbTrace
 10
194.0104671133343
 20
-304.4305081512481
 30
0.0
 11
194.5651673095593
 21
-304.0607080204313
 31
0.0
 12
193.1784168189963
 22
-302.5815074971641
 32
0.0
 13
193.1784168189963
 23
-302.5815074971641
 33
0.0
  0
CIRCLE
  5
1C9
330
2
100
AcDbEntity
  8
L-ZISSEN
100
AcDbCircle
 10
208.1784168189968
 20
-270.5815074971642
 30
0.0
 40
5.0
  0
CIRCLE
  5
1CA
330
2
100
AcDbEntity
  8
L-ZISSEN
100
AcDbCircle
 10
208.1784168189968
 20
-270.5815074971642
 30
0.0
 40
5.75
  0
LINE
  5
1CB
330
2
100
AcDbEntity
  8
L-TYUSIN
100
AcDbLine
 10
201.9284168189968
 20
-270.5815074971642
 30
0.0
 11
214.4284168189968
 21
-270.5815074971642
 31
0.0
  0
ARC
  5
1CC
330
2
100
AcDbEntity
  8
L-ZISSEN
100
AcDbCircle
 10
208.1784168189968
 20
-270.5815074971642
 30
0.0
 40
7.0
100
AcDbArc
 50
17.45760312372197
 51
162.542396876278
  0
POLYLINE
  5
1CD
330
2
100
AcDbEntity
  8
L-ZISSEN
100
AcDb2dPolyline
 66
     1
 10
0.0
 20
0.0
 30
0.0
 70
     1
  0
VERTEX
  5
2C2
330
1CD
100
AcDbEntity
  8
L-ZISSEN
100
AcDbVertex
100
AcDb2dVertex
 10
206.7350411460227
 20
-268.0815074971641
 30
0.0
  0
VERTEX
  5
2C3
330
1CD
100
AcDbEntity
  8
L-ZISSEN
100
AcDbVertex
100
AcDb2dVertex
 10
205.2916654730485
 20
-270.5815074971642
 30
0.0
  0
VERTEX
  5
2C4
330
1CD
100
AcDbEntity
  8
L-ZISSEN
100
AcDbVertex
100
AcDb2dVertex
 10
206.7350411460227
 20
-273.0815074971641
 30
0.0
  0
VERTEX
  5
2C5
330
1CD
100
AcDbEntity
  8
L-ZISSEN
100
AcDbVertex
100
AcDb2dVertex
 10
209.6217924919709
 20
-273.0815074971641
 30
0.0
  0
VERTEX
  5
2C6
330
1CD
100
AcDbEntity
  8
L-ZISSEN
100
AcDbVertex
100
AcDb2dVertex
 10
211.065168164945
 20
-270.5815074971642
 30
0.0
  0
VERTEX
  5
2C7
330
1CD
100
AcDbEntity
  8
L-ZISSEN
100
AcDbVertex
100
AcDb2dVertex
 10
209.6217924919709
 20
-268.0815074971641
 30
0.0
  0
SEQEND
  5
2C8
330
1CD
100
AcDbEntity
  8
L-ZISSEN
  0
LINE
  5
1CE
330
2
100
AcDbEntity
  8
L-TYUSIN
100
AcDbLine
 10
208.1784168189968
 20
-276.8315074971642
 30
0.0
 11
208.1784168189968
 21
-264.3315074971642
 31
0.0
  0
ARC
  5
1CF
330
2
100
AcDbEntity
  8
L-ZISSEN
100
AcDbCircle
 10
198.6390248048274
 20
-267.5815074971641
 30
0.0
 40
3.0
100
AcDbArc
 50
270.0
 51
342.5423968762772
  0
ARC
  5
1D0
330
2
100
AcDbEntity
  8
L-ZISSEN
100
AcDbCircle
 10
217.7178088331662
 20
-267.5815074971641
 30
0.0
 40
3.0
100
AcDbArc
 50
197.4576031237227
 51
270.0
  0
ARC
  5
1D1
330
2
100
AcDbEntity
  8
L-ZISSEN
100
AcDbCircle
 10
253.1784168189963
 20
-272.5815074971641
 30
0.0
 40
10.0
100
AcDbArc
 50
336.4218215217943
 51
79.61114218452959
  0
LINE
  5
1D2
330
2
100
AcDbEntity
  8
L-TYUSIN
100
AcDbLine
 10
260.1784168189963
 20
-272.5815074971639
 30
0.0
 11
246.1784168189963
 21
-272.5815074971639
 31
0.0
  0
CIRCLE
  5
1D3
330
2
100
AcDbEntity
  8
L-ZISSEN
100
AcDbCircle
 10
246.6184168189964
 20
-300.0815074971639
 30
0.0
 40
3.860000000002628
  0
CIRCLE
  5
1D4
330
2
100
AcDbEntity
  8
L-ZISSEN
100
AcDbCircle
 10
236.1784168189963
 20
-307.0815074971643
 30
0.0
 40
4.099999999999999
  0
SOLID
  5
1D5
330
2
100
AcDbEntity
  8
L-ZISSEN
100
AcDbTrace
 10
237.0104671133327
 20
-308.9305081512482
 30
0.0
 11
237.5651673095577
 21
-308.5607080204315
 31
0.0
 12
236.1784168189947
 22
-307.0815074971643
 32
0.0
 13
236.1784168189947
 23
-307.0815074971643
 33
0.0
  0
CIRCLE
  5
1D6
330
2
100
AcDbEntity
  8
L-ZISSEN
100
AcDbCircle
 10
246.6184168189964
 20
-300.0815074971639
 30
0.0
 40
3.560000000002673
  0
LINE
  5
1D7
330
2
100
AcDbEntity
  8
L-TYUSIN
100
AcDbLine
 10
248.3684168189964
 20
-300.0815074971639
 30
0.0
 11
244.8684168189964
 21
-300.0815074971639
 31
0.0
  0
LINE
  5
1D8
330
2
100
AcDbEntity
  8
L-TYUSIN
100
AcDbLine
 10
246.6184168189964
 20
-301.8315074971639
 30
0.0
 11
246.6184168189964
 21
-298.3315074971639
 31
0.0
  0
ARC
  5
1D9
330
2
100
AcDbEntity
  8
L-ZISSEN
100
AcDbCircle
 10
241.6784168189963
 20
-262.0815074971641
 30
0.0
 40
1.5
100
AcDbArc
 50
0.0
 51
90.0
  0
LINE
  5
1DA
330
2
100
AcDbEntity
  8
L-ZISSEN
100
AcDbLine
 10
240.6784168189968
 20
-273.5815074971641
 30
0.0
 11
240.6784168189968
 21
-276.5815074971644
 31
0.0
  0
ARC
  5
1DB
330
2
100
AcDbEntity
  8
L-ZISSEN
100
AcDbCircle
 10
237.6784168189968
 20
-273.5815074971641
 30
0.0
 40
3.0
100
AcDbArc
 50
0.0
 51
90.0
  0
LINE
  5
1DC
330
2
100
AcDbEntity
  8
L-TYUSIN
100
AcDbLine
 10
228.1784168189965
 20
-265.5815074971641
 30
0.0
 11
228.1784168189965
 21
-255.5815074971643
 31
0.0
  0
LINE
  5
1DD
330
2
100
AcDbEntity
  8
L-TYUSIN
100
AcDbLine
 10
253.1784168189963
 20
-279.5815074971641
 30
0.0
 11
253.1784168189963
 21
-265.5815074971641
 31
0.0
  0
LINE
  5
1DE
330
2
100
AcDbEntity
  8
L-ZISSEN
100
AcDbLine
 10
243.1784168189963
 20
-276.5815074971649
 30
0.0
 11
243.1784168189963
 21
-262.0815074971641
 31
0.0
  0
CIRCLE
  5
1DF
330
2
100
AcDbEntity
  8
L-ZISSEN
100
AcDbCircle
 10
253.1784168189963
 20
-272.5815074971641
 30
0.0
 40
4.5
  0
LINE
  5
1E0
330
2
100
AcDbEntity
  8
L-ZISSEN
100
AcDbLine
 10
254.981695507521
 20
-262.7454419233937
 30
0.0
 11
243.1784168189984
 21
-260.5815074971642
 31
0.0
  0
LINE
  5
1E1
330
2
100
AcDbEntity
  8
L-ZISSEN
100
AcDbLine
 10
281.9784168189958
 20
-277.8315074971639
 30
0.0
 11
281.9784168189958
 21
-286.3315074971639
 31
0.0
  0
LINE
  5
1E2
330
2
100
AcDbEntity
  8
L-ZISSEN
100
AcDbLine
 10
276.9784168189958
 20
-286.6815074971642
 30
0.0
 11
276.9784168189959
 21
-277.4815074971642
 31
0.0
  0
LINE
  5
1E3
330
2
100
AcDbEntity
  8
L-ZISSEN
100
AcDbLine
 10
275.6784168189958
 20
-287.5815074971642
 30
0.0
 11
275.6784168189958
 21
-276.8315074971642
 31
0.0
  0
LINE
  5
1E4
330
2
100
AcDbEntity
  8
L-TYUSIN
100
AcDbLine
 10
284.4784168189958
 20
-282.0815074971644
 30
0.0
 11
273.1784168189959
 21
-282.0815074971641
 31
0.0
  0
LINE
  5
1E5
330
2
100
AcDbEntity
  8
L-ZISSEN
100
AcDbLine
 10
276.9784168189959
 20
-286.6815074971643
 30
0.0
 11
275.6784168189958
 21
-286.6815074971642
 31
0.0
  0
LINE
  5
1E6
330
2
100
AcDbEntity
  8
L-ZISSEN
100
AcDbLine
 10
275.6784168189958
 20
-287.5815074971642
 30
0.0
 11
277.6784168189958
 21
-287.5815074971642
 31
0.0
  0
LINE
  5
1E7
330
2
100
AcDbEntity
  8
L-ZISSEN
100
AcDbLine
 10
281.9784168189958
 20
-286.3315074971637
 30
0.0
 11
276.9784168189959
 21
-286.3315074971641
 31
0.0
  0
LINE
  5
1E8
330
2
100
AcDbEntity
  8
L-ZISSEN
100
AcDbLine
 10
276.9784168189959
 20
-277.4815074971642
 30
0.0
 11
275.6784168189958
 21
-277.4815074971642
 31
0.0
  0
LINE
  5
1E9
330
2
100
AcDbEntity
  8
L-ZISSEN
100
AcDbLine
 10
270.6784168189959
 20
-276.8315074971642
 30
0.0
 11
277.1784168189959
 21
-276.8315074971642
 31
0.0
  0
ARC
  5
1EA
330
2
100
AcDbEntity
  8
L-ZISSEN
100
AcDbCircle
 10
277.1784168189959
 20
-277.3315074971641
 30
0.0
 40
0.5
100
AcDbArc
 50
0.0
 51
90.0
  0
LINE
  5
1EB
330
2
100
AcDbEntity
  8
L-ZISSEN
100
AcDbLine
 10
277.6784168189958
 20
-277.8315074971641
 30
0.0
 11
277.6784168189958
 21
-277.3315074971641
 31
0.0
  0
LINE
  5
1EC
330
2
100
AcDbEntity
  8
L-ZISSEN
100
AcDbLine
 10
281.9784168189958
 20
-277.8315074971639
 30
0.0
 11
276.9784168189959
 21
-277.831507497164
 31
0.0
  0
LINE
  5
1ED
330
2
100
AcDbEntity
  8
L-ZISSEN
100
AcDbLine
 10
392.1784168189957
 20
-431.0815456134
 30
0.0
 11
399.1784168189957
 21
-431.0815456134
 31
0.0
  0
LINE
  5
1EE
330
2
100
AcDbEntity
  8
L-ZISSEN
100
AcDbLine
 10
391.8784168189958
 20
-435.0815456134
 30
0.0
 11
399.4784168189957
 21
-435.0815456134
 31
0.0
  0
LINE
  5
1EF
330
2
100
AcDbEntity
  8
L-ZISSEN
100
AcDbLine
 10
381.6784168189957
 20
-428.5815456134001
 30
0.0
 11
404.6784168189957
 21
-428.5815456134001
 31
0.0
  0
LINE
  5
1F0
330
2
100
AcDbEntity
  8
L-ZISSEN
100
AcDbLine
 10
371.6784168189957
 20
-436.0815456134002
 30
0.0
 11
414.6784168189957
 21
-436.0815456134
 31
0.0
  0
LINE
  5
1F1
330
2
100
AcDbEntity
  8
L-ZISSEN
100
AcDbLine
 10
381.1784168189957
 20
-429.0815456134001
 30
0.0
 11
405.1784168189958
 21
-429.0815456134001
 31
0.0
  0
LINE
  5
1F2
330
2
100
AcDbEntity
  8
L-ZISSEN
100
AcDbLine
 10
371.1784168189957
 20
-436.5815456134
 30
0.0
 11
415.1784168189958
 21
-436.5815456134
 31
0.0
  0
LINE
  5
1F3
330
2
100
AcDbEntity
  8
L-ZISSEN
100
AcDbLine
 10
371.6784168189957
 20
-436.0815456134002
 30
0.0
 11
371.1784168189957
 21
-436.5815456134002
 31
0.0
  0
LINE
  5
1F4
330
2
100
AcDbEntity
  8
L-ZISSEN
100
AcDbLine
 10
381.6784168189957
 20
-428.5815456134001
 30
0.0
 11
381.1784168189957
 21
-429.0815456134001
 31
0.0
  0
LINE
  5
1F5
330
2
100
AcDbEntity
  8
L-ZISSEN
100
AcDbLine
 10
381.1784168189957
 20
-431.0815456134
 30
0.0
 11
378.1784168189957
 21
-431.0815456134
 31
0.0
  0
LINE
  5
1F6
330
2
100
AcDbEntity
  8
L-ZISSEN
100
AcDbLine
 10
377.8784168189957
 20
-435.0815456134
 30
0.0
 11
377.8784168189957
 21
-436.0815456134
 31
0.0
  0
LINE
  5
1F7
330
2
100
AcDbEntity
  8
L-ZISSEN
100
AcDbLine
 10
381.1784168189957
 20
-435.0815456134
 30
0.0
 11
377.8784168189957
 21
-435.0815456134
 31
0.0
  0
LINE
  5
1F8
330
2
100
AcDbEntity
  8
L-ZISSEN
100
AcDbLine
 10
381.1784168189957
 20
-429.0815456134001
 30
0.0
 11
381.1784168189957
 21
-436.0815456134
 31
0.0
  0
LINE
  5
1F9
330
2
100
AcDbEntity
  8
L-ZISSEN
100
AcDbLine
 10
378.1784168189957
 20
-431.0815456134
 30
0.0
 11
378.1784168189957
 21
-435.0815456134
 31
0.0
  0
LINE
  5
1FA
330
2
100
AcDbEntity
  8
L-ZISSEN
100
AcDbLine
 10
391.8784168189958
 20
-435.0815456134
 30
0.0
 11
391.8784168189958
 21
-436.0815456134
 31
0.0
  0
LINE
  5
1FB
330
2
100
AcDbEntity
  8
L-ZISSEN
100
AcDbLine
 10
392.1784168189957
 20
-431.0815456134
 30
0.0
 11
392.1784168189957
 21
-435.0815456134
 31
0.0
  0
LINE
  5
1FC
330
2
100
AcDbEntity
  8
L-ZISSEN
100
AcDbLine
 10
396.1784168189957
 20
-429.0815456134001
 30
0.0
 11
396.1784168189957
 21
-431.0815456134
 31
0.0
  0
LINE
  5
1FD
330
2
100
AcDbEntity
  8
L-ZISSEN
100
AcDbLine
 10
395.6784168189957
 20
-428.5815456134001
 30
0.0
 11
396.1784168189957
 21
-429.0815456134001
 31
0.0
  0
LINE
  5
1FE
330
2
100
AcDbEntity
  8
L-ZISSEN
100
AcDbLine
 10
399.4784168189957
 20
-435.0815456134
 30
0.0
 11
399.4784168189957
 21
-436.0815456134
 31
0.0
  0
LINE
  5
1FF
330
2
100
AcDbEntity
  8
L-ZISSEN
100
AcDbLine
 10
399.1784168189957
 20
-431.0815456134
 30
0.0
 11
399.1784168189957
 21
-435.0815456134
 31
0.0
  0
LINE
  5
200
330
2
100
AcDbEntity
  8
L-ZISSEN
100
AcDbLine
 10
405.1784168189957
 20
-429.0815456134001
 30
0.0
 11
405.1784168189957
 21
-431.0815456134
 31
0.0
  0
LINE
  5
201
330
2
100
AcDbEntity
  8
L-ZISSEN
100
AcDbLine
 10
404.6784168189957
 20
-428.5815456134001
 30
0.0
 11
405.1784168189957
 21
-429.0815456134001
 31
0.0
  0
LINE
  5
202
330
2
100
AcDbEntity
  8
L-ZISSEN
100
AcDbLine
 10
408.4784168189957
 20
-435.0815456134
 30
0.0
 11
408.4784168189957
 21
-436.0815456134
 31
0.0
  0
LINE
  5
203
330
2
100
AcDbEntity
  8
L-ZISSEN
100
AcDbLine
 10
405.6784168189957
 20
-436.0815456134
 30
0.0
 11
406.1784168189957
 21
-436.5815456134
 31
0.0
  0
LINE
  5
204
330
2
100
AcDbEntity
  8
L-ZISSEN
100
AcDbLine
 10
408.1784168189957
 20
-431.0815456134
 30
0.0
 11
408.1784168189957
 21
-435.0815456134
 31
0.0
  0
LINE
  5
205
330
2
100
AcDbEntity
  8
L-ZISSEN
100
AcDbLine
 10
400.8784168189958
 20
-435.0815456134
 30
0.0
 11
400.8784168189958
 21
-436.0815456134
 31
0.0
  0
LINE
  5
206
330
2
100
AcDbEntity
  8
L-ZISSEN
100
AcDbLine
 10
401.1784168189957
 20
-431.0815456134
 30
0.0
 11
401.1784168189957
 21
-435.0815456134
 31
0.0
  0
LINE
  5
207
330
2
100
AcDbEntity
  8
L-ZISSEN
100
AcDbLine
 10
400.8784168189958
 20
-435.0815456134
 30
0.0
 11
408.4784168189957
 21
-435.0815456134
 31
0.0
  0
LINE
  5
208
330
2
100
AcDbEntity
  8
L-ZISSEN
100
AcDbLine
 10
401.1784168189957
 20
-431.0815456134
 30
0.0
 11
408.1784168189957
 21
-431.0815456134
 31
0.0
  0
LINE
  5
209
330
2
100
AcDbEntity
  8
L-ZISSEN
100
AcDbLine
 10
414.6784168189957
 20
-436.0815456134
 30
0.0
 11
415.1784168189957
 21
-436.5815456134
 31
0.0
  0
TEXT
  5
20A
330
2
100
AcDbEntity
  8
L-ZISSEN
100
AcDbText
 10
317.9699209207116
 20
-215.8805642230711
 30
0.0
 40
5.0
  1
MODELE No. : 524-300-400M
 41
0.8
 72
     4
 11
363.3032542540449
 21
-213.3805642230711
 31
0.0
100
AcDbText
  0
TEXT
  5
20B
330
2
100
AcDbEntity
  8
L-ZISSEN
100
AcDbText
 10
380.5266709539998
 20
-221.7528839322824
 30
0.0
 40
5.0
  1
4
 41
0.8
 72
     4
 11
381.8600042873331
 21
-219.2528839322824
 31
0.0
100
AcDbText
  0
TEXT
  5
20C
330
2
100
AcDbEntity
  8
L-ZISSEN
100
AcDbText
 10
380.6454349617458
 20
-209.7528839322824
 30
0.0
 40
5.0
  1
2
 41
0.8
 72
     4
 11
381.9787682950791
 21
-207.2528839322824
 31
0.0
100
AcDbText
  0
TEXT
  5
20D
330
2
100
AcDbEntity
  8
L-ZISSEN
100
AcDbText
 10
395.4437249422096
 20
-221.7528839322824
 30
0.0
 40
5.0
  1
5
 41
0.8
 72
     4
 11
396.7770582755429
 21
-219.2528839322824
 31
0.0
100
AcDbText
  0
TEXT
  5
20E
330
2
100
AcDbEntity
  8
L-ZISSEN
100
AcDbText
 10
395.5624889499556
 20
-209.7528839322824
 30
0.0
 40
5.0
  1
3
 41
0.8
 72
     4
 11
396.8958222832889
 21
-207.2528839322824
 31
0.0
100
AcDbText
  0
ARC
  5
20F
330
2
100
AcDbEntity
  8
L-ZISSEN
100
AcDbCircle
 10
673.5675172475541
 20
-509.0815456134
 30
0.0
 40
19.0
100
AcDbArc
 50
0.0
 51
140.8332892838789
  0
LINE
  5
210
330
2
100
AcDbEntity
  8
L-ZISSEN
  6
CONTINUOUS
 62
     7
100
AcDbLine
 10
657.5675172475541
 20
-529.0815456134001
 30
0.0
 11
716.5675172475541
 21
-529.0815456134001
 31
0.0
  0
LINE
  5
211
330
2
100
AcDbEntity
  8
L-ZISSEN
100
AcDbLine
 10
692.5675172475546
 20
-347.5815074971633
 30
0.0
 11
570.5675172475539
 21
-347.5815074971633
 31
0.0
  0
LINE
  5
212
330
2
100
AcDbEntity
  8
L-ZISSEN
100
AcDbLine
 10
692.5675172475546
 20
-257.5815074971641
 30
0.0
 11
647.5675172475523
 21
-257.5815074971641
 31
0.0
  0
LINE
  5
213
330
2
100
AcDbEntity
  8
L-TYUSIN
100
AcDbLine
 10
529.6862119373034
 20
-247.9583279131936
 30
0.0
 11
529.6862119373031
 21
-586.1633451604165
 31
0.0
  0
LINE
  5
214
330
2
100
AcDbEntity
  8
L-ZISSEN
  6
CONTINUOUS
 62
     7
100
AcDbLine
 10
546.5675172475541
 20
-529.0815456134001
 30
0.0
 11
605.5675172475542
 21
-529.0815456134001
 31
0.0
  0
LINE
  5
215
330
2
100
AcDbEntity
  8
L-ZISSEN
  6
CONTINUOUS
 62
     7
100
AcDbLine
 10
546.5675172475541
 20
-517.0815456134
 30
0.0
 11
570.5675172475541
 21
-517.0815456134
 31
0.0
  0
LINE
  5
216
330
2
100
AcDbEntity
  8
L-ZISSEN
100
AcDbLine
 10
435.1784168189958
 20
-490.0815456134003
 30
0.0
 11
435.178416818996
 21
-529.0815456134001
 31
0.0
  0
LINE
  5
217
330
2
100
AcDbEntity
  8
L-TYUSIN
100
AcDbLine
 10
437.6784168189959
 20
-504.0815456133998
 30
0.0
 11
432.6784168189959
 21
-504.0815456133999
 31
0.0
  0
LINE
  5
218
330
2
100
AcDbEntity
  8
L-ZISSEN
100
AcDbLine
 10
432.1784168189959
 20
-478.0815456134
 30
0.0
 11
432.1784168189959
 21
-490.0815456134003
 31
0.0
  0
LINE
  5
219
330
2
100
AcDbEntity
  8
L-ZISSEN
100
AcDbLine
 10
430.928416818996
 20
-476.5815456134002
 30
0.0
 11
430.9284168189959
 21
-478.0815456134
 31
0.0
  0
LINE
  5
21A
330
2
100
AcDbEntity
  8
L-ZISSEN
100
AcDbLine
 10
430.1784168189961
 20
-470.5815456134001
 30
0.0
 11
430.1784168189961
 21
-476.5815456133998
 31
0.0
  0
LINE
  5
21B
330
2
100
AcDbEntity
  8
L-TYUSIN
  6
CENTER
 62
     1
100
AcDbLine
 10
556.5675172475541
 20
-512.0815456134001
 30
0.0
 11
556.5675172475541
 21
-534.0815456134
 31
0.0
  0
LINE
  5
21C
330
2
100
AcDbEntity
  8
L-ZISSEN
100
AcDbLine
 10
546.5675172475541
 20
-517.0815456134
 30
0.0
 11
546.5675172475541
 21
-529.0815456134001
 31
0.0
  0
LINE
  5
21D
330
2
100
AcDbEntity
  8
L-ZISSEN
  6
CONTINUOUS
 62
     7
100
AcDbLine
 10
584.0675172475541
 20
-487.0815456134001
 30
0.0
 11
679.0675172475541
 21
-487.0815456134001
 31
0.0
  0
CIRCLE
  5
21E
330
2
100
AcDbEntity
  8
L-ZISSEN
100
AcDbCircle
 10
631.5675172475541
 20
-509.0815456134
 30
0.0
 40
12.05849999999999
  0
ARC
  5
21F
330
2
100
AcDbEntity
  8
L-ZISSEN
100
AcDbCircle
 10
631.5675172475541
 20
-509.0815456134
 30
0.0
 40
19.0
100
AcDbArc
 50
219.166710716121
 51
320.8332892838789
  0
LINE
  5
220
330
2
100
AcDbEntity
  8
L-TYUSIN
  6
CENTER
 62
     1
100
AcDbLine
 10
616.5675172475541
 20
-509.0815456134
 30
0.0
 11
646.5675172475542
 21
-509.0815456134001
 31
0.0
  0
ARC
  5
221
330
2
100
AcDbEntity
  8
L-ZISSEN
100
AcDbCircle
 10
631.5675172475541
 20
-509.0815456134
 30
0.0
 40
19.0
100
AcDbArc
 50
39.1667107161211
 51
140.8332892838789
  0
LINE
  5
222
330
2
100
AcDbEntity
  8
L-ZISSEN
100
AcDbLine
 10
630.1533036851808
 20
-461.1673386510269
 30
0.0
 11
621.5675172475542
 21
-452.5815522134
 31
0.0
  0
CIRCLE
  5
223
330
2
100
AcDbEntity
  8
L-ZISSEN
100
AcDbCircle
 10
589.5675172475542
 20
-509.0815456134
 30
0.0
 40
12.05849999999999
  0
LINE
  5
224
330
2
100
AcDbEntity
  8
L-TYUSIN
  6
CENTER
 62
     1
100
AcDbLine
 10
589.5675172475542
 20
-494.081545613401
 30
0.0
 11
589.5675172475542
 21
-524.0815456133994
 31
0.0
  0
ARC
  5
225
330
2
100
AcDbEntity
  8
L-ZISSEN
100
AcDbCircle
 10
589.5675172475542
 20
-509.0815456134
 30
0.0
 40
19.0
100
AcDbArc
 50
39.1667107161211
 51
180.0
  0
LINE
  5
226
330
2
100
AcDbEntity
  8
L-TYUSIN
  6
CENTER
 62
     1
100
AcDbLine
 10
574.5675172475541
 20
-509.0815456134
 30
0.0
 11
604.5675172475541
 21
-509.0815456134
 31
0.0
  0
LINE
  5
227
330
2
100
AcDbEntity
  8
L-ZISSEN
100
AcDbLine
 10
570.5675172475541
 20
-509.0815456134
 30
0.0
 11
570.5675172475541
 21
-517.0815456134
 31
0.0
  0
LINE
  5
228
330
2
100
AcDbEntity
  8
L-ZISSEN
  6
CONTINUOUS
 62
     7
100
AcDbLine
 10
604.2984371102114
 20
-521.0815456134
 30
0.0
 11
616.8365973848978
 21
-521.0815456134
 31
0.0
  0
LINE
  5
229
330
2
100
AcDbEntity
  8
L-ZISSEN
100
AcDbLine
 10
605.5675172475542
 20
-529.0815456134001
 30
0.0
 11
613.5675172475542
 21
-521.0815456134
 31
0.0
  0
LINE
  5
22A
330
2
100
AcDbEntity
  8
L-ZISSEN
100
AcDbLine
 10
596.2984371102113
 20
-529.0815456134001
 30
0.0
 11
604.2984371102114
 21
-521.0815456134
 31
0.0
  0
LINE
  5
22B
330
2
100
AcDbEntity
  8
L-ZISSEN
100
AcDbLine
 10
584.0675314975539
 20
-487.0815456134001
 30
0.0
 11
584.0675314975539
 21
-490.8950078244274
 31
0.0
  0
LINE
  5
22C
330
2
100
AcDbEntity
  8
L-ZISSEN
  6
CONTINUOUS
 62
     7
100
AcDbLine
 10
604.2984371102104
 20
-497.0815456134
 30
0.0
 11
616.8365973848978
 21
-497.0815456134
 31
0.0
  0
TEXT
  5
22D
330
2
100
AcDbEntity
  8
L-ZISSEN
100
AcDbText
 10
608.5675172475541
 20
-454.8315522134
 30
0.0
 40
4.5
  1
P.P
100
AcDbText
  0
LINE
  5
22E
330
2
100
AcDbEntity
  8
L-ZISSEN
100
AcDbLine
 10
621.5675172475542
 20
-452.5815522134
 30
0.0
 11
619.5675172475541
 21
-452.5815522134
 31
0.0
  0
CIRCLE
  5
22F
330
2
100
AcDbEntity
  8
L-ZISSEN
100
AcDbCircle
 10
673.5675172475541
 20
-509.0815456134
 30
0.0
 40
12.05849999999999
  0
LINE
  5
230
330
2
100
AcDbEntity
  8
L-TYUSIN
  6
CENTER
 62
     1
100
AcDbLine
 10
673.5675172475541
 20
-494.0815456134014
 30
0.0
 11
673.5675172475541
 21
-524.0815456133989
 31
0.0
  0
LINE
  5
231
330
2
100
AcDbEntity
  8
L-TYUSIN
  6
CENTER
 62
     1
100
AcDbLine
 10
658.5675172475546
 20
-509.0815456134001
 30
0.0
 11
688.5675172475536
 21
-509.0815456134001
 31
0.0
  0
LINE
  5
232
330
2
100
AcDbEntity
  8
L-ZISSEN
  6
CONTINUOUS
 62
     7
100
AcDbLine
 10
646.2984371102104
 20
-521.0815456134
 30
0.0
 11
658.8365973848969
 21
-521.0815456134
 31
0.0
  0
LINE
  5
233
330
2
100
AcDbEntity
  8
L-ZISSEN
100
AcDbLine
 10
657.5675172475541
 20
-529.0815456134001
 30
0.0
 11
649.5675172475541
 21
-521.0815456134
 31
0.0
  0
LINE
  5
234
330
2
100
AcDbEntity
  8
L-ZISSEN
100
AcDbLine
 10
666.836597384897
 20
-529.0815456134001
 30
0.0
 11
658.8365973848969
 21
-521.0815456134
 31
0.0
  0
LINE
  5
235
330
2
100
AcDbEntity
  8
L-ZISSEN
  6
CONTINUOUS
 62
     7
100
AcDbLine
 10
646.2984371102104
 20
-497.0815456134
 30
0.0
 11
658.8365973848984
 21
-497.0815456134
 31
0.0
  0
SOLID
  5
236
330
2
100
AcDbEntity
  8
L-ZISSEN
100
AcDbTrace
 10
630.3890059455763
 20
-460.9316363906316
 30
0.0
 11
629.9176014247855
 21
-461.4030409114225
 31
0.0
 12
631.5675172475541
 22
-462.5815522134001
 32
0.0
 13
631.5675172475541
 23
-462.5815522134001
 33
0.0
  0
LINE
  5
237
330
2
100
AcDbEntity
  8
L-ZISSEN
100
AcDbLine
 10
679.0675029975544
 20
-487.0815456134001
 30
0.0
 11
679.0675029975544
 21
-490.8950078244274
 31
0.0
  0
LINE
  5
238
330
2
100
AcDbEntity
  8
L-ZISSEN
100
AcDbLine
 10
570.5675172475537
 20
-342.5815074971633
 30
0.0
 11
556.5675172475541
 21
-342.5815074971633
 31
0.0
  0
ARC
  5
239
330
2
100
AcDbEntity
  8
L-ZISSEN
100
AcDbCircle
 10
556.5675172475541
 20
-332.5815074971641
 30
0.0
 40
4.5
100
AcDbArc
 50
90.00000000002199
 51
62.73395554928671
  0
LINE
  5
23A
330
2
100
AcDbEntity
  8
L-TYUSIN
  6
CENTER
 62
     1
100
AcDbLine
 10
548.5675172475541
 20
-332.5815074971641
 30
0.0
 11
564.5675172475542
 21
-332.5815074971641
 31
0.0
  0
ARC
  5
23B
330
2
100
AcDbEntity
  8
L-ZISSEN
100
AcDbCircle
 10
556.5675172475541
 20
-272.5815074971632
 30
0.0
 40
4.5
100
AcDbArc
 50
297.2660444507169
 51
269.9999999999796
  0
LINE
  5
23C
330
2
100
AcDbEntity
  8
L-ZISSEN
100
AcDbLine
 10
570.5675172475537
 20
-262.5815074971641
 30
0.0
 11
556.5675172475541
 21
-262.5815074971641
 31
0.0
  0
LINE
  5
23D
330
2
100
AcDbEntity
  8
L-TYUSIN
  6
CENTER
 62
     1
100
AcDbLine
 10
548.5675172475541
 20
-272.5815074971632
 30
0.0
 11
564.5675172475542
 21
-272.5815074971632
 31
0.0
  0
TEXT
  5
23E
330
2
100
AcDbEntity
  8
L-ZISSEN
100
AcDbText
 10
548.2777630859959
 20
-220.3342858252883
 30
0.0
 40
4.5
  1
MODEL No. :
100
AcDbText
  0
TEXT
  5
23F
330
2
100
AcDbEntity
  8
L-ZISSEN
100
AcDbText
 10
548.2777630859959
 20
-210.3342858252883
 30
0.0
 40
4.5
  1
SUB-BASE CONNECTION
100
AcDbText
  0
ARC
  5
240
330
2
100
AcDbEntity
  8
L-ZISSEN
100
AcDbCircle
 10
556.5675172475541
 20
-332.5815074971641
 30
0.0
 40
10.0
100
AcDbArc
 50
115.4675601424823
 51
270.0
  0
LINE
  5
241
330
2
100
AcDbEntity
  8
L-TYUSIN
  6
CENTER
 62
     1
100
AcDbLine
 10
556.5675172475541
 20
-340.5815074971643
 30
0.0
 11
556.5675172475541
 21
-324.5815074971639
 31
0.0
  0
ARC
  5
242
330
2
100
AcDbEntity
  8
L-ZISSEN
100
AcDbCircle
 10
556.5675172475541
 20
-272.5815074971632
 30
0.0
 40
10.0
100
AcDbArc
 50
90.0
 51
244.5324398575176
  0
LINE
  5
243
330
2
100
AcDbEntity
  8
L-TYUSIN
  6
CENTER
 62
     1
100
AcDbLine
 10
556.5675172475541
 20
-264.581507497163
 30
0.0
 11
556.5675172475541
 21
-280.5815074971634
 31
0.0
  0
LINE
  5
244
330
2
100
AcDbEntity
  8
L-ZISSEN
100
AcDbLine
 10
570.5675172475539
 20
-347.5815074971633
 30
0.0
 11
570.5675172475537
 21
-328.5815074971639
 31
0.0
  0
LINE
  5
245
330
2
100
AcDbEntity
  8
L-TYUSIN
  6
CENTER
 62
     1
100
AcDbLine
 10
589.5675172475542
 20
-342.581507497164
 30
0.0
 11
589.5675172475542
 21
-352.5815074971626
 31
0.0
  0
LINE
  5
246
330
2
100
AcDbEntity
  8
L-TYUSIN
  6
CENTER
 62
     1
100
AcDbLine
 10
673.5675172475541
 20
-342.581507497164
 30
0.0
 11
673.5675172475541
 21
-352.5815074971626
 31
0.0
  0
LINE
  5
247
330
2
100
AcDbEntity
  8
L-ZISSEN
100
AcDbLine
 10
630.4581168551037
 20
-300.917406908488
 30
0.0
 11
621.5675172475542
 21
-287.5815074971636
 31
0.0
  0
LINE
  5
248
330
2
100
AcDbEntity
  8
L-ZISSEN
100
AcDbLine
 10
647.5675172475523
 20
-262.581507497164
 30
0.0
 11
615.5675172475557
 21
-262.581507497164
 31
0.0
  0
TEXT
  5
249
330
2
100
AcDbEntity
  8
L-ZISSEN
100
AcDbText
 10
593.2777630859959
 20
-220.3342858252883
 30
0.0
 40
4.5
  1
524-600-***M
100
AcDbText
  0
LINE
  5
24A
330
2
100
AcDbEntity
  8
L-ZISSEN
100
AcDbLine
 10
615.5675172475557
 20
-257.5815074971641
 30
0.0
 11
570.5675172475539
 21
-257.5815074971641
 31
0.0
  0
LINE
  5
24B
330
2
100
AcDbEntity
  8
L-ZISSEN
100
AcDbLine
 10
570.5675172475539
 20
-257.5815074971641
 30
0.0
 11
570.5675172475537
 21
-276.5815074971643
 31
0.0
  0
TEXT
  5
24C
330
2
100
AcDbEntity
  8
L-ZISSEN
100
AcDbText
 10
608.5675172475541
 20
-289.8315074971636
 30
0.0
 40
4.5
  1
P.P
100
AcDbText
  0
LINE
  5
24D
330
2
100
AcDbEntity
  8
L-ZISSEN
100
AcDbLine
 10
621.5675172475542
 20
-287.5815074971636
 30
0.0
 11
619.5675172475541
 21
-287.5815074971636
 31
0.0
  0
LINE
  5
24E
330
2
100
AcDbEntity
  8
L-TYUSIN
  6
CENTER
 62
     1
100
AcDbLine
 10
596.5675172475541
 20
-262.5815074971634
 30
0.0
 11
596.5675172475541
 21
-252.5815074971648
 31
0.0
  0
LINE
  5
24F
330
2
100
AcDbEntity
  8
L-ZISSEN
100
AcDbLine
 10
615.5675172475557
 20
-257.5815074971641
 30
0.0
 11
615.5675172475557
 21
-262.581507497164
 31
0.0
  0
SOLID
  5
250
330
2
100
AcDbEntity
  8
L-ZISSEN
100
AcDbTrace
 10
630.7354669532162
 20
-300.7325068430797
 30
0.0
 11
630.1807667569912
 21
-301.1023069738964
 31
0.0
 12
631.5675172475541
 22
-302.5815074971636
 32
0.0
 13
631.5675172475541
 23
-302.5815074971636
 33
0.0
  0
LINE
  5
251
330
2
100
AcDbEntity
  8
L-ZISSEN
100
AcDbLine
 10
647.5675172475523
 20
-257.5815074971641
 30
0.0
 11
647.5675172475523
 21
-262.581507497164
 31
0.0
  0
LINE
  5
252
330
2
100
AcDbEntity
  8
L-TYUSIN
  6
CENTER
 62
     1
100
AcDbLine
 10
666.5675172475541
 20
-262.5815074971634
 30
0.0
 11
666.5675172475541
 21
-252.5815074971648
 31
0.0
  0
LINE
  5
253
330
2
100
AcDbEntity
  8
L-ZISSEN
100
AcDbLine
 10
756.5675172475534
 20
-490.0815456134002
 30
0.0
 11
846.5675172475549
 21
-490.0815456134
 31
0.0
  0
LINE
  5
254
330
2
100
AcDbEntity
  8
L-ZISSEN
100
AcDbLine
 10
840.5675172475543
 20
-487.0815522134001
 30
0.0
 11
762.5675172475541
 21
-487.0815522134001
 31
0.0
  0
LINE
  5
255
330
2
100
AcDbEntity
  8
L-ZISSEN
100
AcDbLine
 10
761.5675172475532
 20
-529.0815456134001
 30
0.0
 11
841.5675172475532
 21
-529.0815456134001
 31
0.0
  0
LINE
  5
256
330
2
100
AcDbEntity
  8
L-ZISSEN
100
AcDbLine
 10
805.586755134025
 20
-517.0815456134
 30
0.0
 11
841.5675172475532
 21
-517.0815456134
 31
0.0
  0
LINE
  5
257
330
2
100
AcDbEntity
  8
L-ZISSEN
100
AcDbLine
 10
756.5675172475534
 20
-528.0815456134
 30
0.0
 11
761.5675172475532
 21
-528.0815456134
 31
0.0
  0
LINE
  5
258
330
2
100
AcDbEntity
  8
L-TYUSIN
100
AcDbLine
 10
761.567517247553
 20
-509.0815456134001
 30
0.0
 11
751.5675172475542
 21
-509.0815456134001
 31
0.0
  0
LINE
  5
259
330
2
100
AcDbEntity
  8
L-ZISSEN
100
AcDbLine
 10
756.5675172475537
 20
-528.0815456134
 30
0.0
 11
756.5675172475534
 21
-490.0815456134002
 31
0.0
  0
LINE
  5
25A
330
2
100
AcDbEntity
  8
L-TYUSIN
  6
CENTER
 62
     1
100
AcDbLine
 10
706.5675172475541
 20
-512.0815456134001
 30
0.0
 11
706.5675172475541
 21
-534.0815456134
 31
0.0
  0
LINE
  5
25B
330
2
100
AcDbEntity
  8
L-ZISSEN
  6
CONTINUOUS
 62
     7
100
AcDbLine
 10
692.5675172475542
 20
-517.0815456134
 30
0.0
 11
716.5675172475541
 21
-517.0815456134
 31
0.0
  0
LINE
  5
25C
330
2
100
AcDbEntity
  8
L-ZISSEN
100
AcDbLine
 10
692.5675172475542
 20
-509.0815456134
 30
0.0
 11
692.5675172475542
 21
-517.0815456134
 31
0.0
  0
LINE
  5
25D
330
2
100
AcDbEntity
  8
L-ZISSEN
100
AcDbLine
 10
716.5675172475541
 20
-517.0815456134
 30
0.0
 11
716.5675172475541
 21
-529.0815456134001
 31
0.0
  0
LINE
  5
25E
330
2
100
AcDbEntity
  8
L-ZISSEN
100
AcDbLine
 10
761.5675172475532
 20
-517.0815456134
 30
0.0
 11
797.5482793610833
 21
-517.0815456134
 31
0.0
  0
LINE
  5
25F
330
2
100
AcDbEntity
  8
L-TYUSIN
  6
CENTER
 62
     1
100
AcDbLine
 10
771.5675172475542
 20
-512.0815456134001
 30
0.0
 11
771.5675172475542
 21
-534.0815456134
 31
0.0
  0
LINE
  5
260
330
2
100
AcDbEntity
  8
L-ZISSEN
100
AcDbLine
 10
761.5675172475532
 20
-529.0815456134001
 30
0.0
 11
761.5675172475532
 21
-517.0815456134
 31
0.0
  0
LINE
  5
261
330
2
100
AcDbEntity
  8
L-ZISSEN
100
AcDbLine
 10
797.5482793610833
 20
-529.0815456134001
 30
0.0
 11
797.5482793610833
 21
-517.0815456134
 31
0.0
  0
LINE
  5
262
330
2
100
AcDbEntity
  8
L-ZISSEN
100
AcDbLine
 10
805.586755134025
 20
-529.0815456134001
 30
0.0
 11
805.586755134025
 21
-517.0815456134
 31
0.0
  0
LINE
  5
263
330
2
100
AcDbEntity
  8
L-ZISSEN
100
AcDbLine
 10
762.5675172475541
 20
-490.0815456134002
 30
0.0
 11
762.5675172475541
 21
-487.0815522134001
 31
0.0
  0
LINE
  5
264
330
2
100
AcDbEntity
  8
L-ZISSEN
100
AcDbLine
 10
803.1675172475541
 20
-461.3815522134002
 30
0.0
 11
821.5675172475542
 21
-447.5815522134
 31
0.0
  0
SOLID
  5
265
330
2
100
AcDbEntity
  8
L-ZISSEN
100
AcDbTrace
 10
803.3675172475541
 20
-461.6482188800668
 30
0.0
 11
802.9675172475542
 21
-461.1148855467335
 31
0.0
 12
801.5675172475541
 22
-462.5815522134001
 32
0.0
 13
801.5675172475541
 23
-462.5815522134001
 33
0.0
  0
LINE
  5
266
330
2
100
AcDbEntity
  8
L-ZISSEN
100
AcDbLine
 10
821.5675172475542
 20
-447.5815522134
 30
0.0
 11
823.5675172475541
 21
-447.5815522134
 31
0.0
  0
LINE
  5
267
330
2
100
AcDbEntity
  8
L-ZISSEN
100
AcDbLine
 10
846.5675172475545
 20
-528.0815456134
 30
0.0
 11
846.5675172475549
 21
-490.0815456134002
 31
0.0
  0
LINE
  5
268
330
2
100
AcDbEntity
  8
L-TYUSIN
  6
CENTER
 62
     1
100
AcDbLine
 10
831.5675172475541
 20
-512.0815456134001
 30
0.0
 11
831.5675172475541
 21
-534.0815456134
 31
0.0
  0
LINE
  5
269
330
2
100
AcDbEntity
  8
L-ZISSEN
100
AcDbLine
 10
846.5675172475549
 20
-528.0815456134
 30
0.0
 11
841.567517247555
 21
-528.0815456134
 31
0.0
  0
LINE
  5
26A
330
2
100
AcDbEntity
  8
L-TYUSIN
100
AcDbLine
 10
841.5675172475554
 20
-509.0815456134001
 30
0.0
 11
851.5675172475541
 21
-509.0815456134001
 31
0.0
  0
LINE
  5
26B
330
2
100
AcDbEntity
  8
L-ZISSEN
100
AcDbLine
 10
841.5675172475532
 20
-517.0815456134
 30
0.0
 11
841.5675172475532
 21
-529.0815456134001
 31
0.0
  0
LINE
  5
26C
330
2
100
AcDbEntity
  8
L-ZISSEN
100
AcDbLine
 10
840.5675172475541
 20
-490.0815456134002
 30
0.0
 11
840.5675172475541
 21
-487.0815522134001
 31
0.0
  0
TEXT
  5
26D
330
2
100
AcDbEntity
  8
L-ZISSEN
100
AcDbText
 10
825.5675172475541
 20
-449.8315522134
 30
0.0
 40
4.5
  1
P.P
100
AcDbText
  0
ARC
  5
26E
330
2
100
AcDbEntity
  8
L-ZISSEN
100
AcDbCircle
 10
706.5675172475541
 20
-332.5815074971641
 30
0.0
 40
10.0
100
AcDbArc
 50
270.0
 51
23.57817847820747
  0
LINE
  5
26F
330
2
100
AcDbEntity
  8
L-ZISSEN
100
AcDbLine
 10
692.5675172475546
 20
-347.5815074971633
 30
0.0
 11
692.5675172475546
 21
-328.5815074971636
 31
0.0
  0
LINE
  5
270
330
2
100
AcDbEntity
  8
L-TYUSIN
  6
CENTER
 62
     1
100
AcDbLine
 10
714.5675172475542
 20
-332.5815074971641
 30
0.0
 11
698.5675172475541
 21
-332.5815074971641
 31
0.0
  0
ARC
  5
271
330
2
100
AcDbEntity
  8
L-ZISSEN
100
AcDbCircle
 10
706.5675172475541
 20
-332.5815074971641
 30
0.0
 40
4.5
100
AcDbArc
 50
117.2660444507052
 51
62.73395554929475
  0
LINE
  5
272
330
2
100
AcDbEntity
  8
L-TYUSIN
  6
CENTER
 62
     1
100
AcDbLine
 10
706.5675172475541
 20
-340.5815074971643
 30
0.0
 11
706.5675172475541
 21
-324.5815074971639
 31
0.0
  0
LINE
  5
273
330
2
100
AcDbEntity
  8
L-ZISSEN
100
AcDbLine
 10
692.5675172475546
 20
-342.5815074971633
 30
0.0
 11
706.5675172475541
 21
-342.5815074971633
 31
0.0
  0
ARC
  5
274
330
2
100
AcDbEntity
  8
L-ZISSEN
100
AcDbCircle
 10
706.5675172475541
 20
-272.5815074971632
 30
0.0
 40
10.0
100
AcDbArc
 50
336.4218215217925
 51
90.0
  0
ARC
  5
275
330
2
100
AcDbEntity
  8
L-ZISSEN
100
AcDbCircle
 10
706.5675172475541
 20
-272.5815074971632
 30
0.0
 40
4.5
100
AcDbArc
 50
297.2660444507285
 51
242.7339555492714
  0
LINE
  5
276
330
2
100
AcDbEntity
  8
L-TYUSIN
  6
CENTER
 62
     1
100
AcDbLine
 10
714.5675172475542
 20
-272.5815074971632
 30
0.0
 11
698.5675172475541
 21
-272.5815074971632
 31
0.0
  0
LINE
  5
277
330
2
100
AcDbEntity
  8
L-ZISSEN
100
AcDbLine
 10
692.5675172475546
 20
-257.5815074971641
 30
0.0
 11
692.5675172475546
 21
-276.5815074971636
 31
0.0
  0
LINE
  5
278
330
2
100
AcDbEntity
  8
L-TYUSIN
  6
CENTER
 62
     1
100
AcDbLine
 10
706.5675172475541
 20
-264.581507497163
 30
0.0
 11
706.5675172475541
 21
-280.5815074971634
 31
0.0
  0
LINE
  5
279
330
2
100
AcDbEntity
  8
L-ZISSEN
100
AcDbLine
 10
692.5675172475546
 20
-262.5815074971641
 30
0.0
 11
706.5675172475541
 21
-262.5815074971641
 31
0.0
  0
ENDSEC
  0
SECTION
  2
OBJECTS
  0
DICTIONARY
  5
9
330
0
100
AcDbDictionary
  3
ACAD_GROUP
350
23
  3
ACAD_LAYOUT
350
E
  3
ACAD_MLINESTYLE
350
24
  3
ACAD_PLOTSETTINGS
350
25
1001
ACAD
1000
TREAT_AS_HARD
1070
     0
  0
DICTIONARY
  5
3
330
2
100
AcDbDictionary
  3
ACAD_LAYOUTSELFREF
350
281
1001
ACAD
1000
TREAT_AS_HARD
1070
     1
  0
DICTIONARY
  5
10
330
F
100
AcDbDictionary
  3
ACAD_LAYOUTSELFREF
350
282
1001
ACAD
1000
TREAT_AS_HARD
1070
     1
  0
DICTIONARY
  5
23
102
{ACAD_REACTORS
330
9
102
}
330
9
100
AcDbDictionary
1001
ACAD
1000
TREAT_AS_HARD
1070
     0
  0
DICTIONARY
  5
E
102
{ACAD_REACTORS
330
9
102
}
330
9
100
AcDbDictionary
1001
ACAD
1000
TREAT_AS_HARD
1070
     0
  0
DICTIONARY
  5
24
102
{ACAD_REACTORS
330
9
102
}
330
9
100
AcDbDictionary
  3
STANDARD
350
2E
1001
ACAD
1000
TREAT_AS_HARD
1070
     0
  0
DICTIONARY
  5
25
102
{ACAD_REACTORS
330
9
102
}
330
9
100
AcDbDictionary
1001
ACAD
1000
TREAT_AS_HARD
1070
     0
  0
XRECORD
  5
281
102
{ACAD_REACTORS
330
3
102
}
330
3
100
AcDbXrecord
340
2
  0
XRECORD
  5
282
102
{ACAD_REACTORS
330
10
102
}
330
10
100
AcDbXrecord
340
F
  0
MLINESTYLE
  5
2E
102
{ACAD_REACTORS
330
24
102
}
330
24
100
AcDbMlineStyle
  2
STANDARD
 70
     0
  3

 62
     0
 51
90.0
 52
90.0
 71
     2
 49
0.5
 62
   256
  6
BYLAYER
 49
-0.5
 62
   256
  6
BYLAYER
  0
ENDSEC
  0
EOF
