  0
SECTION
  2
HEADER
  9
$ACADVER
  1
AC1012
  9
$DWGCODEPAGE
  3
dos932
  9
$INSBASE
 10
0.0
 20
0.0
 30
0.0
  9
$EXTMIN
 10
60.29999967993091
 20
-586.1633451604165
 30
0.0
  9
$EXTMAX
 10
851.5675172475541
 20
-204.7528839322824
 30
0.0
  9
$LIMMIN
 10
0.0
 20
0.0
  9
$LIMMAX
 10
297.0
 20
210.0
  9
$ORTHOMODE
 70
     0
  9
$REGENMODE
 70
     1
  9
$FILLMODE
 70
     1
  9
$QTEXTMODE
 70
     0
  9
$MIRRTEXT
 70
     1
  9
$DRAGMODE
 70
     2
  9
$LTSCALE
 40
2.0
  9
$OSMODE
 70
    37
  9
$ATTMODE
 70
     1
  9
$TEXTSIZE
 40
5.599999999999999
  9
$TRACEWID
 40
0.05
  9
$TEXTSTYLE
  7
STANDARD
  9
$CLAYER
  8
L-ZISSEN
  9
$CELTYPE
  6
BYLAYER
  9
$CECOLOR
 62
   256
  9
$CELTSCALE
 40
1.0
  9
$DELOBJ
 70
     1
  9
$DISPSILH
 70
     0
  9
$DIMSCALE
 40
2.0
  9
$DIMASZ
 40
1.5
  9
$DIMEXO
 40
1.0
  9
$DIMDLI
 40
8.0
  9
$DIMRND
 40
0.0
  9
$DIMDLE
 40
0.0
  9
$DIMEXE
 40
1.0
  9
$DIMTP
 40
0.0
  9
$DIMTM
 40
0.0
  9
$DIMTXT
 40
2.799999999999999
  9
$DIMCEN
 40
0.8
  9
$DIMTSZ
 40
0.0
  9
$DIMTOL
 70
     0
  9
$DIMLIM
 70
     0
  9
$DIMTIH
 70
     0
  9
$DIMTOH
 70
     0
  9
$DIMSE1
 70
     0
  9
$DIMSE2
 70
     0
  9
$DIMTAD
 70
     1
  9
$DIMZIN
 70
     8
  9
$DIMBLK
  1

  9
$DIMASO
 70
     1
  9
$DIMSHO
 70
     0
  9
$DIMPOST
  1

  9
$DIMAPOST
  1

  9
$DIMALT
 70
     0
  9
$DIMALTD
 70
     2
  9
$DIMALTF
 40
25.4
  9
$DIMLFAC
 40
1.0
  9
$DIMTOFL
 70
     1
  9
$DIMTVP
 40
1.0
  9
$DIMTIX
 70
     1
  9
$DIMSOXD
 70
     0
  9
$DIMSAH
 70
     1
  9
$DIMBLK1
  1
OPEN
  9
$DIMBLK2
  1
OPEN
  9
$DIMSTYLE
  2
STANDARD
  9
$DIMCLRD
 70
     0
  9
$DIMCLRE
 70
     0
  9
$DIMCLRT
 70
     0
  9
$DIMTFAC
 40
1.0
  9
$DIMGAP
 40
1.399999999999999
  9
$DIMJUST
 70
     0
  9
$DIMSD1
 70
     0
  9
$DIMSD2
 70
     0
  9
$DIMTOLJ
 70
     1
  9
$DIMTZIN
 70
     8
  9
$DIMALTZ
 70
     0
  9
$DIMALTTZ
 70
     0
  9
$DIMFIT
 70
     3
  9
$DIMUPT
 70
     0
  9
$DIMUNIT
 70
     2
  9
$DIMDEC
 70
     4
  9
$DIMTDEC
 70
     4
  9
$DIMALTU
 70
     2
  9
$DIMALTTD
 70
     2
  9
$DIMTXSTY
  7
KANJI
  9
$DIMAUNIT
 70
     0
  9
$LUNITS
 70
     2
  9
$LUPREC
 70
     4
  9
$SKETCHINC
 40
0.1
  9
$FILLETRAD
 40
0.0
  9
$AUNITS
 70
     0
  9
$AUPREC
 70
     0
  9
$MENU
  1
C:\ACAD
  9
$ELEVATION
 40
0.0
  9
$PELEVATION
 40
0.0
  9
$THICKNESS
 40
0.0
  9
$LIMCHECK
 70
     0
  9
$BLIPMODE
 70
     0
  9
$CHAMFERA
 40
0.5
  9
$CHAMFERB
 40
0.5
  9
$CHAMFERC
 40
0.0
  9
$CHAMFERD
 40
0.0
  9
$SKPOLY
 70
     0
  9
$TDCREATE
 40
2449954.598049536
  9
$TDUPDATE
 40
2453194.588800000
  9
$TDINDWG
 40
3.8450560185
  9
$TDUSRTIMER
 40
3.8450560185
  9
$USRTIMER
 70
     1
  9
$ANGBASE
 50
0.0
  9
$ANGDIR
 70
     0
  9
$PDMODE
 70
     0
  9
$PDSIZE
 40
0.0
  9
$PLINEWID
 40
0.0
  9
$COORDS
 70
     0
  9
$SPLFRAME
 70
     0
  9
$SPLINETYPE
 70
     6
  9
$SPLINESEGS
 70
     8
  9
$ATTDIA
 70
     0
  9
$ATTREQ
 70
     1
  9
$HANDLING
 70
-16383
  9
$HANDSEED
  5
923
  9
$SURFTAB1
 70
     6
  9
$SURFTAB2
 70
     6
  9
$SURFTYPE
 70
     6
  9
$SURFU
 70
     6
  9
$SURFV
 70
     6
  9
$UCSNAME
  2

  9
$UCSORG
 10
0.0
 20
0.0
 30
0.0
  9
$UCSXDIR
 10
1.0
 20
0.0
 30
0.0
  9
$UCSYDIR
 10
0.0
 20
1.0
 30
0.0
  9
$PUCSNAME
  2

  9
$PUCSORG
 10
0.0
 20
0.0
 30
0.0
  9
$PUCSXDIR
 10
1.0
 20
0.0
 30
0.0
  9
$PUCSYDIR
 10
0.0
 20
1.0
 30
0.0
  9
$USERI1
 70
     0
  9
$USERI2
 70
     0
  9
$USERI3
 70
     0
  9
$USERI4
 70
     0
  9
$USERI5
 70
     0
  9
$USERR1
 40
0.0
  9
$USERR2
 40
0.0
  9
$USERR3
 40
0.0
  9
$USERR4
 40
0.0
  9
$USERR5
 40
0.0
  9
$WORLDVIEW
 70
     1
  9
$SHADEDGE
 70
     3
  9
$SHADEDIF
 70
    70
  9
$TILEMODE
 70
     1
  9
$MAXACTVP
 70
    16
  9
$PINSBASE
 10
0.0
 20
0.0
 30
0.0
  9
$PLIMCHECK
 70
     0
  9
$PEXTMIN
 10
1.000000000000000E+20
 20
1.000000000000000E+20
 30
1.000000000000000E+20
  9
$PEXTMAX
 10
-1.000000000000000E+20
 20
-1.000000000000000E+20
 30
-1.000000000000000E+20
  9
$PLIMMIN
 10
0.0
 20
0.0
  9
$PLIMMAX
 10
12.0
 20
9.0
  9
$UNITMODE
 70
     0
  9
$VISRETAIN
 70
     0
  9
$PLINEGEN
 70
     0
  9
$PSLTSCALE
 70
     0
  9
$TREEDEPTH
 70
  3020
  9
$PICKSTYLE
 70
     1
  9
$CMLSTYLE
  2
STANDARD
  9
$CMLJUST
 70
     0
  9
$CMLSCALE
 40
1.0
  9
$SAVEIMAGES
 70
     1
  0
ENDSEC
  0
SECTION
  2
CLASSES
  0
CLASS
  1
OLE2FRAME
  2
AcDbOle2Frame
  3
AutoCAD 2000
 90
    32768
280
     0
281
     1
  0
CLASS
  1
ACDBDICTIONARYWDFLT
  2
AcDbDictionaryWithDefault
  3
AutoCAD 2000
 90
    32768
280
     0
281
     0
  0
CLASS
  1
ACDBPLACEHOLDER
  2
AcDbPlaceHolder
  3
AutoCAD 2000
 90
    32768
280
     0
281
     0
  0
CLASS
  1
LAYOUT
  2
AcDbLayout
  3
AutoCAD 2000
 90
    32768
280
     0
281
     0
  0
CLASS
  1
LONG_TRANSACTION
  2
AcDbLongTransaction
  3
AutoCAD 2000
 90
    32768
280
     0
281
     0
  0
CLASS
  1
LWPOLYLINE
  2
AcDbPolyline
  3
AutoCAD 2000
 90
    32768
280
     0
281
     1
  0
CLASS
  1
HATCH
  2
AcDbHatch
  3
AutoCAD 2000
 90
    32768
280
     0
281
     1
  0
CLASS
  1
XRECORD
  2
AcDbXrecord
  3
AutoCAD 2000
 90
    32768
280
     0
281
     0
  0
CLASS
  1
LONG_TRANSACTION
  2
AcDbLongTransaction
  3
AutoCAD 2000
 90
    32768
280
     0
281
     0
  0
CLASS
  1
LWPOLYLINE
  2
AcDbPolyline
  3
AutoCAD 2000
 90
    32768
280
     0
281
     1
  0
CLASS
  1
HATCH
  2
AcDbHatch
  3
AutoCAD 2000
 90
    32768
280
     0
281
     1
  0
CLASS
  1
XRECORD
  2
AcDbXrecord
  3
AutoCAD 2000
 90
    32768
280
     0
281
     0
  0
CLASS
  1
LONG_TRANSACTION
  2
AcDbLongTransaction
  3
AutoCAD 2000
 90
    32768
280
     0
281
     0
  0
CLASS
  1
LWPOLYLINE
  2
AcDbPolyline
  3
AutoCAD 2000
 90
    32768
280
     0
281
     1
  0
CLASS
  1
HATCH
  2
AcDbHatch
  3
AutoCAD 2000
 90
    32768
280
     0
281
     1
  0
CLASS
  1
XRECORD
  2
AcDbXrecord
  3
AutoCAD 2000
 90
    32768
280
     0
281
     0
  0
ENDSEC
  0
SECTION
  2
TABLES
  0
TABLE
  2
VPORT
  5
19
330
0
100
AcDbSymbolTable
 70
     2
  0
VPORT
  5
8DA
330
19
100
AcDbSymbolTableRecord
100
AcDbViewportTableRecord
  2
*ACTIVE
 70
     0
 10
0.0
 20
0.0
 11
1.0
 21
1.0
 12
463.5280655846179
 22
-398.6468422759176
 13
0.0
 23
0.0
 14
1.0
 24
1.0
 15
4.0
 25
4.0
 16
0.0
 26
0.0
 36
1.0
 17
0.0
 27
0.0
 37
0.0
 40
482.7069471248163
 41
1.84990253411306
 42
50.0
 43
0.0
 44
0.0
 50
0.0
 51
0.0
 71
     0
 72
   100
 73
     1
 74
     0
 75
     0
 76
     0
 77
     0
 78
     0
  0
ENDTAB
  0
TABLE
  2
LTYPE
  5
14
330
0
100
AcDbSymbolTable
 70
     2
  0
LTYPE
  5
15
330
14
100
AcDbSymbolTableRecord
100
AcDbLinetypeTableRecord
  2
BYBLOCK
 70
     0
  3

 72
    65
 73
     0
 40
0.0
  0
LTYPE
  5
16
330
14
100
AcDbSymbolTableRecord
100
AcDbLinetypeTableRecord
  2
BYLAYER
 70
     0
  3

 72
    65
 73
     0
 40
0.0
  0
LTYPE
  5
8
330
14
100
AcDbSymbolTableRecord
100
AcDbLinetypeTableRecord
  2
CONTINUOUS
 70
     0
  3
Solid line
 72
    65
 73
     0
 40
0.0
  0
LTYPE
  5
3D
330
14
100
AcDbSymbolTableRecord
100
AcDbLinetypeTableRecord
  2
CENTER
 70
     0
  3
----- - ----- - ----- - ----- - ----- - -----
 72
    65
 73
     4
 40
35.0
 49
30.0
 74
     0
 49
-1.5
 74
     0
 49
2.0
 74
     0
 49
-1.5
 74
     0
  0
ENDTAB
  0
TABLE
  2
LAYER
  5
10
330
0
100
AcDbSymbolTable
 70
     3
  0
LAYER
  5
4
330
10
100
AcDbSymbolTableRecord
100
AcDbLayerTableRecord
  2
0
 70
     0
 62
     7
  6
CONTINUOUS
  0
LAYER
  5
23
330
10
100
AcDbSymbolTableRecord
100
AcDbLayerTableRecord
  2
L-ZISSEN
 70
     0
 62
     7
  6
CONTINUOUS
  0
LAYER
  5
3C
330
10
100
AcDbSymbolTableRecord
100
AcDbLayerTableRecord
  2
L-TYUSIN
 70
     0
 62
     1
  6
CENTER
  0
ENDTAB
  0
TABLE
  2
STYLE
  5
11
330
0
100
AcDbSymbolTable
 70
     2
  0
STYLE
  5
12
330
11
100
AcDbSymbolTableRecord
100
AcDbTextStyleTableRecord
  2
STANDARD
 70
     0
 40
0.0
 41
0.8
 50
0.0
 71
     0
 42
5.599999999999999
  3
txt.shx
  4

  0
STYLE
  5
24
330
11
100
AcDbSymbolTableRecord
100
AcDbTextStyleTableRecord
  2
KANJI
 70
     0
 40
0.0
 41
0.8
 50
0.0
 71
     0
 42
5.599999999999999
  3
C:\Program Files\AutoCAD LT\ROMANS
  4
BIGFONT.shx
  0
ENDTAB
  0
TABLE
  2
VIEW
  5
17
330
0
100
AcDbSymbolTable
 70
     0
  0
ENDTAB
  0
TABLE
  2
UCS
  5
18
330
0
100
AcDbSymbolTable
 70
     0
  0
ENDTAB
  0
TABLE
  2
APPID
  5
1B
330
0
100
AcDbSymbolTable
 70
     1
  0
APPID
  5
1C
330
1B
100
AcDbSymbolTableRecord
100
AcDbRegAppTableRecord
  2
ACAD
 70
     0
  0
ENDTAB
  0
TABLE
  2
DIMSTYLE
  5
1D
330
0
100
AcDbSymbolTable
 70
     1
  0
DIMSTYLE
105
1E
330
1D
100
AcDbSymbolTableRecord
100
AcDbDimStyleTableRecord
  2
STANDARD
 70
     0
  3

  4

  5

  6

  7

 40
1.0
 41
0.18
 42
0.0625
 43
0.38
 44
0.18
 45
0.0
 46
0.0
 47
0.0
 48
0.0
140
0.18
141
0.09
142
0.0
143
25.4
144
1.0
145
0.0
146
1.0
147
0.09
 71
     0
 72
     0
 73
     1
 74
     1
 75
     0
 76
     0
 77
     0
 78
     0
170
     0
171
     2
172
     0
173
     0
174
     0
175
     0
176
     0
177
     0
178
     0
270
     2
271
     4
272
     4
273
     2
274
     2
340
12
275
     0
280
     0
281
     0
282
     0
283
     1
284
     0
285
     0
286
     0
287
     3
288
     0
  0
ENDTAB
  0
TABLE
  2
BLOCK_RECORD
  5
1
330
0
100
AcDbSymbolTable
 70
     1
  0
BLOCK_RECORD
  5
2
102
{ACAD_XDICTIONARY
360
7D0
102
}
330
1
100
AcDbSymbolTableRecord
100
AcDbBlockTableRecord
  2
*MODEL_SPACE
  0
BLOCK_RECORD
  5
C
102
{ACAD_XDICTIONARY
360
7D4
102
}
330
1
100
AcDbSymbolTableRecord
100
AcDbBlockTableRecord
  2
*PAPER_SPACE
  0
BLOCK_RECORD
  5
25
330
1
100
AcDbSymbolTableRecord
100
AcDbBlockTableRecord
  2
_OPEN
  0
ENDTAB
  0
ENDSEC
  0
SECTION
  2
BLOCKS
  0
BLOCK
  5
3
330
2
100
AcDbEntity
  8
0
100
AcDbBlockBegin
  2
*MODEL_SPACE
 70
     0
 10
0.0
 20
0.0
 30
0.0
  3
*MODEL_SPACE
  1

  0
ENDBLK
  5
9
330
2
100
AcDbEntity
  8
0
100
AcDbBlockEnd
  0
BLOCK
  5
D
330
C
100
AcDbEntity
 67
     1
  8
0
100
AcDbBlockBegin
  2
*PAPER_SPACE
 70
     0
 10
0.0
 20
0.0
 30
0.0
  3
*PAPER_SPACE
  1

  0
ENDBLK
  5
E
330
C
100
AcDbEntity
 67
     1
  8
0
100
AcDbBlockEnd
  0
BLOCK
  5
29
330
25
100
AcDbEntity
  8
0
100
AcDbBlockBegin
  2
_OPEN
 70
     0
 10
0.0
 20
0.0
 30
0.0
  3
_OPEN
  1

  0
LINE
  5
26
330
25
100
AcDbEntity
  8
0
  6
BYBLOCK
 62
     0
100
AcDbLine
 10
-1.0
 20
0.1666666666666666
 30
0.0
 11
0.0
 21
0.0
 31
0.0
  0
LINE
  5
27
330
25
100
AcDbEntity
  8
0
  6
BYBLOCK
 62
     0
100
AcDbLine
 10
0.0
 20
0.0
 30
0.0
 11
-1.0
 21
-0.1666666666666666
 31
0.0
  0
LINE
  5
28
330
25
100
AcDbEntity
  8
0
  6
BYBLOCK
 62
     0
100
AcDbLine
 10
0.0
 20
0.0
 30
0.0
 11
-1.0
 21
0.0
 31
0.0
  0
ENDBLK
  5
2A
330
25
100
AcDbEntity
  8
0
100
AcDbBlockEnd
  0
ENDSEC
  0
SECTION
  2
ENTITIES
  0
LINE
  5
33
330
2
100
AcDbEntity
  8
L-ZISSEN
100
AcDbLine
 10
351.1784168189963
 20
-529.0815456133999
 30
0.0
 11
435.1784168189961
 21
-529.0815456134001
 31
0.0
  0
LINE
  5
3B
330
2
100
AcDbEntity
  8
L-TYUSIN
100
AcDbLine
 10
282.6784168189943
 20
-302.5815074971641
 30
0.0
 11
91.17841681899751
 21
-302.5815074971641
 31
0.0
  0
TEXT
  5
47
330
2
100
AcDbEntity
  8
L-ZISSEN
100
AcDbText
 10
146.1543080231508
 20
-540.5521752192985
 30
0.0
 40
4.5
  1
"1" PORT
100
AcDbText
  0
TEXT
  5
48
330
2
100
AcDbEntity
  8
L-ZISSEN
100
AcDbText
 10
150.1543080231508
 20
-558.3021752192985
 30
0.0
 40
4.5
  1
Rc 3/8
100
AcDbText
  0
TEXT
  5
49
330
2
100
AcDbEntity
  8
L-ZISSEN
100
AcDbText
 10
150.1543080231508
 20
-568.3021752192985
 30
0.0
 40
4.5
  1
Rc 1/2
100
AcDbText
  0
TEXT
  5
4A
330
2
100
AcDbEntity
  8
L-ZISSEN
100
AcDbText
 10
150.1543080231508
 20
-548.3021752192985
 30
0.0
 40
4.5
  1
Rc 1/4
100
AcDbText
  0
LINE
  5
4D
330
2
100
AcDbEntity
  8
L-ZISSEN
100
AcDbLine
 10
123.1784168189965
 20
-529.0815456134001
 30
0.0
 11
263.1784168189963
 21
-529.0815456134002
 31
0.0
  0
LINE
  5
AC
330
2
100
AcDbEntity
  8
L-TYUSIN
100
AcDbLine
 10
193.1784168189963
 20
-436.5815456134
 30
0.0
 11
193.1784168189965
 21
-534.0815456134001
 31
0.0
  0
SOLID
  5
B2
330
2
100
AcDbEntity
  8
L-ZISSEN
100
AcDbTrace
 10
192.3781630031772
 20
-505.9445284209905
 30
0.0
 11
193.0256306064941
 21
-506.1033684257108
 31
0.0
 12
193.1784168189966
 22
-504.0815456134001
 32
0.0
 13
193.1784168189966
 23
-504.0815456134001
 33
0.0
  0
LINE
  5
B3
330
2
100
AcDbEntity
  8
L-TYUSIN
100
AcDbLine
 10
180.2009168189965
 20
-504.0815456134001
 30
0.0
 11
206.1559168189965
 21
-504.0815456134001
 31
0.0
  0
LINE
  5
B4
330
2
100
AcDbEntity
  8
L-ZISSEN
100
AcDbLine
 10
192.7018968048356
 20
-506.0239484233506
 30
0.0
 11
184.5800990151124
 21
-539.1302238783002
 31
0.0
  0
LINE
  5
B5
330
2
100
AcDbEntity
  8
L-ZISSEN
100
AcDbLine
 10
184.5800990151124
 20
-539.1302238783002
 30
0.0
 11
178.8634925689002
 21
-539.1302238783002
 31
0.0
  0
TEXT
  5
137
330
2
100
AcDbEntity
  8
L-ZISSEN
100
AcDbText
 10
273.3184162983357
 20
-352.6115815645366
 30
0.0
 40
4.5
  1
PIROT PORT "14"
100
AcDbText
  0
TEXT
  5
138
330
2
100
AcDbEntity
  8
L-ZISSEN
100
AcDbText
 10
277.3184162983357
 20
-360.3615815645366
 30
0.0
 40
4.5
  1
Rc 1/8
100
AcDbText
  0
TEXT
  5
13B
330
2
100
AcDbEntity
  8
L-ZISSEN
100
AcDbText
 10
204.9773265833634
 20
-316.9816012391046
 30
0.0
 40
4.5
  1
P.P
100
AcDbText
  0
LINE
  5
13C
330
2
100
AcDbEntity
  8
L-ZISSEN
100
AcDbLine
 10
194.2878172114468
 20
-304.2456080858398
 30
0.0
 11
201.4653134127832
 21
-315.0118523878445
 31
0.0
  0
LINE
  5
140
330
2
100
AcDbEntity
  8
L-ZISSEN
100
AcDbLine
 10
237.2878172114452
 20
-308.7456080858399
 30
0.0
 11
265.3468446855677
 21
-350.0863165691325
 31
0.0
  0
LINE
  5
141
330
2
100
AcDbEntity
  8
L-TYUSIN
100
AcDbLine
 10
193.1784168189953
 20
-349.5815074971641
 30
0.0
 11
193.1784168189973
 21
-255.5815074971643
 31
0.0
  0
LINE
  5
162
330
2
100
AcDbEntity
  8
L-ZISSEN
100
AcDbLine
 10
201.4653134127832
 20
-315.0118523878445
 30
0.0
 11
203.3637955132847
 21
-315.0118523878445
 31
0.0
  0
LINE
  5
179
330
2
100
AcDbEntity
  8
L-ZISSEN
100
AcDbLine
 10
271.0634511317798
 20
-350.0863165691325
 30
0.0
 11
265.3468446855677
 21
-350.0863165691325
 31
0.0
  0
SOLID
  5
19C
330
2
100
AcDbEntity
  8
L-ZISSEN
100
AcDbTrace
 10
194.0104671133343
 20
-304.4305081512481
 30
0.0
 11
194.5651673095593
 21
-304.0607080204313
 31
0.0
 12
193.1784168189963
 22
-302.5815074971641
 32
0.0
 13
193.1784168189963
 23
-302.5815074971641
 33
0.0
  0
SOLID
  5
1AA
330
2
100
AcDbEntity
  8
L-ZISSEN
100
AcDbTrace
 10
237.0104671133327
 20
-308.9305081512482
 30
0.0
 11
237.5651673095577
 21
-308.5607080204315
 31
0.0
 12
236.1784168189947
 22
-307.0815074971643
 32
0.0
 13
236.1784168189947
 23
-307.0815074971643
 33
0.0
  0
TEXT
  5
1C8
330
2
100
AcDbEntity
  8
L-ZISSEN
100
AcDbText
 10
317.8937304445212
 20
-215.8805642230711
 30
0.0
 40
5.0
  1
MODELE No. : 524-300-200M
 41
0.8
  7
KANJI
 72
     4
 11
363.3032542540449
 21
-213.3805642230711
 31
0.0
100
AcDbText
  0
TEXT
  5
1C9
330
2
100
AcDbEntity
  8
L-ZISSEN
100
AcDbText
 10
376.3640122042807
 20
-221.7528839322824
 30
0.0
 40
5.0
  1
4
 41
0.8
  7
KANJI
 72
     4
 11
378.3640122042807
 21
-219.2528839322824
 31
0.0
100
AcDbText
  0
TEXT
  5
1CA
330
2
100
AcDbEntity
  8
L-ZISSEN
100
AcDbText
 10
376.5780143072647
 20
-209.7528839322824
 30
0.0
 40
5.0
  1
2
 41
0.8
  7
KANJI
 72
     4
 11
378.4827762120266
 21
-207.2528839322824
 31
0.0
100
AcDbText
  0
LINE
  5
1CB
330
2
100
AcDbEntity
  8
L-ZISSEN
100
AcDbLine
 10
692.5675172475546
 20
-257.5815074971641
 30
0.0
 11
647.5675172475523
 21
-257.5815074971641
 31
0.0
  0
LINE
  5
1CC
330
2
100
AcDbEntity
  8
L-ZISSEN
100
AcDbLine
 10
692.5675172475546
 20
-347.5815074971633
 30
0.0
 11
570.5675172475539
 21
-347.5815074971633
 31
0.0
  0
LINE
  5
1CD
330
2
100
AcDbEntity
  8
L-ZISSEN
  6
CONTINUOUS
 62
     7
100
AcDbLine
 10
657.5675172475541
 20
-529.0815456134001
 30
0.0
 11
716.5675172475541
 21
-529.0815456134001
 31
0.0
  0
ARC
  5
1CE
330
2
100
AcDbEntity
  8
L-ZISSEN
100
AcDbCircle
 10
673.5675172475541
 20
-509.0815456134
 30
0.0
 40
19.0
100
AcDbArc
 50
0.0
 51
140.8332892838789
  0
LINE
  5
1CF
330
2
100
AcDbEntity
  8
L-TYUSIN
100
AcDbLine
 10
529.6862119373034
 20
-247.9583279131936
 30
0.0
 11
529.6862119373031
 21
-586.1633451604165
 31
0.0
  0
LINE
  5
1D0
330
2
100
AcDbEntity
  8
L-ZISSEN
  6
CONTINUOUS
 62
     7
100
AcDbLine
 10
546.5675172475541
 20
-517.0815456134
 30
0.0
 11
570.5675172475541
 21
-517.0815456134
 31
0.0
  0
LINE
  5
1D1
330
2
100
AcDbEntity
  8
L-ZISSEN
  6
CONTINUOUS
 62
     7
100
AcDbLine
 10
546.5675172475541
 20
-529.0815456134001
 30
0.0
 11
605.5675172475542
 21
-529.0815456134001
 31
0.0
  0
LINE
  5
1D7
330
2
100
AcDbEntity
  8
L-TYUSIN
  6
CENTER
 62
     1
100
AcDbLine
 10
556.5675172475541
 20
-512.0815456134001
 30
0.0
 11
556.5675172475541
 21
-534.0815456134
 31
0.0
  0
LINE
  5
1D8
330
2
100
AcDbEntity
  8
L-ZISSEN
100
AcDbLine
 10
546.5675172475541
 20
-517.0815456134
 30
0.0
 11
546.5675172475541
 21
-529.0815456134001
 31
0.0
  0
LINE
  5
1D9
330
2
100
AcDbEntity
  8
L-ZISSEN
100
AcDbLine
 10
630.1533036851808
 20
-461.1673386510269
 30
0.0
 11
621.5675172475542
 21
-452.5815522134
 31
0.0
  0
ARC
  5
1DA
330
2
100
AcDbEntity
  8
L-ZISSEN
100
AcDbCircle
 10
631.5675172475541
 20
-509.0815456134
 30
0.0
 40
19.0
100
AcDbArc
 50
39.1667107161211
 51
140.8332892838789
  0
LINE
  5
1DB
330
2
100
AcDbEntity
  8
L-TYUSIN
  6
CENTER
 62
     1
100
AcDbLine
 10
616.5675172475541
 20
-509.0815456134
 30
0.0
 11
646.5675172475542
 21
-509.0815456134001
 31
0.0
  0
ARC
  5
1DC
330
2
100
AcDbEntity
  8
L-ZISSEN
100
AcDbCircle
 10
631.5675172475541
 20
-509.0815456134
 30
0.0
 40
19.0
100
AcDbArc
 50
219.166710716121
 51
320.8332892838789
  0
CIRCLE
  5
1DD
330
2
100
AcDbEntity
  8
L-ZISSEN
100
AcDbCircle
 10
631.5675172475541
 20
-509.0815456134
 30
0.0
 40
12.05849999999999
  0
LINE
  5
1DE
330
2
100
AcDbEntity
  8
L-ZISSEN
  6
CONTINUOUS
 62
     7
100
AcDbLine
 10
584.0675172475541
 20
-487.0815456134001
 30
0.0
 11
679.0675172475541
 21
-487.0815456134001
 31
0.0
  0
ARC
  5
1DF
330
2
100
AcDbEntity
  8
L-ZISSEN
100
AcDbCircle
 10
589.5675172475542
 20
-509.0815456134
 30
0.0
 40
19.0
100
AcDbArc
 50
39.1667107161211
 51
180.0
  0
LINE
  5
1E0
330
2
100
AcDbEntity
  8
L-TYUSIN
  6
CENTER
 62
     1
100
AcDbLine
 10
589.5675172475542
 20
-494.081545613401
 30
0.0
 11
589.5675172475542
 21
-524.0815456133994
 31
0.0
  0
CIRCLE
  5
1E1
330
2
100
AcDbEntity
  8
L-ZISSEN
100
AcDbCircle
 10
589.5675172475542
 20
-509.0815456134
 30
0.0
 40
12.05849999999999
  0
LINE
  5
1E2
330
2
100
AcDbEntity
  8
L-TYUSIN
  6
CENTER
 62
     1
100
AcDbLine
 10
574.5675172475541
 20
-509.0815456134
 30
0.0
 11
604.5675172475541
 21
-509.0815456134
 31
0.0
  0
LINE
  5
1E3
330
2
100
AcDbEntity
  8
L-ZISSEN
100
AcDbLine
 10
570.5675172475541
 20
-509.0815456134
 30
0.0
 11
570.5675172475541
 21
-517.0815456134
 31
0.0
  0
LINE
  5
1E4
330
2
100
AcDbEntity
  8
L-ZISSEN
100
AcDbLine
 10
605.5675172475542
 20
-529.0815456134001
 30
0.0
 11
613.5675172475542
 21
-521.0815456134
 31
0.0
  0
LINE
  5
1E5
330
2
100
AcDbEntity
  8
L-ZISSEN
  6
CONTINUOUS
 62
     7
100
AcDbLine
 10
604.2984371102114
 20
-521.0815456134
 30
0.0
 11
616.8365973848978
 21
-521.0815456134
 31
0.0
  0
LINE
  5
1E6
330
2
100
AcDbEntity
  8
L-ZISSEN
100
AcDbLine
 10
596.2984371102113
 20
-529.0815456134001
 30
0.0
 11
604.2984371102114
 21
-521.0815456134
 31
0.0
  0
LINE
  5
1E7
330
2
100
AcDbEntity
  8
L-ZISSEN
100
AcDbLine
 10
584.0675314975539
 20
-487.0815456134001
 30
0.0
 11
584.0675314975539
 21
-490.8950078244274
 31
0.0
  0
LINE
  5
1E8
330
2
100
AcDbEntity
  8
L-ZISSEN
  6
CONTINUOUS
 62
     7
100
AcDbLine
 10
604.2984371102104
 20
-497.0815456134
 30
0.0
 11
616.8365973848978
 21
-497.0815456134
 31
0.0
  0
TEXT
  5
1E9
330
2
100
AcDbEntity
  8
L-ZISSEN
100
AcDbText
 10
608.5675172475541
 20
-454.8315522134
 30
0.0
 40
4.5
  1
P.P
100
AcDbText
  0
LINE
  5
1EA
330
2
100
AcDbEntity
  8
L-ZISSEN
100
AcDbLine
 10
621.5675172475542
 20
-452.5815522134
 30
0.0
 11
619.5675172475541
 21
-452.5815522134
 31
0.0
  0
LINE
  5
1EB
330
2
100
AcDbEntity
  8
L-TYUSIN
  6
CENTER
 62
     1
100
AcDbLine
 10
673.5675172475541
 20
-494.0815456134014
 30
0.0
 11
673.5675172475541
 21
-524.0815456133989
 31
0.0
  0
CIRCLE
  5
1EC
330
2
100
AcDbEntity
  8
L-ZISSEN
100
AcDbCircle
 10
673.5675172475541
 20
-509.0815456134
 30
0.0
 40
12.05849999999999
  0
LINE
  5
1ED
330
2
100
AcDbEntity
  8
L-ZISSEN
  6
CONTINUOUS
 62
     7
100
AcDbLine
 10
646.2984371102104
 20
-521.0815456134
 30
0.0
 11
658.8365973848969
 21
-521.0815456134
 31
0.0
  0
LINE
  5
1EE
330
2
100
AcDbEntity
  8
L-TYUSIN
  6
CENTER
 62
     1
100
AcDbLine
 10
658.5675172475546
 20
-509.0815456134001
 30
0.0
 11
688.5675172475536
 21
-509.0815456134001
 31
0.0
  0
LINE
  5
1EF
330
2
100
AcDbEntity
  8
L-ZISSEN
100
AcDbLine
 10
657.5675172475541
 20
-529.0815456134001
 30
0.0
 11
649.5675172475541
 21
-521.0815456134
 31
0.0
  0
LINE
  5
1F0
330
2
100
AcDbEntity
  8
L-ZISSEN
100
AcDbLine
 10
666.836597384897
 20
-529.0815456134001
 30
0.0
 11
658.8365973848969
 21
-521.0815456134
 31
0.0
  0
LINE
  5
1F1
330
2
100
AcDbEntity
  8
L-ZISSEN
  6
CONTINUOUS
 62
     7
100
AcDbLine
 10
646.2984371102104
 20
-497.0815456134
 30
0.0
 11
658.8365973848984
 21
-497.0815456134
 31
0.0
  0
SOLID
  5
1F2
330
2
100
AcDbEntity
  8
L-ZISSEN
100
AcDbTrace
 10
630.3890059455763
 20
-460.9316363906316
 30
0.0
 11
629.9176014247855
 21
-461.4030409114225
 31
0.0
 12
631.5675172475541
 22
-462.5815522134001
 32
0.0
 13
631.5675172475541
 23
-462.5815522134001
 33
0.0
  0
LINE
  5
1F3
330
2
100
AcDbEntity
  8
L-ZISSEN
100
AcDbLine
 10
679.0675029975544
 20
-487.0815456134001
 30
0.0
 11
679.0675029975544
 21
-490.8950078244274
 31
0.0
  0
TEXT
  5
1F4
330
2
100
AcDbEntity
  8
L-ZISSEN
100
AcDbText
 10
548.2777630859959
 20
-210.3342858252883
 30
0.0
 40
4.5
  1
SUB-BASE CONNECTION
100
AcDbText
  0
TEXT
  5
1F5
330
2
100
AcDbEntity
  8
L-ZISSEN
100
AcDbText
 10
548.2777630859959
 20
-220.3342858252883
 30
0.0
 40
4.5
  1
MODEL No. :
100
AcDbText
  0
LINE
  5
1F6
330
2
100
AcDbEntity
  8
L-TYUSIN
  6
CENTER
 62
     1
100
AcDbLine
 10
548.5675172475541
 20
-272.5815074971632
 30
0.0
 11
564.5675172475542
 21
-272.5815074971632
 31
0.0
  0
LINE
  5
1F7
330
2
100
AcDbEntity
  8
L-ZISSEN
100
AcDbLine
 10
570.5675172475537
 20
-262.5815074971641
 30
0.0
 11
556.5675172475541
 21
-262.5815074971641
 31
0.0
  0
ARC
  5
1F8
330
2
100
AcDbEntity
  8
L-ZISSEN
100
AcDbCircle
 10
556.5675172475541
 20
-272.5815074971632
 30
0.0
 40
4.5
100
AcDbArc
 50
297.2660444507169
 51
269.9999999999796
  0
LINE
  5
1F9
330
2
100
AcDbEntity
  8
L-TYUSIN
  6
CENTER
 62
     1
100
AcDbLine
 10
548.5675172475541
 20
-332.5815074971641
 30
0.0
 11
564.5675172475542
 21
-332.5815074971641
 31
0.0
  0
ARC
  5
1FA
330
2
100
AcDbEntity
  8
L-ZISSEN
100
AcDbCircle
 10
556.5675172475541
 20
-332.5815074971641
 30
0.0
 40
4.5
100
AcDbArc
 50
90.00000000002199
 51
62.73395554928671
  0
LINE
  5
1FB
330
2
100
AcDbEntity
  8
L-ZISSEN
100
AcDbLine
 10
570.5675172475537
 20
-342.5815074971633
 30
0.0
 11
556.5675172475541
 21
-342.5815074971633
 31
0.0
  0
ARC
  5
1FC
330
2
100
AcDbEntity
  8
L-ZISSEN
100
AcDbCircle
 10
556.5675172475541
 20
-332.5815074971641
 30
0.0
 40
10.0
100
AcDbArc
 50
115.4675601424823
 51
270.0
  0
LINE
  5
1FD
330
2
100
AcDbEntity
  8
L-TYUSIN
  6
CENTER
 62
     1
100
AcDbLine
 10
556.5675172475541
 20
-340.5815074971643
 30
0.0
 11
556.5675172475541
 21
-324.5815074971639
 31
0.0
  0
ARC
  5
1FE
330
2
100
AcDbEntity
  8
L-ZISSEN
100
AcDbCircle
 10
556.5675172475541
 20
-272.5815074971632
 30
0.0
 40
10.0
100
AcDbArc
 50
90.0
 51
244.5324398575176
  0
LINE
  5
1FF
330
2
100
AcDbEntity
  8
L-TYUSIN
  6
CENTER
 62
     1
100
AcDbLine
 10
556.5675172475541
 20
-264.581507497163
 30
0.0
 11
556.5675172475541
 21
-280.5815074971634
 31
0.0
  0
LINE
  5
200
330
2
100
AcDbEntity
  8
L-TYUSIN
  6
CENTER
 62
     1
100
AcDbLine
 10
589.5675172475542
 20
-342.581507497164
 30
0.0
 11
589.5675172475542
 21
-352.5815074971626
 31
0.0
  0
LINE
  5
201
330
2
100
AcDbEntity
  8
L-ZISSEN
100
AcDbLine
 10
570.5675172475539
 20
-347.5815074971633
 30
0.0
 11
570.5675172475537
 21
-328.5815074971639
 31
0.0
  0
LINE
  5
202
330
2
100
AcDbEntity
  8
L-TYUSIN
  6
CENTER
 62
     1
100
AcDbLine
 10
673.5675172475541
 20
-342.581507497164
 30
0.0
 11
673.5675172475541
 21
-352.5815074971626
 31
0.0
  0
TEXT
  5
203
330
2
100
AcDbEntity
  8
L-ZISSEN
100
AcDbText
 10
593.2777630859959
 20
-220.3342858252883
 30
0.0
 40
4.5
  1
524-600-***M
100
AcDbText
  0
LINE
  5
204
330
2
100
AcDbEntity
  8
L-ZISSEN
100
AcDbLine
 10
647.5675172475523
 20
-262.581507497164
 30
0.0
 11
615.5675172475557
 21
-262.581507497164
 31
0.0
  0
LINE
  5
205
330
2
100
AcDbEntity
  8
L-ZISSEN
100
AcDbLine
 10
630.4581168551037
 20
-300.917406908488
 30
0.0
 11
621.5675172475542
 21
-287.5815074971636
 31
0.0
  0
LINE
  5
206
330
2
100
AcDbEntity
  8
L-ZISSEN
100
AcDbLine
 10
615.5675172475557
 20
-257.5815074971641
 30
0.0
 11
570.5675172475539
 21
-257.5815074971641
 31
0.0
  0
LINE
  5
207
330
2
100
AcDbEntity
  8
L-ZISSEN
100
AcDbLine
 10
570.5675172475539
 20
-257.5815074971641
 30
0.0
 11
570.5675172475537
 21
-276.5815074971643
 31
0.0
  0
TEXT
  5
208
330
2
100
AcDbEntity
  8
L-ZISSEN
100
AcDbText
 10
608.5675172475541
 20
-289.8315074971636
 30
0.0
 40
4.5
  1
P.P
100
AcDbText
  0
LINE
  5
209
330
2
100
AcDbEntity
  8
L-ZISSEN
100
AcDbLine
 10
621.5675172475542
 20
-287.5815074971636
 30
0.0
 11
619.5675172475541
 21
-287.5815074971636
 31
0.0
  0
LINE
  5
20A
330
2
100
AcDbEntity
  8
L-TYUSIN
  6
CENTER
 62
     1
100
AcDbLine
 10
596.5675172475541
 20
-262.5815074971634
 30
0.0
 11
596.5675172475541
 21
-252.5815074971648
 31
0.0
  0
LINE
  5
20B
330
2
100
AcDbEntity
  8
L-ZISSEN
100
AcDbLine
 10
615.5675172475557
 20
-257.5815074971641
 30
0.0
 11
615.5675172475557
 21
-262.581507497164
 31
0.0
  0
SOLID
  5
20C
330
2
100
AcDbEntity
  8
L-ZISSEN
100
AcDbTrace
 10
630.7354669532162
 20
-300.7325068430797
 30
0.0
 11
630.1807667569912
 21
-301.1023069738964
 31
0.0
 12
631.5675172475541
 22
-302.5815074971636
 32
0.0
 13
631.5675172475541
 23
-302.5815074971636
 33
0.0
  0
LINE
  5
20D
330
2
100
AcDbEntity
  8
L-ZISSEN
100
AcDbLine
 10
647.5675172475523
 20
-257.5815074971641
 30
0.0
 11
647.5675172475523
 21
-262.581507497164
 31
0.0
  0
LINE
  5
20E
330
2
100
AcDbEntity
  8
L-TYUSIN
  6
CENTER
 62
     1
100
AcDbLine
 10
666.5675172475541
 20
-262.5815074971634
 30
0.0
 11
666.5675172475541
 21
-252.5815074971648
 31
0.0
  0
LINE
  5
20F
330
2
100
AcDbEntity
  8
L-ZISSEN
100
AcDbLine
 10
805.586755134025
 20
-517.0815456134
 30
0.0
 11
841.5675172475532
 21
-517.0815456134
 31
0.0
  0
LINE
  5
210
330
2
100
AcDbEntity
  8
L-ZISSEN
100
AcDbLine
 10
761.5675172475532
 20
-529.0815456134001
 30
0.0
 11
841.5675172475532
 21
-529.0815456134001
 31
0.0
  0
LINE
  5
211
330
2
100
AcDbEntity
  8
L-ZISSEN
100
AcDbLine
 10
840.5675172475543
 20
-487.0815522134001
 30
0.0
 11
762.5675172475541
 21
-487.0815522134001
 31
0.0
  0
LINE
  5
212
330
2
100
AcDbEntity
  8
L-ZISSEN
100
AcDbLine
 10
756.5675172475534
 20
-490.0815456134002
 30
0.0
 11
846.5675172475549
 21
-490.0815456134
 31
0.0
  0
LINE
  5
213
330
2
100
AcDbEntity
  8
L-TYUSIN
100
AcDbLine
 10
761.567517247553
 20
-509.0815456134001
 30
0.0
 11
751.5675172475542
 21
-509.0815456134001
 31
0.0
  0
LINE
  5
214
330
2
100
AcDbEntity
  8
L-ZISSEN
100
AcDbLine
 10
756.5675172475534
 20
-528.0815456134
 30
0.0
 11
761.5675172475532
 21
-528.0815456134
 31
0.0
  0
LINE
  5
215
330
2
100
AcDbEntity
  8
L-ZISSEN
100
AcDbLine
 10
756.5675172475537
 20
-528.0815456134
 30
0.0
 11
756.5675172475534
 21
-490.0815456134002
 31
0.0
  0
LINE
  5
216
330
2
100
AcDbEntity
  8
L-TYUSIN
  6
CENTER
 62
     1
100
AcDbLine
 10
706.5675172475541
 20
-512.0815456134001
 30
0.0
 11
706.5675172475541
 21
-534.0815456134
 31
0.0
  0
LINE
  5
217
330
2
100
AcDbEntity
  8
L-ZISSEN
  6
CONTINUOUS
 62
     7
100
AcDbLine
 10
692.5675172475542
 20
-517.0815456134
 30
0.0
 11
716.5675172475541
 21
-517.0815456134
 31
0.0
  0
LINE
  5
218
330
2
100
AcDbEntity
  8
L-ZISSEN
100
AcDbLine
 10
692.5675172475542
 20
-509.0815456134
 30
0.0
 11
692.5675172475542
 21
-517.0815456134
 31
0.0
  0
LINE
  5
219
330
2
100
AcDbEntity
  8
L-ZISSEN
100
AcDbLine
 10
716.5675172475541
 20
-517.0815456134
 30
0.0
 11
716.5675172475541
 21
-529.0815456134001
 31
0.0
  0
LINE
  5
21A
330
2
100
AcDbEntity
  8
L-ZISSEN
100
AcDbLine
 10
761.5675172475532
 20
-517.0815456134
 30
0.0
 11
797.5482793610833
 21
-517.0815456134
 31
0.0
  0
LINE
  5
21B
330
2
100
AcDbEntity
  8
L-TYUSIN
  6
CENTER
 62
     1
100
AcDbLine
 10
771.5675172475542
 20
-512.0815456134001
 30
0.0
 11
771.5675172475542
 21
-534.0815456134
 31
0.0
  0
LINE
  5
21C
330
2
100
AcDbEntity
  8
L-ZISSEN
100
AcDbLine
 10
761.5675172475532
 20
-529.0815456134001
 30
0.0
 11
761.5675172475532
 21
-517.0815456134
 31
0.0
  0
LINE
  5
21D
330
2
100
AcDbEntity
  8
L-ZISSEN
100
AcDbLine
 10
797.5482793610833
 20
-529.0815456134001
 30
0.0
 11
797.5482793610833
 21
-517.0815456134
 31
0.0
  0
LINE
  5
21E
330
2
100
AcDbEntity
  8
L-ZISSEN
100
AcDbLine
 10
805.586755134025
 20
-529.0815456134001
 30
0.0
 11
805.586755134025
 21
-517.0815456134
 31
0.0
  0
LINE
  5
21F
330
2
100
AcDbEntity
  8
L-ZISSEN
100
AcDbLine
 10
762.5675172475541
 20
-490.0815456134002
 30
0.0
 11
762.5675172475541
 21
-487.0815522134001
 31
0.0
  0
LINE
  5
220
330
2
100
AcDbEntity
  8
L-ZISSEN
100
AcDbLine
 10
803.1675172475541
 20
-461.3815522134002
 30
0.0
 11
821.5675172475542
 21
-447.5815522134
 31
0.0
  0
SOLID
  5
221
330
2
100
AcDbEntity
  8
L-ZISSEN
100
AcDbTrace
 10
803.3675172475541
 20
-461.6482188800668
 30
0.0
 11
802.9675172475542
 21
-461.1148855467335
 31
0.0
 12
801.5675172475541
 22
-462.5815522134001
 32
0.0
 13
801.5675172475541
 23
-462.5815522134001
 33
0.0
  0
LINE
  5
222
330
2
100
AcDbEntity
  8
L-ZISSEN
100
AcDbLine
 10
821.5675172475542
 20
-447.5815522134
 30
0.0
 11
823.5675172475541
 21
-447.5815522134
 31
0.0
  0
LINE
  5
223
330
2
100
AcDbEntity
  8
L-ZISSEN
100
AcDbLine
 10
846.5675172475545
 20
-528.0815456134
 30
0.0
 11
846.5675172475549
 21
-490.0815456134002
 31
0.0
  0
LINE
  5
224
330
2
100
AcDbEntity
  8
L-TYUSIN
  6
CENTER
 62
     1
100
AcDbLine
 10
831.5675172475541
 20
-512.0815456134001
 30
0.0
 11
831.5675172475541
 21
-534.0815456134
 31
0.0
  0
LINE
  5
225
330
2
100
AcDbEntity
  8
L-TYUSIN
100
AcDbLine
 10
841.5675172475554
 20
-509.0815456134001
 30
0.0
 11
851.5675172475541
 21
-509.0815456134001
 31
0.0
  0
LINE
  5
226
330
2
100
AcDbEntity
  8
L-ZISSEN
100
AcDbLine
 10
846.5675172475549
 20
-528.0815456134
 30
0.0
 11
841.567517247555
 21
-528.0815456134
 31
0.0
  0
LINE
  5
227
330
2
100
AcDbEntity
  8
L-ZISSEN
100
AcDbLine
 10
841.5675172475532
 20
-517.0815456134
 30
0.0
 11
841.5675172475532
 21
-529.0815456134001
 31
0.0
  0
LINE
  5
228
330
2
100
AcDbEntity
  8
L-ZISSEN
100
AcDbLine
 10
840.5675172475541
 20
-490.0815456134002
 30
0.0
 11
840.5675172475541
 21
-487.0815522134001
 31
0.0
  0
TEXT
  5
229
330
2
100
AcDbEntity
  8
L-ZISSEN
100
AcDbText
 10
825.5675172475541
 20
-449.8315522134
 30
0.0
 40
4.5
  1
P.P
100
AcDbText
  0
LINE
  5
22A
330
2
100
AcDbEntity
  8
L-ZISSEN
100
AcDbLine
 10
692.5675172475546
 20
-347.5815074971633
 30
0.0
 11
692.5675172475546
 21
-328.5815074971636
 31
0.0
  0
ARC
  5
22B
330
2
100
AcDbEntity
  8
L-ZISSEN
100
AcDbCircle
 10
706.5675172475541
 20
-332.5815074971641
 30
0.0
 40
10.0
100
AcDbArc
 50
270.0
 51
23.57817847820747
  0
ARC
  5
22C
330
2
100
AcDbEntity
  8
L-ZISSEN
100
AcDbCircle
 10
706.5675172475541
 20
-332.5815074971641
 30
0.0
 40
4.5
100
AcDbArc
 50
117.2660444507052
 51
62.73395554929475
  0
LINE
  5
22D
330
2
100
AcDbEntity
  8
L-TYUSIN
  6
CENTER
 62
     1
100
AcDbLine
 10
714.5675172475542
 20
-332.5815074971641
 30
0.0
 11
698.5675172475541
 21
-332.5815074971641
 31
0.0
  0
LINE
  5
22E
330
2
100
AcDbEntity
  8
L-TYUSIN
  6
CENTER
 62
     1
100
AcDbLine
 10
706.5675172475541
 20
-340.5815074971643
 30
0.0
 11
706.5675172475541
 21
-324.5815074971639
 31
0.0
  0
LINE
  5
22F
330
2
100
AcDbEntity
  8
L-ZISSEN
100
AcDbLine
 10
692.5675172475546
 20
-342.5815074971633
 30
0.0
 11
706.5675172475541
 21
-342.5815074971633
 31
0.0
  0
LINE
  5
230
330
2
100
AcDbEntity
  8
L-TYUSIN
  6
CENTER
 62
     1
100
AcDbLine
 10
714.5675172475542
 20
-272.5815074971632
 30
0.0
 11
698.5675172475541
 21
-272.5815074971632
 31
0.0
  0
ARC
  5
231
330
2
100
AcDbEntity
  8
L-ZISSEN
100
AcDbCircle
 10
706.5675172475541
 20
-272.5815074971632
 30
0.0
 40
4.5
100
AcDbArc
 50
297.2660444507285
 51
242.7339555492714
  0
ARC
  5
232
330
2
100
AcDbEntity
  8
L-ZISSEN
100
AcDbCircle
 10
706.5675172475541
 20
-272.5815074971632
 30
0.0
 40
10.0
100
AcDbArc
 50
336.4218215217925
 51
90.0
  0
LINE
  5
233
330
2
100
AcDbEntity
  8
L-TYUSIN
  6
CENTER
 62
     1
100
AcDbLine
 10
706.5675172475541
 20
-264.581507497163
 30
0.0
 11
706.5675172475541
 21
-280.5815074971634
 31
0.0
  0
LINE
  5
234
330
2
100
AcDbEntity
  8
L-ZISSEN
100
AcDbLine
 10
692.5675172475546
 20
-257.5815074971641
 30
0.0
 11
692.5675172475546
 21
-276.5815074971636
 31
0.0
  0
LINE
  5
235
330
2
100
AcDbEntity
  8
L-ZISSEN
100
AcDbLine
 10
692.5675172475546
 20
-262.5815074971641
 30
0.0
 11
706.5675172475541
 21
-262.5815074971641
 31
0.0
  0
POLYLINE
  5
409
330
2
100
AcDbEntity
  8
L-ZISSEN
100
AcDb2dPolyline
 66
     1
 10
0.0
 20
0.0
 30
0.0
 70
     1
  0
VERTEX
  5
8DD
330
409
100
AcDbEntity
  8
L-ZISSEN
100
AcDbVertex
100
AcDb2dVertex
 10
371.5237162806164
 20
-473.0815456133999
 30
0.0
  0
VERTEX
  5
8DE
330
409
100
AcDbEntity
  8
L-ZISSEN
100
AcDbVertex
100
AcDb2dVertex
 10
370.3690157422371
 20
-475.0815456133999
 30
0.0
  0
VERTEX
  5
8DF
330
409
100
AcDbEntity
  8
L-ZISSEN
100
AcDbVertex
100
AcDb2dVertex
 10
371.5237162806164
 20
-477.0815456133999
 30
0.0
  0
VERTEX
  5
8E0
330
409
100
AcDbEntity
  8
L-ZISSEN
100
AcDbVertex
100
AcDb2dVertex
 10
373.833117357375
 20
-477.0815456133999
 30
0.0
  0
VERTEX
  5
8E1
330
409
100
AcDbEntity
  8
L-ZISSEN
100
AcDbVertex
100
AcDb2dVertex
 10
374.9878178957543
 20
-475.0815456133999
 30
0.0
  0
VERTEX
  5
8E2
330
409
100
AcDbEntity
  8
L-ZISSEN
100
AcDbVertex
100
AcDb2dVertex
 10
373.833117357375
 20
-473.0815456133999
 30
0.0
  0
SEQEND
  5
8E3
330
409
100
AcDbEntity
  8
L-ZISSEN
  0
POLYLINE
  5
40A
330
2
100
AcDbEntity
  8
L-ZISSEN
100
AcDb2dPolyline
 66
     1
 10
0.0
 20
0.0
 30
0.0
 70
     1
  0
VERTEX
  5
8E4
330
40A
100
AcDbEntity
  8
L-ZISSEN
100
AcDbVertex
100
AcDb2dVertex
 10
412.5237162806167
 20
-448.0815456133999
 30
0.0
  0
VERTEX
  5
8E5
330
40A
100
AcDbEntity
  8
L-ZISSEN
100
AcDbVertex
100
AcDb2dVertex
 10
411.3690157422373
 20
-450.0815456133999
 30
0.0
  0
VERTEX
  5
8E6
330
40A
100
AcDbEntity
  8
L-ZISSEN
100
AcDbVertex
100
AcDb2dVertex
 10
412.5237162806167
 20
-452.0815456133999
 30
0.0
  0
VERTEX
  5
8E7
330
40A
100
AcDbEntity
  8
L-ZISSEN
100
AcDbVertex
100
AcDb2dVertex
 10
414.8331173573752
 20
-452.0815456133999
 30
0.0
  0
VERTEX
  5
8E8
330
40A
100
AcDbEntity
  8
L-ZISSEN
100
AcDbVertex
100
AcDb2dVertex
 10
415.9878178957545
 20
-450.0815456133999
 30
0.0
  0
VERTEX
  5
8E9
330
40A
100
AcDbEntity
  8
L-ZISSEN
100
AcDbVertex
100
AcDb2dVertex
 10
414.8331173573752
 20
-448.0815456133999
 30
0.0
  0
SEQEND
  5
8EA
330
40A
100
AcDbEntity
  8
L-ZISSEN
  0
LINE
  5
415
330
2
100
AcDbEntity
  8
L-ZISSEN
100
AcDbLine
 10
401.1784168189957
 20
-431.0815456134
 30
0.0
 11
408.1784168189957
 21
-431.0815456134
 31
0.0
  0
LINE
  5
416
330
2
100
AcDbEntity
  8
L-ZISSEN
100
AcDbLine
 10
400.8784168189958
 20
-435.0815456134
 30
0.0
 11
408.4784168189957
 21
-435.0815456134
 31
0.0
  0
LINE
  5
417
330
2
100
AcDbEntity
  8
L-ZISSEN
100
AcDbLine
 10
371.1784168189957
 20
-440.5815456134
 30
0.0
 11
415.1784168189957
 21
-440.5815456134
 31
0.0
  0
LINE
  5
418
330
2
100
AcDbEntity
  8
L-ZISSEN
100
AcDbLine
 10
371.1784168189957
 20
-436.5815456134
 30
0.0
 11
415.1784168189958
 21
-436.5815456134
 31
0.0
  0
LINE
  5
419
330
2
100
AcDbEntity
  8
L-ZISSEN
100
AcDbLine
 10
381.1784168189957
 20
-429.0815456134001
 30
0.0
 11
405.1784168189958
 21
-429.0815456134001
 31
0.0
  0
LINE
  5
41A
330
2
100
AcDbEntity
  8
L-ZISSEN
100
AcDbLine
 10
371.6784168189957
 20
-436.0815456134002
 30
0.0
 11
414.6784168189957
 21
-436.0815456134
 31
0.0
  0
LINE
  5
41B
330
2
100
AcDbEntity
  8
L-ZISSEN
100
AcDbLine
 10
381.6784168189957
 20
-428.5815456134001
 30
0.0
 11
404.6784168189957
 21
-428.5815456134001
 31
0.0
  0
LINE
  5
41C
330
2
100
AcDbEntity
  8
L-ZISSEN
100
AcDbLine
 10
367.1784168189959
 20
-441.5815456134002
 30
0.0
 11
419.1784168189959
 21
-441.5815456133998
 31
0.0
  0
LINE
  5
41D
330
2
100
AcDbEntity
  8
L-ZISSEN
100
AcDbLine
 10
367.9284168189959
 20
-441.8315456134002
 30
0.0
 11
418.4284168189959
 21
-441.8315456133999
 31
0.0
  0
LINE
  5
41E
330
2
100
AcDbEntity
  8
L-TYUSIN
100
AcDbLine
 10
364.9284168189959
 20
-462.5815456133999
 30
0.0
 11
421.4284168189959
 21
-462.5815456133999
 31
0.0
  0
LINE
  5
41F
330
2
100
AcDbEntity
  8
L-ZISSEN
100
AcDbLine
 10
354.1784168189958
 20
-489.0815456134001
 30
0.0
 11
432.1784168189958
 21
-489.0815456134003
 31
0.0
  0
LINE
  5
420
330
2
100
AcDbEntity
  8
L-ZISSEN
100
AcDbLine
 10
367.1784168189959
 20
-483.5815456133999
 30
0.0
 11
419.1784168189959
 21
-483.5815456134
 31
0.0
  0
LINE
  5
421
330
2
100
AcDbEntity
  8
L-ZISSEN
100
AcDbLine
 10
367.9284168189959
 20
-483.3315456133999
 30
0.0
 11
418.4284168189959
 21
-483.3315456133999
 31
0.0
  0
LINE
  5
422
330
2
100
AcDbEntity
  8
L-ZISSEN
100
AcDbLine
 10
354.1784168189959
 20
-488.0815456134001
 30
0.0
 11
432.1784168189959
 21
-488.0815456134001
 31
0.0
  0
LINE
  5
423
330
2
100
AcDbEntity
  8
L-ZISSEN
100
AcDbLine
 10
351.1784168189959
 20
-490.0815456134002
 30
0.0
 11
435.1784168189958
 21
-490.0815456134003
 31
0.0
  0
LINE
  5
424
330
2
100
AcDbEntity
  8
L-ZISSEN
100
AcDbLine
 10
351.1784168189961
 20
-519.0815456134
 30
0.0
 11
435.178416818996
 21
-519.0815456134003
 31
0.0
  0
LINE
  5
426
330
2
100
AcDbEntity
  8
L-ZISSEN
100
AcDbLine
 10
176.6784168189977
 20
-440.5815456133998
 30
0.0
 11
141.6784168189977
 21
-440.5815456133998
 31
0.0
  0
LINE
  5
427
330
2
100
AcDbEntity
  8
L-ZISSEN
100
AcDbLine
 10
176.6784168189977
 20
-436.5815456133998
 30
0.0
 11
141.6784168189977
 21
-436.5815456133998
 31
0.0
  0
LINE
  5
428
330
2
100
AcDbEntity
  8
L-ZISSEN
100
AcDbLine
 10
166.6784168189977
 20
-429.0815456133998
 30
0.0
 11
151.6784168189977
 21
-429.0815456133999
 31
0.0
  0
LINE
  5
429
330
2
100
AcDbEntity
  8
L-ZISSEN
100
AcDbLine
 10
176.1784168189977
 20
-436.0815456133999
 30
0.0
 11
142.1784168189977
 21
-436.0815456133998
 31
0.0
  0
LINE
  5
42A
330
2
100
AcDbEntity
  8
L-ZISSEN
100
AcDbLine
 10
166.1784168189977
 20
-428.5815456133999
 30
0.0
 11
152.1784168189977
 21
-428.5815456133998
 31
0.0
  0
CIRCLE
  5
42B
330
2
100
AcDbEntity
  8
L-ZISSEN
100
AcDbCircle
 10
158.1784168189964
 20
-504.0815456134001
 30
0.0
 40
9.0
  0
LINE
  5
42C
330
2
100
AcDbEntity
  8
L-TYUSIN
100
AcDbLine
 10
145.2009168189965
 20
-504.0815456134001
 30
0.0
 11
171.1559168189965
 21
-504.0815456134001
 31
0.0
  0
LINE
  5
42D
330
2
100
AcDbEntity
  8
L-ZISSEN
100
AcDbLine
 10
241.1784168189977
 20
-478.0815456134002
 30
0.0
 11
145.1784168189972
 21
-478.0815456133999
 31
0.0
  0
LINE
  5
42F
330
2
100
AcDbEntity
  8
L-ZISSEN
100
AcDbLine
 10
145.6784168189971
 20
-488.0815456134001
 30
0.0
 11
240.6784168189977
 21
-488.0815456134001
 31
0.0
  0
LINE
  5
430
330
2
100
AcDbEntity
  8
L-ZISSEN
100
AcDbLine
 10
143.1784168189963
 20
-490.0815456134003
 30
0.0
 11
243.1784168189963
 21
-490.0815456134003
 31
0.0
  0
LINE
  5
431
330
2
100
AcDbEntity
  8
L-ZISSEN
100
AcDbLine
 10
145.6784168189963
 20
-489.0815456134001
 30
0.0
 11
240.6784168189963
 21
-489.0815456134003
 31
0.0
  0
LINE
  5
432
330
2
100
AcDbEntity
  8
L-ZISSEN
100
AcDbLine
 10
145.6784168189965
 20
-488.0815456134001
 30
0.0
 11
240.6784168189963
 21
-488.0815456134002
 31
0.0
  0
LINE
  5
433
330
2
100
AcDbEntity
  8
L-ZISSEN
100
AcDbLine
 10
270.6784168189968
 20
-441.5815456133998
 30
0.0
 11
101.6784168189978
 21
-441.5815456133998
 31
0.0
  0
LINE
  5
434
330
2
100
AcDbEntity
  8
L-TYUSIN
100
AcDbLine
 10
282.6784168189974
 20
-462.5815456133998
 30
0.0
 11
89.6784168189974
 21
-462.5815456133998
 31
0.0
  0
LINE
  5
435
330
2
100
AcDbEntity
  8
L-ZISSEN
100
AcDbLine
 10
121.6784168189978
 20
-441.5815456133998
 30
0.0
 11
121.6784168189978
 21
-483.5815456133998
 31
0.0
  0
LINE
  5
436
330
2
100
AcDbEntity
  8
L-ZISSEN
100
AcDbLine
 10
137.1784168189977
 20
-441.5815456133998
 30
0.0
 11
137.1784168189977
 21
-483.5815456133998
 31
0.0
  0
LINE
  5
437
330
2
100
AcDbEntity
  8
L-ZISSEN
100
AcDbLine
 10
90.37841681899754
 20
-470.8315456133989
 30
0.0
 11
90.37841681899754
 21
-479.3315456133989
 31
0.0
  0
LINE
  5
438
330
2
100
AcDbEntity
  8
L-ZISSEN
100
AcDbLine
 10
101.6784168189978
 20
-483.5815456133998
 30
0.0
 11
101.6784168189978
 21
-441.5815456133998
 31
0.0
  0
LINE
  5
439
330
2
100
AcDbEntity
  8
L-ZISSEN
100
AcDbLine
 10
94.67841681899717
 20
-454.3315456133998
 30
0.0
 11
94.6784168189975
 21
-482.8315456134
 31
0.0
  0
LINE
  5
43A
330
2
100
AcDbEntity
  8
L-ZISSEN
100
AcDbLine
 10
143.1784168189963
 20
-490.0815456134003
 30
0.0
 11
143.1784168189963
 21
-519.0815456134003
 31
0.0
  0
LINE
  5
43B
330
2
100
AcDbEntity
  8
L-TYUSIN
100
AcDbLine
 10
133.1784168189962
 20
-516.5815456134002
 30
0.0
 11
133.1784168189962
 21
-531.5815456134002
 31
0.0
  0
LINE
  5
43C
330
2
100
AcDbEntity
  8
L-ZISSEN
100
AcDbLine
 10
123.1784168189965
 20
-519.0815456134003
 30
0.0
 11
143.1784168189963
 21
-519.0815456134003
 31
0.0
  0
LINE
  5
43D
330
2
100
AcDbEntity
  8
L-ZISSEN
100
AcDbLine
 10
123.1784168189965
 20
-519.0815456134002
 30
0.0
 11
123.1784168189965
 21
-529.0815456134001
 31
0.0
  0
LINE
  5
43E
330
2
100
AcDbEntity
  8
L-ZISSEN
100
AcDbLine
 10
145.1784168189977
 20
-483.5815456133998
 30
0.0
 11
101.6784168189978
 21
-483.5815456133999
 31
0.0
  0
LINE
  5
43F
330
2
100
AcDbEntity
  8
L-ZISSEN
100
AcDbLine
 10
95.17841681899705
 20
-483.3315456134
 30
0.0
 11
101.6784168189972
 21
-483.3315456134
 31
0.0
  0
LINE
  5
440
330
2
100
AcDbEntity
  8
L-ZISSEN
100
AcDbLine
 10
90.37841681899754
 20
-479.3315456133987
 30
0.0
 11
94.6784168189975
 21
-479.3315456133991
 31
0.0
  0
ARC
  5
441
330
2
100
AcDbEntity
  8
L-ZISSEN
100
AcDbCircle
 10
95.17841681899751
 20
-482.8315456134
 30
0.0
 40
0.5
100
AcDbArc
 50
180.0
 51
270.0
  0
LINE
  5
442
330
2
100
AcDbEntity
  8
L-ZISSEN
100
AcDbLine
 10
145.678416818997
 20
-490.0815456134003
 30
0.0
 11
145.6784168189977
 21
-478.0815456133999
 31
0.0
  0
LINE
  5
443
330
2
100
AcDbEntity
  8
L-ZISSEN
100
AcDbLine
 10
145.1784168189977
 20
-483.5815456133998
 30
0.0
 11
145.1784168189981
 21
-478.0815456133998
 31
0.0
  0
LINE
  5
444
330
2
100
AcDbEntity
  8
L-TYUSIN
100
AcDbLine
 10
148.6784168189961
 20
-428.5815456133998
 30
0.0
 11
148.6784168189961
 21
-444.0815456133998
 31
0.0
  0
LINE
  5
445
330
2
100
AcDbEntity
  8
L-ZISSEN
100
AcDbLine
 10
152.1784168189961
 20
-431.0815456133998
 30
0.0
 11
152.1784168189961
 21
-435.0815456133998
 31
0.0
  0
LINE
  5
446
330
2
100
AcDbEntity
  8
L-ZISSEN
100
AcDbLine
 10
145.1784168189961
 20
-431.0815456133998
 30
0.0
 11
145.1784168189961
 21
-435.0815456133998
 31
0.0
  0
LINE
  5
447
330
2
100
AcDbEntity
  8
L-ZISSEN
100
AcDbLine
 10
95.37841681899744
 20
-445.4815456133998
 30
0.0
 11
95.37841681899772
 21
-454.6815456133998
 31
0.0
  0
LINE
  5
448
330
2
100
AcDbEntity
  8
L-ZISSEN
100
AcDbLine
 10
96.67841681899728
 20
-441.8315456133997
 30
0.0
 11
96.67841681899773
 21
-455.5815456133996
 31
0.0
  0
LINE
  5
449
330
2
100
AcDbEntity
  8
L-TYUSIN
100
AcDbLine
 10
98.1784168189975
 20
-475.0815456133989
 30
0.0
 11
88.87841681899756
 21
-475.0815456133989
 31
0.0
  0
LINE
  5
44A
330
2
100
AcDbEntity
  8
L-ZISSEN
100
AcDbLine
 10
90.37841681899754
 20
-470.8315456133989
 30
0.0
 11
94.6784168189974
 21
-470.8315456133989
 31
0.0
  0
LINE
  5
44B
330
2
100
AcDbEntity
  8
L-ZISSEN
100
AcDbLine
 10
96.67841681899773
 20
-454.6815456133998
 30
0.0
 11
95.37841681899772
 21
-454.6815456133998
 31
0.0
  0
LINE
  5
44C
330
2
100
AcDbEntity
  8
L-ZISSEN
100
AcDbLine
 10
94.67841681899727
 20
-455.5815456133996
 30
0.0
 11
96.67841681899773
 21
-455.5815456133996
 31
0.0
  0
LINE
  5
44D
330
2
100
AcDbEntity
  8
L-ZISSEN
100
AcDbLine
 10
94.67841681899704
 20
-442.3315456133996
 30
0.0
 11
94.67841681899704
 21
-445.8315456133996
 31
0.0
  0
LINE
  5
44E
330
2
100
AcDbEntity
  8
L-ZISSEN
100
AcDbLine
 10
96.67841681899739
 20
-445.4815456133998
 30
0.0
 11
95.37841681899744
 21
-445.4815456133998
 31
0.0
  0
LINE
  5
44F
330
2
100
AcDbEntity
  8
L-TYUSIN
100
AcDbLine
 10
98.1784168189975
 20
-450.0815456133998
 30
0.0
 11
88.87841681899756
 21
-450.0815456133998
 31
0.0
  0
LINE
  5
450
330
2
100
AcDbEntity
  8
L-ZISSEN
100
AcDbLine
 10
90.37841681899754
 20
-454.3315456133998
 30
0.0
 11
90.37841681899754
 21
-445.8315456133998
 31
0.0
  0
LINE
  5
451
330
2
100
AcDbEntity
  8
L-ZISSEN
100
AcDbLine
 10
90.37841681899754
 20
-454.3315456133998
 30
0.0
 11
95.37841681899772
 21
-454.3315456133998
 31
0.0
  0
LINE
  5
452
330
2
100
AcDbEntity
  8
L-ZISSEN
100
AcDbLine
 10
90.37841681899754
 20
-445.8315456134
 30
0.0
 11
95.37841681899744
 21
-445.8315456133995
 31
0.0
  0
LINE
  5
453
330
2
100
AcDbEntity
  8
L-ZISSEN
100
AcDbLine
 10
95.17841681899751
 20
-441.8315456133996
 30
0.0
 11
101.6784168189984
 21
-441.8315456133996
 31
0.0
  0
ARC
  5
454
330
2
100
AcDbEntity
  8
L-ZISSEN
100
AcDbCircle
 10
95.17841681899705
 20
-442.3315456133996
 30
0.0
 40
0.5
100
AcDbArc
 50
90.0
 51
180.0
  0
LINE
  5
455
330
2
100
AcDbEntity
  8
L-ZISSEN
100
AcDbLine
 10
152.478416818996
 20
-435.0815456133998
 30
0.0
 11
144.8784168189961
 21
-435.0815456133998
 31
0.0
  0
LINE
  5
456
330
2
100
AcDbEntity
  8
L-ZISSEN
100
AcDbLine
 10
142.1784168189977
 20
-436.0815456133998
 30
0.0
 11
141.6784168189977
 21
-436.5815456133998
 31
0.0
  0
LINE
  5
457
330
2
100
AcDbEntity
  8
L-ZISSEN
100
AcDbLine
 10
141.6784168189977
 20
-436.5815456133998
 30
0.0
 11
141.6784168189977
 21
-441.5815456133999
 31
0.0
  0
LINE
  5
458
330
2
100
AcDbEntity
  8
L-ZISSEN
100
AcDbLine
 10
144.8784168189961
 20
-435.0815456133998
 30
0.0
 11
144.8784168189961
 21
-436.0815456133998
 31
0.0
  0
LINE
  5
459
330
2
100
AcDbEntity
  8
L-ZISSEN
100
AcDbLine
 10
152.478416818996
 20
-435.0815456133998
 30
0.0
 11
152.478416818996
 21
-436.0815456133998
 31
0.0
  0
LINE
  5
45A
330
2
100
AcDbEntity
  8
L-ZISSEN
100
AcDbLine
 10
152.1784168189961
 20
-431.0815456133998
 30
0.0
 11
145.1784168189961
 21
-431.0815456133998
 31
0.0
  0
LINE
  5
45B
330
2
100
AcDbEntity
  8
L-ZISSEN
100
AcDbLine
 10
152.1784168189977
 20
-428.5815456133998
 30
0.0
 11
151.6784168189977
 21
-429.0815456133998
 31
0.0
  0
LINE
  5
45C
330
2
100
AcDbEntity
  8
L-ZISSEN
100
AcDbLine
 10
151.6784168189977
 20
-429.0815456133998
 30
0.0
 11
151.6784168189977
 21
-431.0815456133998
 31
0.0
  0
LINE
  5
45D
330
2
100
AcDbEntity
  8
L-TYUSIN
100
AcDbLine
 10
284.4784168189971
 20
-475.0815456134001
 30
0.0
 11
273.1784168189971
 21
-475.0815456133998
 31
0.0
  0
LINE
  5
45E
330
2
100
AcDbEntity
  8
L-TYUSIN
100
AcDbLine
 10
284.4784168189971
 20
-450.0815456133998
 30
0.0
 11
273.1784168189971
 21
-450.0815456134001
 31
0.0
  0
LINE
  5
45F
330
2
100
AcDbEntity
  8
L-ZISSEN
100
AcDbLine
 10
281.9784168189972
 20
-470.8315456133996
 30
0.0
 11
281.9784168189972
 21
-479.3315456133996
 31
0.0
  0
LINE
  5
460
330
2
100
AcDbEntity
  8
L-ZISSEN
100
AcDbLine
 10
276.9784168189973
 20
-479.6815456133999
 30
0.0
 11
276.9784168189969
 21
-470.4815456133998
 31
0.0
  0
LINE
  5
461
330
2
100
AcDbEntity
  8
L-ZISSEN
100
AcDbLine
 10
218.1784168189965
 20
-470.5815456134001
 30
0.0
 11
218.1784168189965
 21
-476.5815456133998
 31
0.0
  0
LINE
  5
462
330
2
100
AcDbEntity
  8
L-ZISSEN
100
AcDbLine
 10
208.1784168189964
 20
-470.5815456134001
 30
0.0
 11
208.1784168189964
 21
-476.5815456133999
 31
0.0
  0
LINE
  5
463
330
2
100
AcDbEntity
  8
L-TYUSIN
100
AcDbLine
 10
213.1784168189963
 20
-469.0815456134
 30
0.0
 11
213.1784168189963
 21
-490.5815456134002
 31
0.0
  0
LINE
  5
464
330
2
100
AcDbEntity
  8
L-ZISSEN
100
AcDbLine
 10
270.6784168189968
 20
-483.5815456133998
 30
0.0
 11
270.6784168189968
 21
-441.5815456133998
 31
0.0
  0
LINE
  5
465
330
2
100
AcDbEntity
  8
L-ZISSEN
100
AcDbLine
 10
275.6784168189974
 20
-483.3315456133997
 30
0.0
 11
275.6784168189969
 21
-469.5815456133998
 31
0.0
  0
LINE
  5
466
330
2
100
AcDbEntity
  8
L-ZISSEN
100
AcDbLine
 10
178.1784168189964
 20
-470.5815456134001
 30
0.0
 11
178.1784168189963
 21
-476.5815456133999
 31
0.0
  0
LINE
  5
467
330
2
100
AcDbEntity
  8
L-ZISSEN
100
AcDbLine
 10
168.1784168189963
 20
-470.5815456134001
 30
0.0
 11
168.1784168189963
 21
-476.5815456133998
 31
0.0
  0
LINE
  5
468
330
2
100
AcDbEntity
  8
L-TYUSIN
100
AcDbLine
 10
193.178416818997
 20
-440.7815456134005
 30
0.0
 11
193.1784168189963
 21
-478.0815456133999
 31
0.0
  0
LINE
  5
469
330
2
100
AcDbEntity
  8
L-TYUSIN
100
AcDbLine
 10
173.1784168189962
 20
-469.0815456134
 30
0.0
 11
173.1784168189962
 21
-490.5815456134002
 31
0.0
  0
LINE
  5
46A
330
2
100
AcDbEntity
  8
L-TYUSIN
100
AcDbLine
 10
193.1784168189962
 20
-436.5815456133998
 30
0.0
 11
193.1784168189965
 21
-531.5815456134003
 31
0.0
  0
LINE
  5
46B
330
2
100
AcDbEntity
  8
L-ZISSEN
100
AcDbLine
 10
207.4284168189964
 20
-476.5815456134
 30
0.0
 11
218.9284168189964
 21
-476.5815456133999
 31
0.0
  0
LINE
  5
46C
330
2
100
AcDbEntity
  8
L-TYUSIN
100
AcDbLine
 10
215.2009168189965
 20
-504.0815456134001
 30
0.0
 11
241.1559168189965
 21
-504.0815456134001
 31
0.0
  0
LINE
  5
46D
330
2
100
AcDbEntity
  8
L-TYUSIN
100
AcDbLine
 10
158.1784168189964
 20
-491.1040456134002
 30
0.0
 11
158.1784168189965
 21
-517.0590456134001
 31
0.0
  0
LINE
  5
46E
330
2
100
AcDbEntity
  8
L-TYUSIN
100
AcDbLine
 10
180.2009168189961
 20
-504.0815456134001
 30
0.0
 11
206.1559168189961
 21
-504.0815456134001
 31
0.0
  0
CIRCLE
  5
46F
330
2
100
AcDbEntity
  8
L-ZISSEN
100
AcDbCircle
 10
193.1784168189961
 20
-504.0815456134001
 30
0.0
 40
9.0
  0
LINE
  5
470
330
2
100
AcDbEntity
  8
L-ZISSEN
100
AcDbLine
 10
178.9284168189963
 20
-476.5815456134
 30
0.0
 11
167.4284168189964
 21
-476.5815456133999
 31
0.0
  0
LINE
  5
471
330
2
100
AcDbEntity
  8
L-ZISSEN
100
AcDbLine
 10
166.1784168189962
 20
-478.0815456134
 30
0.0
 11
166.1784168189962
 21
-488.0815456134
 31
0.0
  0
LINE
  5
472
330
2
100
AcDbEntity
  8
L-ZISSEN
100
AcDbLine
 10
167.4284168189963
 20
-476.5815456134001
 30
0.0
 11
167.4284168189964
 21
-478.0815456133999
 31
0.0
  0
LINE
  5
473
330
2
100
AcDbEntity
  8
L-ZISSEN
100
AcDbLine
 10
180.1784168189962
 20
-478.0815456134
 30
0.0
 11
180.1784168189962
 21
-488.0815456134
 31
0.0
  0
LINE
  5
474
330
2
100
AcDbEntity
  8
L-ZISSEN
100
AcDbLine
 10
178.9284168189963
 20
-476.5815456134001
 30
0.0
 11
178.9284168189964
 21
-478.0815456134
 31
0.0
  0
LINE
  5
475
330
2
100
AcDbEntity
  8
L-ZISSEN
100
AcDbLine
 10
206.1784168189961
 20
-478.0815456133999
 30
0.0
 11
206.1784168189963
 21
-488.0815456134
 31
0.0
  0
LINE
  5
476
330
2
100
AcDbEntity
  8
L-ZISSEN
100
AcDbLine
 10
207.4284168189964
 20
-476.5815456134001
 30
0.0
 11
207.4284168189964
 21
-478.0815456134
 31
0.0
  0
LINE
  5
477
330
2
100
AcDbEntity
  8
L-ZISSEN
100
AcDbLine
 10
243.1784168189963
 20
-490.0815456134003
 30
0.0
 11
243.1784168189963
 21
-519.0815456134003
 31
0.0
  0
LINE
  5
478
330
2
100
AcDbEntity
  8
L-TYUSIN
100
AcDbLine
 10
228.1784168189964
 20
-491.1040456134002
 30
0.0
 11
228.1784168189965
 21
-517.0590456134001
 31
0.0
  0
LINE
  5
479
330
2
100
AcDbEntity
  8
L-TYUSIN
100
AcDbLine
 10
253.1784168189968
 20
-516.5815456134002
 30
0.0
 11
253.1784168189968
 21
-531.5815456134002
 31
0.0
  0
LINE
  5
47A
330
2
100
AcDbEntity
  8
L-ZISSEN
100
AcDbLine
 10
243.1784168189963
 20
-519.0815456134003
 30
0.0
 11
263.1784168189963
 21
-519.0815456134003
 31
0.0
  0
LINE
  5
47B
330
2
100
AcDbEntity
  8
L-ZISSEN
100
AcDbLine
 10
263.1784168189963
 20
-519.0815456134003
 30
0.0
 11
263.1784168189963
 21
-529.0815456134002
 31
0.0
  0
LINE
  5
47C
330
2
100
AcDbEntity
  8
L-ZISSEN
100
AcDbLine
 10
270.6784168189968
 20
-483.5815456133998
 30
0.0
 11
241.1784168189986
 21
-483.5815456133998
 31
0.0
  0
CIRCLE
  5
47D
330
2
100
AcDbEntity
  8
L-ZISSEN
100
AcDbCircle
 10
228.1784168189965
 20
-504.0815456134001
 30
0.0
 40
9.0
  0
LINE
  5
47E
330
2
100
AcDbEntity
  8
L-ZISSEN
100
AcDbLine
 10
220.1784168189961
 20
-478.0815456133998
 30
0.0
 11
220.1784168189963
 21
-488.0815456134001
 31
0.0
  0
LINE
  5
47F
330
2
100
AcDbEntity
  8
L-ZISSEN
100
AcDbLine
 10
218.9284168189964
 20
-476.5815456134001
 30
0.0
 11
218.9284168189964
 21
-478.0815456133999
 31
0.0
  0
LINE
  5
480
330
2
100
AcDbEntity
  8
L-ZISSEN
100
AcDbLine
 10
240.6784168189978
 20
-490.0815456134003
 30
0.0
 11
240.6784168189968
 21
-478.0815456133999
 31
0.0
  0
LINE
  5
481
330
2
100
AcDbEntity
  8
L-ZISSEN
100
AcDbLine
 10
241.1784168189981
 20
-483.5815456133998
 30
0.0
 11
241.1784168189972
 21
-478.0815456133998
 31
0.0
  0
LINE
  5
482
330
2
100
AcDbEntity
  8
L-ZISSEN
100
AcDbLine
 10
276.9784168189972
 20
-479.6815456133999
 30
0.0
 11
275.6784168189972
 21
-479.6815456133999
 31
0.0
  0
LINE
  5
483
330
2
100
AcDbEntity
  8
L-ZISSEN
100
AcDbLine
 10
277.1784168189971
 20
-483.3315456134003
 30
0.0
 11
270.6784168189962
 21
-483.3315456134003
 31
0.0
  0
ARC
  5
484
330
2
100
AcDbEntity
  8
L-ZISSEN
100
AcDbCircle
 10
277.1784168189976
 20
-482.8315456133998
 30
0.0
 40
0.5
100
AcDbArc
 50
270.0
 51
0.0
  0
LINE
  5
485
330
2
100
AcDbEntity
  8
L-ZISSEN
100
AcDbLine
 10
277.6784168189976
 20
-482.8315456133998
 30
0.0
 11
277.6784168189975
 21
-479.3315456133998
 31
0.0
  0
LINE
  5
486
330
2
100
AcDbEntity
  8
L-ZISSEN
100
AcDbLine
 10
281.9784168189972
 20
-479.3315456133994
 30
0.0
 11
276.9784168189973
 21
-479.3315456133999
 31
0.0
  0
LINE
  5
487
330
2
100
AcDbEntity
  8
L-ZISSEN
100
AcDbLine
 10
219.1784168189977
 20
-436.0815456133998
 30
0.0
 11
218.6784168189977
 21
-436.5815456133998
 31
0.0
  0
LINE
  5
488
330
2
100
AcDbEntity
  8
L-ZISSEN
100
AcDbLine
 10
253.6784168189977
 20
-440.5815456133998
 30
0.0
 11
218.6784168189977
 21
-440.5815456133998
 31
0.0
  0
LINE
  5
489
330
2
100
AcDbEntity
  8
L-ZISSEN
100
AcDbLine
 10
253.6784168189977
 20
-436.5815456133998
 30
0.0
 11
218.6784168189977
 21
-436.5815456133998
 31
0.0
  0
LINE
  5
48A
330
2
100
AcDbEntity
  8
L-ZISSEN
100
AcDbLine
 10
222.1784168189975
 20
-450.5815456133998
 30
0.0
 11
212.1784168189975
 21
-450.5815456133998
 31
0.0
  0
LINE
  5
48B
330
2
100
AcDbEntity
  8
L-ZISSEN
100
AcDbLine
 10
212.9284168189972
 20
-445.5815456133999
 30
0.0
 11
221.4284168189972
 21
-445.5815456133999
 31
0.0
  0
LINE
  5
48C
330
2
100
AcDbEntity
  8
L-TYUSIN
100
AcDbLine
 10
169.6784168189993
 20
-428.5815456133998
 30
0.0
 11
169.6784168189993
 21
-444.0815456133998
 31
0.0
  0
LINE
  5
48D
330
2
100
AcDbEntity
  8
L-TYUSIN
100
AcDbLine
 10
159.1784168189977
 20
-423.5815456133998
 30
0.0
 11
159.1784168189977
 21
-446.5815456133999
 31
0.0
  0
LINE
  5
48E
330
2
100
AcDbEntity
  8
L-ZISSEN
100
AcDbLine
 10
173.1784168189993
 20
-431.0815456133998
 30
0.0
 11
173.1784168189993
 21
-435.0815456133998
 31
0.0
  0
LINE
  5
48F
330
2
100
AcDbEntity
  8
L-ZISSEN
100
AcDbLine
 10
166.6784168189977
 20
-429.0815456133999
 30
0.0
 11
166.6784168189977
 21
-436.0815456133998
 31
0.0
  0
LINE
  5
490
330
2
100
AcDbEntity
  8
L-ZISSEN
100
AcDbLine
 10
178.1784168189964
 20
-470.5815456134001
 30
0.0
 11
168.1784168189963
 21
-470.5815456134001
 31
0.0
  0
LINE
  5
491
330
2
100
AcDbEntity
  8
L-ZISSEN
100
AcDbLine
 10
166.6784168189977
 20
-435.0815456133998
 30
0.0
 11
173.4784168189992
 21
-435.0815456133998
 31
0.0
  0
LINE
  5
492
330
2
100
AcDbEntity
  8
L-ZISSEN
100
AcDbLine
 10
164.9284168189963
 20
-445.5815456134001
 30
0.0
 11
173.4284168189963
 21
-445.5815456134001
 31
0.0
  0
LINE
  5
493
330
2
100
AcDbEntity
  8
L-ZISSEN
100
AcDbLine
 10
174.1784168189965
 20
-450.5815456134
 30
0.0
 11
164.1784168189966
 21
-450.5815456134
 31
0.0
  0
LINE
  5
494
330
2
100
AcDbEntity
  8
L-TYUSIN
100
AcDbLine
 10
169.1784168189968
 20
-443.2815456134001
 30
0.0
 11
169.1784168189965
 21
-453.0815456134
 31
0.0
  0
LINE
  5
495
330
2
100
AcDbEntity
  8
L-ZISSEN
100
AcDbLine
 10
164.1784168189966
 20
-441.5815456133998
 30
0.0
 11
164.1784168189966
 21
-450.5815456134
 31
0.0
  0
LINE
  5
496
330
2
100
AcDbEntity
  8
L-ZISSEN
100
AcDbLine
 10
164.9284168189963
 20
-445.5815456134001
 30
0.0
 11
164.9284168189963
 21
-450.5815456134
 31
0.0
  0
LINE
  5
497
330
2
100
AcDbEntity
  8
L-ZISSEN
100
AcDbLine
 10
174.1784168189965
 20
-441.5815456133998
 30
0.0
 11
174.1784168189965
 21
-450.5815456134
 31
0.0
  0
LINE
  5
498
330
2
100
AcDbEntity
  8
L-ZISSEN
100
AcDbLine
 10
173.4284168189961
 20
-445.5815456134001
 30
0.0
 11
173.4284168189965
 21
-450.5815456134
 31
0.0
  0
LINE
  5
499
330
2
100
AcDbEntity
  8
L-ZISSEN
100
AcDbLine
 10
176.1784168189977
 20
-436.0815456133999
 30
0.0
 11
176.6784168189977
 21
-436.5815456133999
 31
0.0
  0
LINE
  5
49A
330
2
100
AcDbEntity
  8
L-ZISSEN
100
AcDbLine
 10
176.6784168189977
 20
-436.5815456133999
 30
0.0
 11
176.6784168189977
 21
-441.5815456133999
 31
0.0
  0
LINE
  5
49B
330
2
100
AcDbEntity
  8
L-ZISSEN
100
AcDbLine
 10
173.4784168189992
 20
-435.0815456133998
 30
0.0
 11
173.4784168189992
 21
-436.0815456133998
 31
0.0
  0
LINE
  5
49C
330
2
100
AcDbEntity
  8
L-ZISSEN
100
AcDbLine
 10
208.1784168189964
 20
-470.5815456134001
 30
0.0
 11
218.1784168189965
 21
-470.5815456134001
 31
0.0
  0
LINE
  5
49D
330
2
100
AcDbEntity
  8
L-TYUSIN
100
AcDbLine
 10
217.1784168189977
 20
-443.2815456133998
 30
0.0
 11
217.1784168189974
 21
-453.0815456133998
 31
0.0
  0
LINE
  5
49E
330
2
100
AcDbEntity
  8
L-ZISSEN
100
AcDbLine
 10
212.1784168189975
 20
-441.5815456133998
 30
0.0
 11
212.1784168189975
 21
-450.5815456133998
 31
0.0
  0
LINE
  5
49F
330
2
100
AcDbEntity
  8
L-ZISSEN
100
AcDbLine
 10
212.9284168189972
 20
-445.5815456133999
 30
0.0
 11
212.9284168189972
 21
-450.5815456133998
 31
0.0
  0
LINE
  5
4A0
330
2
100
AcDbEntity
  8
L-ZISSEN
100
AcDbLine
 10
218.6784168189977
 20
-436.5815456133998
 30
0.0
 11
218.6784168189977
 21
-441.5815456133999
 31
0.0
  0
LINE
  5
4A1
330
2
100
AcDbEntity
  8
L-ZISSEN
100
AcDbLine
 10
166.6784168189977
 20
-431.0815456133998
 30
0.0
 11
173.1784168189993
 21
-431.0815456133998
 31
0.0
  0
LINE
  5
4A2
330
2
100
AcDbEntity
  8
L-ZISSEN
100
AcDbLine
 10
166.1784168189977
 20
-428.5815456133999
 30
0.0
 11
166.6784168189977
 21
-429.0815456133999
 31
0.0
  0
LINE
  5
4A3
330
2
100
AcDbEntity
  8
L-TYUSIN
100
AcDbLine
 10
246.6784168189993
 20
-428.5815456133998
 30
0.0
 11
246.6784168189993
 21
-444.0815456133998
 31
0.0
  0
LINE
  5
4A4
330
2
100
AcDbEntity
  8
L-TYUSIN
100
AcDbLine
 10
236.1784168189977
 20
-423.5815456133998
 30
0.0
 11
236.1784168189977
 21
-446.5815456133999
 31
0.0
  0
LINE
  5
4A5
330
2
100
AcDbEntity
  8
L-TYUSIN
100
AcDbLine
 10
225.6784168189961
 20
-428.5815456133998
 30
0.0
 11
225.6784168189961
 21
-444.0815456133998
 31
0.0
  0
LINE
  5
4A6
330
2
100
AcDbEntity
  8
L-ZISSEN
100
AcDbLine
 10
250.1784168189993
 20
-431.0815456133998
 30
0.0
 11
250.1784168189993
 21
-435.0815456133998
 31
0.0
  0
LINE
  5
4A7
330
2
100
AcDbEntity
  8
L-ZISSEN
100
AcDbLine
 10
243.6784168189976
 20
-429.0815456133999
 30
0.0
 11
243.6784168189977
 21
-436.0815456133998
 31
0.0
  0
LINE
  5
4A8
330
2
100
AcDbEntity
  8
L-ZISSEN
100
AcDbLine
 10
229.1784168189961
 20
-431.0815456133998
 30
0.0
 11
229.1784168189961
 21
-435.0815456133998
 31
0.0
  0
LINE
  5
4A9
330
2
100
AcDbEntity
  8
L-ZISSEN
100
AcDbLine
 10
222.1784168189961
 20
-431.0815456133998
 30
0.0
 11
222.1784168189961
 21
-435.0815456133998
 31
0.0
  0
LINE
  5
4AA
330
2
100
AcDbEntity
  8
L-ZISSEN
100
AcDbLine
 10
253.1784168189977
 20
-436.0815456133998
 30
0.0
 11
219.1784168189977
 21
-436.0815456133998
 31
0.0
  0
LINE
  5
4AB
330
2
100
AcDbEntity
  8
L-TYUSIN
100
AcDbLine
 10
230.178416818997
 20
-455.5815456133998
 30
0.0
 11
230.178416818997
 21
-447.5815456133998
 31
0.0
  0
LINE
  5
4AC
330
2
100
AcDbEntity
  8
L-ZISSEN
100
AcDbLine
 10
222.178416818997
 20
-441.5815456133998
 30
0.0
 11
222.178416818997
 21
-450.5815456133998
 31
0.0
  0
LINE
  5
4AD
330
2
100
AcDbEntity
  8
L-TYUSIN
100
AcDbLine
 10
226.178416818997
 20
-451.5815456133998
 30
0.0
 11
234.178416818997
 21
-451.5815456133998
 31
0.0
  0
LINE
  5
4AE
330
2
100
AcDbEntity
  8
L-ZISSEN
100
AcDbLine
 10
221.428416818997
 20
-445.5815456133999
 30
0.0
 11
221.4284168189974
 21
-450.5815456133998
 31
0.0
  0
CIRCLE
  5
4AF
330
2
100
AcDbEntity
  8
L-ZISSEN
100
AcDbCircle
 10
230.178416818997
 20
-451.5815456133998
 30
0.0
 40
2.1
  0
LINE
  5
4B1
330
2
100
AcDbEntity
  8
L-ZISSEN
100
AcDbLine
 10
229.4784168189961
 20
-435.0815456133998
 30
0.0
 11
221.8784168189961
 21
-435.0815456133998
 31
0.0
  0
LINE
  5
4B2
330
2
100
AcDbEntity
  8
L-ZISSEN
100
AcDbLine
 10
221.8784168189961
 20
-435.0815456133998
 30
0.0
 11
221.8784168189961
 21
-436.0815456133998
 31
0.0
  0
LINE
  5
4B3
330
2
100
AcDbEntity
  8
L-ZISSEN
100
AcDbLine
 10
229.4784168189961
 20
-435.0815456133998
 30
0.0
 11
229.4784168189961
 21
-436.0815456133998
 31
0.0
  0
LINE
  5
4B4
330
2
100
AcDbEntity
  8
L-ZISSEN
100
AcDbLine
 10
250.4784168189992
 20
-435.0815456133998
 30
0.0
 11
250.4784168189992
 21
-436.0815456133998
 31
0.0
  0
LINE
  5
4B5
330
2
100
AcDbEntity
  8
L-ZISSEN
100
AcDbLine
 10
243.6784168189977
 20
-435.0815456133998
 30
0.0
 11
250.4784168189992
 21
-435.0815456133998
 31
0.0
  0
LINE
  5
4B6
330
2
100
AcDbEntity
  8
L-ZISSEN
100
AcDbLine
 10
277.6784168189974
 20
-470.8315456133995
 30
0.0
 11
277.6784168189971
 21
-442.3315456133994
 31
0.0
  0
LINE
  5
4B7
330
2
100
AcDbEntity
  8
L-ZISSEN
100
AcDbLine
 10
276.9784168189969
 20
-470.4815456133998
 30
0.0
 11
275.678416818997
 21
-470.4815456133998
 31
0.0
  0
LINE
  5
4B8
330
2
100
AcDbEntity
  8
L-ZISSEN
100
AcDbLine
 10
277.6784168189974
 20
-469.5815456133998
 30
0.0
 11
275.6784168189969
 21
-469.5815456133998
 31
0.0
  0
LINE
  5
4B9
330
2
100
AcDbEntity
  8
L-ZISSEN
100
AcDbLine
 10
281.9784168189972
 20
-470.8315456133996
 30
0.0
 11
276.9784168189969
 21
-470.8315456133996
 31
0.0
  0
LINE
  5
4BA
330
2
100
AcDbEntity
  8
L-ZISSEN
100
AcDbLine
 10
253.1784168189977
 20
-436.0815456133998
 30
0.0
 11
253.6784168189977
 21
-436.5815456133999
 31
0.0
  0
LINE
  5
4BB
330
2
100
AcDbEntity
  8
L-ZISSEN
100
AcDbLine
 10
253.6784168189977
 20
-436.5815456133999
 30
0.0
 11
253.6784168189977
 21
-441.5815456133999
 31
0.0
  0
LINE
  5
4BC
330
2
100
AcDbEntity
  8
L-ZISSEN
100
AcDbLine
 10
281.9784168189972
 20
-454.3315456134003
 30
0.0
 11
281.9784168189972
 21
-445.8315456134003
 31
0.0
  0
LINE
  5
4BD
330
2
100
AcDbEntity
  8
L-ZISSEN
100
AcDbLine
 10
281.9784168189972
 20
-454.3315456134003
 30
0.0
 11
277.6784168189972
 21
-454.3315456134003
 31
0.0
  0
LINE
  5
4BE
330
2
100
AcDbEntity
  8
L-ZISSEN
100
AcDbLine
 10
281.9784168189972
 20
-445.8315456134005
 30
0.0
 11
277.6784168189972
 21
-445.8315456134
 31
0.0
  0
LINE
  5
4BF
330
2
100
AcDbEntity
  8
L-ZISSEN
100
AcDbLine
 10
277.1784168189976
 20
-441.8315456133998
 30
0.0
 11
270.6784168189973
 21
-441.8315456133998
 31
0.0
  0
ARC
  5
4C0
330
2
100
AcDbEntity
  8
L-ZISSEN
100
AcDbCircle
 10
277.1784168189971
 20
-442.3315456133994
 30
0.0
 40
0.5
100
AcDbArc
 50
0.0
 51
90.0
  0
LINE
  5
4C1
330
2
100
AcDbEntity
  8
L-ZISSEN
100
AcDbLine
 10
243.6784168189977
 20
-429.0815456133998
 30
0.0
 11
228.6784168189977
 21
-429.0815456133999
 31
0.0
  0
LINE
  5
4C2
330
2
100
AcDbEntity
  8
L-ZISSEN
100
AcDbLine
 10
243.1784168189977
 20
-428.5815456133999
 30
0.0
 11
229.1784168189977
 21
-428.5815456133998
 31
0.0
  0
LINE
  5
4C3
330
2
100
AcDbEntity
  8
L-ZISSEN
100
AcDbLine
 10
229.1784168189961
 20
-431.0815456133998
 30
0.0
 11
222.1784168189961
 21
-431.0815456133998
 31
0.0
  0
LINE
  5
4C4
330
2
100
AcDbEntity
  8
L-ZISSEN
100
AcDbLine
 10
229.1784168189977
 20
-428.5815456133998
 30
0.0
 11
228.6784168189977
 21
-429.0815456133998
 31
0.0
  0
LINE
  5
4C5
330
2
100
AcDbEntity
  8
L-ZISSEN
100
AcDbLine
 10
228.6784168189977
 20
-429.0815456133998
 30
0.0
 11
228.6784168189977
 21
-431.0815456133998
 31
0.0
  0
LINE
  5
4C6
330
2
100
AcDbEntity
  8
L-ZISSEN
100
AcDbLine
 10
243.1784168189977
 20
-428.5815456133999
 30
0.0
 11
243.6784168189976
 21
-429.0815456133999
 31
0.0
  0
LINE
  5
4C7
330
2
100
AcDbEntity
  8
L-ZISSEN
100
AcDbLine
 10
243.6784168189977
 20
-431.0815456133998
 30
0.0
 11
250.1784168189993
 21
-431.0815456133998
 31
0.0
  0
LINE
  5
4C8
330
2
100
AcDbEntity
  8
L-ZISSEN
100
AcDbLine
 10
366.178416818996
 20
-470.5815456134001
 30
0.0
 11
366.178416818996
 21
-476.5815456133999
 31
0.0
  0
LINE
  5
4C9
330
2
100
AcDbEntity
  8
L-ZISSEN
100
AcDbLine
 10
356.1784168189959
 20
-470.5815456134001
 30
0.0
 11
356.178416818996
 21
-476.5815456134
 31
0.0
  0
LINE
  5
4CA
330
2
100
AcDbEntity
  8
L-TYUSIN
100
AcDbLine
 10
372.6784168189959
 20
-471.0815456133999
 30
0.0
 11
372.6784168189959
 21
-479.0815456133999
 31
0.0
  0
CIRCLE
  5
4CB
330
2
100
AcDbEntity
  8
L-ZISSEN
100
AcDbCircle
 10
372.6784168189957
 20
-475.0815456133999
 30
0.0
 40
4.599999999999999
  0
CIRCLE
  5
4CC
330
2
100
AcDbEntity
  8
L-ZISSEN
100
AcDbCircle
 10
372.6784168189957
 20
-475.0815456133999
 30
0.0
 40
4.25
  0
LINE
  5
4CD
330
2
100
AcDbEntity
  8
L-ZISSEN
100
AcDbLine
 10
367.1784168189959
 20
-441.5815456134002
 30
0.0
 11
367.1784168189959
 21
-483.5815456133999
 31
0.0
  0
LINE
  5
4CE
330
2
100
AcDbEntity
  8
L-ZISSEN
100
AcDbLine
 10
367.4284168189959
 20
-442.3315456134002
 30
0.0
 11
367.4284168189959
 21
-482.8315456133999
 31
0.0
  0
LINE
  5
4CF
330
2
100
AcDbEntity
  8
L-TYUSIN
100
AcDbLine
 10
361.1784168189959
 20
-469.0815456134
 30
0.0
 11
361.1784168189959
 21
-490.5815456134002
 31
0.0
  0
LINE
  5
4D0
330
2
100
AcDbEntity
  8
L-ZISSEN
100
AcDbLine
 10
378.1784168189957
 20
-474.5815456133999
 30
0.0
 11
378.1784168189957
 21
-483.3315456133998
 31
0.0
  0
LINE
  5
4D1
330
2
100
AcDbEntity
  8
L-TYUSIN
100
AcDbLine
 10
393.1784168189957
 20
-439.3315456134001
 30
0.0
 11
393.1784168189963
 21
-534.0815456134
 31
0.0
  0
LINE
  5
4D2
330
2
100
AcDbEntity
  8
L-ZISSEN
100
AcDbLine
 10
351.1784168189959
 20
-490.0815456134002
 30
0.0
 11
351.1784168189961
 21
-529.0815456134001
 31
0.0
  0
LINE
  5
4D3
330
2
100
AcDbEntity
  8
L-TYUSIN
100
AcDbLine
 10
363.1784168189959
 20
-516.5815456133999
 30
0.0
 11
363.178416818996
 21
-531.5815456134
 31
0.0
  0
LINE
  5
4D4
330
2
100
AcDbEntity
  8
L-ZISSEN
100
AcDbLine
 10
380.4989248946846
 20
-519.0815456134002
 30
0.0
 11
380.4989248946846
 21
-529.0815456133999
 31
0.0
  0
LINE
  5
4D5
330
2
100
AcDbEntity
  8
L-TYUSIN
100
AcDbLine
 10
353.6784168189959
 20
-504.0815456134001
 30
0.0
 11
348.6784168189959
 21
-504.0815456133999
 31
0.0
  0
LINE
  5
4D6
330
2
100
AcDbEntity
  8
L-ZISSEN
100
AcDbLine
 10
354.1784168189959
 20
-478.0815456134002
 30
0.0
 11
367.1784168189958
 21
-478.0815456134003
 31
0.0
  0
LINE
  5
4D7
330
2
100
AcDbEntity
  8
L-ZISSEN
100
AcDbLine
 10
354.1784168189959
 20
-478.0815456134002
 30
0.0
 11
354.1784168189959
 21
-490.0815456134002
 31
0.0
  0
LINE
  5
4D8
330
2
100
AcDbEntity
  8
L-ZISSEN
100
AcDbLine
 10
361.1784168189959
 20
-478.0815456134002
 30
0.0
 11
361.1784168189959
 21
-488.0815456134002
 31
0.0
  0
LINE
  5
4D9
330
2
100
AcDbEntity
  8
L-ZISSEN
100
AcDbLine
 10
355.4284168189961
 20
-476.5815456134001
 30
0.0
 11
366.9284168189959
 21
-476.5815456134
 31
0.0
  0
LINE
  5
4DA
330
2
100
AcDbEntity
  8
L-ZISSEN
100
AcDbLine
 10
355.4284168189961
 20
-476.5815456134003
 30
0.0
 11
355.4284168189959
 21
-478.0815456134002
 31
0.0
  0
LINE
  5
4DB
330
2
100
AcDbEntity
  8
L-ZISSEN
100
AcDbLine
 10
366.928416818996
 20
-476.5815456134003
 30
0.0
 11
366.9284168189959
 21
-478.0815456134
 31
0.0
  0
ARC
  5
4DC
330
2
100
AcDbEntity
  8
L-ZISSEN
100
AcDbCircle
 10
367.9284168189959
 20
-482.8315456133999
 30
0.0
 40
0.5
100
AcDbArc
 50
180.0
 51
270.0
  0
LINE
  5
4DD
330
2
100
AcDbEntity
  8
L-ZISSEN
100
AcDbLine
 10
401.1784168189957
 20
-431.0815456134
 30
0.0
 11
401.1784168189957
 21
-435.0815456134
 31
0.0
  0
LINE
  5
4DE
330
2
100
AcDbEntity
  8
L-TYUSIN
100
AcDbLine
 10
395.6784168189957
 20
-428.5815456134001
 30
0.0
 11
395.6784168189957
 21
-444.0815456134
 31
0.0
  0
LINE
  5
4DF
330
2
100
AcDbEntity
  8
L-TYUSIN
100
AcDbLine
 10
388.6784168189957
 20
-423.5815456134
 30
0.0
 11
388.6784168189957
 21
-446.5815456134001
 31
0.0
  0
LINE
  5
4E0
330
2
100
AcDbEntity
  8
L-ZISSEN
100
AcDbLine
 10
378.1784168189957
 20
-431.0815456134
 30
0.0
 11
378.1784168189957
 21
-435.0815456134
 31
0.0
  0
LINE
  5
4E1
330
2
100
AcDbEntity
  8
L-ZISSEN
100
AcDbLine
 10
381.1784168189957
 20
-429.0815456134001
 30
0.0
 11
381.1784168189957
 21
-436.0815456134
 31
0.0
  0
LINE
  5
4E2
330
2
100
AcDbEntity
  8
L-ZISSEN
100
AcDbLine
 10
392.1784168189957
 20
-431.0815456134
 30
0.0
 11
392.1784168189957
 21
-435.0815456134
 31
0.0
  0
LINE
  5
4E3
330
2
100
AcDbEntity
  8
L-ZISSEN
100
AcDbLine
 10
399.1784168189957
 20
-431.0815456134
 30
0.0
 11
399.1784168189957
 21
-435.0815456134
 31
0.0
  0
LINE
  5
4E4
330
2
100
AcDbEntity
  8
L-TYUSIN
100
AcDbLine
 10
388.6784168189957
 20
-423.5815456134
 30
0.0
 11
388.6784168189957
 21
-446.5815456134001
 31
0.0
  0
LINE
  5
4E5
330
2
100
AcDbEntity
  8
L-ZISSEN
100
AcDbLine
 10
371.6784168189957
 20
-436.0815456134002
 30
0.0
 11
371.1784168189957
 21
-436.5815456134002
 31
0.0
  0
LINE
  5
4E6
330
2
100
AcDbEntity
  8
L-ZISSEN
100
AcDbLine
 10
367.4284168189957
 20
-469.5815456133999
 30
0.0
 11
373.1784168189957
 21
-469.5815456133999
 31
0.0
  0
LINE
  5
4E7
330
2
100
AcDbEntity
  8
L-TYUSIN
100
AcDbLine
 10
368.6784168189959
 20
-475.0815456133999
 30
0.0
 11
376.6784168189959
 21
-475.0815456133999
 31
0.0
  0
LINE
  5
4E8
330
2
100
AcDbEntity
  8
L-ZISSEN
100
AcDbLine
 10
356.1784168189959
 20
-470.5815456134001
 30
0.0
 11
366.178416818996
 21
-470.5815456134001
 31
0.0
  0
LINE
  5
4E9
330
2
100
AcDbEntity
  8
L-TYUSIN
100
AcDbLine
 10
364.9284168189958
 20
-451.5815456133998
 30
0.0
 11
369.678416818996
 21
-451.5815456133998
 31
0.0
  0
LINE
  5
4EA
330
2
100
AcDbEntity
  8
L-ZISSEN
100
AcDbLine
 10
371.1784168189957
 20
-436.5815456134002
 30
0.0
 11
371.1784168189957
 21
-441.5815456134001
 31
0.0
  0
ARC
  5
4EB
330
2
100
AcDbEntity
  8
L-ZISSEN
100
AcDbCircle
 10
367.9284168189959
 20
-442.3315456134002
 30
0.0
 40
0.5
100
AcDbArc
 50
90.0
 51
180.0
  0
ARC
  5
4EC
330
2
100
AcDbEntity
  8
L-ZISSEN
100
AcDbCircle
 10
373.1784168189957
 20
-474.5815456133999
 30
0.0
 40
5.0
100
AcDbArc
 50
0.0
 51
90.0
  0
LINE
  5
4ED
330
2
100
AcDbEntity
  8
L-ZISSEN
100
AcDbLine
 10
381.1784168189957
 20
-435.0815456134
 30
0.0
 11
377.8784168189957
 21
-435.0815456134
 31
0.0
  0
LINE
  5
4EE
330
2
100
AcDbEntity
  8
L-ZISSEN
100
AcDbLine
 10
377.8784168189957
 20
-435.0815456134
 30
0.0
 11
377.8784168189957
 21
-436.0815456134
 31
0.0
  0
LINE
  5
4EF
330
2
100
AcDbEntity
  8
L-ZISSEN
100
AcDbLine
 10
391.8784168189958
 20
-435.0815456134
 30
0.0
 11
399.4784168189957
 21
-435.0815456134
 31
0.0
  0
LINE
  5
4F0
330
2
100
AcDbEntity
  8
L-ZISSEN
100
AcDbLine
 10
391.8784168189958
 20
-435.0815456134
 30
0.0
 11
391.8784168189958
 21
-436.0815456134
 31
0.0
  0
LINE
  5
4F1
330
2
100
AcDbEntity
  8
L-ZISSEN
100
AcDbLine
 10
400.8784168189958
 20
-435.0815456134
 30
0.0
 11
400.8784168189958
 21
-436.0815456134
 31
0.0
  0
LINE
  5
4F2
330
2
100
AcDbEntity
  8
L-ZISSEN
100
AcDbLine
 10
399.4784168189957
 20
-435.0815456134
 30
0.0
 11
399.4784168189957
 21
-436.0815456134
 31
0.0
  0
LINE
  5
4F3
330
2
100
AcDbEntity
  8
L-ZISSEN
100
AcDbLine
 10
381.1784168189957
 20
-431.0815456134
 30
0.0
 11
378.1784168189957
 21
-431.0815456134
 31
0.0
  0
LINE
  5
4F4
330
2
100
AcDbEntity
  8
L-ZISSEN
100
AcDbLine
 10
381.6784168189957
 20
-428.5815456134001
 30
0.0
 11
381.1784168189957
 21
-429.0815456134001
 31
0.0
  0
LINE
  5
4F5
330
2
100
AcDbEntity
  8
L-ZISSEN
100
AcDbLine
 10
395.6784168189957
 20
-428.5815456134001
 30
0.0
 11
396.1784168189957
 21
-429.0815456134001
 31
0.0
  0
LINE
  5
4F6
330
2
100
AcDbEntity
  8
L-ZISSEN
100
AcDbLine
 10
392.1784168189957
 20
-431.0815456134
 30
0.0
 11
399.1784168189957
 21
-431.0815456134
 31
0.0
  0
LINE
  5
4F7
330
2
100
AcDbEntity
  8
L-ZISSEN
100
AcDbLine
 10
396.1784168189957
 20
-429.0815456134001
 30
0.0
 11
396.1784168189957
 21
-431.0815456134
 31
0.0
  0
LINE
  5
5AA
330
2
100
AcDbEntity
  8
L-ZISSEN
100
AcDbLine
 10
430.1784168189961
 20
-470.5815456134001
 30
0.0
 11
430.1784168189961
 21
-476.5815456133998
 31
0.0
  0
LINE
  5
5AB
330
2
100
AcDbEntity
  8
L-ZISSEN
100
AcDbLine
 10
420.1784168189959
 20
-470.5815456134001
 30
0.0
 11
420.178416818996
 21
-476.5815456133999
 31
0.0
  0
LINE
  5
5AC
330
2
100
AcDbEntity
  8
L-ZISSEN
100
AcDbLine
 10
419.1784168189959
 20
-441.5815456133998
 30
0.0
 11
419.1784168189959
 21
-483.5815456134
 31
0.0
  0
LINE
  5
5AD
330
2
100
AcDbEntity
  8
L-ZISSEN
100
AcDbLine
 10
418.9284168189959
 20
-442.3315456133999
 30
0.0
 11
418.9284168189959
 21
-482.8315456133999
 31
0.0
  0
LINE
  5
5AE
330
2
100
AcDbEntity
  8
L-TYUSIN
100
AcDbLine
 10
425.1784168189958
 20
-469.0815456134
 30
0.0
 11
425.1784168189959
 21
-490.5815456134002
 31
0.0
  0
LINE
  5
5AF
330
2
100
AcDbEntity
  8
L-ZISSEN
100
AcDbLine
 10
435.1784168189958
 20
-490.0815456134003
 30
0.0
 11
435.178416818996
 21
-529.0815456134001
 31
0.0
  0
LINE
  5
5B0
330
2
100
AcDbEntity
  8
L-TYUSIN
100
AcDbLine
 10
423.1784168189961
 20
-516.5815456133999
 30
0.0
 11
423.178416818996
 21
-531.5815456134
 31
0.0
  0
LINE
  5
5B1
330
2
100
AcDbEntity
  8
L-ZISSEN
100
AcDbLine
 10
405.8579087433073
 20
-519.0815456134002
 30
0.0
 11
405.8579087433073
 21
-529.0815456134001
 31
0.0
  0
LINE
  5
5B2
330
2
100
AcDbEntity
  8
L-TYUSIN
100
AcDbLine
 10
437.6784168189959
 20
-504.0815456133998
 30
0.0
 11
432.6784168189959
 21
-504.0815456133999
 31
0.0
  0
LINE
  5
5B3
330
2
100
AcDbEntity
  8
L-ZISSEN
100
AcDbLine
 10
419.4284168189961
 20
-476.5815456134001
 30
0.0
 11
430.9284168189959
 21
-476.5815456133999
 31
0.0
  0
LINE
  5
5B4
330
2
100
AcDbEntity
  8
L-ZISSEN
100
AcDbLine
 10
419.1784168189959
 20
-478.0815456134002
 30
0.0
 11
432.1784168189959
 21
-478.0815456134002
 31
0.0
  0
LINE
  5
5B5
330
2
100
AcDbEntity
  8
L-ZISSEN
100
AcDbLine
 10
419.4284168189961
 20
-476.5815456134002
 30
0.0
 11
419.4284168189959
 21
-478.0815456134001
 31
0.0
  0
ARC
  5
5B6
330
2
100
AcDbEntity
  8
L-ZISSEN
100
AcDbCircle
 10
418.4284168189959
 20
-482.8315456133999
 30
0.0
 40
0.5
100
AcDbArc
 50
270.0
 51
0.0
  0
LINE
  5
5B7
330
2
100
AcDbEntity
  8
L-ZISSEN
100
AcDbLine
 10
425.1784168189959
 20
-478.0815456134002
 30
0.0
 11
425.1784168189959
 21
-488.0815456134002
 31
0.0
  0
LINE
  5
5B8
330
2
100
AcDbEntity
  8
L-ZISSEN
100
AcDbLine
 10
432.1784168189959
 20
-478.0815456134
 30
0.0
 11
432.1784168189959
 21
-490.0815456134003
 31
0.0
  0
LINE
  5
5B9
330
2
100
AcDbEntity
  8
L-ZISSEN
100
AcDbLine
 10
430.928416818996
 20
-476.5815456134002
 30
0.0
 11
430.9284168189959
 21
-478.0815456134
 31
0.0
  0
LINE
  5
5BA
330
2
100
AcDbEntity
  8
L-TYUSIN
100
AcDbLine
 10
404.6784168189957
 20
-428.5815456134001
 30
0.0
 11
404.6784168189957
 21
-444.0815456134
 31
0.0
  0
LINE
  5
5BB
330
2
100
AcDbEntity
  8
L-ZISSEN
100
AcDbLine
 10
408.1784168189957
 20
-431.0815456134
 30
0.0
 11
408.1784168189957
 21
-435.0815456134
 31
0.0
  0
ARC
  5
5BC
330
2
100
AcDbEntity
  8
L-ZISSEN
100
AcDbCircle
 10
413.1784168189959
 20
-450.5815456134
 30
0.0
 40
5.0
100
AcDbArc
 50
180.0
 51
270.0
  0
CIRCLE
  5
5BD
330
2
100
AcDbEntity
  8
L-ZISSEN
100
AcDbCircle
 10
413.678416818996
 20
-450.0815456133999
 30
0.0
 40
4.599999999999999
  0
LINE
  5
5BE
330
2
100
AcDbEntity
  8
L-ZISSEN
100
AcDbLine
 10
420.1784168189959
 20
-470.5815456134001
 30
0.0
 11
430.1784168189961
 21
-470.5815456134001
 31
0.0
  0
LINE
  5
5BF
330
2
100
AcDbEntity
  8
L-ZISSEN
100
AcDbLine
 10
418.9284168189959
 20
-455.5815456133999
 30
0.0
 11
413.1784168189959
 21
-455.5815456133999
 31
0.0
  0
LINE
  5
5C0
330
2
100
AcDbEntity
  8
L-TYUSIN
100
AcDbLine
 10
416.6784168189961
 20
-449.0815456134
 30
0.0
 11
421.6784168189958
 21
-449.0815456134
 31
0.0
  0
LINE
  5
5C1
330
2
100
AcDbEntity
  8
L-TYUSIN
100
AcDbLine
 10
416.6784168189961
 20
-451.5815456133999
 30
0.0
 11
421.6784168189958
 21
-451.5815456133999
 31
0.0
  0
LINE
  5
5C2
330
2
100
AcDbEntity
  8
L-ZISSEN
100
AcDbLine
 10
408.1784168189959
 20
-450.5815456134
 30
0.0
 11
408.1784168189959
 21
-441.8315456134
 31
0.0
  0
CIRCLE
  5
5C3
330
2
100
AcDbEntity
  8
L-ZISSEN
100
AcDbCircle
 10
413.678416818996
 20
-450.0815456133999
 30
0.0
 40
4.25
  0
LINE
  5
5C4
330
2
100
AcDbEntity
  8
L-TYUSIN
100
AcDbLine
 10
417.6784168189959
 20
-450.0815456133999
 30
0.0
 11
409.678416818996
 21
-450.0815456133999
 31
0.0
  0
LINE
  5
5C5
330
2
100
AcDbEntity
  8
L-TYUSIN
100
AcDbLine
 10
413.678416818996
 20
-454.0815456133999
 30
0.0
 11
413.678416818996
 21
-446.0815456133999
 31
0.0
  0
LINE
  5
5C6
330
2
100
AcDbEntity
  8
L-ZISSEN
100
AcDbLine
 10
405.6784168189957
 20
-436.0815456134
 30
0.0
 11
406.1784168189957
 21
-436.5815456134
 31
0.0
  0
LINE
  5
5C7
330
2
100
AcDbEntity
  8
L-ZISSEN
100
AcDbLine
 10
408.4784168189957
 20
-435.0815456134
 30
0.0
 11
408.4784168189957
 21
-436.0815456134
 31
0.0
  0
LINE
  5
5C8
330
2
100
AcDbEntity
  8
L-ZISSEN
100
AcDbLine
 10
406.1784168189957
 20
-436.5815456134
 30
0.0
 11
406.1784168189957
 21
-441.5815456134001
 31
0.0
  0
LINE
  5
5C9
330
2
100
AcDbEntity
  8
L-ZISSEN
100
AcDbLine
 10
414.6784168189957
 20
-436.0815456134
 30
0.0
 11
415.1784168189957
 21
-436.5815456134
 31
0.0
  0
LINE
  5
5CA
330
2
100
AcDbEntity
  8
L-ZISSEN
100
AcDbLine
 10
415.1784168189957
 20
-436.5815456134
 30
0.0
 11
415.1784168189957
 21
-441.5815456134001
 31
0.0
  0
ARC
  5
5CB
330
2
100
AcDbEntity
  8
L-ZISSEN
100
AcDbCircle
 10
418.4284168189959
 20
-442.3315456133999
 30
0.0
 40
0.5
100
AcDbArc
 50
0.0
 51
90.0
  0
LINE
  5
5CC
330
2
100
AcDbEntity
  8
L-ZISSEN
100
AcDbLine
 10
404.6784168189957
 20
-428.5815456134001
 30
0.0
 11
405.1784168189957
 21
-429.0815456134001
 31
0.0
  0
LINE
  5
5CD
330
2
100
AcDbEntity
  8
L-ZISSEN
100
AcDbLine
 10
405.1784168189957
 20
-429.0815456134001
 30
0.0
 11
405.1784168189957
 21
-431.0815456134
 31
0.0
  0
SOLID
  5
6CA
330
2
100
AcDbEntity
  8
L-ZISSEN
100
AcDbTrace
 10
191.3784168189966
 20
-461.6482122800666
 30
0.0
 11
191.7784168189965
 21
-461.1148789467332
 31
0.0
 12
193.1784168189966
 22
-462.5815456133998
 32
0.0
 13
193.1784168189966
 23
-462.5815456133998
 33
0.0
  0
LINE
  5
6CB
330
2
100
AcDbEntity
  8
L-ZISSEN
100
AcDbLine
 10
183.5634286530386
 20
-455.3703044889314
 30
0.0
 11
180.519892352638
 21
-455.3703044889314
 31
0.0
  0
LINE
  5
6CC
330
2
100
AcDbEntity
  8
L-ZISSEN
100
AcDbLine
 10
191.5784168189967
 20
-461.3815456134
 30
0.0
 11
183.5634286530386
 21
-455.3703044889314
 31
0.0
  0
TEXT
  5
6CD
330
2
100
AcDbEntity
  8
L-ZISSEN
100
AcDbText
 10
170.1770300882891
 20
-457.6203044889314
 30
0.0
 40
4.5
  1
P.P
100
AcDbText
  0
LINE
  5
6CE
330
2
100
AcDbEntity
  8
L-ZISSEN
100
AcDbLine
 10
373.1784168189958
 20
-447.5815456133999
 30
0.0
 11
364.8461736232638
 21
-447.5815456133999
 31
0.0
  0
TEXT
  5
6CF
330
2
100
AcDbEntity
  8
L-ZISSEN
100
AcDbText
 10
354.5033113589149
 20
-449.8315456133999
 30
0.0
 40
4.5
  1
P.P
100
AcDbText
  0
LINE
  5
6D0
330
2
100
AcDbEntity
  8
L-ZISSEN
100
AcDbLine
 10
391.5784168189959
 20
-461.3815456134001
 30
0.0
 11
373.1784168189958
 21
-447.5815456133999
 31
0.0
  0
POLYLINE
  5
6EA
330
2
100
AcDbEntity
  8
L-ZISSEN
100
AcDb2dPolyline
 66
     1
 10
0.0
 20
0.0
 30
0.0
 70
     1
  0
VERTEX
  5
8EB
330
6EA
100
AcDbEntity
  8
L-ZISSEN
100
AcDbVertex
100
AcDb2dVertex
 10
171.7350411460227
 20
-332.0815074971641
 30
0.0
  0
VERTEX
  5
8EC
330
6EA
100
AcDbEntity
  8
L-ZISSEN
100
AcDbVertex
100
AcDb2dVertex
 10
170.2916654730485
 20
-334.5815074971641
 30
0.0
  0
VERTEX
  5
8ED
330
6EA
100
AcDbEntity
  8
L-ZISSEN
100
AcDbVertex
100
AcDb2dVertex
 10
171.7350411460227
 20
-337.0815074971641
 30
0.0
  0
VERTEX
  5
8EE
330
6EA
100
AcDbEntity
  8
L-ZISSEN
100
AcDbVertex
100
AcDb2dVertex
 10
174.6217924919708
 20
-337.0815074971641
 30
0.0
  0
VERTEX
  5
8EF
330
6EA
100
AcDbEntity
  8
L-ZISSEN
100
AcDbVertex
100
AcDb2dVertex
 10
176.065168164945
 20
-334.5815074971641
 30
0.0
  0
VERTEX
  5
8F0
330
6EA
100
AcDbEntity
  8
L-ZISSEN
100
AcDbVertex
100
AcDb2dVertex
 10
174.6217924919708
 20
-332.0815074971641
 30
0.0
  0
SEQEND
  5
8F1
330
6EA
100
AcDbEntity
  8
L-ZISSEN
  0
POLYLINE
  5
6EB
330
2
100
AcDbEntity
  8
L-ZISSEN
100
AcDb2dPolyline
 66
     1
 10
0.0
 20
0.0
 30
0.0
 70
     1
  0
VERTEX
  5
8F2
330
6EB
100
AcDbEntity
  8
L-ZISSEN
100
AcDbVertex
100
AcDb2dVertex
 10
168.0237162806166
 20
-321.5815074971641
 30
0.0
  0
VERTEX
  5
8F3
330
6EB
100
AcDbEntity
  8
L-ZISSEN
100
AcDbVertex
100
AcDb2dVertex
 10
166.8690157422373
 20
-323.5815074971641
 30
0.0
  0
VERTEX
  5
8F4
330
6EB
100
AcDbEntity
  8
L-ZISSEN
100
AcDbVertex
100
AcDb2dVertex
 10
168.0237162806166
 20
-325.5815074971641
 30
0.0
  0
VERTEX
  5
8F5
330
6EB
100
AcDbEntity
  8
L-ZISSEN
100
AcDbVertex
100
AcDb2dVertex
 10
170.3331173573752
 20
-325.5815074971641
 30
0.0
  0
VERTEX
  5
8F6
330
6EB
100
AcDbEntity
  8
L-ZISSEN
100
AcDbVertex
100
AcDb2dVertex
 10
171.4878178957545
 20
-323.5815074971641
 30
0.0
  0
VERTEX
  5
8F7
330
6EB
100
AcDbEntity
  8
L-ZISSEN
100
AcDbVertex
100
AcDb2dVertex
 10
170.3331173573752
 20
-321.5815074971641
 30
0.0
  0
SEQEND
  5
8F8
330
6EB
100
AcDbEntity
  8
L-ZISSEN
  0
POLYLINE
  5
6EC
330
2
100
AcDbEntity
  8
L-ZISSEN
100
AcDb2dPolyline
 66
     1
 10
0.0
 20
0.0
 30
0.0
 70
     1
  0
VERTEX
  5
8F9
330
6EC
100
AcDbEntity
  8
L-ZISSEN
100
AcDbVertex
100
AcDb2dVertex
 10
173.0237162806166
 20
-279.5815074971641
 30
0.0
  0
VERTEX
  5
8FA
330
6EC
100
AcDbEntity
  8
L-ZISSEN
100
AcDbVertex
100
AcDb2dVertex
 10
171.8690157422373
 20
-281.5815074971641
 30
0.0
  0
VERTEX
  5
8FB
330
6EC
100
AcDbEntity
  8
L-ZISSEN
100
AcDbVertex
100
AcDb2dVertex
 10
173.0237162806166
 20
-283.5815074971641
 30
0.0
  0
VERTEX
  5
8FC
330
6EC
100
AcDbEntity
  8
L-ZISSEN
100
AcDbVertex
100
AcDb2dVertex
 10
175.3331173573752
 20
-283.5815074971641
 30
0.0
  0
VERTEX
  5
8FD
330
6EC
100
AcDbEntity
  8
L-ZISSEN
100
AcDbVertex
100
AcDb2dVertex
 10
176.4878178957545
 20
-281.5815074971641
 30
0.0
  0
VERTEX
  5
8FE
330
6EC
100
AcDbEntity
  8
L-ZISSEN
100
AcDbVertex
100
AcDb2dVertex
 10
175.3331173573752
 20
-279.5815074971641
 30
0.0
  0
SEQEND
  5
8FF
330
6EC
100
AcDbEntity
  8
L-ZISSEN
  0
POLYLINE
  5
6ED
330
2
100
AcDbEntity
  8
L-ZISSEN
100
AcDb2dPolyline
 66
     1
 10
0.0
 20
0.0
 30
0.0
 70
     1
  0
VERTEX
  5
900
330
6ED
100
AcDbEntity
  8
L-ZISSEN
100
AcDbVertex
100
AcDb2dVertex
 10
176.7350411460227
 20
-268.0815074971641
 30
0.0
  0
VERTEX
  5
901
330
6ED
100
AcDbEntity
  8
L-ZISSEN
100
AcDbVertex
100
AcDb2dVertex
 10
175.2916654730485
 20
-270.5815074971642
 30
0.0
  0
VERTEX
  5
902
330
6ED
100
AcDbEntity
  8
L-ZISSEN
100
AcDbVertex
100
AcDb2dVertex
 10
176.7350411460227
 20
-273.0815074971641
 30
0.0
  0
VERTEX
  5
903
330
6ED
100
AcDbEntity
  8
L-ZISSEN
100
AcDbVertex
100
AcDb2dVertex
 10
179.6217924919709
 20
-273.0815074971641
 30
0.0
  0
VERTEX
  5
904
330
6ED
100
AcDbEntity
  8
L-ZISSEN
100
AcDbVertex
100
AcDb2dVertex
 10
181.065168164945
 20
-270.5815074971642
 30
0.0
  0
VERTEX
  5
905
330
6ED
100
AcDbEntity
  8
L-ZISSEN
100
AcDbVertex
100
AcDb2dVertex
 10
179.6217924919709
 20
-268.0815074971641
 30
0.0
  0
SEQEND
  5
906
330
6ED
100
AcDbEntity
  8
L-ZISSEN
  0
POLYLINE
  5
6EE
330
2
100
AcDbEntity
  8
L-ZISSEN
100
AcDb2dPolyline
 66
     1
 10
0.0
 20
0.0
 30
0.0
 70
     1
  0
VERTEX
  5
907
330
6EE
100
AcDbEntity
  8
L-ZISSEN
100
AcDbVertex
100
AcDb2dVertex
 10
216.0237162806175
 20
-321.5815074971641
 30
0.0
  0
VERTEX
  5
908
330
6EE
100
AcDbEntity
  8
L-ZISSEN
100
AcDbVertex
100
AcDb2dVertex
 10
214.8690157422382
 20
-323.5815074971641
 30
0.0
  0
VERTEX
  5
909
330
6EE
100
AcDbEntity
  8
L-ZISSEN
100
AcDbVertex
100
AcDb2dVertex
 10
216.0237162806175
 20
-325.5815074971641
 30
0.0
  0
VERTEX
  5
90A
330
6EE
100
AcDbEntity
  8
L-ZISSEN
100
AcDbVertex
100
AcDb2dVertex
 10
218.3331173573761
 20
-325.5815074971641
 30
0.0
  0
VERTEX
  5
90B
330
6EE
100
AcDbEntity
  8
L-ZISSEN
100
AcDbVertex
100
AcDb2dVertex
 10
219.4878178957554
 20
-323.5815074971641
 30
0.0
  0
VERTEX
  5
90C
330
6EE
100
AcDbEntity
  8
L-ZISSEN
100
AcDbVertex
100
AcDb2dVertex
 10
218.3331173573761
 20
-321.5815074971641
 30
0.0
  0
SEQEND
  5
90D
330
6EE
100
AcDbEntity
  8
L-ZISSEN
  0
POLYLINE
  5
6EF
330
2
100
AcDbEntity
  8
L-ZISSEN
100
AcDb2dPolyline
 66
     1
 10
0.0
 20
0.0
 30
0.0
 70
     1
  0
VERTEX
  5
90E
330
6EF
100
AcDbEntity
  8
L-ZISSEN
100
AcDbVertex
100
AcDb2dVertex
 10
211.7350411460227
 20
-332.0815074971641
 30
0.0
  0
VERTEX
  5
90F
330
6EF
100
AcDbEntity
  8
L-ZISSEN
100
AcDbVertex
100
AcDb2dVertex
 10
210.2916654730485
 20
-334.5815074971641
 30
0.0
  0
VERTEX
  5
910
330
6EF
100
AcDbEntity
  8
L-ZISSEN
100
AcDbVertex
100
AcDb2dVertex
 10
211.7350411460227
 20
-337.0815074971641
 30
0.0
  0
VERTEX
  5
911
330
6EF
100
AcDbEntity
  8
L-ZISSEN
100
AcDbVertex
100
AcDb2dVertex
 10
214.6217924919708
 20
-337.0815074971641
 30
0.0
  0
VERTEX
  5
912
330
6EF
100
AcDbEntity
  8
L-ZISSEN
100
AcDbVertex
100
AcDb2dVertex
 10
216.065168164945
 20
-334.5815074971641
 30
0.0
  0
VERTEX
  5
913
330
6EF
100
AcDbEntity
  8
L-ZISSEN
100
AcDbVertex
100
AcDb2dVertex
 10
214.6217924919708
 20
-332.0815074971641
 30
0.0
  0
SEQEND
  5
914
330
6EF
100
AcDbEntity
  8
L-ZISSEN
  0
POLYLINE
  5
6F0
330
2
100
AcDbEntity
  8
L-ZISSEN
100
AcDb2dPolyline
 66
     1
 10
0.0
 20
0.0
 30
0.0
 70
     1
  0
VERTEX
  5
915
330
6F0
100
AcDbEntity
  8
L-ZISSEN
100
AcDbVertex
100
AcDb2dVertex
 10
211.0237162806175
 20
-279.5815074971641
 30
0.0
  0
VERTEX
  5
916
330
6F0
100
AcDbEntity
  8
L-ZISSEN
100
AcDbVertex
100
AcDb2dVertex
 10
209.8690157422382
 20
-281.5815074971641
 30
0.0
  0
VERTEX
  5
917
330
6F0
100
AcDbEntity
  8
L-ZISSEN
100
AcDbVertex
100
AcDb2dVertex
 10
211.0237162806175
 20
-283.5815074971641
 30
0.0
  0
VERTEX
  5
918
330
6F0
100
AcDbEntity
  8
L-ZISSEN
100
AcDbVertex
100
AcDb2dVertex
 10
213.3331173573761
 20
-283.5815074971641
 30
0.0
  0
VERTEX
  5
919
330
6F0
100
AcDbEntity
  8
L-ZISSEN
100
AcDbVertex
100
AcDb2dVertex
 10
214.4878178957554
 20
-281.5815074971641
 30
0.0
  0
VERTEX
  5
91A
330
6F0
100
AcDbEntity
  8
L-ZISSEN
100
AcDbVertex
100
AcDb2dVertex
 10
213.3331173573761
 20
-279.5815074971641
 30
0.0
  0
SEQEND
  5
91B
330
6F0
100
AcDbEntity
  8
L-ZISSEN
  0
POLYLINE
  5
6F1
330
2
100
AcDbEntity
  8
L-ZISSEN
100
AcDb2dPolyline
 66
     1
 10
0.0
 20
0.0
 30
0.0
 70
     1
  0
VERTEX
  5
91C
330
6F1
100
AcDbEntity
  8
L-ZISSEN
100
AcDbVertex
100
AcDb2dVertex
 10
206.7350411460227
 20
-268.0815074971641
 30
0.0
  0
VERTEX
  5
91D
330
6F1
100
AcDbEntity
  8
L-ZISSEN
100
AcDbVertex
100
AcDb2dVertex
 10
205.2916654730485
 20
-270.5815074971642
 30
0.0
  0
VERTEX
  5
91E
330
6F1
100
AcDbEntity
  8
L-ZISSEN
100
AcDbVertex
100
AcDb2dVertex
 10
206.7350411460227
 20
-273.0815074971641
 30
0.0
  0
VERTEX
  5
91F
330
6F1
100
AcDbEntity
  8
L-ZISSEN
100
AcDbVertex
100
AcDb2dVertex
 10
209.6217924919709
 20
-273.0815074971641
 30
0.0
  0
VERTEX
  5
920
330
6F1
100
AcDbEntity
  8
L-ZISSEN
100
AcDbVertex
100
AcDb2dVertex
 10
211.065168164945
 20
-270.5815074971642
 30
0.0
  0
VERTEX
  5
921
330
6F1
100
AcDbEntity
  8
L-ZISSEN
100
AcDbVertex
100
AcDb2dVertex
 10
209.6217924919709
 20
-268.0815074971641
 30
0.0
  0
SEQEND
  5
922
330
6F1
100
AcDbEntity
  8
L-ZISSEN
  0
LINE
  5
6F6
330
2
100
AcDbEntity
  8
L-ZISSEN
100
AcDbLine
 10
131.3751381304717
 20
-262.7454419233937
 30
0.0
 11
143.1784168189943
 21
-260.5815074971642
 31
0.0
  0
LINE
  5
6F7
330
2
100
AcDbEntity
  8
L-TYUSIN
100
AcDbLine
 10
140.1784168189963
 20
-272.5815074971639
 30
0.0
 11
126.1784168189963
 21
-272.5815074971639
 31
0.0
  0
CIRCLE
  5
6F8
330
2
100
AcDbEntity
  8
L-ZISSEN
100
AcDbCircle
 10
133.1784168189963
 20
-272.5815074971641
 30
0.0
 40
4.5
  0
LINE
  5
6F9
330
2
100
AcDbEntity
  8
L-TYUSIN
100
AcDbLine
 10
140.1784168189963
 20
-332.5815074971641
 30
0.0
 11
126.1784168189963
 21
-332.5815074971641
 31
0.0
  0
LINE
  5
6FA
330
2
100
AcDbEntity
  8
L-ZISSEN
100
AcDbLine
 10
131.3751381304717
 20
-342.4175730709346
 30
0.0
 11
143.1784168189943
 21
-344.581507497164
 31
0.0
  0
CIRCLE
  5
6FB
330
2
100
AcDbEntity
  8
L-ZISSEN
100
AcDbCircle
 10
133.1784168189963
 20
-332.5815074971641
 30
0.0
 40
4.5
  0
LINE
  5
6FD
330
2
100
AcDbEntity
  8
L-ZISSEN
100
AcDbLine
 10
270.6784168189959
 20
-276.5815074971641
 30
0.0
 11
101.678416818998
 21
-276.5815074971651
 31
0.0
  0
LINE
  5
6FE
330
2
100
AcDbEntity
  8
L-ZISSEN
100
AcDbLine
 10
270.6784168189959
 20
-328.5815074971641
 30
0.0
 11
101.678416818998
 21
-328.5815074971643
 31
0.0
  0
LINE
  5
701
330
2
100
AcDbEntity
  8
L-ZISSEN
100
AcDbLine
 10
94.6784168189975
 20
-277.3315074971638
 30
0.0
 11
94.6784168189975
 21
-318.8315074971638
 31
0.0
  0
LINE
  5
702
330
2
100
AcDbEntity
  8
L-ZISSEN
100
AcDbLine
 10
101.678416818998
 20
-328.5815074971643
 30
0.0
 11
101.678416818998
 21
-276.5815074971651
 31
0.0
  0
LINE
  5
703
330
2
100
AcDbEntity
  8
L-ZISSEN
100
AcDbLine
 10
121.6784168189981
 20
-328.5815074971643
 30
0.0
 11
121.6784168189981
 21
-276.5815074971649
 31
0.0
  0
LINE
  5
704
330
2
100
AcDbEntity
  8
L-ZISSEN
100
AcDbLine
 10
90.37841681899754
 20
-318.8315074971638
 30
0.0
 11
90.37841681899754
 21
-327.3315074971638
 31
0.0
  0
LINE
  5
705
330
2
100
AcDbEntity
  8
L-ZISSEN
100
AcDbLine
 10
96.67841681899751
 20
-317.5815074971638
 30
0.0
 11
96.67841681899751
 21
-328.3315074971638
 31
0.0
  0
LINE
  5
706
330
2
100
AcDbEntity
  8
L-ZISSEN
100
AcDbLine
 10
95.37841681899754
 20
-318.4815074971638
 30
0.0
 11
95.37841681899754
 21
-327.6815074971638
 31
0.0
  0
LINE
  5
707
330
2
100
AcDbEntity
  8
L-ZISSEN
100
AcDbLine
 10
101.6784168189974
 20
-328.3315074971638
 30
0.0
 11
95.17841681899751
 21
-328.3315074971638
 31
0.0
  0
LINE
  5
708
330
2
100
AcDbEntity
  8
L-ZISSEN
100
AcDbLine
 10
94.6784168189975
 20
-327.3315074971638
 30
0.0
 11
94.6784168189975
 21
-327.8315074971638
 31
0.0
  0
LINE
  5
709
330
2
100
AcDbEntity
  8
L-ZISSEN
100
AcDbLine
 10
96.67841681899751
 20
-327.6815074971638
 30
0.0
 11
95.37841681899754
 21
-327.6815074971638
 31
0.0
  0
ARC
  5
70A
330
2
100
AcDbEntity
  8
L-ZISSEN
100
AcDbCircle
 10
95.17841681899751
 20
-327.8315074971638
 30
0.0
 40
0.5
100
AcDbArc
 50
180.0
 51
270.0
  0
LINE
  5
70B
330
2
100
AcDbEntity
  8
L-TYUSIN
100
AcDbLine
 10
98.1784168189975
 20
-323.0815074971638
 30
0.0
 11
88.87841681899756
 21
-323.0815074971638
 31
0.0
  0
LINE
  5
70C
330
2
100
AcDbEntity
  8
L-ZISSEN
100
AcDbLine
 10
95.37841681899754
 20
-327.3315074971638
 30
0.0
 11
90.37841681899754
 21
-327.3315074971638
 31
0.0
  0
ARC
  5
70D
330
2
100
AcDbEntity
  8
L-ZISSEN
100
AcDbCircle
 10
133.1784168189963
 20
-332.5815074971641
 30
0.0
 40
10.0
100
AcDbArc
 50
156.4218215217992
 51
259.6111421845295
  0
LINE
  5
70E
330
2
100
AcDbEntity
  8
L-TYUSIN
100
AcDbLine
 10
133.1784168189963
 20
-339.5815074971642
 30
0.0
 11
133.1784168189963
 21
-325.5815074971641
 31
0.0
  0
LINE
  5
70F
330
2
100
AcDbEntity
  8
L-ZISSEN
100
AcDbLine
 10
95.37841681899754
 20
-318.8315074971638
 30
0.0
 11
90.37841681899754
 21
-318.8315074971638
 31
0.0
  0
LINE
  5
710
330
2
100
AcDbEntity
  8
L-ZISSEN
100
AcDbLine
 10
96.67841681899751
 20
-317.5815074971638
 30
0.0
 11
94.6784168189975
 21
-317.5815074971638
 31
0.0
  0
LINE
  5
711
330
2
100
AcDbEntity
  8
L-ZISSEN
100
AcDbLine
 10
96.67841681899751
 20
-318.4815074971638
 30
0.0
 11
95.37841681899754
 21
-318.4815074971638
 31
0.0
  0
LINE
  5
712
330
2
100
AcDbEntity
  8
L-ZISSEN
100
AcDbLine
 10
101.6784168189974
 20
-276.8315074971638
 30
0.0
 11
95.17841681899751
 21
-276.8315074971638
 31
0.0
  0
LINE
  5
713
330
2
100
AcDbEntity
  8
L-ZISSEN
100
AcDbLine
 10
90.37841681899754
 20
-286.3315074971643
 30
0.0
 11
90.37841681899754
 21
-277.8315074971643
 31
0.0
  0
LINE
  5
714
330
2
100
AcDbEntity
  8
L-TYUSIN
100
AcDbLine
 10
98.1784168189975
 20
-282.0815074971643
 30
0.0
 11
88.87841681899756
 21
-282.0815074971643
 31
0.0
  0
LINE
  5
715
330
2
100
AcDbEntity
  8
L-ZISSEN
100
AcDbLine
 10
94.6784168189975
 20
-286.3315074971643
 30
0.0
 11
90.37841681899754
 21
-286.3315074971643
 31
0.0
  0
LINE
  5
716
330
2
100
AcDbEntity
  8
L-ZISSEN
100
AcDbLine
 10
94.6784168189975
 20
-277.8315074971643
 30
0.0
 11
90.37841681899754
 21
-277.8315074971643
 31
0.0
  0
ARC
  5
717
330
2
100
AcDbEntity
  8
L-ZISSEN
100
AcDbCircle
 10
95.17841681899751
 20
-277.3315074971638
 30
0.0
 40
0.5
100
AcDbArc
 50
90.0
 51
180.0
  0
LINE
  5
718
330
2
100
AcDbEntity
  8
L-TYUSIN
100
AcDbLine
 10
133.1784168189963
 20
-279.5815074971641
 30
0.0
 11
133.1784168189963
 21
-265.5815074971641
 31
0.0
  0
ARC
  5
719
330
2
100
AcDbEntity
  8
L-ZISSEN
100
AcDbCircle
 10
133.1784168189963
 20
-272.5815074971641
 30
0.0
 40
10.0
100
AcDbArc
 50
100.3888578154704
 51
203.5781784782065
  0
LINE
  5
71A
330
2
100
AcDbEntity
  8
L-TYUSIN
100
AcDbLine
 10
227.4284168189963
 20
-314.0815074971644
 30
0.0
 11
223.9284168189963
 21
-314.0815074971644
 31
0.0
  0
LINE
  5
71B
330
2
100
AcDbEntity
  8
L-TYUSIN
100
AcDbLine
 10
223.6784168189963
 20
-307.0815074971643
 30
0.0
 11
248.6784168189963
 21
-307.0815074971643
 31
0.0
  0
LINE
  5
71C
330
2
100
AcDbEntity
  8
L-ZISSEN
100
AcDbLine
 10
237.6784168189968
 20
-334.5815074971641
 30
0.0
 11
222.7178088331661
 21
-334.5815074971641
 31
0.0
  0
CIRCLE
  5
71D
330
2
100
AcDbEntity
  8
L-ZISSEN
100
AcDbCircle
 10
225.7384168189963
 20
-314.0815074971646
 30
0.0
 40
3.860000000002628
  0
CIRCLE
  5
71E
330
2
100
AcDbEntity
  8
L-ZISSEN
100
AcDbCircle
 10
225.7384168189963
 20
-314.0815074971646
 30
0.0
 40
3.560000000002673
  0
LINE
  5
71F
330
2
100
AcDbEntity
  8
L-ZISSEN
100
AcDbLine
 10
237.6784168189968
 20
-270.5815074971642
 30
0.0
 11
217.7178088331662
 21
-270.5815074971642
 31
0.0
  0
CIRCLE
  5
720
330
2
100
AcDbEntity
  8
L-ZISSEN
100
AcDbCircle
 10
236.1784168189963
 20
-307.0815074971643
 30
0.0
 40
17.5
  0
LINE
  5
721
330
2
100
AcDbEntity
  8
L-ZISSEN
100
AcDbLine
 10
243.1784168189963
 20
-260.581507497164
 30
0.0
 11
143.1784168189943
 21
-260.5815074971642
 31
0.0
  0
LINE
  5
722
330
2
100
AcDbEntity
  8
L-ZISSEN
100
AcDbLine
 10
243.1784168189963
 20
-344.581507497164
 30
0.0
 11
143.1784168189963
 21
-344.581507497164
 31
0.0
  0
LINE
  5
723
330
2
100
AcDbEntity
  8
L-TYUSIN
  6
CONTINUOUS
100
AcDbLine
 10
212.1784168189968
 20
-286.8315074971641
 30
0.0
 11
212.1784168189968
 21
-276.3315074971641
 31
0.0
  0
ARC
  5
724
330
2
100
AcDbEntity
  8
L-ZISSEN
100
AcDbCircle
 10
212.1784168189968
 20
-281.5815074971641
 30
0.0
 40
5.0
100
AcDbArc
 50
180.0000000000024
 51
0.0
  0
LINE
  5
725
330
2
100
AcDbEntity
  8
L-TYUSIN
  6
CONTINUOUS
100
AcDbLine
 10
174.1784168189959
 20
-286.8315074971641
 30
0.0
 11
174.1784168189959
 21
-276.3315074971641
 31
0.0
  0
ARC
  5
726
330
2
100
AcDbEntity
  8
L-ZISSEN
100
AcDbCircle
 10
174.1784168189959
 20
-281.5815074971641
 30
0.0
 40
5.0
100
AcDbArc
 50
180.0
 51
359.9999999999975
  0
LINE
  5
727
330
2
100
AcDbEntity
  8
L-TYUSIN
100
AcDbLine
 10
159.1784168189963
 20
-285.831507497164
 30
0.0
 11
159.1784168189963
 21
-310.3315074971642
 31
0.0
  0
LINE
  5
728
330
2
100
AcDbEntity
  8
L-TYUSIN
100
AcDbLine
 10
193.1784168189963
 20
-255.5815074971641
 30
0.0
 11
193.1784168189963
 21
-349.581507497164
 31
0.0
  0
LINE
  5
729
330
2
100
AcDbEntity
  8
L-ZISSEN
100
AcDbLine
 10
137.1784168189968
 20
-328.3315074971641
 30
0.0
 11
137.1784168189968
 21
-276.5815074971649
 31
0.0
  0
CIRCLE
  5
72A
330
2
100
AcDbEntity
  8
L-ZISSEN
100
AcDbCircle
 10
159.1784168189963
 20
-298.0815074971639
 30
0.0
 40
17.5
  0
ARC
  5
72B
330
2
100
AcDbEntity
  8
L-ZISSEN
100
AcDbCircle
 10
182.7178088331661
 20
-337.5815074971642
 30
0.0
 40
3.0
100
AcDbArc
 50
90.0
 51
162.542396876278
  0
LINE
  5
72C
330
2
100
AcDbEntity
  8
L-TYUSIN
  6
CONTINUOUS
100
AcDbLine
 10
169.1784168189959
 20
-318.3315074971641
 30
0.0
 11
169.1784168189959
 21
-328.8315074971642
 31
0.0
  0
ARC
  5
72D
330
2
100
AcDbEntity
  8
L-ZISSEN
100
AcDbCircle
 10
169.1784168189959
 20
-323.5815074971641
 30
0.0
 40
5.0
100
AcDbArc
 50
0.0000000000024427
 51
180.0
  0
LINE
  5
72E
330
2
100
AcDbEntity
  8
L-ZISSEN
100
AcDbLine
 10
163.6390248048274
 20
-334.5815074971641
 30
0.0
 11
148.6784168189968
 21
-334.5815074971641
 31
0.0
  0
LINE
  5
72F
330
2
100
AcDbEntity
  8
L-ZISSEN
100
AcDbLine
 10
143.1784168189963
 20
-343.0815074971641
 30
0.0
 11
143.1784168189963
 21
-328.5815074971643
 31
0.0
  0
ARC
  5
730
330
2
100
AcDbEntity
  8
L-ZISSEN
100
AcDbCircle
 10
144.6784168189963
 20
-343.0815074971641
 30
0.0
 40
1.5
100
AcDbArc
 50
180.0
 51
270.0
  0
ARC
  5
731
330
2
100
AcDbEntity
  8
L-ZISSEN
100
AcDbCircle
 10
148.6784168189968
 20
-331.5815074971641
 30
0.0
 40
3.0
100
AcDbArc
 50
180.0
 51
270.0
  0
LINE
  5
732
330
2
100
AcDbEntity
  8
L-ZISSEN
100
AcDbLine
 10
145.6784168189968
 20
-328.5815074971644
 30
0.0
 11
145.6784168189968
 21
-331.5815074971641
 31
0.0
  0
ARC
  5
733
330
2
100
AcDbEntity
  8
L-ZISSEN
100
AcDbCircle
 10
163.6390248048274
 20
-337.5815074971642
 30
0.0
 40
3.0
100
AcDbArc
 50
17.45760312372197
 51
90.0
  0
CIRCLE
  5
734
330
2
100
AcDbEntity
  8
L-ZISSEN
100
AcDbCircle
 10
173.1784168189968
 20
-334.5815074971641
 30
0.0
 40
5.75
  0
CIRCLE
  5
735
330
2
100
AcDbEntity
  8
L-ZISSEN
100
AcDbCircle
 10
173.1784168189968
 20
-334.5815074971641
 30
0.0
 40
5.0
  0
LINE
  5
736
330
2
100
AcDbEntity
  8
L-TYUSIN
100
AcDbLine
 10
173.1784168189968
 20
-340.8315074971641
 30
0.0
 11
173.1784168189968
 21
-328.3315074971641
 31
0.0
  0
ARC
  5
737
330
2
100
AcDbEntity
  8
L-ZISSEN
100
AcDbCircle
 10
173.1784168189968
 20
-334.5815074971641
 30
0.0
 40
7.0
100
AcDbArc
 50
197.4576031237219
 51
342.542396876278
  0
LINE
  5
738
330
2
100
AcDbEntity
  8
L-TYUSIN
100
AcDbLine
 10
158.1784168189964
 20
-349.581507497164
 30
0.0
 11
158.1784168189967
 21
-339.5815074971639
 31
0.0
  0
CIRCLE
  5
739
330
2
100
AcDbEntity
  8
L-ZISSEN
100
AcDbCircle
 10
169.1784168189959
 20
-323.5815074971641
 30
0.0
 40
4.25
  0
LINE
  5
73A
330
2
100
AcDbEntity
  8
L-TYUSIN
100
AcDbLine
 10
166.9284168189968
 20
-334.5815074971641
 30
0.0
 11
179.4284168189968
 21
-334.5815074971641
 31
0.0
  0
LINE
  5
73B
330
2
100
AcDbEntity
  8
L-TYUSIN
  6
CONTINUOUS
100
AcDbLine
 10
174.4284168189959
 20
-323.5815074971641
 30
0.0
 11
163.9284168189959
 21
-323.5815074971641
 31
0.0
  0
LINE
  5
73C
330
2
100
AcDbEntity
  8
L-ZISSEN
100
AcDbLine
 10
164.1784168189959
 20
-323.5815074971641
 30
0.0
 11
164.1784168189959
 21
-328.5815074971637
 31
0.0
  0
LINE
  5
73D
330
2
100
AcDbEntity
  8
L-ZISSEN
100
AcDbLine
 10
174.1784168189959
 20
-323.5815074971639
 30
0.0
 11
174.1784168189963
 21
-328.5815074971637
 31
0.0
  0
CIRCLE
  5
73E
330
2
100
AcDbEntity
  8
L-ZISSEN
100
AcDbCircle
 10
159.1784168189963
 20
-298.0815074971639
 30
0.0
 40
4.099999999999999
  0
LINE
  5
73F
330
2
100
AcDbEntity
  8
L-TYUSIN
100
AcDbLine
 10
146.6784168189963
 20
-298.0815074971639
 30
0.0
 11
171.6784168189963
 21
-298.0815074971639
 31
0.0
  0
CIRCLE
  5
740
330
2
100
AcDbEntity
  8
L-ZISSEN
100
AcDbCircle
 10
159.1784168189963
 20
-298.0815074971639
 30
0.0
 40
7.500000000001136
  0
CIRCLE
  5
741
330
2
100
AcDbEntity
  8
L-ZISSEN
100
AcDbCircle
 10
148.7384168189963
 20
-305.0815074971643
 30
0.0
 40
3.860000000002628
  0
CIRCLE
  5
742
330
2
100
AcDbEntity
  8
L-ZISSEN
100
AcDbCircle
 10
148.7384168189963
 20
-305.0815074971643
 30
0.0
 40
3.560000000002673
  0
LINE
  5
743
330
2
100
AcDbEntity
  8
L-TYUSIN
100
AcDbLine
 10
150.4284168189963
 20
-305.081507497164
 30
0.0
 11
146.9284168189963
 21
-305.081507497164
 31
0.0
  0
LINE
  5
744
330
2
100
AcDbEntity
  8
L-TYUSIN
100
AcDbLine
 10
148.6784168189963
 20
-306.831507497164
 30
0.0
 11
148.6784168189963
 21
-303.331507497164
 31
0.0
  0
CIRCLE
  5
745
330
2
100
AcDbEntity
  8
L-ZISSEN
100
AcDbCircle
 10
169.6184168189964
 20
-291.0815074971636
 30
0.0
 40
3.860000000002628
  0
CIRCLE
  5
746
330
2
100
AcDbEntity
  8
L-ZISSEN
100
AcDbCircle
 10
169.6184168189964
 20
-291.0815074971636
 30
0.0
 40
3.560000000002673
  0
LINE
  5
747
330
2
100
AcDbEntity
  8
L-TYUSIN
100
AcDbLine
 10
171.3684168189964
 20
-291.0815074971636
 30
0.0
 11
167.8684168189964
 21
-291.0815074971636
 31
0.0
  0
LINE
  5
748
330
2
100
AcDbEntity
  8
L-TYUSIN
100
AcDbLine
 10
169.6184168189964
 20
-292.8315074971635
 30
0.0
 11
169.6184168189964
 21
-289.3315074971636
 31
0.0
  0
LINE
  5
749
330
2
100
AcDbEntity
  8
L-TYUSIN
  6
CONTINUOUS
100
AcDbLine
 10
217.1784168189968
 20
-318.3315074971641
 30
0.0
 11
217.1784168189968
 21
-328.8315074971642
 31
0.0
  0
ARC
  5
74A
330
2
100
AcDbEntity
  8
L-ZISSEN
100
AcDbCircle
 10
217.1784168189968
 20
-323.5815074971641
 30
0.0
 40
5.0
100
AcDbArc
 50
0.0
 51
179.9999999999975
  0
LINE
  5
74B
330
2
100
AcDbEntity
  8
L-ZISSEN
100
AcDbLine
 10
203.6390248048274
 20
-334.5815074971641
 30
0.0
 11
182.7178088331661
 21
-334.5815074971641
 31
0.0
  0
ARC
  5
74C
330
2
100
AcDbEntity
  8
L-ZISSEN
100
AcDbCircle
 10
222.7178088331661
 20
-337.5815074971642
 30
0.0
 40
3.0
100
AcDbArc
 50
90.0
 51
162.542396876278
  0
ARC
  5
74D
330
2
100
AcDbEntity
  8
L-ZISSEN
100
AcDbCircle
 10
203.6390248048274
 20
-337.5815074971642
 30
0.0
 40
3.0
100
AcDbArc
 50
17.45760312372197
 51
90.0
  0
CIRCLE
  5
74E
330
2
100
AcDbEntity
  8
L-ZISSEN
100
AcDbCircle
 10
213.1784168189968
 20
-334.5815074971641
 30
0.0
 40
5.75
  0
CIRCLE
  5
74F
330
2
100
AcDbEntity
  8
L-ZISSEN
100
AcDbCircle
 10
213.1784168189968
 20
-334.5815074971641
 30
0.0
 40
5.0
  0
LINE
  5
750
330
2
100
AcDbEntity
  8
L-TYUSIN
100
AcDbLine
 10
213.1784168189968
 20
-340.8315074971641
 30
0.0
 11
213.1784168189968
 21
-328.3315074971641
 31
0.0
  0
ARC
  5
751
330
2
100
AcDbEntity
  8
L-ZISSEN
100
AcDbCircle
 10
213.1784168189968
 20
-334.5815074971641
 30
0.0
 40
7.0
100
AcDbArc
 50
197.4576031237219
 51
342.542396876278
  0
CIRCLE
  5
752
330
2
100
AcDbEntity
  8
L-ZISSEN
100
AcDbCircle
 10
217.1784168189968
 20
-323.5815074971641
 30
0.0
 40
4.25
  0
LINE
  5
753
330
2
100
AcDbEntity
  8
L-TYUSIN
  6
CONTINUOUS
100
AcDbLine
 10
211.9284168189968
 20
-323.5815074971641
 30
0.0
 11
222.4284168189968
 21
-323.5815074971641
 31
0.0
  0
LINE
  5
754
330
2
100
AcDbEntity
  8
L-TYUSIN
100
AcDbLine
 10
206.9284168189968
 20
-334.5815074971641
 30
0.0
 11
219.4284168189968
 21
-334.5815074971641
 31
0.0
  0
LINE
  5
755
330
2
100
AcDbEntity
  8
L-ZISSEN
100
AcDbLine
 10
212.1784168189968
 20
-323.5815074971639
 30
0.0
 11
212.1784168189963
 21
-328.5815074971637
 31
0.0
  0
LINE
  5
756
330
2
100
AcDbEntity
  8
L-ZISSEN
100
AcDbLine
 10
222.1784168189968
 20
-323.5815074971641
 30
0.0
 11
222.1784168189968
 21
-328.5815074971637
 31
0.0
  0
LINE
  5
757
330
2
100
AcDbEntity
  8
L-TYUSIN
100
AcDbLine
 10
225.6784168189963
 20
-315.8315074971643
 30
0.0
 11
225.6784168189963
 21
-312.3315074971644
 31
0.0
  0
LINE
  5
758
330
2
100
AcDbEntity
  8
L-TYUSIN
100
AcDbLine
 10
171.9284168189968
 20
-270.5815074971642
 30
0.0
 11
184.4284168189968
 21
-270.5815074971642
 31
0.0
  0
ARC
  5
759
330
2
100
AcDbEntity
  8
L-ZISSEN
100
AcDbCircle
 10
178.1784168189968
 20
-270.5815074971642
 30
0.0
 40
7.0
100
AcDbArc
 50
17.45760312372197
 51
162.542396876278
  0
CIRCLE
  5
75A
330
2
100
AcDbEntity
  8
L-ZISSEN
100
AcDbCircle
 10
178.1784168189968
 20
-270.5815074971642
 30
0.0
 40
5.75
  0
CIRCLE
  5
75B
330
2
100
AcDbEntity
  8
L-ZISSEN
100
AcDbCircle
 10
178.1784168189968
 20
-270.5815074971642
 30
0.0
 40
5.0
  0
LINE
  5
75C
330
2
100
AcDbEntity
  8
L-ZISSEN
100
AcDbLine
 10
168.6390248048274
 20
-270.5815074971642
 30
0.0
 11
148.6784168189968
 21
-270.5815074971642
 31
0.0
  0
ARC
  5
75D
330
2
100
AcDbEntity
  8
L-ZISSEN
100
AcDbCircle
 10
148.6784168189968
 20
-273.5815074971641
 30
0.0
 40
3.0
100
AcDbArc
 50
90.0
 51
180.0
  0
LINE
  5
75E
330
2
100
AcDbEntity
  8
L-ZISSEN
100
AcDbLine
 10
143.1784168189963
 20
-276.5815074971649
 30
0.0
 11
143.1784168189963
 21
-262.0815074971641
 31
0.0
  0
LINE
  5
75F
330
2
100
AcDbEntity
  8
L-ZISSEN
100
AcDbLine
 10
145.6784168189968
 20
-273.5815074971641
 30
0.0
 11
145.6784168189968
 21
-276.5815074971648
 31
0.0
  0
ARC
  5
760
330
2
100
AcDbEntity
  8
L-ZISSEN
100
AcDbCircle
 10
144.6784168189963
 20
-262.0815074971641
 30
0.0
 40
1.5
100
AcDbArc
 50
90.0
 51
180.0
  0
ARC
  5
761
330
2
100
AcDbEntity
  8
L-ZISSEN
100
AcDbCircle
 10
168.6390248048274
 20
-267.5815074971641
 30
0.0
 40
3.0
100
AcDbArc
 50
270.0
 51
342.5423968762772
  0
LINE
  5
762
330
2
100
AcDbEntity
  8
L-TYUSIN
100
AcDbLine
 10
178.1784168189968
 20
-276.8315074971642
 30
0.0
 11
178.1784168189968
 21
-264.3315074971642
 31
0.0
  0
LINE
  5
763
330
2
100
AcDbEntity
  8
L-TYUSIN
100
AcDbLine
 10
165.1784168189963
 20
-274.0815074971646
 30
0.0
 11
165.1784168189963
 21
-279.0815074971646
 31
0.0
  0
LINE
  5
764
330
2
100
AcDbEntity
  8
L-ZISSEN
100
AcDbLine
 10
179.1784168189959
 20
-281.5815074971644
 30
0.0
 11
179.1784168189963
 21
-276.5815074971646
 31
0.0
  0
CIRCLE
  5
765
330
2
100
AcDbEntity
  8
L-ZISSEN
100
AcDbCircle
 10
174.1784168189959
 20
-281.5815074971641
 30
0.0
 40
4.25
  0
LINE
  5
766
330
2
100
AcDbEntity
  8
L-ZISSEN
100
AcDbLine
 10
169.1784168189959
 20
-281.5815074971641
 30
0.0
 11
169.1784168189959
 21
-276.5815074971646
 31
0.0
  0
LINE
  5
767
330
2
100
AcDbEntity
  8
L-TYUSIN
  6
CONTINUOUS
100
AcDbLine
 10
179.4284168189959
 20
-281.5815074971641
 30
0.0
 11
168.9284168189959
 21
-281.5815074971641
 31
0.0
  0
LINE
  5
768
330
2
100
AcDbEntity
  8
L-TYUSIN
100
AcDbLine
 10
158.1784168189965
 20
-265.5815074971644
 30
0.0
 11
158.1784168189965
 21
-255.5815074971643
 31
0.0
  0
ARC
  5
769
330
2
100
AcDbEntity
  8
L-ZISSEN
100
AcDbCircle
 10
208.1784168189968
 20
-270.5815074971642
 30
0.0
 40
7.0
100
AcDbArc
 50
17.45760312372197
 51
162.542396876278
  0
LINE
  5
76A
330
2
100
AcDbEntity
  8
L-TYUSIN
100
AcDbLine
 10
201.9284168189968
 20
-270.5815074971642
 30
0.0
 11
214.4284168189968
 21
-270.5815074971642
 31
0.0
  0
CIRCLE
  5
76B
330
2
100
AcDbEntity
  8
L-ZISSEN
100
AcDbCircle
 10
208.1784168189968
 20
-270.5815074971642
 30
0.0
 40
5.75
  0
CIRCLE
  5
76C
330
2
100
AcDbEntity
  8
L-ZISSEN
100
AcDbCircle
 10
208.1784168189968
 20
-270.5815074971642
 30
0.0
 40
5.0
  0
ARC
  5
76D
330
2
100
AcDbEntity
  8
L-ZISSEN
100
AcDbCircle
 10
198.6390248048274
 20
-267.5815074971641
 30
0.0
 40
3.0
100
AcDbArc
 50
270.0
 51
342.5423968762772
  0
ARC
  5
76E
330
2
100
AcDbEntity
  8
L-ZISSEN
100
AcDbCircle
 10
187.7178088331661
 20
-267.5815074971641
 30
0.0
 40
3.0
100
AcDbArc
 50
197.4576031237227
 51
270.0
  0
LINE
  5
76F
330
2
100
AcDbEntity
  8
L-ZISSEN
100
AcDbLine
 10
198.6390248048274
 20
-270.5815074971642
 30
0.0
 11
187.7178088331661
 21
-270.5815074971642
 31
0.0
  0
ARC
  5
770
330
2
100
AcDbEntity
  8
L-ZISSEN
100
AcDbCircle
 10
217.7178088331662
 20
-267.5815074971641
 30
0.0
 40
3.0
100
AcDbArc
 50
197.4576031237227
 51
270.0
  0
LINE
  5
771
330
2
100
AcDbEntity
  8
L-TYUSIN
100
AcDbLine
 10
208.1784168189968
 20
-276.8315074971642
 30
0.0
 11
208.1784168189968
 21
-264.3315074971642
 31
0.0
  0
LINE
  5
772
330
2
100
AcDbEntity
  8
L-TYUSIN
  6
CONTINUOUS
100
AcDbLine
 10
206.9284168189968
 20
-281.5815074971641
 30
0.0
 11
217.4284168189968
 21
-281.5815074971641
 31
0.0
  0
CIRCLE
  5
773
330
2
100
AcDbEntity
  8
L-ZISSEN
100
AcDbCircle
 10
212.1784168189968
 20
-281.5815074971641
 30
0.0
 40
4.25
  0
LINE
  5
774
330
2
100
AcDbEntity
  8
L-ZISSEN
100
AcDbLine
 10
207.1784168189968
 20
-281.5815074971644
 30
0.0
 11
207.1784168189963
 21
-276.5815074971646
 31
0.0
  0
LINE
  5
775
330
2
100
AcDbEntity
  8
L-ZISSEN
100
AcDbLine
 10
217.1784168189968
 20
-281.5815074971641
 30
0.0
 11
217.1784168189968
 21
-276.5815074971646
 31
0.0
  0
LINE
  5
776
330
2
100
AcDbEntity
  8
L-ZISSEN
100
AcDbLine
 10
275.6784168189958
 20
-287.5815074971642
 30
0.0
 11
275.6784168189958
 21
-276.8315074971642
 31
0.0
  0
LINE
  5
777
330
2
100
AcDbEntity
  8
L-ZISSEN
100
AcDbLine
 10
276.9784168189958
 20
-286.6815074971642
 30
0.0
 11
276.9784168189959
 21
-277.4815074971642
 31
0.0
  0
LINE
  5
778
330
2
100
AcDbEntity
  8
L-ZISSEN
100
AcDbLine
 10
270.6784168189959
 20
-276.5815074971641
 30
0.0
 11
270.6784168189959
 21
-328.5815074971641
 31
0.0
  0
LINE
  5
779
330
2
100
AcDbEntity
  8
L-ZISSEN
100
AcDbLine
 10
277.6784168189958
 20
-327.8315074971641
 30
0.0
 11
277.6784168189958
 21
-286.3315074971641
 31
0.0
  0
LINE
  5
77A
330
2
100
AcDbEntity
  8
L-ZISSEN
100
AcDbLine
 10
270.6784168189959
 20
-328.3315074971641
 30
0.0
 11
277.1784168189959
 21
-328.3315074971641
 31
0.0
  0
LINE
  5
77B
330
2
100
AcDbEntity
  8
L-TYUSIN
100
AcDbLine
 10
236.1784168189963
 20
-294.8315074971641
 30
0.0
 11
236.1784168189963
 21
-319.3315074971644
 31
0.0
  0
LINE
  5
77C
330
2
100
AcDbEntity
  8
L-TYUSIN
100
AcDbLine
 10
246.1784168189963
 20
-332.5815074971641
 30
0.0
 11
260.1784168189963
 21
-332.5815074971641
 31
0.0
  0
LINE
  5
77D
330
2
100
AcDbEntity
  8
L-ZISSEN
100
AcDbLine
 10
254.981695507521
 20
-342.4175730709346
 30
0.0
 11
243.1784168189984
 21
-344.581507497164
 31
0.0
  0
CIRCLE
  5
77E
330
2
100
AcDbEntity
  8
L-ZISSEN
100
AcDbCircle
 10
253.1784168189963
 20
-332.5815074971641
 30
0.0
 40
4.5
  0
LINE
  5
77F
330
2
100
AcDbEntity
  8
L-ZISSEN
100
AcDbLine
 10
243.1784168189963
 20
-343.0815074971641
 30
0.0
 11
243.1784168189963
 21
-328.5815074971643
 31
0.0
  0
LINE
  5
780
330
2
100
AcDbEntity
  8
L-TYUSIN
100
AcDbLine
 10
228.1784168189965
 20
-349.581507497164
 30
0.0
 11
228.1784168189965
 21
-339.5815074971639
 31
0.0
  0
ARC
  5
781
330
2
100
AcDbEntity
  8
L-ZISSEN
100
AcDbCircle
 10
241.6784168189963
 20
-343.0815074971641
 30
0.0
 40
1.5
100
AcDbArc
 50
270.0
 51
0.0
  0
ARC
  5
782
330
2
100
AcDbEntity
  8
L-ZISSEN
100
AcDbCircle
 10
237.6784168189968
 20
-331.5815074971641
 30
0.0
 40
3.0
100
AcDbArc
 50
270.0
 51
0.0
  0
LINE
  5
783
330
2
100
AcDbEntity
  8
L-TYUSIN
100
AcDbLine
 10
230.1784168189963
 20
-326.0815074971639
 30
0.0
 11
230.1784168189966
 21
-331.0815074971638
 31
0.0
  0
LINE
  5
784
330
2
100
AcDbEntity
  8
L-ZISSEN
100
AcDbLine
 10
240.6784168189968
 20
-328.5815074971643
 30
0.0
 11
240.6784168189968
 21
-331.5815074971641
 31
0.0
  0
ARC
  5
785
330
2
100
AcDbEntity
  8
L-ZISSEN
100
AcDbCircle
 10
253.1784168189963
 20
-332.5815074971641
 30
0.0
 40
10.0
100
AcDbArc
 50
280.3888578154704
 51
23.57817847819946
  0
LINE
  5
786
330
2
100
AcDbEntity
  8
L-TYUSIN
100
AcDbLine
 10
253.1784168189963
 20
-339.5815074971642
 30
0.0
 11
253.1784168189963
 21
-325.5815074971641
 31
0.0
  0
CIRCLE
  5
787
330
2
100
AcDbEntity
  8
L-ZISSEN
100
AcDbCircle
 10
246.6184168189964
 20
-300.0815074971639
 30
0.0
 40
3.560000000002673
  0
CIRCLE
  5
788
330
2
100
AcDbEntity
  8
L-ZISSEN
100
AcDbCircle
 10
246.6184168189964
 20
-300.0815074971639
 30
0.0
 40
3.860000000002628
  0
CIRCLE
  5
789
330
2
100
AcDbEntity
  8
L-ZISSEN
100
AcDbCircle
 10
236.1784168189963
 20
-307.0815074971643
 30
0.0
 40
7.500000000001136
  0
CIRCLE
  5
78A
330
2
100
AcDbEntity
  8
L-ZISSEN
100
AcDbCircle
 10
236.1784168189963
 20
-307.0815074971643
 30
0.0
 40
4.099999999999999
  0
LINE
  5
78B
330
2
100
AcDbEntity
  8
L-TYUSIN
100
AcDbLine
 10
246.6184168189964
 20
-301.8315074971639
 30
0.0
 11
246.6184168189964
 21
-298.3315074971639
 31
0.0
  0
LINE
  5
78C
330
2
100
AcDbEntity
  8
L-TYUSIN
100
AcDbLine
 10
248.3684168189964
 20
-300.0815074971639
 30
0.0
 11
244.8684168189964
 21
-300.0815074971639
 31
0.0
  0
LINE
  5
78D
330
2
100
AcDbEntity
  8
L-ZISSEN
100
AcDbLine
 10
281.9784168189958
 20
-327.3315074971644
 30
0.0
 11
281.9784168189958
 21
-318.8315074971639
 31
0.0
  0
ARC
  5
78E
330
2
100
AcDbEntity
  8
L-ZISSEN
100
AcDbCircle
 10
277.1784168189959
 20
-327.8315074971641
 30
0.0
 40
0.5
100
AcDbArc
 50
270.0
 51
0.0
  0
LINE
  5
78F
330
2
100
AcDbEntity
  8
L-ZISSEN
100
AcDbLine
 10
281.9784168189958
 20
-327.3315074971644
 30
0.0
 11
277.6784168189958
 21
-327.3315074971644
 31
0.0
  0
LINE
  5
790
330
2
100
AcDbEntity
  8
L-TYUSIN
100
AcDbLine
 10
284.4784168189958
 20
-323.0815074971639
 30
0.0
 11
273.1784168189959
 21
-323.0815074971641
 31
0.0
  0
LINE
  5
791
330
2
100
AcDbEntity
  8
L-ZISSEN
100
AcDbLine
 10
281.9784168189958
 20
-318.8315074971639
 30
0.0
 11
277.6784168189958
 21
-318.8315074971639
 31
0.0
  0
LINE
  5
792
330
2
100
AcDbEntity
  8
L-ZISSEN
100
AcDbLine
 10
275.6784168189958
 20
-287.5815074971642
 30
0.0
 11
277.6784168189958
 21
-287.5815074971642
 31
0.0
  0
LINE
  5
793
330
2
100
AcDbEntity
  8
L-ZISSEN
100
AcDbLine
 10
276.9784168189959
 20
-286.6815074971643
 30
0.0
 11
275.6784168189958
 21
-286.6815074971642
 31
0.0
  0
LINE
  5
794
330
2
100
AcDbEntity
  8
L-ZISSEN
100
AcDbLine
 10
270.6784168189959
 20
-276.8315074971642
 30
0.0
 11
277.1784168189959
 21
-276.8315074971642
 31
0.0
  0
LINE
  5
795
330
2
100
AcDbEntity
  8
L-TYUSIN
100
AcDbLine
 10
260.1784168189963
 20
-272.5815074971639
 30
0.0
 11
246.1784168189963
 21
-272.5815074971639
 31
0.0
  0
CIRCLE
  5
796
330
2
100
AcDbEntity
  8
L-ZISSEN
100
AcDbCircle
 10
253.1784168189963
 20
-272.5815074971641
 30
0.0
 40
4.5
  0
LINE
  5
797
330
2
100
AcDbEntity
  8
L-ZISSEN
100
AcDbLine
 10
254.981695507521
 20
-262.7454419233937
 30
0.0
 11
243.1784168189984
 21
-260.5815074971642
 31
0.0
  0
ARC
  5
798
330
2
100
AcDbEntity
  8
L-ZISSEN
100
AcDbCircle
 10
237.6784168189968
 20
-273.5815074971641
 30
0.0
 40
3.0
100
AcDbArc
 50
0.0
 51
90.0
  0
LINE
  5
799
330
2
100
AcDbEntity
  8
L-ZISSEN
100
AcDbLine
 10
243.1784168189963
 20
-276.5815074971649
 30
0.0
 11
243.1784168189963
 21
-262.0815074971641
 31
0.0
  0
LINE
  5
79A
330
2
100
AcDbEntity
  8
L-ZISSEN
100
AcDbLine
 10
240.6784168189968
 20
-273.5815074971641
 30
0.0
 11
240.6784168189968
 21
-276.5815074971644
 31
0.0
  0
LINE
  5
79B
330
2
100
AcDbEntity
  8
L-TYUSIN
100
AcDbLine
 10
228.1784168189965
 20
-265.5815074971641
 30
0.0
 11
228.1784168189965
 21
-255.5815074971643
 31
0.0
  0
ARC
  5
79C
330
2
100
AcDbEntity
  8
L-ZISSEN
100
AcDbCircle
 10
241.6784168189963
 20
-262.0815074971641
 30
0.0
 40
1.5
100
AcDbArc
 50
0.0
 51
90.0
  0
LINE
  5
79D
330
2
100
AcDbEntity
  8
L-TYUSIN
100
AcDbLine
 10
253.1784168189963
 20
-279.5815074971641
 30
0.0
 11
253.1784168189963
 21
-265.5815074971641
 31
0.0
  0
ARC
  5
79E
330
2
100
AcDbEntity
  8
L-ZISSEN
100
AcDbCircle
 10
253.1784168189963
 20
-272.5815074971641
 30
0.0
 40
10.0
100
AcDbArc
 50
336.4218215217943
 51
79.61114218452959
  0
LINE
  5
79F
330
2
100
AcDbEntity
  8
L-ZISSEN
100
AcDbLine
 10
281.9784168189958
 20
-277.8315074971639
 30
0.0
 11
281.9784168189958
 21
-286.3315074971639
 31
0.0
  0
LINE
  5
7A0
330
2
100
AcDbEntity
  8
L-ZISSEN
100
AcDbLine
 10
281.9784168189958
 20
-286.3315074971637
 30
0.0
 11
276.9784168189959
 21
-286.3315074971641
 31
0.0
  0
LINE
  5
7A1
330
2
100
AcDbEntity
  8
L-TYUSIN
100
AcDbLine
 10
284.4784168189958
 20
-282.0815074971644
 30
0.0
 11
273.1784168189959
 21
-282.0815074971641
 31
0.0
  0
LINE
  5
7A2
330
2
100
AcDbEntity
  8
L-ZISSEN
100
AcDbLine
 10
281.9784168189958
 20
-277.8315074971639
 30
0.0
 11
276.9784168189959
 21
-277.831507497164
 31
0.0
  0
LINE
  5
7A3
330
2
100
AcDbEntity
  8
L-ZISSEN
100
AcDbLine
 10
276.9784168189959
 20
-277.4815074971642
 30
0.0
 11
275.6784168189958
 21
-277.4815074971642
 31
0.0
  0
LINE
  5
7A4
330
2
100
AcDbEntity
  8
L-ZISSEN
100
AcDbLine
 10
277.6784168189958
 20
-277.8315074971641
 30
0.0
 11
277.6784168189958
 21
-277.3315074971641
 31
0.0
  0
ARC
  5
7A5
330
2
100
AcDbEntity
  8
L-ZISSEN
100
AcDbCircle
 10
277.1784168189959
 20
-277.3315074971641
 30
0.0
 40
0.5
100
AcDbArc
 50
0.0
 51
90.0
  0
TEXT
  5
7A7
330
2
100
AcDbEntity
  8
L-ZISSEN
100
AcDbText
 10
61.28885135830215
 20
-259.9837984623015
 30
0.0
 40
4.5
  1
Rc 1/8
100
AcDbText
  0
TEXT
  5
7A8
330
2
100
AcDbEntity
  8
L-ZISSEN
100
AcDbText
 10
60.29999967993091
 20
-252.2337984623016
 30
0.0
 40
4.5
  1
PIROT PORT "12"
100
AcDbText
  0
LINE
  5
7A9
330
2
100
AcDbEntity
  8
L-ZISSEN
100
AcDbLine
 10
159.1784168189963
 20
-298.0815074971639
 30
0.0
 11
127.2455557384422
 21
-251.0332945045304
 31
0.0
  0
LINE
  5
7AA
330
2
100
AcDbEntity
  8
L-ZISSEN
100
AcDbLine
 10
121.52894929223
 20
-251.0332945045304
 30
0.0
 11
127.2455557384422
 21
-251.0332945045304
 31
0.0
  0
SOLID
  5
7AB
330
2
100
AcDbEntity
  8
L-ZISSEN
100
AcDbTrace
 10
158.3463665246584
 20
-296.23250684308
 30
0.0
 11
157.7916663284334
 21
-296.6023069738967
 31
0.0
 12
159.1784168189963
 22
-298.0815074971639
 32
0.0
 13
159.1784168189963
 23
-298.0815074971639
 33
0.0
  0
ENDSEC
  0
SECTION
  2
OBJECTS
  0
DICTIONARY
  5
7
330
0
100
AcDbDictionary
  3
ACAD_GROUP
350
20
  3
ACAD_LAYOUT
350
B
  3
ACAD_MLINESTYLE
350
21
  3
ACAD_PLOTSETTINGS
350
22
1001
ACAD
1000
TREAT_AS_HARD
1070
     0
  0
DICTIONARY
  5
7D0
330
2
100
AcDbDictionary
  3
ACAD_LAYOUTSELFREF
350
8DB
1001
ACAD
1000
TREAT_AS_HARD
1070
     1
  0
DICTIONARY
  5
7D4
330
C
100
AcDbDictionary
  3
ACAD_LAYOUTSELFREF
350
8DC
1001
ACAD
1000
TREAT_AS_HARD
1070
     1
  0
DICTIONARY
  5
20
102
{ACAD_REACTORS
330
7
102
}
330
7
100
AcDbDictionary
1001
ACAD
1000
TREAT_AS_HARD
1070
     0
  0
DICTIONARY
  5
B
102
{ACAD_REACTORS
330
7
102
}
330
7
100
AcDbDictionary
1001
ACAD
1000
TREAT_AS_HARD
1070
     0
  0
DICTIONARY
  5
21
102
{ACAD_REACTORS
330
7
102
}
330
7
100
AcDbDictionary
  3
STANDARD
350
2B
1001
ACAD
1000
TREAT_AS_HARD
1070
     0
  0
DICTIONARY
  5
22
102
{ACAD_REACTORS
330
7
102
}
330
7
100
AcDbDictionary
1001
ACAD
1000
TREAT_AS_HARD
1070
     0
  0
XRECORD
  5
8DB
102
{ACAD_REACTORS
330
7D0
102
}
330
7D0
100
AcDbXrecord
340
2
  0
XRECORD
  5
8DC
102
{ACAD_REACTORS
330
7D4
102
}
330
7D4
100
AcDbXrecord
340
C
  0
MLINESTYLE
  5
2B
102
{ACAD_REACTORS
330
21
102
}
330
21
100
AcDbMlineStyle
  2
STANDARD
 70
     0
  3

 62
     0
 51
90.0
 52
90.0
 71
     2
 49
0.5
 62
   256
  6
BYLAYER
 49
-0.5
 62
   256
  6
BYLAYER
  0
ENDSEC
  0
EOF
