  0
SECTION
  2
HEADER
  9
$ACADVER
  1
AC1006
  9
$INSBASE
 10
0.0
 20
0.0
 30
0.0
  9
$EXTMIN
 10
55.0
 20
10.0
  9
$EXTMAX
 10
979.0
 20
524.5
  9
$LIMMIN
 10
0.0
 20
0.0
  9
$LIMMAX
 10
1000.0
 20
707.0
  9
$ORTHOMODE
 70
     0
  9
$REGENMODE
 70
     1
  9
$FILLMODE
 70
     1
  9
$QTEXTMODE
 70
     0
  9
$MIRRTEXT
 70
     1
  9
$DRAGMODE
 70
     2
  9
$LTSCALE
 40
1.0
  9
$OSMODE
 70
     0
  9
$ATTMODE
 70
     1
  9
$TEXTSIZE
 40
4.5
  9
$TRACEWID
 40
0.05
  9
$TEXTSTYLE
  7
STANDARD
  9
$CLAYER
  8
L-ZISSEN
  9
$CELTYPE
  6
BYLAYER
  9
$CECOLOR
 62
   256
  9
$DIMSCALE
 40
1.0
  9
$DIMASZ
 40
2.0
  9
$DIMEXO
 40
2.0
  9
$DIMDLI
 40
0.38
  9
$DIMRND
 40
0.0
  9
$DIMDLE
 40
1.0
  9
$DIMEXE
 40
2.0
  9
$DIMTP
 40
0.0
  9
$DIMTM
 40
0.0
  9
$DIMTXT
 40
4.5
  9
$DIMCEN
 40
0.09
  9
$DIMTSZ
 40
0.0
  9
$DIMTOL
 70
     0
  9
$DIMLIM
 70
     0
  9
$DIMTIH
 70
     0
  9
$DIMTOH
 70
     0
  9
$DIMSE1
 70
     0
  9
$DIMSE2
 70
     0
  9
$DIMTAD
 70
     1
  9
$DIMZIN
 70
     0
  9
$DIMBLK
  1

  9
$DIMASO
 70
     0
  9
$DIMSHO
 70
     0
  9
$DIMPOST
  1

  9
$DIMAPOST
  1

  9
$DIMALT
 70
     0
  9
$DIMALTD
 70
     2
  9
$DIMALTF
 40
25.4
  9
$DIMLFAC
 40
1.0
  9
$DIMTOFL
 70
     1
  9
$DIMTVP
 40
0.0
  9
$DIMTIX
 70
     1
  9
$DIMSOXD
 70
     0
  9
$DIMSAH
 70
     0
  9
$DIMBLK1
  1

  9
$DIMBLK2
  1

  9
$LUNITS
 70
     2
  9
$LUPREC
 70
     4
  9
$AXISMODE
 70
     0
  9
$AXISUNIT
 10
0.0
 20
0.0
  9
$SKETCHINC
 40
0.1
  9
$FILLETRAD
 40
11.0
  9
$AUNITS
 70
     0
  9
$AUPREC
 70
     0
  9
$MENU
  1
acad
  9
$ELEVATION
 40
0.0
  9
$THICKNESS
 40
0.0
  9
$LIMCHECK
 70
     0
  9
$BLIPMODE
 70
     1
  9
$CHAMFERA
 40
0.0
  9
$CHAMFERB
 40
0.0
  9
$SKPOLY
 70
     0
  9
$TDCREATE
 40
2449570.6868114583
  9
$TDUPDATE
 40
2449570.6868114583
  9
$TDINDWG
 40
0.0000000000
  9
$TDUSRTIMER
 40
0.0000000000
  9
$USRTIMER
 70
     1
  9
$ANGBASE
 50
0.0
  9
$ANGDIR
 70
     0
  9
$PDMODE
 70
     0
  9
$PDSIZE
 40
0.0
  9
$PLINEWID
 40
0.0
  9
$COORDS
 70
     2
  9
$SPLFRAME
 70
     0
  9
$SPLINETYPE
 70
     6
  9
$SPLINESEGS
 70
     8
  9
$ATTDIA
 70
     0
  9
$ATTREQ
 70
     1
  9
$HANDLING
 70
     0
  9
$HANDSEED
  5
0
  9
$SURFTAB1
 70
     6
  9
$SURFTAB2
 70
     6
  9
$SURFTYPE
 70
     6
  9
$SURFU
 70
     6
  9
$SURFV
 70
     6
  9
$FLATLAND
 70
     0
  9
$UCSNAME
  2

  9
$UCSORG
 10
0.0
 20
0.0
 30
0.0
  9
$UCSXDIR
 10
1.0
 20
0.0
 30
0.0
  9
$UCSYDIR
 10
0.0
 20
1.0
 30
0.0
  9
$USERI1
 70
     0
  9
$USERI2
 70
     0
  9
$USERI3
 70
     0
  9
$USERI4
 70
     0
  9
$USERI5
 70
     0
  9
$USERR1
 40
0.0
  9
$USERR2
 40
0.0
  9
$USERR3
 40
0.0
  9
$USERR4
 40
0.0
  9
$USERR5
 40
0.0
  9
$WORLDVIEW
 70
     1
  0
ENDSEC
  0
SECTION
  2
TABLES
  0
TABLE
  2
VPORT
 70
     2
  0
VPORT
  2
*ACTIVE
 70
     0
 10
0.0
 20
0.0
 11
1.0
 21
1.0
 12
567.09491
 22
366.174865
 13
0.0
 23
0.0
 14
5.0
 24
5.0
 15
0.0
 25
0.0
 16
0.0
 26
0.0
 36
1.0
 17
0.0
 27
0.0
 37
0.0
 40
732.349729
 41
1.5487
 42
50.0
 43
0.0
 44
0.0
 50
0.0
 51
0.0
 71
     0
 72
   100
 73
     1
 74
     0
 75
     0
 76
     0
 77
     0
 78
     0
  0
ENDTAB
  0
TABLE
  2
LTYPE
 70
     2
  0
LTYPE
  2
CONTINUOUS
 70
    64
  3
Solid line
 72
    65
 73
     0
 40
0.0
  0
LTYPE
  2
CENTER
 70
    64
  3
____ _ ____ _ ____ _ ____ _ 
 72
    65
 73
     4
 40
60.0
 49
45.0
 49
-5.0
 49
5.0
 49
-5.0
  0
ENDTAB
  0
TABLE
  2
LAYER
 70
     3
  0
LAYER
  2
0
 70
     0
 62
     7
  6
CONTINUOUS
  0
LAYER
  2
L-ZISSEN
 70
    64
 62
     7
  6
CONTINUOUS
  0
LAYER
  2
L-TYUSIN
 70
    64
 62
     1
  6
CENTER
  0
ENDTAB
  0
TABLE
  2
STYLE
 70
     1
  0
STYLE
  2
STANDARD
 70
    64
 40
0.0
 41
1.0
 50
0.0
 71
     0
 42
4.5
  3
TXT
  4

  0
ENDTAB
  0
TABLE
  2
VIEW
 70
     0
  0
ENDTAB
  0
TABLE
  2
UCS
 70
     0
  0
ENDTAB
  0
TABLE
  2
DWGMGR
 70
     0
  0
ENDTAB
  0
ENDSEC
  0
SECTION
  2
BLOCKS
  0
ENDSEC
  0
SECTION
  2
ENTITIES
  0
TEXT
  8
L-ZISSEN
 10
530.0
 20
430.0
 30
0.0
 40
4.5
  1
SUB-BASE CONNECTION
  0
LINE
  8
L-TYUSIN
 10
62.3
 20
270.0
 30
0.0
 11
337.7
 21
270.0
 31
0.0
  0
LINE
  8
L-TYUSIN
 10
200.0
 20
319.0
 30
0.0
 11
200.0
 21
221.0
 31
0.0
  0
LINE
  8
L-ZISSEN
 10
143.1
 20
314.0
 30
0.0
 11
256.9
 21
314.0
 31
0.0
  0
LINE
  8
L-ZISSEN
 10
274.9
 20
307.0
 30
0.0
 11
274.9
 21
233.0
 31
0.0
  0
LINE
  8
L-ZISSEN
 10
256.9
 20
226.0
 30
0.0
 11
143.1
 21
226.0
 31
0.0
  0
LINE
  8
L-ZISSEN
 10
274.9
 20
177.0
 30
0.0
 11
274.9
 21
109.0
 31
0.0
  0
LINE
  8
L-ZISSEN
 10
125.1
 20
109.0
 30
0.0
 11
125.1
 21
177.0
 31
0.0
  0
LINE
  8
L-TYUSIN
 10
62.3
 20
140.0
 30
0.0
 11
337.7
 21
140.0
 31
0.0
  0
LINE
  8
L-ZISSEN
 10
255.0
 20
178.0
 30
0.0
 11
217.0
 21
178.0
 31
0.0
  0
LINE
  8
L-ZISSEN
 10
332.7
 20
110.0
 30
0.0
 11
67.3
 21
110.0
 31
0.0
  0
LINE
  8
L-TYUSIN
 10
378.0
 20
140.0
 30
0.0
 11
462.0
 21
140.0
 31
0.0
  0
LINE
  8
L-TYUSIN
 10
200.0
 20
183.0
 30
0.0
 11
200.0
 21
56.0
 31
0.0
  0
LINE
  8
L-TYUSIN
 10
420.0
 20
183.0
 30
0.0
 11
420.0
 21
46.0
 31
0.0
  0
LINE
  8
L-ZISSEN
 10
332.7
 20
170.0
 30
0.0
 11
263.9
 21
170.0
 31
0.0
  0
LINE
  8
L-ZISSEN
 10
263.9
 20
170.0
 30
0.0
 11
263.9
 21
120.0
 31
0.0
  0
LINE
  8
L-ZISSEN
 10
263.9
 20
120.0
 30
0.0
 11
136.1
 21
120.0
 31
0.0
  0
LINE
  8
L-ZISSEN
 10
136.1
 20
120.0
 30
0.0
 11
136.1
 21
170.0
 31
0.0
  0
LINE
  8
L-ZISSEN
 10
136.1
 20
170.0
 30
0.0
 11
67.3
 21
170.0
 31
0.0
  0
LINE
  8
L-ZISSEN
 10
332.7
 20
177.0
 30
0.0
 11
236.0
 21
177.0
 31
0.0
  0
LINE
  8
L-ZISSEN
 10
255.0
 20
177.0
 30
0.0
 11
255.0
 21
178.0
 31
0.0
  0
LINE
  8
L-ZISSEN
 10
217.0
 20
177.0
 30
0.0
 11
217.0
 21
178.0
 31
0.0
  0
LINE
  8
L-ZISSEN
 10
183.0
 20
177.0
 30
0.0
 11
183.0
 21
178.0
 31
0.0
  0
LINE
  8
L-ZISSEN
 10
145.0
 20
177.0
 30
0.0
 11
145.0
 21
178.0
 31
0.0
  0
LINE
  8
L-ZISSEN
 10
145.0
 20
178.0
 30
0.0
 11
183.0
 21
178.0
 31
0.0
  0
LINE
  8
L-ZISSEN
 10
236.0
 20
161.12463
 30
0.0
 11
236.0
 21
178.0
 31
0.0
  0
LINE
  8
L-ZISSEN
 10
224.0
 20
165.0
 30
0.0
 11
224.0
 21
178.0
 31
0.0
  0
LINE
  8
L-ZISSEN
 10
224.0
 20
177.0
 30
0.0
 11
164.0
 21
177.0
 31
0.0
  0
LINE
  8
L-ZISSEN
 10
136.1
 20
161.12463
 30
0.0
 11
152.0
 21
161.12463
 31
0.0
  0
LINE
  8
L-ZISSEN
 10
236.0
 20
161.12463
 30
0.0
 11
263.9
 21
161.12463
 31
0.0
  0
LINE
  8
L-ZISSEN
 10
152.0
 20
161.12463
 30
0.0
 11
152.0
 21
178.0
 31
0.0
  0
LINE
  8
L-ZISSEN
 10
164.0
 20
161.12463
 30
0.0
 11
164.0
 21
178.0
 31
0.0
  0
LINE
  8
L-ZISSEN
 10
164.0
 20
161.12463
 30
0.0
 11
167.0
 21
161.12463
 31
0.0
  0
LINE
  8
L-ZISSEN
 10
152.0
 20
177.0
 30
0.0
 11
67.3
 21
177.0
 31
0.0
  0
LINE
  8
L-ZISSEN
 10
235.0
 20
152.5
 30
0.0
 11
215.0
 21
152.5
 31
0.0
  0
LINE
  8
L-ZISSEN
 10
235.0
 20
152.5
 30
0.0
 11
235.0
 21
120.0
 31
0.0
  0
LINE
  8
L-ZISSEN
 10
215.0
 20
152.5
 30
0.0
 11
215.0
 21
120.0
 31
0.0
  0
LINE
  8
L-ZISSEN
 10
165.0
 20
152.5
 30
0.0
 11
165.0
 21
120.0
 31
0.0
  0
LINE
  8
L-ZISSEN
 10
185.0
 20
152.5
 30
0.0
 11
185.0
 21
120.0
 31
0.0
  0
LINE
  8
L-ZISSEN
 10
165.0
 20
152.5
 30
0.0
 11
185.0
 21
152.5
 31
0.0
  0
LINE
  8
L-ZISSEN
 10
464.0
 20
110.0
 30
0.0
 11
376.0
 21
110.0
 31
0.0
  0
LINE
  8
L-ZISSEN
 10
432.5
 20
177.0
 30
0.0
 11
407.5
 21
177.0
 31
0.0
  0
LINE
  8
L-ZISSEN
 10
332.7
 20
286.0
 30
0.0
 11
248.0
 21
286.0
 31
0.0
  0
LINE
  8
L-ZISSEN
 10
332.7
 20
254.0
 30
0.0
 11
236.0
 21
254.0
 31
0.0
  0
LINE
  8
L-ZISSEN
 10
263.9
 20
307.0
 30
0.0
 11
263.9
 21
286.0
 31
0.0
  0
LINE
  8
L-ZISSEN
 10
67.3
 20
257.5
 30
0.0
 11
145.0
 21
257.5
 31
0.0
  0
LINE
  8
L-ZISSEN
 10
67.3
 20
282.5
 30
0.0
 11
145.0
 21
282.5
 31
0.0
  0
LINE
  8
L-ZISSEN
 10
136.1
 20
233.0
 30
0.0
 11
136.1
 21
254.0
 31
0.0
  0
LINE
  8
L-ZISSEN
 10
183.0
 20
254.0
 30
0.0
 11
183.0
 21
286.0
 31
0.0
  0
LINE
  8
L-ZISSEN
 10
217.0
 20
254.0
 30
0.0
 11
217.0
 21
286.0
 31
0.0
  0
LINE
  8
L-ZISSEN
 10
255.0
 20
282.5
 30
0.0
 11
332.7
 21
282.5
 31
0.0
  0
LINE
  8
L-ZISSEN
 10
255.0
 20
257.5
 30
0.0
 11
332.7
 21
257.5
 31
0.0
  0
LINE
  8
L-ZISSEN
 10
183.0
 20
257.5
 30
0.0
 11
217.0
 21
257.5
 31
0.0
  0
LINE
  8
L-ZISSEN
 10
183.0
 20
282.5
 30
0.0
 11
217.0
 21
282.5
 31
0.0
  0
LINE
  8
L-ZISSEN
 10
332.7
 20
233.0
 30
0.0
 11
263.9
 21
233.0
 31
0.0
  0
LINE
  8
L-ZISSEN
 10
332.7
 20
307.0
 30
0.0
 11
263.9
 21
307.0
 31
0.0
  0
LINE
  8
L-ZISSEN
 10
263.9
 20
307.0
 30
0.0
 11
256.9
 21
314.0
 31
0.0
  0
LINE
  8
L-ZISSEN
 10
136.1
 20
307.0
 30
0.0
 11
67.3
 21
307.0
 31
0.0
  0
LINE
  8
L-ZISSEN
 10
136.1
 20
307.0
 30
0.0
 11
143.1
 21
314.0
 31
0.0
  0
LINE
  8
L-ZISSEN
 10
263.9
 20
233.0
 30
0.0
 11
256.9
 21
226.0
 31
0.0
  0
LINE
  8
L-ZISSEN
 10
136.1
 20
233.0
 30
0.0
 11
143.1
 21
226.0
 31
0.0
  0
LINE
  8
L-ZISSEN
 10
136.1
 20
233.0
 30
0.0
 11
67.3
 21
233.0
 31
0.0
  0
LINE
  8
L-ZISSEN
 10
240.0
 20
387.5
 30
0.0
 11
240.0
 21
420.0
 31
0.0
  0
LINE
  8
L-ZISSEN
 10
260.0
 20
387.5
 30
0.0
 11
260.0
 21
420.0
 31
0.0
  0
LINE
  8
L-ZISSEN
 10
260.0
 20
387.5
 30
0.0
 11
240.0
 21
387.5
 31
0.0
  0
LINE
  8
L-ZISSEN
 10
248.0
 20
363.0
 30
0.0
 11
332.7
 21
363.0
 31
0.0
  0
LINE
  8
L-ZISSEN
 10
236.0
 20
378.87537
 30
0.0
 11
233.357003
 21
378.87537
 31
0.0
  0
LINE
  8
L-ZISSEN
 10
236.0
 20
378.87537
 30
0.0
 11
236.0
 21
362.0
 31
0.0
  0
LINE
  8
L-ZISSEN
 10
248.0
 20
375.0
 30
0.0
 11
248.0
 21
362.0
 31
0.0
  0
LINE
  8
L-ZISSEN
 10
164.0
 20
378.87537
 30
0.0
 11
158.0
 21
378.87537
 31
0.0
  0
LINE
  8
L-ZISSEN
 10
263.9
 20
378.87537
 30
0.0
 11
258.0
 21
378.87537
 31
0.0
  0
LINE
  8
L-ZISSEN
 10
176.0
 20
363.0
 30
0.0
 11
236.0
 21
363.0
 31
0.0
  0
LINE
  8
L-ZISSEN
 10
176.0
 20
378.87537
 30
0.0
 11
176.0
 21
362.0
 31
0.0
  0
LINE
  8
L-ZISSEN
 10
164.0
 20
378.87537
 30
0.0
 11
164.0
 21
362.0
 31
0.0
  0
LINE
  8
L-ZISSEN
 10
255.0
 20
362.0
 30
0.0
 11
217.0
 21
362.0
 31
0.0
  0
LINE
  8
L-ZISSEN
 10
255.0
 20
363.0
 30
0.0
 11
255.0
 21
362.0
 31
0.0
  0
LINE
  8
L-ZISSEN
 10
217.0
 20
363.0
 30
0.0
 11
217.0
 21
362.0
 31
0.0
  0
LINE
  8
L-ZISSEN
 10
183.0
 20
363.0
 30
0.0
 11
183.0
 21
362.0
 31
0.0
  0
LINE
  8
L-ZISSEN
 10
145.0
 20
363.0
 30
0.0
 11
145.0
 21
362.0
 31
0.0
  0
LINE
  8
L-ZISSEN
 10
67.3
 20
363.0
 30
0.0
 11
164.0
 21
363.0
 31
0.0
  0
LINE
  8
L-ZISSEN
 10
136.1
 20
370.0
 30
0.0
 11
67.3
 21
370.0
 31
0.0
  0
LINE
  8
L-ZISSEN
 10
136.1
 20
420.0
 30
0.0
 11
136.1
 21
370.0
 31
0.0
  0
LINE
  8
L-ZISSEN
 10
263.9
 20
420.0
 30
0.0
 11
136.1
 21
420.0
 31
0.0
  0
LINE
  8
L-ZISSEN
 10
263.9
 20
370.0
 30
0.0
 11
263.9
 21
420.0
 31
0.0
  0
LINE
  8
L-ZISSEN
 10
332.7
 20
370.0
 30
0.0
 11
263.9
 21
370.0
 31
0.0
  0
LINE
  8
L-ZISSEN
 10
332.7
 20
430.0
 30
0.0
 11
67.3
 21
430.0
 31
0.0
  0
LINE
  8
L-ZISSEN
 10
145.0
 20
362.0
 30
0.0
 11
183.0
 21
362.0
 31
0.0
  0
LINE
  8
L-TYUSIN
 10
62.3
 20
400.0
 30
0.0
 11
337.7
 21
400.0
 31
0.0
  0
LINE
  8
L-ZISSEN
 10
125.1
 20
431.0
 30
0.0
 11
125.1
 21
363.0
 31
0.0
  0
LINE
  8
L-ZISSEN
 10
274.9
 20
363.0
 30
0.0
 11
274.9
 21
431.0
 31
0.0
  0
LINE
  8
L-TYUSIN
 10
200.0
 20
357.0
 30
0.0
 11
200.0
 21
484.0
 31
0.0
  0
LINE
  8
L-ZISSEN
 10
160.0
 20
387.5
 30
0.0
 11
160.0
 21
420.0
 31
0.0
  0
LINE
  8
L-ZISSEN
 10
140.0
 20
387.5
 30
0.0
 11
160.0
 21
387.5
 31
0.0
  0
LINE
  8
L-ZISSEN
 10
140.0
 20
387.5
 30
0.0
 11
140.0
 21
420.0
 31
0.0
  0
CIRCLE
  8
L-ZISSEN
 10
222.0
 20
375.0
 30
0.0
 40
12.0
  0
CIRCLE
  8
L-ZISSEN
 10
190.0
 20
375.0
 30
0.0
 40
12.0
  0
LINE
  8
L-ZISSEN
 10
178.642997
 20
378.87537
 30
0.0
 11
176.0
 21
378.87537
 31
0.0
  0
LINE
  8
L-ZISSEN
 10
210.642997
 20
378.87537
 30
0.0
 11
201.357003
 21
378.87537
 31
0.0
  0
LINE
  8
L-ZISSEN
 10
178.0
 20
302.0
 30
0.0
 11
178.0
 21
286.0
 31
0.0
  0
LINE
  8
L-ZISSEN
 10
136.1
 20
302.0
 30
0.0
 11
140.0
 21
302.0
 31
0.0
  0
LINE
  8
L-ZISSEN
 10
136.1
 20
238.0
 30
0.0
 11
165.0
 21
238.0
 31
0.0
  0
LINE
  8
L-ZISSEN
 10
202.0
 20
302.0
 30
0.0
 11
202.0
 21
286.0
 31
0.0
  0
LINE
  8
L-ZISSEN
 10
210.0
 20
302.0
 30
0.0
 11
210.0
 21
286.0
 31
0.0
  0
LINE
  8
L-ZISSEN
 10
234.0
 20
302.0
 30
0.0
 11
234.0
 21
286.0
 31
0.0
  0
ARC
  8
L-ZISSEN
 10
250.0
 20
304.0
 30
0.0
 40
10.0
 50
0.0
 51
180.0
  0
LINE
  8
L-ZISSEN
 10
240.0
 20
304.0
 30
0.0
 11
240.0
 21
291.656854
 31
0.0
  0
LINE
  8
L-ZISSEN
 10
260.0
 20
304.0
 30
0.0
 11
260.0
 21
286.0
 31
0.0
  0
LINE
  8
L-ZISSEN
 10
260.0
 20
302.0
 30
0.0
 11
263.9
 21
302.0
 31
0.0
  0
LINE
  8
L-ZISSEN
 10
160.0
 20
304.0
 30
0.0
 11
160.0
 21
286.0
 31
0.0
  0
ARC
  8
L-ZISSEN
 10
150.0
 20
304.0
 30
0.0
 40
10.0
 50
0.0
 51
180.0
  0
LINE
  8
L-ZISSEN
 10
140.0
 20
304.0
 30
0.0
 11
140.0
 21
286.0
 31
0.0
  0
LINE
  8
L-ZISSEN
 10
160.0
 20
302.0
 30
0.0
 11
240.0
 21
302.0
 31
0.0
  0
ARC
  8
L-ZISSEN
 10
170.0
 20
286.0
 30
0.0
 40
6.0
 50
0.0
 51
180.0
  0
ARC
  8
L-ZISSEN
 10
158.0
 20
254.0
 30
0.0
 40
6.0
 50
180.0
 51
0.0
  0
LINE
  8
L-ZISSEN
 10
164.0
 20
286.0
 30
0.0
 11
67.3
 21
286.0
 31
0.0
  0
LINE
  8
L-ZISSEN
 10
152.5
 20
254.0
 30
0.0
 11
67.3
 21
254.0
 31
0.0
  0
ARC
  8
L-ZISSEN
 10
242.0
 20
286.0
 30
0.0
 40
6.0
 50
0.0
 51
180.0
  0
ARC
  8
L-ZISSEN
 10
230.0
 20
254.0
 30
0.0
 40
6.0
 50
180.0
 51
0.0
  0
LINE
  8
L-ZISSEN
 10
236.0
 20
286.0
 30
0.0
 11
217.0
 21
286.0
 31
0.0
  0
LINE
  8
L-ZISSEN
 10
224.0
 20
254.0
 30
0.0
 11
164.0
 21
254.0
 31
0.0
  0
LINE
  8
L-ZISSEN
 10
210.0
 20
286.0
 30
0.0
 11
202.0
 21
286.0
 31
0.0
  0
LINE
  8
L-ZISSEN
 10
183.0
 20
286.0
 30
0.0
 11
176.0
 21
286.0
 31
0.0
  0
LINE
  8
L-ZISSEN
 10
185.0
 20
236.0
 30
0.0
 11
185.0
 21
254.0
 31
0.0
  0
ARC
  8
L-ZISSEN
 10
175.0
 20
236.0
 30
0.0
 40
10.0
 50
180.0
 51
0.0
  0
LINE
  8
L-ZISSEN
 10
165.0
 20
236.0
 30
0.0
 11
165.0
 21
254.0
 31
0.0
  0
ARC
  8
L-ZISSEN
 10
225.0
 20
236.0
 30
0.0
 40
10.0
 50
180.0
 51
0.0
  0
LINE
  8
L-ZISSEN
 10
235.0
 20
236.0
 30
0.0
 11
235.0
 21
250.683375
 31
0.0
  0
LINE
  8
L-ZISSEN
 10
215.0
 20
236.0
 30
0.0
 11
215.0
 21
254.0
 31
0.0
  0
LINE
  8
L-ZISSEN
 10
185.0
 20
238.0
 30
0.0
 11
215.0
 21
238.0
 31
0.0
  0
LINE
  8
L-ZISSEN
 10
235.0
 20
238.0
 30
0.0
 11
263.9
 21
238.0
 31
0.0
  0
LINE
  8
L-ZISSEN
 10
383.0
 20
110.0
 30
0.0
 11
383.0
 21
170.0
 31
0.0
  0
LINE
  8
L-ZISSEN
 10
383.0
 20
170.0
 30
0.0
 11
402.5
 21
170.0
 31
0.0
  0
LINE
  8
L-ZISSEN
 10
457.0
 20
170.0
 30
0.0
 11
457.0
 21
110.0
 31
0.0
  0
LINE
  8
L-ZISSEN
 10
407.5
 20
177.0
 30
0.0
 11
402.5
 21
170.0
 31
0.0
  0
LINE
  8
L-ZISSEN
 10
432.5
 20
177.0
 30
0.0
 11
437.5
 21
170.0
 31
0.0
  0
LINE
  8
L-ZISSEN
 10
437.5
 20
170.0
 30
0.0
 11
457.0
 21
170.0
 31
0.0
  0
LINE
  8
L-ZISSEN
 10
398.0
 20
178.0
 30
0.0
 11
442.0
 21
178.0
 31
0.0
  0
LINE
  8
L-ZISSEN
 10
464.0
 20
120.0
 30
0.0
 11
457.0
 21
120.0
 31
0.0
  0
LINE
  8
L-ZISSEN
 10
376.0
 20
109.0
 30
0.0
 11
376.0
 21
152.5
 31
0.0
  0
LINE
  8
L-ZISSEN
 10
376.0
 20
152.5
 30
0.0
 11
383.0
 21
152.5
 31
0.0
  0
LINE
  8
L-ZISSEN
 10
464.0
 20
152.5
 30
0.0
 11
457.0
 21
152.5
 31
0.0
  0
LINE
  8
L-ZISSEN
 10
464.0
 20
109.0
 30
0.0
 11
464.0
 21
152.5
 31
0.0
  0
LINE
  8
L-ZISSEN
 10
383.0
 20
120.0
 30
0.0
 11
376.0
 21
120.0
 31
0.0
  0
LINE
  8
L-ZISSEN
 10
452.0
 20
177.0
 30
0.0
 11
452.0
 21
170.0
 31
0.0
  0
LINE
  8
L-ZISSEN
 10
452.0
 20
177.0
 30
0.0
 11
442.0
 21
177.0
 31
0.0
  0
LINE
  8
L-ZISSEN
 10
224.0
 20
254.0
 30
0.0
 11
217.0
 21
254.0
 31
0.0
  0
LINE
  8
L-ZISSEN
 10
224.0
 20
286.0
 30
0.0
 11
217.0
 21
286.0
 31
0.0
  0
LINE
  8
L-ZISSEN
 10
217.0
 20
254.0
 30
0.0
 11
217.0
 21
286.0
 31
0.0
  0
LINE
  8
L-ZISSEN
 10
442.0
 20
178.0
 30
0.0
 11
442.0
 21
170.0
 31
0.0
  0
LINE
  8
L-ZISSEN
 10
398.0
 20
170.0
 30
0.0
 11
398.0
 21
178.0
 31
0.0
  0
LINE
  8
L-ZISSEN
 10
437.5
 20
170.0
 30
0.0
 11
437.5
 21
178.0
 31
0.0
  0
LINE
  8
L-ZISSEN
 10
402.5
 20
170.0
 30
0.0
 11
402.5
 21
178.0
 31
0.0
  0
LINE
  8
L-ZISSEN
 10
279.5
 20
109.0
 30
0.0
 11
120.5
 21
109.0
 31
0.0
  0
LINE
  8
L-ZISSEN
 10
309.5
 20
51.0
 30
0.0
 11
273.0
 21
51.0
 31
0.0
  0
LINE
  8
L-ZISSEN
 10
309.5
 20
78.0
 30
0.0
 11
279.5
 21
78.0
 31
0.0
  0
LINE
  8
L-ZISSEN
 10
90.5
 20
51.0
 30
0.0
 11
90.5
 21
78.0
 31
0.0
  0
LINE
  8
L-ZISSEN
 10
127.0
 20
51.0
 30
0.0
 11
127.0
 21
61.0
 31
0.0
  0
LINE
  8
L-TYUSIN
 10
180.0
 20
85.0
 30
0.0
 11
220.0
 21
85.0
 31
0.0
  0
LINE
  8
L-ZISSEN
 10
120.5
 20
61.0
 30
0.0
 11
279.5
 21
61.0
 31
0.0
  0
LINE
  8
L-ZISSEN
 10
120.5
 20
61.0
 30
0.0
 11
120.5
 21
109.0
 31
0.0
  0
LINE
  8
L-ZISSEN
 10
279.5
 20
61.0
 30
0.0
 11
279.5
 21
109.0
 31
0.0
  0
LINE
  8
L-ZISSEN
 10
273.0
 20
51.0
 30
0.0
 11
273.0
 21
61.0
 31
0.0
  0
LINE
  8
L-ZISSEN
 10
309.5
 20
51.0
 30
0.0
 11
309.5
 21
78.0
 31
0.0
  0
LINE
  8
L-ZISSEN
 10
127.0
 20
51.0
 30
0.0
 11
90.5
 21
51.0
 31
0.0
  0
LINE
  8
L-ZISSEN
 10
120.5
 20
78.0
 30
0.0
 11
90.5
 21
78.0
 31
0.0
  0
LINE
  8
L-TYUSIN
 10
254.0
 20
105.0
 30
0.0
 11
254.0
 21
65.0
 31
0.0
  0
LINE
  8
L-TYUSIN
 10
234.0
 20
85.0
 30
0.0
 11
274.0
 21
85.0
 31
0.0
  0
LINE
  8
L-TYUSIN
 10
146.0
 20
105.0
 30
0.0
 11
146.0
 21
65.0
 31
0.0
  0
LINE
  8
L-TYUSIN
 10
166.0
 20
85.0
 30
0.0
 11
126.0
 21
85.0
 31
0.0
  0
LINE
  8
L-TYUSIN
 10
298.5
 20
83.0
 30
0.0
 11
298.5
 21
46.0
 31
0.0
  0
LINE
  8
L-TYUSIN
 10
101.5
 20
83.0
 30
0.0
 11
101.5
 21
46.0
 31
0.0
  0
LINE
  8
L-ZISSEN
 10
233.0
 20
165.0
 30
0.0
 11
217.0
 21
165.0
 31
0.0
  0
LINE
  8
L-ZISSEN
 10
217.0
 20
165.0
 30
0.0
 11
217.0
 21
152.5
 31
0.0
  0
LINE
  8
L-ZISSEN
 10
233.0
 20
165.0
 30
0.0
 11
233.0
 21
152.5
 31
0.0
  0
LINE
  8
L-ZISSEN
 10
183.0
 20
165.0
 30
0.0
 11
167.0
 21
165.0
 31
0.0
  0
LINE
  8
L-ZISSEN
 10
167.0
 20
165.0
 30
0.0
 11
167.0
 21
152.5
 31
0.0
  0
LINE
  8
L-ZISSEN
 10
183.0
 20
165.0
 30
0.0
 11
183.0
 21
152.5
 31
0.0
  0
LINE
  8
L-ZISSEN
 10
183.0
 20
161.12463
 30
0.0
 11
217.0
 21
161.12463
 31
0.0
  0
LINE
  8
L-TYUSIN
 10
101.5
 20
457.0
 30
0.0
 11
101.5
 21
494.0
 31
0.0
  0
LINE
  8
L-TYUSIN
 10
298.5
 20
457.0
 30
0.0
 11
298.5
 21
494.0
 31
0.0
  0
LINE
  8
L-TYUSIN
 10
227.0
 20
435.0
 30
0.0
 11
227.0
 21
475.0
 31
0.0
  0
LINE
  8
L-ZISSEN
 10
120.5
 20
462.0
 30
0.0
 11
90.5
 21
462.0
 31
0.0
  0
LINE
  8
L-ZISSEN
 10
127.0
 20
489.0
 30
0.0
 11
90.5
 21
489.0
 31
0.0
  0
LINE
  8
L-ZISSEN
 10
309.5
 20
489.0
 30
0.0
 11
309.5
 21
462.0
 31
0.0
  0
LINE
  8
L-ZISSEN
 10
273.0
 20
489.0
 30
0.0
 11
273.0
 21
479.0
 31
0.0
  0
LINE
  8
L-ZISSEN
 10
279.5
 20
479.0
 30
0.0
 11
279.5
 21
431.0
 31
0.0
  0
LINE
  8
L-ZISSEN
 10
120.5
 20
479.0
 30
0.0
 11
120.5
 21
431.0
 31
0.0
  0
LINE
  8
L-ZISSEN
 10
120.5
 20
479.0
 30
0.0
 11
279.5
 21
479.0
 31
0.0
  0
LINE
  8
L-TYUSIN
 10
207.0
 20
455.0
 30
0.0
 11
247.0
 21
455.0
 31
0.0
  0
LINE
  8
L-ZISSEN
 10
127.0
 20
489.0
 30
0.0
 11
127.0
 21
479.0
 31
0.0
  0
LINE
  8
L-ZISSEN
 10
90.5
 20
489.0
 30
0.0
 11
90.5
 21
462.0
 31
0.0
  0
LINE
  8
L-ZISSEN
 10
309.5
 20
462.0
 30
0.0
 11
279.5
 21
462.0
 31
0.0
  0
LINE
  8
L-ZISSEN
 10
309.5
 20
489.0
 30
0.0
 11
273.0
 21
489.0
 31
0.0
  0
LINE
  8
L-ZISSEN
 10
279.5
 20
431.0
 30
0.0
 11
120.5
 21
431.0
 31
0.0
  0
LINE
  8
L-TYUSIN
 10
193.0
 20
455.0
 30
0.0
 11
153.0
 21
455.0
 31
0.0
  0
LINE
  8
L-TYUSIN
 10
173.0
 20
435.0
 30
0.0
 11
173.0
 21
475.0
 31
0.0
  0
LINE
  8
L-ZISSEN
 10
142.0
 20
375.0
 30
0.0
 11
142.0
 21
387.5
 31
0.0
  0
LINE
  8
L-ZISSEN
 10
158.0
 20
375.0
 30
0.0
 11
142.0
 21
375.0
 31
0.0
  0
LINE
  8
L-ZISSEN
 10
158.0
 20
375.0
 30
0.0
 11
158.0
 21
387.5
 31
0.0
  0
LINE
  8
L-ZISSEN
 10
242.0
 20
375.0
 30
0.0
 11
242.0
 21
387.5
 31
0.0
  0
LINE
  8
L-ZISSEN
 10
258.0
 20
375.0
 30
0.0
 11
258.0
 21
387.5
 31
0.0
  0
LINE
  8
L-ZISSEN
 10
258.0
 20
375.0
 30
0.0
 11
242.0
 21
375.0
 31
0.0
  0
LINE
  8
L-ZISSEN
 10
142.0
 20
378.87537
 30
0.0
 11
136.1
 21
378.87537
 31
0.0
  0
LINE
  8
L-ZISSEN
 10
464.0
 20
109.0
 30
0.0
 11
376.0
 21
109.0
 31
0.0
  0
LINE
  8
L-ZISSEN
 10
361.0
 20
51.0
 30
0.0
 11
479.0
 21
51.0
 31
0.0
  0
LINE
  8
L-ZISSEN
 10
361.0
 20
78.0
 30
0.0
 11
479.0
 21
78.0
 31
0.0
  0
LINE
  8
L-ZISSEN
 10
361.0
 20
51.0
 30
0.0
 11
361.0
 21
78.0
 31
0.0
  0
LINE
  8
L-ZISSEN
 10
479.0
 20
51.0
 30
0.0
 11
479.0
 21
78.0
 31
0.0
  0
LINE
  8
L-ZISSEN
 10
376.0
 20
109.0
 30
0.0
 11
376.0
 21
78.0
 31
0.0
  0
LINE
  8
L-ZISSEN
 10
464.0
 20
109.0
 30
0.0
 11
464.0
 21
78.0
 31
0.0
  0
LINE
  8
L-ZISSEN
 10
438.0
 20
78.0
 30
0.0
 11
438.0
 21
51.0
 31
0.0
  0
LINE
  8
L-ZISSEN
 10
402.0
 20
78.0
 30
0.0
 11
402.0
 21
51.0
 31
0.0
  0
LINE
  8
L-TYUSIN
 10
468.0
 20
83.0
 30
0.0
 11
468.0
 21
46.0
 31
0.0
  0
LINE
  8
L-TYUSIN
 10
372.0
 20
83.0
 30
0.0
 11
372.0
 21
46.0
 31
0.0
  0
LINE
  8
L-ZISSEN
 10
383.0
 20
165.0
 30
0.0
 11
378.0
 21
165.0
 31
0.0
  0
LINE
  8
L-ZISSEN
 10
378.0
 20
165.0
 30
0.0
 11
378.0
 21
152.5
 31
0.0
  0
LINE
  8
L-ZISSEN
 10
462.0
 20
165.0
 30
0.0
 11
462.0
 21
152.5
 31
0.0
  0
LINE
  8
L-ZISSEN
 10
457.0
 20
165.0
 30
0.0
 11
462.0
 21
165.0
 31
0.0
  0
CIRCLE
  8
L-ZISSEN
 10
150.0
 20
304.0
 30
0.0
 40
8.0
  0
CIRCLE
  8
L-ZISSEN
 10
250.0
 20
304.0
 30
0.0
 40
8.0
  0
CIRCLE
  8
L-ZISSEN
 10
225.0
 20
236.0
 30
0.0
 40
8.0
  0
CIRCLE
  8
L-ZISSEN
 10
175.0
 20
236.0
 30
0.0
 40
8.0
  0
LINE
  8
L-ZISSEN
 10
120.5
 20
314.0
 30
0.0
 11
120.5
 21
307.0
 31
0.0
  0
LINE
  8
L-ZISSEN
 10
279.5
 20
314.0
 30
0.0
 11
279.5
 21
307.0
 31
0.0
  0
LINE
  8
L-ZISSEN
 10
143.1
 20
226.0
 30
0.0
 11
120.5
 21
226.0
 31
0.0
  0
LINE
  8
L-ZISSEN
 10
256.9
 20
226.0
 30
0.0
 11
279.5
 21
226.0
 31
0.0
  0
LINE
  8
L-ZISSEN
 10
256.9
 20
314.0
 30
0.0
 11
279.5
 21
314.0
 31
0.0
  0
LINE
  8
L-ZISSEN
 10
143.1
 20
314.0
 30
0.0
 11
120.5
 21
314.0
 31
0.0
  0
LINE
  8
L-ZISSEN
 10
120.5
 20
233.0
 30
0.0
 11
120.5
 21
226.0
 31
0.0
  0
LINE
  8
L-ZISSEN
 10
279.5
 20
233.0
 30
0.0
 11
279.5
 21
226.0
 31
0.0
  0
LINE
  8
L-TYUSIN
 10
101.5
 20
327.0
 30
0.0
 11
101.5
 21
309.0
 31
0.0
  0
LINE
  8
L-TYUSIN
 10
92.5
 20
318.0
 30
0.0
 11
110.5
 21
318.0
 31
0.0
  0
CIRCLE
  8
L-ZISSEN
 10
101.5
 20
318.0
 30
0.0
 40
5.5
  0
LINE
  8
L-ZISSEN
 10
120.5
 20
226.0
 30
0.0
 11
105.5
 21
211.0
 31
0.0
  0
CIRCLE
  8
L-ZISSEN
 10
101.5
 20
222.0
 30
0.0
 40
5.5
  0
LINE
  8
L-TYUSIN
 10
92.5
 20
222.0
 30
0.0
 11
110.5
 21
222.0
 31
0.0
  0
LINE
  8
L-TYUSIN
 10
101.5
 20
213.0
 30
0.0
 11
101.5
 21
231.0
 31
0.0
  0
LINE
  8
L-ZISSEN
 10
95.030345
 20
233.0
 30
0.0
 11
90.5
 21
225.153212
 31
0.0
  0
CIRCLE
  8
L-ZISSEN
 10
200.0
 20
85.0
 30
0.0
 40
15.1455
  0
CIRCLE
  8
L-ZISSEN
 10
254.0
 20
85.0
 30
0.0
 40
15.1455
  0
CIRCLE
  8
L-ZISSEN
 10
146.0
 20
85.0
 30
0.0
 40
15.1455
  0
CIRCLE
  8
L-ZISSEN
 10
227.0
 20
455.0
 30
0.0
 40
15.1455
  0
CIRCLE
  8
L-ZISSEN
 10
173.0
 20
455.0
 30
0.0
 40
15.1455
  0
LINE
  8
L-TYUSIN
 10
520.0
 20
445.0
 30
0.0
 11
520.0
 21
10.0
 31
0.0
  0
TEXT
  8
L-ZISSEN
 10
55.0
 20
515.0
 30
0.0
 40
4.5
  1
MODEL NO. : MVM-491-
  0
TEXT
  8
L-ZISSEN
 10
530.0
 20
420.0
 30
0.0
 40
4.5
  1
MODEL NO. : MVM-491-12JD
  0
LINE
  8
L-ZISSEN
 10
759.5
 20
173.0
 30
0.0
 11
759.5
 21
166.0
 31
0.0
  0
LINE
  8
L-ZISSEN
 10
600.5
 20
173.0
 30
0.0
 11
600.5
 21
166.0
 31
0.0
  0
LINE
  8
L-ZISSEN
 10
623.1
 20
254.0
 30
0.0
 11
600.5
 21
254.0
 31
0.0
  0
LINE
  8
L-ZISSEN
 10
736.9
 20
254.0
 30
0.0
 11
759.5
 21
254.0
 31
0.0
  0
LINE
  8
L-ZISSEN
 10
736.9
 20
166.0
 30
0.0
 11
759.5
 21
166.0
 31
0.0
  0
LINE
  8
L-ZISSEN
 10
623.1
 20
166.0
 30
0.0
 11
600.5
 21
166.0
 31
0.0
  0
LINE
  8
L-ZISSEN
 10
759.5
 20
254.0
 30
0.0
 11
759.5
 21
247.0
 31
0.0
  0
LINE
  8
L-ZISSEN
 10
600.5
 20
254.0
 30
0.0
 11
600.5
 21
247.0
 31
0.0
  0
LINE
  8
L-ZISSEN
 10
964.0
 20
109.0
 30
0.0
 11
964.0
 21
60.0
 31
0.0
  0
LINE
  8
L-ZISSEN
 10
876.0
 20
109.0
 30
0.0
 11
876.0
 21
93.0
 31
0.0
  0
LINE
  8
L-ZISSEN
 10
964.0
 20
109.0
 30
0.0
 11
876.0
 21
109.0
 31
0.0
  0
LINE
  8
L-ZISSEN
 10
759.5
 20
311.0
 30
0.0
 11
600.5
 21
311.0
 31
0.0
  0
LINE
  8
L-TYUSIN
 10
572.5
 20
65.0
 30
0.0
 11
572.5
 21
20.0
 31
0.0
  0
LINE
  8
L-ZISSEN
 10
759.5
 20
37.0
 30
0.0
 11
759.5
 21
44.906469
 31
0.0
  0
LINE
  8
L-ZISSEN
 10
600.5
 20
37.0
 30
0.0
 11
600.5
 21
44.906469
 31
0.0
  0
LINE
  8
L-TYUSIN
 10
655.0
 20
65.0
 30
0.0
 11
705.0
 21
65.0
 31
0.0
  0
LINE
  8
L-ZISSEN
 10
607.0
 20
25.0
 30
0.0
 11
607.0
 21
37.0
 31
0.0
  0
LINE
  8
L-ZISSEN
 10
759.5
 20
109.0
 30
0.0
 11
600.5
 21
109.0
 31
0.0
  0
LINE
  8
L-ZISSEN
 10
607.0
 20
25.0
 30
0.0
 11
561.5
 21
25.0
 31
0.0
  0
LINE
  8
L-ZISSEN
 10
561.5
 20
25.0
 30
0.0
 11
561.5
 21
60.0
 31
0.0
  0
LINE
  8
L-ZISSEN
 10
592.450045
 20
60.0
 30
0.0
 11
561.5
 21
60.0
 31
0.0
  0
LINE
  8
L-ZISSEN
 10
759.5
 20
37.0
 30
0.0
 11
600.5
 21
37.0
 31
0.0
  0
LINE
  8
L-ZISSEN
 10
753.0
 20
25.0
 30
0.0
 11
753.0
 21
37.0
 31
0.0
  0
LINE
  8
L-ZISSEN
 10
753.0
 20
25.0
 30
0.0
 11
798.5
 21
25.0
 31
0.0
  0
LINE
  8
L-TYUSIN
 10
787.5
 20
65.0
 30
0.0
 11
787.5
 21
20.0
 31
0.0
  0
LINE
  8
L-ZISSEN
 10
798.5
 20
25.0
 30
0.0
 11
798.5
 21
60.0
 31
0.0
  0
LINE
  8
L-ZISSEN
 10
767.549955
 20
60.0
 30
0.0
 11
798.5
 21
60.0
 31
0.0
  0
ARC
  8
L-ZISSEN
 10
680.0
 20
65.0
 30
0.0
 40
28.0
 50
221.409622
 51
318.590378
  0
ARC
  8
L-ZISSEN
 10
620.0
 20
65.0
 30
0.0
 40
28.0
 50
41.409622
 51
318.590378
  0
LINE
  8
L-TYUSIN
 10
620.0
 20
90.0
 30
0.0
 11
620.0
 21
40.0
 31
0.0
  0
LINE
  8
L-TYUSIN
 10
595.0
 20
65.0
 30
0.0
 11
645.0
 21
65.0
 31
0.0
  0
CIRCLE
  8
L-ZISSEN
 10
680.0
 20
65.0
 30
0.0
 40
19.476
  0
LINE
  8
L-ZISSEN
 10
600.5
 20
85.093531
 30
0.0
 11
600.5
 21
109.0
 31
0.0
  0
ARC
  8
L-ZISSEN
 10
650.0
 20
91.457513
 30
0.0
 40
12.0
 50
221.409622
 51
318.590378
  0
ARC
  8
L-ZISSEN
 10
650.0
 20
38.542487
 30
0.0
 40
12.0
 50
41.409622
 51
138.590378
  0
CIRCLE
  8
L-ZISSEN
 10
620.0
 20
65.0
 30
0.0
 40
19.476
  0
CIRCLE
  8
L-ZISSEN
 10
740.0
 20
65.0
 30
0.0
 40
19.476
  0
LINE
  8
L-TYUSIN
 10
740.0
 20
90.0
 30
0.0
 11
740.0
 21
40.0
 31
0.0
  0
LINE
  8
L-TYUSIN
 10
765.0
 20
65.0
 30
0.0
 11
715.0
 21
65.0
 31
0.0
  0
ARC
  8
L-ZISSEN
 10
740.0
 20
65.0
 30
0.0
 40
28.0
 50
221.409622
 51
138.590378
  0
LINE
  8
L-ZISSEN
 10
759.5
 20
85.093531
 30
0.0
 11
759.5
 21
109.0
 31
0.0
  0
ARC
  8
L-ZISSEN
 10
680.0
 20
65.0
 30
0.0
 40
28.0
 50
41.409622
 51
138.590378
  0
ARC
  8
L-ZISSEN
 10
710.0
 20
91.457513
 30
0.0
 40
12.0
 50
221.409622
 51
318.590378
  0
ARC
  8
L-ZISSEN
 10
710.0
 20
38.542487
 30
0.0
 40
12.0
 50
41.409622
 51
138.590378
  0
LINE
  8
L-ZISSEN
 10
861.0
 20
60.0
 30
0.0
 11
979.0
 21
60.0
 31
0.0
  0
LINE
  8
L-ZISSEN
 10
861.0
 20
25.0
 30
0.0
 11
979.0
 21
25.0
 31
0.0
  0
LINE
  8
L-TYUSIN
 10
371.0
 20
85.0
 30
0.0
 11
381.0
 21
85.0
 31
0.0
  0
LINE
  8
L-TYUSIN
 10
469.0
 20
85.0
 30
0.0
 11
459.0
 21
85.0
 31
0.0
  0
LINE
  8
L-ZISSEN
 10
861.0
 20
25.0
 30
0.0
 11
861.0
 21
60.0
 31
0.0
  0
LINE
  8
L-ZISSEN
 10
907.0
 20
60.0
 30
0.0
 11
907.0
 21
25.0
 31
0.0
  0
LINE
  8
L-ZISSEN
 10
933.0
 20
60.0
 30
0.0
 11
933.0
 21
25.0
 31
0.0
  0
LINE
  8
L-ZISSEN
 10
979.0
 20
25.0
 30
0.0
 11
979.0
 21
60.0
 31
0.0
  0
LINE
  8
L-ZISSEN
 10
870.0
 20
93.0
 30
0.0
 11
870.0
 21
60.0
 31
0.0
  0
LINE
  8
L-ZISSEN
 10
870.0
 20
93.0
 30
0.0
 11
899.0
 21
93.0
 31
0.0
  0
LINE
  8
L-ZISSEN
 10
899.0
 20
93.0
 30
0.0
 11
899.0
 21
60.0
 31
0.0
  0
LINE
  8
L-ZISSEN
 10
970.0
 20
93.0
 30
0.0
 11
964.0
 21
93.0
 31
0.0
  0
LINE
  8
L-ZISSEN
 10
970.0
 20
93.0
 30
0.0
 11
970.0
 21
60.0
 31
0.0
  0
LINE
  8
L-TYUSIN
 10
904.0
 20
65.0
 30
0.0
 11
865.0
 21
65.0
 31
0.0
  0
LINE
  8
L-TYUSIN
 10
959.0
 20
65.0
 30
0.0
 11
975.0
 21
65.0
 31
0.0
  0
LINE
  8
L-ZISSEN
 10
907.5
 20
88.092523
 30
0.0
 11
907.5
 21
60.0
 31
0.0
  0
LINE
  8
L-ZISSEN
 10
899.0
 20
93.0
 30
0.0
 11
907.5
 21
88.092523
 31
0.0
  0
CIRCLE
  8
L-ZISSEN
 10
650.0
 20
355.0
 30
0.0
 40
19.476
  0
LINE
  8
L-TYUSIN
 10
650.0
 20
330.0
 30
0.0
 11
650.0
 21
380.0
 31
0.0
  0
LINE
  8
L-ZISSEN
 10
767.549955
 20
360.0
 30
0.0
 11
798.5
 21
360.0
 31
0.0
  0
LINE
  8
L-ZISSEN
 10
798.5
 20
395.0
 30
0.0
 11
798.5
 21
360.0
 31
0.0
  0
LINE
  8
L-TYUSIN
 10
787.5
 20
355.0
 30
0.0
 11
787.5
 21
400.0
 31
0.0
  0
LINE
  8
L-ZISSEN
 10
753.0
 20
395.0
 30
0.0
 11
798.5
 21
395.0
 31
0.0
  0
LINE
  8
L-ZISSEN
 10
753.0
 20
395.0
 30
0.0
 11
753.0
 21
383.0
 31
0.0
  0
LINE
  8
L-ZISSEN
 10
759.5
 20
383.0
 30
0.0
 11
600.5
 21
383.0
 31
0.0
  0
LINE
  8
L-ZISSEN
 10
592.450045
 20
360.0
 30
0.0
 11
561.5
 21
360.0
 31
0.0
  0
LINE
  8
L-ZISSEN
 10
561.5
 20
395.0
 30
0.0
 11
561.5
 21
360.0
 31
0.0
  0
LINE
  8
L-ZISSEN
 10
607.0
 20
395.0
 30
0.0
 11
561.5
 21
395.0
 31
0.0
  0
LINE
  8
L-ZISSEN
 10
607.0
 20
395.0
 30
0.0
 11
607.0
 21
383.0
 31
0.0
  0
LINE
  8
L-TYUSIN
 10
625.0
 20
355.0
 30
0.0
 11
675.0
 21
355.0
 31
0.0
  0
LINE
  8
L-TYUSIN
 10
572.5
 20
355.0
 30
0.0
 11
572.5
 21
400.0
 31
0.0
  0
LINE
  8
L-ZISSEN
 10
759.5
 20
383.0
 30
0.0
 11
759.5
 21
311.0
 31
0.0
  0
LINE
  8
L-ZISSEN
 10
600.5
 20
383.0
 30
0.0
 11
600.5
 21
311.0
 31
0.0
  0
ARC
  8
L-ZISSEN
 10
740.0
 20
355.0
 30
0.0
 40
28.0
 50
314.141165
 51
45.858835
  0
ARC
  8
L-ZISSEN
 10
620.0
 20
355.0
 30
0.0
 40
28.0
 50
134.141165
 51
225.858835
  0
CIRCLE
  8
L-ZISSEN
 10
710.0
 20
355.0
 30
0.0
 40
19.476
  0
LINE
  8
L-TYUSIN
 10
735.0
 20
355.0
 30
0.0
 11
685.0
 21
355.0
 31
0.0
  0
LINE
  8
L-TYUSIN
 10
710.0
 20
330.0
 30
0.0
 11
710.0
 21
380.0
 31
0.0
  0
ARC
  8
L-ZISSEN
 10
710.0
 20
355.0
 30
0.0
 40
28.0
 50
221.409622
 51
138.590378
  0
ARC
  8
L-ZISSEN
 10
650.0
 20
355.0
 30
0.0
 40
28.0
 50
41.409622
 51
318.590378
  0
ARC
  8
L-ZISSEN
 10
680.0
 20
381.457513
 30
0.0
 40
12.0
 50
221.409622
 51
318.590378
  0
ARC
  8
L-ZISSEN
 10
680.0
 20
328.542487
 30
0.0
 40
12.0
 50
41.409622
 51
138.590378
  0
SOLID
  8
L-ZISSEN
 10
201.2636
 20
107.414306
 30
0.0
 11
201.709577
 21
107.909835
 31
0.0
 12
200.0
 22
109.0
 32
0.0
 13
200.0
 23
109.0
 33
0.0
  0
LINE
  8
L-ZISSEN
 10
201.486588
 20
107.662071
 30
0.0
 11
210.0
 21
100.0
 31
0.0
  0
LINE
  8
L-ZISSEN
 10
210.0
 20
100.0
 30
0.0
 11
212.0
 21
100.0
 31
0.0
  0
TEXT
  8
L-ZISSEN
 10
214.0
 20
97.75
 30
0.0
 40
4.5
  1
P.P
  0
SOLID
  8
L-ZISSEN
 10
421.2636
 20
107.414306
 30
0.0
 11
421.709577
 21
107.909835
 31
0.0
 12
420.0
 22
109.0
 32
0.0
 13
420.0
 23
109.0
 33
0.0
  0
LINE
  8
L-ZISSEN
 10
421.486588
 20
107.662071
 30
0.0
 11
430.0
 21
100.0
 31
0.0
  0
LINE
  8
L-ZISSEN
 10
430.0
 20
100.0
 30
0.0
 11
432.0
 21
100.0
 31
0.0
  0
TEXT
  8
L-ZISSEN
 10
434.0
 20
97.75
 30
0.0
 40
4.5
  1
P.P
  0
SOLID
  8
L-ZISSEN
 10
681.591992
 20
110.255656
 30
0.0
 11
681.098699
 21
110.704104
 31
0.0
 12
680.0
 22
109.0
 32
0.0
 13
680.0
 23
109.0
 33
0.0
  0
LINE
  8
L-ZISSEN
 10
681.345346
 20
110.47988
 30
0.0
 11
690.0
 21
120.0
 31
0.0
  0
LINE
  8
L-ZISSEN
 10
690.0
 20
120.0
 30
0.0
 11
692.0
 21
120.0
 31
0.0
  0
TEXT
  8
L-ZISSEN
 10
694.0
 20
117.75
 30
0.0
 40
4.5
  1
P.P
  0
SOLID
  8
L-ZISSEN
 10
921.591992
 20
110.255656
 30
0.0
 11
921.098699
 21
110.704104
 31
0.0
 12
920.0
 22
109.0
 32
0.0
 13
920.0
 23
109.0
 33
0.0
  0
LINE
  8
L-ZISSEN
 10
921.345346
 20
110.47988
 30
0.0
 11
930.0
 21
120.0
 31
0.0
  0
LINE
  8
L-ZISSEN
 10
930.0
 20
120.0
 30
0.0
 11
932.0
 21
120.0
 31
0.0
  0
TEXT
  8
L-ZISSEN
 10
934.0
 20
117.75
 30
0.0
 40
4.5
  1
P.P
  0
SOLID
  8
L-ZISSEN
 10
681.098699
 20
309.295896
 30
0.0
 11
681.591992
 21
309.744344
 31
0.0
 12
680.0
 22
311.0
 32
0.0
 13
680.0
 23
311.0
 33
0.0
  0
LINE
  8
L-ZISSEN
 10
681.345346
 20
309.52012
 30
0.0
 11
690.0
 21
300.0
 31
0.0
  0
LINE
  8
L-ZISSEN
 10
690.0
 20
300.0
 30
0.0
 11
692.0
 21
300.0
 31
0.0
  0
TEXT
  8
L-ZISSEN
 10
694.0
 20
297.75
 30
0.0
 40
4.5
  1
P.P
  0
LINE
  8
L-ZISSEN
 10
600.5
 20
254.0
 30
0.0
 11
574.519238
 21
269.0
 31
0.0
  0
LINE
  8
L-TYUSIN
 10
572.5
 20
266.0
 30
0.0
 11
572.5
 21
250.0
 31
0.0
  0
LINE
  8
L-TYUSIN
 10
564.5
 20
258.0
 30
0.0
 11
580.5
 21
258.0
 31
0.0
  0
CIRCLE
  8
L-ZISSEN
 10
572.5
 20
258.0
 30
0.0
 40
5.5
  0
LINE
  8
L-ZISSEN
 10
90.5
 20
222.0
 30
0.0
 11
90.5
 21
225.153212
 31
0.0
  0
LINE
  8
L-ZISSEN
 10
105.5
 20
211.0
 30
0.0
 11
101.5
 21
211.0
 31
0.0
  0
ARC
  8
L-ZISSEN
 10
101.5
 20
222.0
 30
0.0
 40
11.0
 50
180.0
 51
270.0
  0
ARC
  8
L-ZISSEN
 10
101.5
 20
318.0
 30
0.0
 40
11.0
 50
90.0
 51
180.0
  0
LINE
  8
L-ZISSEN
 10
105.5
 20
329.0
 30
0.0
 11
101.5
 21
329.0
 31
0.0
  0
LINE
  8
L-ZISSEN
 10
90.5
 20
318.0
 30
0.0
 11
90.5
 21
314.846788
 31
0.0
  0
LINE
  8
L-ZISSEN
 10
120.5
 20
314.0
 30
0.0
 11
105.5
 21
329.0
 31
0.0
  0
LINE
  8
L-ZISSEN
 10
95.030345
 20
307.0
 30
0.0
 11
90.5
 21
314.846788
 31
0.0
  0
LINE
  8
L-ZISSEN
 10
309.5
 20
318.0
 30
0.0
 11
309.5
 21
314.846788
 31
0.0
  0
LINE
  8
L-ZISSEN
 10
294.5
 20
329.0
 30
0.0
 11
298.5
 21
329.0
 31
0.0
  0
ARC
  8
L-ZISSEN
 10
298.5
 20
318.0
 30
0.0
 40
11.0
 50
360.0
 51
90.0
  0
CIRCLE
  8
L-ZISSEN
 10
298.5
 20
318.0
 30
0.0
 40
5.5
  0
LINE
  8
L-TYUSIN
 10
307.5
 20
318.0
 30
0.0
 11
289.5
 21
318.0
 31
0.0
  0
LINE
  8
L-ZISSEN
 10
279.5
 20
314.0
 30
0.0
 11
294.5
 21
329.0
 31
0.0
  0
LINE
  8
L-TYUSIN
 10
298.5
 20
327.0
 30
0.0
 11
298.5
 21
309.0
 31
0.0
  0
LINE
  8
L-ZISSEN
 10
304.969655
 20
307.0
 30
0.0
 11
309.5
 21
314.846788
 31
0.0
  0
LINE
  8
L-ZISSEN
 10
304.969655
 20
233.0
 30
0.0
 11
309.5
 21
225.153212
 31
0.0
  0
LINE
  8
L-TYUSIN
 10
298.5
 20
213.0
 30
0.0
 11
298.5
 21
231.0
 31
0.0
  0
LINE
  8
L-TYUSIN
 10
307.5
 20
222.0
 30
0.0
 11
289.5
 21
222.0
 31
0.0
  0
CIRCLE
  8
L-ZISSEN
 10
298.5
 20
222.0
 30
0.0
 40
5.5
  0
ARC
  8
L-ZISSEN
 10
298.5
 20
222.0
 30
0.0
 40
11.0
 50
270.0
 51
0.0
  0
LINE
  8
L-ZISSEN
 10
294.5
 20
211.0
 30
0.0
 11
298.5
 21
211.0
 31
0.0
  0
LINE
  8
L-ZISSEN
 10
309.5
 20
222.0
 30
0.0
 11
309.5
 21
225.153212
 31
0.0
  0
LINE
  8
L-ZISSEN
 10
279.5
 20
226.0
 30
0.0
 11
294.5
 21
211.0
 31
0.0
  0
LINE
  8
L-ZISSEN
 10
572.5
 20
269.0
 30
0.0
 11
574.519238
 21
269.0
 31
0.0
  0
LINE
  8
L-ZISSEN
 10
561.5
 20
258.0
 30
0.0
 11
561.5
 21
253.0
 31
0.0
  0
ARC
  8
L-ZISSEN
 10
572.5
 20
258.0
 30
0.0
 40
11.0
 50
90.0
 51
180.0
  0
LINE
  8
L-ZISSEN
 10
759.5
 20
254.0
 30
0.0
 11
785.480762
 21
269.0
 31
0.0
  0
ARC
  8
L-ZISSEN
 10
787.5
 20
258.0
 30
0.0
 40
11.0
 50
0.0
 51
90.0
  0
LINE
  8
L-ZISSEN
 10
798.5
 20
258.0
 30
0.0
 11
798.5
 21
253.0
 31
0.0
  0
LINE
  8
L-ZISSEN
 10
787.5
 20
269.0
 30
0.0
 11
785.480762
 21
269.0
 31
0.0
  0
CIRCLE
  8
L-ZISSEN
 10
787.5
 20
258.0
 30
0.0
 40
5.5
  0
LINE
  8
L-TYUSIN
 10
795.5
 20
258.0
 30
0.0
 11
779.5
 21
258.0
 31
0.0
  0
LINE
  8
L-TYUSIN
 10
787.5
 20
266.0
 30
0.0
 11
787.5
 21
250.0
 31
0.0
  0
LINE
  8
L-ZISSEN
 10
792.5
 20
247.0
 30
0.0
 11
798.5
 21
253.0
 31
0.0
  0
LINE
  8
L-ZISSEN
 10
792.5
 20
173.0
 30
0.0
 11
798.5
 21
167.0
 31
0.0
  0
LINE
  8
L-TYUSIN
 10
787.5
 20
154.0
 30
0.0
 11
787.5
 21
170.0
 31
0.0
  0
LINE
  8
L-TYUSIN
 10
795.5
 20
162.0
 30
0.0
 11
779.5
 21
162.0
 31
0.0
  0
CIRCLE
  8
L-ZISSEN
 10
787.5
 20
162.0
 30
0.0
 40
5.5
  0
LINE
  8
L-ZISSEN
 10
787.5
 20
151.0
 30
0.0
 11
785.480762
 21
151.0
 31
0.0
  0
LINE
  8
L-ZISSEN
 10
798.5
 20
162.0
 30
0.0
 11
798.5
 21
167.0
 31
0.0
  0
ARC
  8
L-ZISSEN
 10
787.5
 20
162.0
 30
0.0
 40
11.0
 50
270.0
 51
0.0
  0
LINE
  8
L-ZISSEN
 10
759.5
 20
166.0
 30
0.0
 11
785.480762
 21
151.0
 31
0.0
  0
LINE
  8
L-ZISSEN
 10
600.5
 20
166.0
 30
0.0
 11
574.519238
 21
151.0
 31
0.0
  0
ARC
  8
L-ZISSEN
 10
572.5
 20
162.0
 30
0.0
 40
11.0
 50
180.0
 51
270.0
  0
LINE
  8
L-ZISSEN
 10
561.5
 20
162.0
 30
0.0
 11
561.5
 21
167.0
 31
0.0
  0
LINE
  8
L-ZISSEN
 10
572.5
 20
151.0
 30
0.0
 11
574.519238
 21
151.0
 31
0.0
  0
CIRCLE
  8
L-ZISSEN
 10
572.5
 20
162.0
 30
0.0
 40
5.5
  0
LINE
  8
L-TYUSIN
 10
564.5
 20
162.0
 30
0.0
 11
580.5
 21
162.0
 31
0.0
  0
LINE
  8
L-TYUSIN
 10
572.5
 20
154.0
 30
0.0
 11
572.5
 21
170.0
 31
0.0
  0
SOLID
  8
L-ZISSEN
 10
681.649916
 20
211.178511
 30
0.0
 11
681.178511
 21
211.649916
 31
0.0
 12
680.0
 22
210.0
 32
0.0
 13
680.0
 23
210.0
 33
0.0
  0
LINE
  8
L-ZISSEN
 10
681.414214
 20
211.414214
 30
0.0
 11
695.0
 21
225.0
 31
0.0
  0
LINE
  8
L-ZISSEN
 10
695.0
 20
225.0
 30
0.0
 11
697.0
 21
225.0
 31
0.0
  0
TEXT
  8
L-ZISSEN
 10
699.0
 20
222.75
 30
0.0
 40
4.5
  1
P.P
  0
SOLID
  8
L-ZISSEN
 10
200.893971
 20
271.81987
 30
0.0
 11
200.25542
 21
272.011435
 31
0.0
 12
200.0
 22
270.0
 32
0.0
 13
200.0
 23
270.0
 33
0.0
  0
LINE
  8
L-ZISSEN
 10
200.574696
 20
271.915653
 30
0.0
 11
215.0
 21
320.0
 31
0.0
  0
LINE
  8
L-ZISSEN
 10
215.0
 20
320.0
 30
0.0
 11
217.0
 21
320.0
 31
0.0
  0
TEXT
  8
L-ZISSEN
 10
219.0
 20
317.75
 30
0.0
 40
4.5
  1
P.P
  0
LINE
  8
L-ZISSEN
 10
332.7
 20
177.0
 30
0.0
 11
332.7
 21
110.0
 31
0.0
  0
LINE
  8
L-ZISSEN
 10
67.3
 20
177.0
 30
0.0
 11
67.3
 21
110.0
 31
0.0
  0
LINE
  8
L-ZISSEN
 10
332.7
 20
233.0
 30
0.0
 11
332.7
 21
307.0
 31
0.0
  0
LINE
  8
L-ZISSEN
 10
67.3
 20
233.0
 30
0.0
 11
67.3
 21
307.0
 31
0.0
  0
LINE
  8
L-ZISSEN
 10
125.1
 20
233.0
 30
0.0
 11
125.1
 21
307.0
 31
0.0
  0
LINE
  8
L-ZISSEN
 10
567.5
 20
247.0
 30
0.0
 11
561.5
 21
253.0
 31
0.0
  0
LINE
  8
L-ZISSEN
 10
567.5
 20
173.0
 30
0.0
 11
561.5
 21
167.0
 31
0.0
  0
LINE
  8
L-ZISSEN
 10
332.7
 20
363.0
 30
0.0
 11
332.7
 21
430.0
 31
0.0
  0
LINE
  8
L-ZISSEN
 10
67.3
 20
363.0
 30
0.0
 11
67.3
 21
430.0
 31
0.0
  0
SOLID
  8
L-ZISSEN
 10
201.262672
 20
432.586434
 30
0.0
 11
200.6799
 21
432.910196
 31
0.0
 12
200.0
 22
431.0
 32
0.0
 13
200.0
 23
431.0
 33
0.0
  0
LINE
  8
L-ZISSEN
 10
200.971286
 20
432.748315
 30
0.0
 11
205.0
 21
440.0
 31
0.0
  0
LINE
  8
L-ZISSEN
 10
205.0
 20
440.0
 30
0.0
 11
207.0
 21
440.0
 31
0.0
  0
TEXT
  8
L-ZISSEN
 10
209.0
 20
437.75
 30
0.0
 40
4.5
  1
P.P
  0
SOLID
  8
L-ZISSEN
 10
198.80743
 20
83.360217
 30
0.0
 11
199.403715
 21
83.062074
 31
0.0
 12
200.0
 22
85.0
 32
0.0
 13
200.0
 23
85.0
 33
0.0
  0
LINE
  8
L-ZISSEN
 10
199.105573
 20
83.211146
 30
0.0
 11
180.0
 21
45.0
 31
0.0
  0
LINE
  8
L-ZISSEN
 10
180.0
 20
45.0
 30
0.0
 11
178.0
 21
45.0
 31
0.0
  0
TEXT
  8
L-ZISSEN
 10
146.0
 20
42.75
 30
0.0
 40
4.5
  1
"1" PORT
  0
TEXT
  8
L-ZISSEN
 10
150.0
 20
35.0
 30
0.0
 40
4.5
  1
Rc 3/4
  0
TEXT
  8
L-ZISSEN
 10
150.0
 20
25.0
 30
0.0
 40
4.5
  1
Rc 1
  0
LINE
  8
L-ZISSEN
 10
145.0
 20
286.0
 30
0.0
 11
145.0
 21
254.0
 31
0.0
  0
LINE
  8
L-ZISSEN
 10
136.1
 20
286.0
 30
0.0
 11
136.1
 21
307.0
 31
0.0
  0
LINE
  8
L-ZISSEN
 10
255.0
 20
254.0
 30
0.0
 11
255.0
 21
286.0
 31
0.0
  0
LINE
  8
L-ZISSEN
 10
263.9
 20
254.0
 30
0.0
 11
263.9
 21
233.0
 31
0.0
  0
TEXT
  8
L-ZISSEN
 10
140.0
 20
520.0
 30
0.0
 40
4.5
  1
06D
  0
TEXT
  8
L-ZISSEN
 10
140.0
 20
510.0
 30
0.0
 40
4.5
  1
10D
  0
LINE
  8
L-TYUSIN
 10
180.0
 20
375.0
 30
0.0
 11
200.0
 21
375.0
 31
0.0
  0
LINE
  8
L-TYUSIN
 10
222.0
 20
365.0
 30
0.0
 11
222.0
 21
385.0
 31
0.0
  0
LINE
  8
L-TYUSIN
 10
190.0
 20
365.0
 30
0.0
 11
190.0
 21
385.0
 31
0.0
  0
CIRCLE
  8
L-ZISSEN
 10
190.0
 20
375.0
 30
0.0
 40
5.7225
  0
CIRCLE
  8
L-ZISSEN
 10
222.0
 20
375.0
 30
0.0
 40
5.7225
  0
LINE
  8
L-TYUSIN
 10
212.0
 20
375.0
 30
0.0
 11
232.0
 21
375.0
 31
0.0
  0
LINE
  8
L-TYUSIN
 10
452.0
 20
165.0
 30
0.0
 11
467.0
 21
165.0
 31
0.0
  0
LINE
  8
L-TYUSIN
 10
190.0
 20
297.0
 30
0.0
 11
190.0
 21
307.0
 31
0.0
  0
LINE
  8
L-TYUSIN
 10
222.0
 20
297.0
 30
0.0
 11
222.0
 21
307.0
 31
0.0
  0
ENDSEC
  0
EOF
