  0
SECTION
  2
HEADER
  9
$ACADVER
  1
AC1006
  9
$INSBASE
 10
0.0
 20
0.0
 30
0.0
  9
$EXTMIN
 10
0.0
 20
0.0
  9
$EXTMAX
 10
630.0
 20
420.0
  9
$LIMMIN
 10
0.0
 20
0.0
  9
$LIMMAX
 10
594.0
 20
420.0
  9
$ORTHOMODE
 70
     0
  9
$REGENMODE
 70
     1
  9
$FILLMODE
 70
     1
  9
$QTEXTMODE
 70
     0
  9
$MIRRTEXT
 70
     1
  9
$DRAGMODE
 70
     2
  9
$LTSCALE
 40
1.0
  9
$OSMODE
 70
     0
  9
$ATTMODE
 70
     1
  9
$TEXTSIZE
 40
4.5
  9
$TRACEWID
 40
0.05
  9
$TEXTSTYLE
  7
STANDARD
  9
$CLAYER
  8
L-ZISSEN
  9
$CELTYPE
  6
BYLAYER
  9
$CECOLOR
 62
   256
  9
$DIMSCALE
 40
1.0
  9
$DIMASZ
 40
2.0
  9
$DIMEXO
 40
2.0
  9
$DIMDLI
 40
0.38
  9
$DIMRND
 40
0.0
  9
$DIMDLE
 40
1.0
  9
$DIMEXE
 40
2.0
  9
$DIMTP
 40
0.0
  9
$DIMTM
 40
0.0
  9
$DIMTXT
 40
4.5
  9
$DIMCEN
 40
0.09
  9
$DIMTSZ
 40
0.0
  9
$DIMTOL
 70
     0
  9
$DIMLIM
 70
     0
  9
$DIMTIH
 70
     0
  9
$DIMTOH
 70
     0
  9
$DIMSE1
 70
     0
  9
$DIMSE2
 70
     0
  9
$DIMTAD
 70
     1
  9
$DIMZIN
 70
     0
  9
$DIMBLK
  1

  9
$DIMASO
 70
     0
  9
$DIMSHO
 70
     0
  9
$DIMPOST
  1

  9
$DIMAPOST
  1

  9
$DIMALT
 70
     0
  9
$DIMALTD
 70
     2
  9
$DIMALTF
 40
25.4
  9
$DIMLFAC
 40
1.0
  9
$DIMTOFL
 70
     1
  9
$DIMTVP
 40
0.0
  9
$DIMTIX
 70
     1
  9
$DIMSOXD
 70
     0
  9
$DIMSAH
 70
     0
  9
$DIMBLK1
  1

  9
$DIMBLK2
  1

  9
$LUNITS
 70
     2
  9
$LUPREC
 70
     4
  9
$AXISMODE
 70
     0
  9
$AXISUNIT
 10
0.0
 20
0.0
  9
$SKETCHINC
 40
0.1
  9
$FILLETRAD
 40
0.0
  9
$AUNITS
 70
     0
  9
$AUPREC
 70
     0
  9
$MENU
  1
acad
  9
$ELEVATION
 40
0.0
  9
$THICKNESS
 40
0.0
  9
$LIMCHECK
 70
     0
  9
$BLIPMODE
 70
     1
  9
$CHAMFERA
 40
0.0
  9
$CHAMFERB
 40
0.0
  9
$SKPOLY
 70
     0
  9
$TDCREATE
 40
2449002.7054868056
  9
$TDUPDATE
 40
2449002.7054868056
  9
$TDINDWG
 40
0.0000000000
  9
$TDUSRTIMER
 40
0.0000000000
  9
$USRTIMER
 70
     1
  9
$ANGBASE
 50
0.0
  9
$ANGDIR
 70
     0
  9
$PDMODE
 70
     0
  9
$PDSIZE
 40
0.0
  9
$PLINEWID
 40
0.0
  9
$COORDS
 70
     2
  9
$SPLFRAME
 70
     0
  9
$SPLINETYPE
 70
     6
  9
$SPLINESEGS
 70
     8
  9
$ATTDIA
 70
     0
  9
$ATTREQ
 70
     1
  9
$HANDLING
 70
     0
  9
$HANDSEED
  5
0
  9
$SURFTAB1
 70
     6
  9
$SURFTAB2
 70
     6
  9
$SURFTYPE
 70
     6
  9
$SURFU
 70
     6
  9
$SURFV
 70
     6
  9
$FLATLAND
 70
     0
  9
$UCSNAME
  2

  9
$UCSORG
 10
0.0
 20
0.0
 30
0.0
  9
$UCSXDIR
 10
1.0
 20
0.0
 30
0.0
  9
$UCSYDIR
 10
0.0
 20
1.0
 30
0.0
  9
$USERI1
 70
     0
  9
$USERI2
 70
     0
  9
$USERI3
 70
     0
  9
$USERI4
 70
     0
  9
$USERI5
 70
     0
  9
$USERR1
 40
0.0
  9
$USERR2
 40
0.0
  9
$USERR3
 40
0.0
  9
$USERR4
 40
0.0
  9
$USERR5
 40
0.0
  9
$WORLDVIEW
 70
     1
  0
ENDSEC
  0
SECTION
  2
TABLES
  0
TABLE
  2
VPORT
 70
     2
  0
VPORT
  2
*ACTIVE
 70
     0
 10
0.0
 20
0.0
 11
1.0
 21
1.0
 12
336.888065
 22
217.529623
 13
0.0
 23
0.0
 14
5.0
 24
5.0
 15
0.0
 25
0.0
 16
0.0
 26
0.0
 36
1.0
 17
0.0
 27
0.0
 37
0.0
 40
435.059245
 41
1.5487
 42
50.0
 43
0.0
 44
0.0
 50
0.0
 51
0.0
 71
     0
 72
   100
 73
     1
 74
     0
 75
     0
 76
     0
 77
     0
 78
     0
  0
ENDTAB
  0
TABLE
  2
LTYPE
 70
     2
  0
LTYPE
  2
CONTINUOUS
 70
    64
  3
Solid line
 72
    65
 73
     0
 40
0.0
  0
LTYPE
  2
CENTER
 70
    64
  3
____ _ ____ _ ____ _ ____ _ 
 72
    65
 73
     4
 40
60.0
 49
45.0
 49
-5.0
 49
5.0
 49
-5.0
  0
ENDTAB
  0
TABLE
  2
LAYER
 70
     3
  0
LAYER
  2
0
 70
     0
 62
     7
  6
CONTINUOUS
  0
LAYER
  2
L-ZISSEN
 70
    64
 62
     7
  6
CONTINUOUS
  0
LAYER
  2
L-TYUSIN
 70
    64
 62
     1
  6
CENTER
  0
ENDTAB
  0
TABLE
  2
STYLE
 70
     1
  0
STYLE
  2
STANDARD
 70
    64
 40
0.0
 41
1.0
 50
0.0
 71
     0
 42
4.5
  3
TXT
  4

  0
ENDTAB
  0
TABLE
  2
VIEW
 70
     0
  0
ENDTAB
  0
TABLE
  2
UCS
 70
     0
  0
ENDTAB
  0
TABLE
  2
DWGMGR
 70
     0
  0
ENDTAB
  0
ENDSEC
  0
SECTION
  2
BLOCKS
  0
ENDSEC
  0
SECTION
  2
ENTITIES
  0
LINE
  8
L-TYUSIN
 10
101.7
 20
180.0
 30
0.0
 11
348.3
 21
180.0
 31
0.0
  0
LINE
  8
L-ZISSEN
 10
270.8
 20
154.0
 30
0.0
 11
270.8
 21
206.0
 31
0.0
  0
LINE
  8
L-ZISSEN
 10
343.3
 20
206.0
 30
0.0
 11
262.7
 21
206.0
 31
0.0
  0
LINE
  8
L-ZISSEN
 10
179.2
 20
206.0
 30
0.0
 11
179.2
 21
154.0
 31
0.0
  0
LINE
  8
L-ZISSEN
 10
106.7
 20
154.0
 30
0.0
 11
343.3
 21
154.0
 31
0.0
  0
LINE
  8
L-ZISSEN
 10
270.8
 20
238.0
 30
0.0
 11
270.8
 21
272.0
 31
0.0
  0
LINE
  8
L-TYUSIN
 10
225.0
 20
286.0
 30
0.0
 11
225.0
 21
224.0
 31
0.0
  0
LINE
  8
L-TYUSIN
 10
101.7
 20
255.0
 30
0.0
 11
348.3
 21
255.0
 31
0.0
  0
LINE
  8
L-TYUSIN
 10
420.0
 20
121.5
 30
0.0
 11
420.0
 21
211.0
 31
0.0
  0
LINE
  8
L-TYUSIN
 10
399.0
 20
180.0
 30
0.0
 11
441.0
 21
180.0
 31
0.0
  0
LINE
  8
L-ZISSEN
 10
395.0
 20
154.0
 30
0.0
 11
445.0
 21
154.0
 31
0.0
  0
LINE
  8
L-ZISSEN
 10
187.3
 20
206.0
 30
0.0
 11
187.3
 21
162.0
 31
0.0
  0
LINE
  8
L-ZISSEN
 10
262.7
 20
162.0
 30
0.0
 11
262.7
 21
206.0
 31
0.0
  0
LINE
  8
L-ZISSEN
 10
262.7
 20
194.0
 30
0.0
 11
187.3
 21
194.0
 31
0.0
  0
LINE
  8
L-ZISSEN
 10
187.3
 20
206.0
 30
0.0
 11
106.7
 21
206.0
 31
0.0
  0
LINE
  8
L-ZISSEN
 10
270.8
 20
162.0
 30
0.0
 11
246.5
 21
162.0
 31
0.0
  0
LINE
  8
L-TYUSIN
 10
225.0
 20
199.0
 30
0.0
 11
225.0
 21
121.5
 31
0.0
  0
LINE
  8
L-ZISSEN
 10
187.3
 20
272.0
 30
0.0
 11
187.3
 21
238.0
 31
0.0
  0
LINE
  8
L-ZISSEN
 10
262.7
 20
238.0
 30
0.0
 11
262.7
 21
272.0
 31
0.0
  0
LINE
  8
L-ZISSEN
 10
179.2
 20
238.0
 30
0.0
 11
187.3
 21
238.0
 31
0.0
  0
LINE
  8
L-ZISSEN
 10
179.2
 20
272.0
 30
0.0
 11
187.3
 21
272.0
 31
0.0
  0
LINE
  8
L-ZISSEN
 10
262.7
 20
271.0
 30
0.0
 11
260.5
 21
271.0
 31
0.0
  0
LINE
  8
L-ZISSEN
 10
262.7
 20
238.0
 30
0.0
 11
270.8
 21
238.0
 31
0.0
  0
LINE
  8
L-ZISSEN
 10
262.7
 20
272.0
 30
0.0
 11
270.8
 21
272.0
 31
0.0
  0
LINE
  8
L-ZISSEN
 10
246.5
 20
230.0
 30
0.0
 11
246.5
 21
239.0
 31
0.0
  0
LINE
  8
L-ZISSEN
 10
235.5
 20
230.0
 30
0.0
 11
246.5
 21
230.0
 31
0.0
  0
LINE
  8
L-ZISSEN
 10
235.5
 20
230.0
 30
0.0
 11
235.5
 21
239.0
 31
0.0
  0
LINE
  8
L-ZISSEN
 10
262.7
 20
239.0
 30
0.0
 11
246.5
 21
239.0
 31
0.0
  0
LINE
  8
L-ZISSEN
 10
214.5
 20
230.0
 30
0.0
 11
214.5
 21
239.0
 31
0.0
  0
LINE
  8
L-ZISSEN
 10
214.5
 20
230.0
 30
0.0
 11
203.5
 21
230.0
 31
0.0
  0
LINE
  8
L-ZISSEN
 10
203.5
 20
230.0
 30
0.0
 11
203.5
 21
239.0
 31
0.0
  0
LINE
  8
L-ZISSEN
 10
260.5
 20
280.0
 30
0.0
 11
260.5
 21
271.0
 31
0.0
  0
LINE
  8
L-ZISSEN
 10
249.5
 20
280.0
 30
0.0
 11
260.5
 21
280.0
 31
0.0
  0
LINE
  8
L-ZISSEN
 10
249.5
 20
280.0
 30
0.0
 11
249.5
 21
271.0
 31
0.0
  0
LINE
  8
L-ZISSEN
 10
200.5
 20
280.0
 30
0.0
 11
200.5
 21
271.0
 31
0.0
  0
LINE
  8
L-ZISSEN
 10
189.5
 20
280.0
 30
0.0
 11
200.5
 21
280.0
 31
0.0
  0
LINE
  8
L-ZISSEN
 10
189.5
 20
280.0
 30
0.0
 11
189.5
 21
271.0
 31
0.0
  0
LINE
  8
L-ZISSEN
 10
270.8
 20
239.4
 30
0.0
 11
343.3
 21
239.4
 31
0.0
  0
LINE
  8
L-ZISSEN
 10
270.8
 20
270.6
 30
0.0
 11
343.3
 21
270.6
 31
0.0
  0
LINE
  8
L-ZISSEN
 10
235.5
 20
153.0
 30
0.0
 11
235.5
 21
185.0
 31
0.0
  0
LINE
  8
L-ZISSEN
 10
246.5
 20
153.0
 30
0.0
 11
246.5
 21
185.0
 31
0.0
  0
LINE
  8
L-ZISSEN
 10
246.5
 20
185.0
 30
0.0
 11
235.5
 21
185.0
 31
0.0
  0
LINE
  8
L-ZISSEN
 10
235.5
 20
162.0
 30
0.0
 11
214.5
 21
162.0
 31
0.0
  0
LINE
  8
L-ZISSEN
 10
245.25
 20
191.3
 30
0.0
 11
236.75
 21
191.3
 31
0.0
  0
LINE
  8
L-ZISSEN
 10
236.75
 20
191.3
 30
0.0
 11
236.75
 21
185.0
 31
0.0
  0
LINE
  8
L-ZISSEN
 10
245.25
 20
191.3
 30
0.0
 11
245.25
 21
185.0
 31
0.0
  0
LINE
  8
L-ZISSEN
 10
204.75
 20
191.3
 30
0.0
 11
204.75
 21
185.0
 31
0.0
  0
LINE
  8
L-ZISSEN
 10
213.25
 20
191.3
 30
0.0
 11
213.25
 21
185.0
 31
0.0
  0
LINE
  8
L-ZISSEN
 10
204.75
 20
191.3
 30
0.0
 11
213.25
 21
191.3
 31
0.0
  0
LINE
  8
L-ZISSEN
 10
203.5
 20
185.0
 30
0.0
 11
214.5
 21
185.0
 31
0.0
  0
LINE
  8
L-ZISSEN
 10
203.5
 20
153.0
 30
0.0
 11
203.5
 21
185.0
 31
0.0
  0
LINE
  8
L-ZISSEN
 10
214.5
 20
153.0
 30
0.0
 11
214.5
 21
185.0
 31
0.0
  0
LINE
  8
L-ZISSEN
 10
203.5
 20
162.0
 30
0.0
 11
179.2
 21
162.0
 31
0.0
  0
CIRCLE
  8
L-ZISSEN
 10
195.0
 20
274.5
 30
0.0
 40
4.25
  0
LINE
  8
L-ZISSEN
 10
189.5
 20
271.0
 30
0.0
 11
187.3
 21
271.0
 31
0.0
  0
LINE
  8
L-ZISSEN
 10
249.5
 20
271.0
 30
0.0
 11
200.5
 21
271.0
 31
0.0
  0
LINE
  8
L-ZISSEN
 10
235.5
 20
239.0
 30
0.0
 11
214.5
 21
239.0
 31
0.0
  0
LINE
  8
L-ZISSEN
 10
203.5
 20
239.0
 30
0.0
 11
187.3
 21
239.0
 31
0.0
  0
CIRCLE
  8
L-ZISSEN
 10
255.0
 20
274.5
 30
0.0
 40
4.25
  0
CIRCLE
  8
L-ZISSEN
 10
241.0
 20
235.5
 30
0.0
 40
4.25
  0
CIRCLE
  8
L-ZISSEN
 10
209.0
 20
235.5
 30
0.0
 40
4.25
  0
LINE
  8
L-ZISSEN
 10
179.0
 20
153.0
 30
0.0
 11
271.0
 21
153.0
 31
0.0
  0
LINE
  8
L-ZISSEN
 10
162.5
 20
117.5
 30
0.0
 11
187.803848
 21
117.5
 31
0.0
  0
LINE
  8
L-ZISSEN
 10
179.0
 20
154.0
 30
0.0
 11
179.0
 21
126.5
 31
0.0
  0
LINE
  8
L-ZISSEN
 10
271.0
 20
154.0
 30
0.0
 11
271.0
 21
126.5
 31
0.0
  0
LINE
  8
L-ZISSEN
 10
162.5
 20
126.5
 30
0.0
 11
287.5
 21
126.5
 31
0.0
  0
LINE
  8
L-ZISSEN
 10
287.5
 20
117.5
 30
0.0
 11
287.5
 21
126.5
 31
0.0
  0
LINE
  8
L-ZISSEN
 10
162.5
 20
117.5
 30
0.0
 11
162.5
 21
126.5
 31
0.0
  0
LINE
  8
L-ZISSEN
 10
257.0
 20
126.5
 30
0.0
 11
262.196152
 21
117.5
 31
0.0
  0
LINE
  8
L-ZISSEN
 10
262.196152
 20
117.5
 30
0.0
 11
262.196152
 21
126.5
 31
0.0
  0
LINE
  8
L-ZISSEN
 10
187.803848
 20
117.5
 30
0.0
 11
187.803848
 21
126.5
 31
0.0
  0
LINE
  8
L-ZISSEN
 10
193.0
 20
126.5
 30
0.0
 11
187.803848
 21
117.5
 31
0.0
  0
LINE
  8
L-ZISSEN
 10
262.196152
 20
117.5
 30
0.0
 11
287.5
 21
117.5
 31
0.0
  0
LINE
  8
L-TYUSIN
 10
235.0
 20
139.5
 30
0.0
 11
215.0
 21
139.5
 31
0.0
  0
CIRCLE
  8
L-ZISSEN
 10
225.0
 20
139.5
 30
0.0
 40
5.7225
  0
LINE
  8
L-TYUSIN
 10
267.0
 20
139.5
 30
0.0
 11
247.0
 21
139.5
 31
0.0
  0
LINE
  8
L-TYUSIN
 10
257.0
 20
149.5
 30
0.0
 11
257.0
 21
129.5
 31
0.0
  0
CIRCLE
  8
L-ZISSEN
 10
257.0
 20
139.5
 30
0.0
 40
5.7225
  0
CIRCLE
  8
L-ZISSEN
 10
193.0
 20
139.5
 30
0.0
 40
5.7225
  0
LINE
  8
L-TYUSIN
 10
183.0
 20
139.5
 30
0.0
 11
203.0
 21
139.5
 31
0.0
  0
LINE
  8
L-TYUSIN
 10
193.0
 20
149.5
 30
0.0
 11
193.0
 21
129.5
 31
0.0
  0
LINE
  8
L-ZISSEN
 10
179.0
 20
229.0
 30
0.0
 11
271.0
 21
229.0
 31
0.0
  0
LINE
  8
L-ZISSEN
 10
179.0
 20
281.0
 30
0.0
 11
271.0
 21
281.0
 31
0.0
  0
LINE
  8
L-ZISSEN
 10
179.0
 20
281.0
 30
0.0
 11
179.0
 21
270.6
 31
0.0
  0
LINE
  8
L-ZISSEN
 10
271.0
 20
281.0
 30
0.0
 11
271.0
 21
270.6
 31
0.0
  0
LINE
  8
L-ZISSEN
 10
271.0
 20
239.4
 30
0.0
 11
271.0
 21
229.0
 31
0.0
  0
LINE
  8
L-ZISSEN
 10
179.0
 20
239.4
 30
0.0
 11
179.0
 21
229.0
 31
0.0
  0
LINE
  8
L-TYUSIN
 10
257.0
 20
224.0
 30
0.0
 11
257.0
 21
234.0
 31
0.0
  0
LINE
  8
L-TYUSIN
 10
193.0
 20
224.0
 30
0.0
 11
193.0
 21
234.0
 31
0.0
  0
LINE
  8
L-TYUSIN
 10
241.0
 20
276.0
 30
0.0
 11
241.0
 21
286.0
 31
0.0
  0
LINE
  8
L-TYUSIN
 10
209.0
 20
276.0
 30
0.0
 11
209.0
 21
286.0
 31
0.0
  0
LINE
  8
L-TYUSIN
 10
280.0
 20
289.0
 30
0.0
 11
280.0
 21
269.0
 31
0.0
  0
LINE
  8
L-TYUSIN
 10
270.0
 20
279.0
 30
0.0
 11
290.0
 21
279.0
 31
0.0
  0
CIRCLE
  8
L-ZISSEN
 10
280.0
 20
279.0
 30
0.0
 40
3.5
  0
LINE
  8
L-TYUSIN
 10
270.0
 20
231.0
 30
0.0
 11
290.0
 21
231.0
 31
0.0
  0
CIRCLE
  8
L-ZISSEN
 10
280.0
 20
231.0
 30
0.0
 40
3.5
  0
LINE
  8
L-TYUSIN
 10
280.0
 20
221.0
 30
0.0
 11
280.0
 21
241.0
 31
0.0
  0
CIRCLE
  8
L-ZISSEN
 10
170.0
 20
231.0
 30
0.0
 40
3.5
  0
LINE
  8
L-TYUSIN
 10
180.0
 20
231.0
 30
0.0
 11
160.0
 21
231.0
 31
0.0
  0
LINE
  8
L-TYUSIN
 10
170.0
 20
221.0
 30
0.0
 11
170.0
 21
241.0
 31
0.0
  0
LINE
  8
L-TYUSIN
 10
180.0
 20
279.0
 30
0.0
 11
160.0
 21
279.0
 31
0.0
  0
LINE
  8
L-TYUSIN
 10
170.0
 20
289.0
 30
0.0
 11
170.0
 21
269.0
 31
0.0
  0
CIRCLE
  8
L-ZISSEN
 10
170.0
 20
279.0
 30
0.0
 40
3.5
  0
LINE
  8
L-ZISSEN
 10
404.4
 20
154.0
 30
0.0
 11
404.4
 21
206.0
 31
0.0
  0
LINE
  8
L-ZISSEN
 10
435.6
 20
154.0
 30
0.0
 11
435.6
 21
206.0
 31
0.0
  0
LINE
  8
L-ZISSEN
 10
437.0
 20
206.0
 30
0.0
 11
403.0
 21
206.0
 31
0.0
  0
LINE
  8
L-ZISSEN
 10
437.0
 20
206.0
 30
0.0
 11
437.0
 21
153.0
 31
0.0
  0
LINE
  8
L-ZISSEN
 10
403.0
 20
206.0
 30
0.0
 11
403.0
 21
153.0
 31
0.0
  0
LINE
  8
L-ZISSEN
 10
394.0
 20
153.0
 30
0.0
 11
446.0
 21
153.0
 31
0.0
  0
LINE
  8
L-ZISSEN
 10
445.0
 20
153.0
 30
0.0
 11
445.0
 21
185.0
 31
0.0
  0
LINE
  8
L-ZISSEN
 10
445.0
 20
185.0
 30
0.0
 11
437.0
 21
185.0
 31
0.0
  0
LINE
  8
L-ZISSEN
 10
443.75
 20
191.3
 30
0.0
 11
437.0
 21
191.3
 31
0.0
  0
LINE
  8
L-ZISSEN
 10
443.75
 20
191.3
 30
0.0
 11
443.75
 21
185.0
 31
0.0
  0
LINE
  8
L-ZISSEN
 10
396.25
 20
191.3
 30
0.0
 11
403.0
 21
191.3
 31
0.0
  0
LINE
  8
L-ZISSEN
 10
396.25
 20
191.3
 30
0.0
 11
396.25
 21
185.0
 31
0.0
  0
LINE
  8
L-ZISSEN
 10
395.0
 20
185.0
 30
0.0
 11
403.0
 21
185.0
 31
0.0
  0
LINE
  8
L-ZISSEN
 10
395.0
 20
153.0
 30
0.0
 11
395.0
 21
185.0
 31
0.0
  0
LINE
  8
L-ZISSEN
 10
394.0
 20
153.0
 30
0.0
 11
394.0
 21
126.5
 31
0.0
  0
LINE
  8
L-ZISSEN
 10
446.0
 20
126.5
 30
0.0
 11
446.0
 21
153.0
 31
0.0
  0
LINE
  8
L-ZISSEN
 10
388.5
 20
126.5
 30
0.0
 11
451.5
 21
126.5
 31
0.0
  0
LINE
  8
L-ZISSEN
 10
388.5
 20
117.5
 30
0.0
 11
409.969882
 21
117.5
 31
0.0
  0
LINE
  8
L-ZISSEN
 10
388.5
 20
126.5
 30
0.0
 11
388.5
 21
117.5
 31
0.0
  0
LINE
  8
L-ZISSEN
 10
451.5
 20
126.5
 30
0.0
 11
451.5
 21
117.5
 31
0.0
  0
LINE
  8
L-ZISSEN
 10
430.030118
 20
126.5
 30
0.0
 11
430.030118
 21
117.5
 31
0.0
  0
LINE
  8
L-ZISSEN
 10
409.969882
 20
126.5
 30
0.0
 11
409.969882
 21
117.5
 31
0.0
  0
LINE
  8
L-ZISSEN
 10
430.030118
 20
117.5
 30
0.0
 11
451.5
 21
117.5
 31
0.0
  0
LINE
  8
L-TYUSIN
 10
280.0
 20
112.5
 30
0.0
 11
280.0
 21
131.5
 31
0.0
  0
LINE
  8
L-TYUSIN
 10
170.0
 20
112.5
 30
0.0
 11
170.0
 21
131.5
 31
0.0
  0
LINE
  8
L-TYUSIN
 10
396.0
 20
112.5
 30
0.0
 11
396.0
 21
131.5
 31
0.0
  0
LINE
  8
L-TYUSIN
 10
444.0
 20
112.5
 30
0.0
 11
444.0
 21
131.5
 31
0.0
  0
LINE
  8
L-TYUSIN
 10
399.0
 20
139.5
 30
0.0
 11
389.0
 21
139.5
 31
0.0
  0
LINE
  8
L-TYUSIN
 10
441.0
 20
139.5
 30
0.0
 11
451.0
 21
139.5
 31
0.0
  0
LINE
  8
L-TYUSIN
 10
170.0
 20
397.5
 30
0.0
 11
170.0
 21
378.5
 31
0.0
  0
LINE
  8
L-TYUSIN
 10
280.0
 20
397.5
 30
0.0
 11
280.0
 21
378.5
 31
0.0
  0
LINE
  8
L-TYUSIN
 10
209.0
 20
360.5
 30
0.0
 11
209.0
 21
380.5
 31
0.0
  0
LINE
  8
L-TYUSIN
 10
199.0
 20
370.5
 30
0.0
 11
219.0
 21
370.5
 31
0.0
  0
CIRCLE
  8
L-ZISSEN
 10
209.0
 20
370.5
 30
0.0
 40
5.7225
  0
CIRCLE
  8
L-ZISSEN
 10
241.0
 20
370.5
 30
0.0
 40
5.7225
  0
LINE
  8
L-TYUSIN
 10
241.0
 20
360.5
 30
0.0
 11
241.0
 21
380.5
 31
0.0
  0
LINE
  8
L-TYUSIN
 10
251.0
 20
370.5
 30
0.0
 11
231.0
 21
370.5
 31
0.0
  0
LINE
  8
L-ZISSEN
 10
262.196152
 20
392.5
 30
0.0
 11
287.5
 21
392.5
 31
0.0
  0
LINE
  8
L-ZISSEN
 10
193.0
 20
383.5
 30
0.0
 11
187.803848
 21
392.5
 31
0.0
  0
LINE
  8
L-ZISSEN
 10
187.803848
 20
392.5
 30
0.0
 11
187.803848
 21
383.5
 31
0.0
  0
LINE
  8
L-ZISSEN
 10
262.196152
 20
392.5
 30
0.0
 11
262.196152
 21
383.5
 31
0.0
  0
LINE
  8
L-ZISSEN
 10
257.0
 20
383.5
 30
0.0
 11
262.196152
 21
392.5
 31
0.0
  0
LINE
  8
L-ZISSEN
 10
162.5
 20
392.5
 30
0.0
 11
162.5
 21
383.5
 31
0.0
  0
LINE
  8
L-ZISSEN
 10
287.5
 20
392.5
 30
0.0
 11
287.5
 21
383.5
 31
0.0
  0
LINE
  8
L-ZISSEN
 10
162.5
 20
383.5
 30
0.0
 11
287.5
 21
383.5
 31
0.0
  0
LINE
  8
L-ZISSEN
 10
271.0
 20
356.0
 30
0.0
 11
271.0
 21
383.5
 31
0.0
  0
LINE
  8
L-ZISSEN
 10
179.0
 20
356.0
 30
0.0
 11
179.0
 21
383.5
 31
0.0
  0
LINE
  8
L-ZISSEN
 10
162.5
 20
392.5
 30
0.0
 11
187.803848
 21
392.5
 31
0.0
  0
LINE
  8
L-ZISSEN
 10
179.0
 20
357.0
 30
0.0
 11
271.0
 21
357.0
 31
0.0
  0
LINE
  8
L-ZISSEN
 10
249.5
 20
348.0
 30
0.0
 11
200.5
 21
348.0
 31
0.0
  0
LINE
  8
L-ZISSEN
 10
200.5
 20
357.0
 30
0.0
 11
200.5
 21
325.0
 31
0.0
  0
LINE
  8
L-ZISSEN
 10
189.5
 20
357.0
 30
0.0
 11
189.5
 21
325.0
 31
0.0
  0
LINE
  8
L-ZISSEN
 10
189.5
 20
325.0
 30
0.0
 11
200.5
 21
325.0
 31
0.0
  0
LINE
  8
L-ZISSEN
 10
190.75
 20
318.7
 30
0.0
 11
199.25
 21
318.7
 31
0.0
  0
LINE
  8
L-ZISSEN
 10
199.25
 20
318.7
 30
0.0
 11
199.25
 21
325.0
 31
0.0
  0
LINE
  8
L-ZISSEN
 10
190.75
 20
318.7
 30
0.0
 11
190.75
 21
325.0
 31
0.0
  0
LINE
  8
L-TYUSIN
 10
225.0
 20
311.0
 30
0.0
 11
225.0
 21
388.5
 31
0.0
  0
LINE
  8
L-ZISSEN
 10
270.8
 20
348.0
 30
0.0
 11
260.5
 21
348.0
 31
0.0
  0
LINE
  8
L-ZISSEN
 10
187.3
 20
304.0
 30
0.0
 11
106.7
 21
304.0
 31
0.0
  0
LINE
  8
L-ZISSEN
 10
262.7
 20
316.0
 30
0.0
 11
187.3
 21
316.0
 31
0.0
  0
LINE
  8
L-ZISSEN
 10
262.7
 20
348.0
 30
0.0
 11
262.7
 21
304.0
 31
0.0
  0
LINE
  8
L-ZISSEN
 10
187.3
 20
304.0
 30
0.0
 11
187.3
 21
348.0
 31
0.0
  0
LINE
  8
L-ZISSEN
 10
106.7
 20
356.0
 30
0.0
 11
343.3
 21
356.0
 31
0.0
  0
LINE
  8
L-ZISSEN
 10
343.3
 20
304.0
 30
0.0
 11
262.7
 21
304.0
 31
0.0
  0
LINE
  8
L-ZISSEN
 10
270.8
 20
356.0
 30
0.0
 11
270.8
 21
304.0
 31
0.0
  0
LINE
  8
L-TYUSIN
 10
101.7
 20
330.0
 30
0.0
 11
348.3
 21
330.0
 31
0.0
  0
LINE
  8
L-ZISSEN
 10
189.5
 20
348.0
 30
0.0
 11
179.2
 21
348.0
 31
0.0
  0
LINE
  8
L-ZISSEN
 10
249.5
 20
357.0
 30
0.0
 11
249.5
 21
325.0
 31
0.0
  0
LINE
  8
L-ZISSEN
 10
260.5
 20
357.0
 30
0.0
 11
260.5
 21
325.0
 31
0.0
  0
LINE
  8
L-ZISSEN
 10
260.5
 20
325.0
 30
0.0
 11
249.5
 21
325.0
 31
0.0
  0
LINE
  8
L-ZISSEN
 10
250.75
 20
318.7
 30
0.0
 11
250.75
 21
325.0
 31
0.0
  0
LINE
  8
L-ZISSEN
 10
259.25
 20
318.7
 30
0.0
 11
259.25
 21
325.0
 31
0.0
  0
LINE
  8
L-ZISSEN
 10
259.25
 20
318.7
 30
0.0
 11
250.75
 21
318.7
 31
0.0
  0
CIRCLE
  8
L-ZISSEN
 10
170.0
 20
74.0
 30
0.0
 40
3.5
  0
LINE
  8
L-TYUSIN
 10
170.0
 20
84.0
 30
0.0
 11
170.0
 21
64.0
 31
0.0
  0
LINE
  8
L-TYUSIN
 10
180.0
 20
74.0
 30
0.0
 11
160.0
 21
74.0
 31
0.0
  0
LINE
  8
L-TYUSIN
 10
170.0
 20
16.0
 30
0.0
 11
170.0
 21
36.0
 31
0.0
  0
LINE
  8
L-TYUSIN
 10
180.0
 20
26.0
 30
0.0
 11
160.0
 21
26.0
 31
0.0
  0
CIRCLE
  8
L-ZISSEN
 10
170.0
 20
26.0
 30
0.0
 40
3.5
  0
LINE
  8
L-TYUSIN
 10
280.0
 20
16.0
 30
0.0
 11
280.0
 21
36.0
 31
0.0
  0
LINE
  8
L-ZISSEN
 10
271.0
 20
39.856406
 30
0.0
 11
283.75
 21
32.495191
 31
0.0
  0
ARC
  8
L-ZISSEN
 10
280.0
 20
26.0
 30
0.0
 40
7.5
 50
270.0
 51
60.0
  0
CIRCLE
  8
L-ZISSEN
 10
280.0
 20
26.0
 30
0.0
 40
3.5
  0
LINE
  8
L-TYUSIN
 10
270.0
 20
26.0
 30
0.0
 11
290.0
 21
26.0
 31
0.0
  0
CIRCLE
  8
L-ZISSEN
 10
280.0
 20
74.0
 30
0.0
 40
3.5
  0
LINE
  8
L-ZISSEN
 10
271.0
 20
60.143594
 30
0.0
 11
283.75
 21
67.504809
 31
0.0
  0
ARC
  8
L-ZISSEN
 10
280.0
 20
74.0
 30
0.0
 40
7.5
 50
300.0
 51
90.0
  0
LINE
  8
L-TYUSIN
 10
270.0
 20
74.0
 30
0.0
 11
290.0
 21
74.0
 31
0.0
  0
LINE
  8
L-TYUSIN
 10
280.0
 20
84.0
 30
0.0
 11
280.0
 21
64.0
 31
0.0
  0
LINE
  8
L-TYUSIN
 10
209.0
 20
29.0
 30
0.0
 11
209.0
 21
19.0
 31
0.0
  0
LINE
  8
L-TYUSIN
 10
241.0
 20
29.0
 30
0.0
 11
241.0
 21
19.0
 31
0.0
  0
LINE
  8
L-TYUSIN
 10
193.0
 20
81.0
 30
0.0
 11
193.0
 21
71.0
 31
0.0
  0
LINE
  8
L-TYUSIN
 10
257.0
 20
81.0
 30
0.0
 11
257.0
 21
71.0
 31
0.0
  0
LINE
  8
L-ZISSEN
 10
271.0
 20
60.143594
 30
0.0
 11
271.0
 21
39.856406
 31
0.0
  0
LINE
  8
L-ZISSEN
 10
187.803848
 20
76.0
 30
0.0
 11
262.196152
 21
76.0
 31
0.0
  0
LINE
  8
L-ZISSEN
 10
187.803848
 20
24.0
 30
0.0
 11
262.196152
 21
24.0
 31
0.0
  0
LINE
  8
L-ZISSEN
 10
280.450773
 20
65.6
 30
0.0
 11
343.3
 21
65.6
 31
0.0
  0
LINE
  8
L-ZISSEN
 10
280.450773
 20
34.4
 30
0.0
 11
343.3
 21
34.4
 31
0.0
  0
LINE
  8
L-TYUSIN
 10
101.7
 20
50.0
 30
0.0
 11
348.3
 21
50.0
 31
0.0
  0
LINE
  8
L-TYUSIN
 10
225.0
 20
19.0
 30
0.0
 11
225.0
 21
81.0
 31
0.0
  0
LINE
  8
L-ZISSEN
 10
257.0
 20
76.0
 30
0.0
 11
257.0
 21
24.0
 31
0.0
  0
LINE
  8
L-ZISSEN
 10
262.196152
 20
76.0
 30
0.0
 11
262.196152
 21
24.0
 31
0.0
  0
LINE
  8
L-ZISSEN
 10
262.196152
 20
76.0
 30
0.0
 11
280.0
 21
81.5
 31
0.0
  0
LINE
  8
L-ZISSEN
 10
262.196152
 20
24.0
 30
0.0
 11
280.0
 21
18.5
 31
0.0
  0
LINE
  8
L-ZISSEN
 10
179.0
 20
60.143594
 30
0.0
 11
166.25
 21
67.504809
 31
0.0
  0
LINE
  8
L-ZISSEN
 10
179.0
 20
60.143594
 30
0.0
 11
179.0
 21
39.856406
 31
0.0
  0
LINE
  8
L-ZISSEN
 10
179.0
 20
39.856406
 30
0.0
 11
166.25
 21
32.495191
 31
0.0
  0
LINE
  8
L-ZISSEN
 10
193.0
 20
76.0
 30
0.0
 11
193.0
 21
24.0
 31
0.0
  0
LINE
  8
L-ZISSEN
 10
187.803848
 20
76.0
 30
0.0
 11
170.0
 21
81.5
 31
0.0
  0
LINE
  8
L-ZISSEN
 10
187.803848
 20
76.0
 30
0.0
 11
187.803848
 21
24.0
 31
0.0
  0
ARC
  8
L-ZISSEN
 10
170.0
 20
74.0
 30
0.0
 40
7.5
 50
90.0
 51
240.0
  0
ARC
  8
L-ZISSEN
 10
170.0
 20
26.0
 30
0.0
 40
7.5
 50
120.0
 51
270.0
  0
LINE
  8
L-ZISSEN
 10
187.803848
 20
24.0
 30
0.0
 11
170.0
 21
18.5
 31
0.0
  0
ARC
  8
L-ZISSEN
 10
170.0
 20
231.0
 30
0.0
 40
7.5
 50
120.0
 51
270.0
  0
LINE
  8
L-ZISSEN
 10
187.803848
 20
229.0
 30
0.0
 11
170.0
 21
223.5
 31
0.0
  0
ARC
  8
L-ZISSEN
 10
170.0
 20
279.0
 30
0.0
 40
7.5
 50
90.0
 51
240.0
  0
LINE
  8
L-ZISSEN
 10
187.803848
 20
281.0
 30
0.0
 11
170.0
 21
286.5
 31
0.0
  0
ARC
  8
L-ZISSEN
 10
280.0
 20
279.0
 30
0.0
 40
7.5
 50
300.0
 51
90.0
  0
LINE
  8
L-ZISSEN
 10
262.196152
 20
281.0
 30
0.0
 11
280.0
 21
286.5
 31
0.0
  0
LINE
  8
L-ZISSEN
 10
280.450773
 20
270.6
 30
0.0
 11
283.75
 21
272.504809
 31
0.0
  0
LINE
  8
L-ZISSEN
 10
280.450773
 20
239.4
 30
0.0
 11
283.75
 21
237.495191
 31
0.0
  0
ARC
  8
L-ZISSEN
 10
280.0
 20
231.0
 30
0.0
 40
7.5
 50
270.0
 51
60.0
  0
LINE
  8
L-ZISSEN
 10
262.196152
 20
229.0
 30
0.0
 11
280.0
 21
223.5
 31
0.0
  0
LINE
  8
L-ZISSEN
 10
169.549227
 20
34.4
 30
0.0
 11
106.7
 21
34.4
 31
0.0
  0
LINE
  8
L-ZISSEN
 10
169.549227
 20
65.6
 30
0.0
 11
106.7
 21
65.6
 31
0.0
  0
LINE
  8
L-ZISSEN
 10
169.549227
 20
239.4
 30
0.0
 11
166.25
 21
237.495191
 31
0.0
  0
LINE
  8
L-ZISSEN
 10
169.549227
 20
270.6
 30
0.0
 11
166.25
 21
272.504809
 31
0.0
  0
LINE
  8
L-ZISSEN
 10
179.2
 20
270.6
 30
0.0
 11
106.7
 21
270.6
 31
0.0
  0
LINE
  8
L-ZISSEN
 10
179.2
 20
239.4
 30
0.0
 11
106.7
 21
239.4
 31
0.0
  0
LINE
  8
L-ZISSEN
 10
179.2
 20
238.0
 30
0.0
 11
179.2
 21
272.0
 31
0.0
  0
LINE
  8
L-ZISSEN
 10
179.2
 20
356.0
 30
0.0
 11
179.2
 21
304.0
 31
0.0
  0
LINE
  8
L-ZISSEN
 10
318.3
 20
154.0
 30
0.0
 11
318.3
 21
206.0
 31
0.0
  0
LINE
  8
L-ZISSEN
 10
318.3
 20
239.4
 30
0.0
 11
318.3
 21
270.6
 31
0.0
  0
LINE
  8
L-ZISSEN
 10
131.7
 20
239.4
 30
0.0
 11
131.7
 21
270.6
 31
0.0
  0
LINE
  8
L-ZISSEN
 10
131.7
 20
154.0
 30
0.0
 11
131.7
 21
206.0
 31
0.0
  0
LINE
  8
L-ZISSEN
 10
318.3
 20
304.0
 30
0.0
 11
318.3
 21
356.0
 31
0.0
  0
LINE
  8
L-ZISSEN
 10
131.7
 20
304.0
 30
0.0
 11
131.7
 21
356.0
 31
0.0
  0
LINE
  8
L-ZISSEN
 10
318.3
 20
65.6
 30
0.0
 11
318.3
 21
34.4
 31
0.0
  0
LINE
  8
L-ZISSEN
 10
131.7
 20
65.6
 30
0.0
 11
131.7
 21
34.4
 31
0.0
  0
LINE
  8
L-ZISSEN
 10
343.3
 20
304.0
 30
0.0
 11
343.3
 21
356.0
 31
0.0
  0
LINE
  8
L-ZISSEN
 10
343.3
 20
239.4
 30
0.0
 11
343.3
 21
270.6
 31
0.0
  0
LINE
  8
L-ZISSEN
 10
343.3
 20
154.0
 30
0.0
 11
343.3
 21
206.0
 31
0.0
  0
LINE
  8
L-ZISSEN
 10
343.3
 20
65.6
 30
0.0
 11
343.3
 21
34.4
 31
0.0
  0
LINE
  8
L-ZISSEN
 10
106.7
 20
65.6
 30
0.0
 11
106.7
 21
34.4
 31
0.0
  0
LINE
  8
L-ZISSEN
 10
106.7
 20
154.0
 30
0.0
 11
106.7
 21
206.0
 31
0.0
  0
LINE
  8
L-ZISSEN
 10
106.7
 20
239.4
 30
0.0
 11
106.7
 21
270.6
 31
0.0
  0
LINE
  8
L-ZISSEN
 10
106.7
 20
304.0
 30
0.0
 11
106.7
 21
356.0
 31
0.0
  0
CIRCLE
  8
L-ZISSEN
 10
420.0
 20
180.0
 30
0.0
 40
5.7225
  0
TEXT
  8
L-ZISSEN
 10
15.0
 20
390.0
 30
0.0
 40
4.5
  1
MODEL No. :
  0
TEXT
  8
L-ZISSEN
 10
60.0
 20
390.0
 30
0.0
 40
4.5
  1
MVM-4 2-
  0
SOLID
  8
L-ZISSEN
 10
224.042233
 20
137.712881
 30
0.0
 11
224.67361
 21
137.498855
 31
0.0
 12
225.0
 22
139.5
 32
0.0
 13
225.0
 23
139.5
 33
0.0
  0
LINE
  8
L-ZISSEN
 10
224.357921
 20
137.605868
 30
0.0
 11
215.0
 21
110.0
 31
0.0
  0
LINE
  8
L-ZISSEN
 10
215.0
 20
110.0
 30
0.0
 11
213.0
 21
110.0
 31
0.0
  0
TEXT
  8
L-ZISSEN
 10
181.0
 20
107.75
 30
0.0
 40
4.5
  1
"1" PORT
  0
TEXT
  8
L-ZISSEN
 10
185.0
 20
100.0
 30
0.0
 40
4.5
  1
Rc 1/4
  0
TEXT
  8
L-ZISSEN
 10
185.0
 20
90.0
 30
0.0
 40
4.5
  1
Rc 3/8
  0
TEXT
  8
L-ZISSEN
 10
84.0
 20
390.0
 30
0.0
 40
4.5
  1
4
  0
TEXT
  8
L-ZISSEN
 10
84.0
 20
397.0
 30
0.0
 40
4.5
  1
3
  0
TEXT
  8
L-ZISSEN
 10
84.0
 20
383.0
 30
0.0
 40
4.5
  1
5
  0
TEXT
  8
L-ZISSEN
 10
98.0
 20
394.0
 30
0.0
 40
4.5
  1
02
  0
TEXT
  8
L-ZISSEN
 10
98.0
 20
387.0
 30
0.0
 40
4.5
  1
03J
  0
ENDSEC
  0
EOF
