  0
SECTION
  2
HEADER
  9
$ACADVER
  1
AC1006
  9
$INSBASE
 10
0.0
 20
0.0
 30
0.0
  9
$EXTMIN
 10
0.0
 20
0.0
  9
$EXTMAX
 10
430.0
 20
297.0
  9
$LIMMIN
 10
0.0
 20
0.0
  9
$LIMMAX
 10
420.0
 20
297.0
  9
$ORTHOMODE
 70
     0
  9
$REGENMODE
 70
     1
  9
$FILLMODE
 70
     1
  9
$QTEXTMODE
 70
     0
  9
$MIRRTEXT
 70
     1
  9
$DRAGMODE
 70
     2
  9
$LTSCALE
 40
1.0
  9
$OSMODE
 70
     0
  9
$ATTMODE
 70
     1
  9
$TEXTSIZE
 40
4.5
  9
$TRACEWID
 40
0.05
  9
$TEXTSTYLE
  7
STANDARD
  9
$CLAYER
  8
L-ZISSEN
  9
$CELTYPE
  6
BYLAYER
  9
$CECOLOR
 62
   256
  9
$DIMSCALE
 40
1.0
  9
$DIMASZ
 40
2.0
  9
$DIMEXO
 40
2.0
  9
$DIMDLI
 40
0.38
  9
$DIMRND
 40
0.0
  9
$DIMDLE
 40
1.0
  9
$DIMEXE
 40
2.0
  9
$DIMTP
 40
0.0
  9
$DIMTM
 40
0.0
  9
$DIMTXT
 40
4.5
  9
$DIMCEN
 40
0.09
  9
$DIMTSZ
 40
0.0
  9
$DIMTOL
 70
     0
  9
$DIMLIM
 70
     0
  9
$DIMTIH
 70
     0
  9
$DIMTOH
 70
     0
  9
$DIMSE1
 70
     0
  9
$DIMSE2
 70
     0
  9
$DIMTAD
 70
     1
  9
$DIMZIN
 70
     0
  9
$DIMBLK
  1

  9
$DIMASO
 70
     0
  9
$DIMSHO
 70
     0
  9
$DIMPOST
  1

  9
$DIMAPOST
  1

  9
$DIMALT
 70
     0
  9
$DIMALTD
 70
     2
  9
$DIMALTF
 40
25.4
  9
$DIMLFAC
 40
1.0
  9
$DIMTOFL
 70
     1
  9
$DIMTVP
 40
0.0
  9
$DIMTIX
 70
     1
  9
$DIMSOXD
 70
     0
  9
$DIMSAH
 70
     0
  9
$DIMBLK1
  1

  9
$DIMBLK2
  1

  9
$LUNITS
 70
     2
  9
$LUPREC
 70
     4
  9
$AXISMODE
 70
     0
  9
$AXISUNIT
 10
0.0
 20
0.0
  9
$SKETCHINC
 40
0.1
  9
$FILLETRAD
 40
0.0
  9
$AUNITS
 70
     0
  9
$AUPREC
 70
     0
  9
$MENU
  1
acad
  9
$ELEVATION
 40
0.0
  9
$THICKNESS
 40
0.0
  9
$LIMCHECK
 70
     0
  9
$BLIPMODE
 70
     1
  9
$CHAMFERA
 40
0.0
  9
$CHAMFERB
 40
0.0
  9
$SKPOLY
 70
     0
  9
$TDCREATE
 40
2449002.6504487270
  9
$TDUPDATE
 40
2449002.6504487270
  9
$TDINDWG
 40
0.0000000000
  9
$TDUSRTIMER
 40
0.0000000000
  9
$USRTIMER
 70
     1
  9
$ANGBASE
 50
0.0
  9
$ANGDIR
 70
     0
  9
$PDMODE
 70
     0
  9
$PDSIZE
 40
0.0
  9
$PLINEWID
 40
0.0
  9
$COORDS
 70
     2
  9
$SPLFRAME
 70
     0
  9
$SPLINETYPE
 70
     6
  9
$SPLINESEGS
 70
     8
  9
$ATTDIA
 70
     0
  9
$ATTREQ
 70
     1
  9
$HANDLING
 70
     0
  9
$HANDSEED
  5
0
  9
$SURFTAB1
 70
     6
  9
$SURFTAB2
 70
     6
  9
$SURFTYPE
 70
     6
  9
$SURFU
 70
     6
  9
$SURFV
 70
     6
  9
$FLATLAND
 70
     0
  9
$UCSNAME
  2

  9
$UCSORG
 10
0.0
 20
0.0
 30
0.0
  9
$UCSXDIR
 10
1.0
 20
0.0
 30
0.0
  9
$UCSYDIR
 10
0.0
 20
1.0
 30
0.0
  9
$USERI1
 70
     0
  9
$USERI2
 70
     0
  9
$USERI3
 70
     0
  9
$USERI4
 70
     0
  9
$USERI5
 70
     0
  9
$USERR1
 40
0.0
  9
$USERR2
 40
0.0
  9
$USERR3
 40
0.0
  9
$USERR4
 40
0.0
  9
$USERR5
 40
0.0
  9
$WORLDVIEW
 70
     1
  0
ENDSEC
  0
SECTION
  2
TABLES
  0
TABLE
  2
VPORT
 70
     2
  0
VPORT
  2
*ACTIVE
 70
     0
 10
0.0
 20
0.0
 11
1.0
 21
1.0
 12
238.227989
 22
153.824519
 13
0.0
 23
0.0
 14
5.0
 24
5.0
 15
0.0
 25
0.0
 16
0.0
 26
0.0
 36
1.0
 17
0.0
 27
0.0
 37
0.0
 40
307.649038
 41
1.5487
 42
50.0
 43
0.0
 44
0.0
 50
0.0
 51
0.0
 71
     0
 72
   100
 73
     1
 74
     0
 75
     0
 76
     0
 77
     0
 78
     0
  0
ENDTAB
  0
TABLE
  2
LTYPE
 70
     2
  0
LTYPE
  2
CONTINUOUS
 70
    64
  3
Solid line
 72
    65
 73
     0
 40
0.0
  0
LTYPE
  2
CENTER
 70
    64
  3
____ _ ____ _ ____ _ ____ _ 
 72
    65
 73
     4
 40
60.0
 49
45.0
 49
-5.0
 49
5.0
 49
-5.0
  0
ENDTAB
  0
TABLE
  2
LAYER
 70
     3
  0
LAYER
  2
0
 70
     0
 62
     7
  6
CONTINUOUS
  0
LAYER
  2
L-ZISSEN
 70
    64
 62
     7
  6
CONTINUOUS
  0
LAYER
  2
L-TYUSIN
 70
    64
 62
     1
  6
CENTER
  0
ENDTAB
  0
TABLE
  2
STYLE
 70
     1
  0
STYLE
  2
STANDARD
 70
    64
 40
0.0
 41
1.0
 50
0.0
 71
     0
 42
4.5
  3
TXT
  4

  0
ENDTAB
  0
TABLE
  2
VIEW
 70
     0
  0
ENDTAB
  0
TABLE
  2
UCS
 70
     0
  0
ENDTAB
  0
TABLE
  2
DWGMGR
 70
     0
  0
ENDTAB
  0
ENDSEC
  0
SECTION
  2
BLOCKS
  0
ENDSEC
  0
SECTION
  2
ENTITIES
  0
LINE
  8
L-TYUSIN
 10
91.7
 20
135.0
 30
0.0
 11
338.3
 21
135.0
 31
0.0
  0
LINE
  8
L-TYUSIN
 10
215.0
 20
166.0
 30
0.0
 11
215.0
 21
104.0
 31
0.0
  0
LINE
  8
L-ZISSEN
 10
260.8
 20
109.0
 30
0.0
 11
260.8
 21
161.0
 31
0.0
  0
LINE
  8
L-ZISSEN
 10
333.3
 20
161.0
 30
0.0
 11
96.7
 21
161.0
 31
0.0
  0
LINE
  8
L-ZISSEN
 10
169.2
 20
161.0
 30
0.0
 11
169.2
 21
109.0
 31
0.0
  0
LINE
  8
L-ZISSEN
 10
96.7
 20
109.0
 30
0.0
 11
333.3
 21
109.0
 31
0.0
  0
LINE
  8
L-ZISSEN
 10
260.8
 20
189.0
 30
0.0
 11
260.8
 21
221.0
 31
0.0
  0
LINE
  8
L-TYUSIN
 10
215.0
 20
225.0
 30
0.0
 11
215.0
 21
185.0
 31
0.0
  0
LINE
  8
L-TYUSIN
 10
91.7
 20
205.0
 30
0.0
 11
338.3
 21
205.0
 31
0.0
  0
LINE
  8
L-ZISSEN
 10
333.3
 20
221.0
 30
0.0
 11
96.7
 21
221.0
 31
0.0
  0
LINE
  8
L-ZISSEN
 10
333.3
 20
189.0
 30
0.0
 11
96.7
 21
189.0
 31
0.0
  0
LINE
  8
L-ZISSEN
 10
333.3
 20
24.0
 30
0.0
 11
96.7
 21
24.0
 31
0.0
  0
LINE
  8
L-ZISSEN
 10
333.3
 20
56.0
 30
0.0
 11
96.7
 21
56.0
 31
0.0
  0
LINE
  8
L-TYUSIN
 10
91.7
 20
40.0
 30
0.0
 11
338.3
 21
40.0
 31
0.0
  0
LINE
  8
L-TYUSIN
 10
215.0
 20
60.0
 30
0.0
 11
215.0
 21
20.0
 31
0.0
  0
LINE
  8
L-ZISSEN
 10
260.8
 20
24.0
 30
0.0
 11
260.8
 21
56.0
 31
0.0
  0
LINE
  8
L-TYUSIN
 10
234.0
 20
121.0
 30
0.0
 11
234.0
 21
107.0
 31
0.0
  0
LINE
  8
L-TYUSIN
 10
227.0
 20
114.0
 30
0.0
 11
241.0
 21
114.0
 31
0.0
  0
CIRCLE
  8
L-ZISSEN
 10
234.0
 20
114.0
 30
0.0
 40
2.75
  0
CIRCLE
  8
L-ZISSEN
 10
196.0
 20
114.0
 30
0.0
 40
2.75
  0
LINE
  8
L-TYUSIN
 10
203.0
 20
114.0
 30
0.0
 11
189.0
 21
114.0
 31
0.0
  0
LINE
  8
L-TYUSIN
 10
196.0
 20
121.0
 30
0.0
 11
196.0
 21
107.0
 31
0.0
  0
CIRCLE
  8
L-ZISSEN
 10
215.0
 20
156.0
 30
0.0
 40
2.75
  0
LINE
  8
L-TYUSIN
 10
208.0
 20
156.0
 30
0.0
 11
222.0
 21
156.0
 31
0.0
  0
LINE
  8
L-TYUSIN
 10
231.0
 20
215.0
 30
0.0
 11
231.0
 21
195.0
 31
0.0
  0
CIRCLE
  8
L-ZISSEN
 10
231.0
 20
205.0
 30
0.0
 40
5.7225
  0
CIRCLE
  8
L-ZISSEN
 10
199.0
 20
205.0
 30
0.0
 40
5.7225
  0
LINE
  8
L-TYUSIN
 10
199.0
 20
215.0
 30
0.0
 11
199.0
 21
195.0
 31
0.0
  0
CIRCLE
  8
L-ZISSEN
 10
247.0
 20
40.0
 30
0.0
 40
5.7225
  0
LINE
  8
L-TYUSIN
 10
247.0
 20
50.0
 30
0.0
 11
247.0
 21
30.0
 31
0.0
  0
CIRCLE
  8
L-ZISSEN
 10
215.0
 20
40.0
 30
0.0
 40
5.7225
  0
CIRCLE
  8
L-ZISSEN
 10
183.0
 20
40.0
 30
0.0
 40
5.7225
  0
LINE
  8
L-TYUSIN
 10
183.0
 20
50.0
 30
0.0
 11
183.0
 21
30.0
 31
0.0
  0
LINE
  8
L-ZISSEN
 10
396.0
 20
161.0
 30
0.0
 11
396.0
 21
109.0
 31
0.0
  0
LINE
  8
L-ZISSEN
 10
364.0
 20
161.0
 30
0.0
 11
364.0
 21
109.0
 31
0.0
  0
LINE
  8
L-TYUSIN
 10
380.0
 20
104.0
 30
0.0
 11
380.0
 21
166.0
 31
0.0
  0
LINE
  8
L-TYUSIN
 10
359.0
 20
135.0
 30
0.0
 11
401.0
 21
135.0
 31
0.0
  0
LINE
  8
L-ZISSEN
 10
364.0
 20
109.0
 30
0.0
 11
396.0
 21
109.0
 31
0.0
  0
LINE
  8
L-ZISSEN
 10
396.0
 20
161.0
 30
0.0
 11
364.0
 21
161.0
 31
0.0
  0
TEXT
  8
L-ZISSEN
 10
30.0
 20
245.0
 30
0.0
 40
4.5
  1
MODEL No. :
  0
TEXT
  8
L-ZISSEN
 10
75.0
 20
245.0
 30
0.0
 40
4.5
  1
MVM-4 5-
  0
LINE
  8
L-TYUSIN
 10
199.0
 20
166.0
 30
0.0
 11
199.0
 21
156.0
 31
0.0
  0
LINE
  8
L-TYUSIN
 10
231.0
 20
166.0
 30
0.0
 11
231.0
 21
156.0
 31
0.0
  0
LINE
  8
L-TYUSIN
 10
183.0
 20
114.0
 30
0.0
 11
183.0
 21
104.0
 31
0.0
  0
LINE
  8
L-TYUSIN
 10
247.0
 20
114.0
 30
0.0
 11
247.0
 21
104.0
 31
0.0
  0
LINE
  8
L-ZISSEN
 10
169.2
 20
24.0
 30
0.0
 11
169.2
 21
56.0
 31
0.0
  0
LINE
  8
L-ZISSEN
 10
169.2
 20
189.0
 30
0.0
 11
169.2
 21
221.0
 31
0.0
  0
CIRCLE
  8
L-ZISSEN
 10
380.0
 20
135.0
 30
0.0
 40
5.7225
  0
CIRCLE
  8
L-ZISSEN
 10
50.0
 20
135.0
 30
0.0
 40
5.7225
  0
LINE
  8
L-ZISSEN
 10
34.0
 20
161.0
 30
0.0
 11
66.0
 21
161.0
 31
0.0
  0
LINE
  8
L-ZISSEN
 10
66.0
 20
109.0
 30
0.0
 11
34.0
 21
109.0
 31
0.0
  0
LINE
  8
L-TYUSIN
 10
71.0
 20
135.0
 30
0.0
 11
29.0
 21
135.0
 31
0.0
  0
LINE
  8
L-TYUSIN
 10
50.0
 20
104.0
 30
0.0
 11
50.0
 21
166.0
 31
0.0
  0
LINE
  8
L-ZISSEN
 10
66.0
 20
161.0
 30
0.0
 11
66.0
 21
109.0
 31
0.0
  0
LINE
  8
L-ZISSEN
 10
34.0
 20
161.0
 30
0.0
 11
34.0
 21
109.0
 31
0.0
  0
LINE
  8
L-ZISSEN
 10
333.3
 20
109.0
 30
0.0
 11
333.3
 21
161.0
 31
0.0
  0
LINE
  8
L-ZISSEN
 10
308.3
 20
189.0
 30
0.0
 11
308.3
 21
221.0
 31
0.0
  0
LINE
  8
L-ZISSEN
 10
308.3
 20
109.0
 30
0.0
 11
308.3
 21
161.0
 31
0.0
  0
LINE
  8
L-ZISSEN
 10
308.3
 20
24.0
 30
0.0
 11
308.3
 21
56.0
 31
0.0
  0
LINE
  8
L-ZISSEN
 10
333.3
 20
24.0
 30
0.0
 11
333.3
 21
56.0
 31
0.0
  0
LINE
  8
L-ZISSEN
 10
333.3
 20
189.0
 30
0.0
 11
333.3
 21
221.0
 31
0.0
  0
LINE
  8
L-ZISSEN
 10
96.7
 20
189.0
 30
0.0
 11
96.7
 21
221.0
 31
0.0
  0
LINE
  8
L-ZISSEN
 10
96.7
 20
24.0
 30
0.0
 11
96.7
 21
56.0
 31
0.0
  0
LINE
  8
L-ZISSEN
 10
121.7
 20
24.0
 30
0.0
 11
121.7
 21
56.0
 31
0.0
  0
LINE
  8
L-ZISSEN
 10
121.7
 20
109.0
 30
0.0
 11
121.7
 21
161.0
 31
0.0
  0
LINE
  8
L-ZISSEN
 10
121.7
 20
189.0
 30
0.0
 11
121.7
 21
221.0
 31
0.0
  0
LINE
  8
L-ZISSEN
 10
96.7
 20
109.0
 30
0.0
 11
96.7
 21
161.0
 31
0.0
  0
TEXT
  8
L-ZISSEN
 10
99.0
 20
245.0
 30
0.0
 40
4.5
  1
4
  0
TEXT
  8
L-ZISSEN
 10
99.0
 20
252.0
 30
0.0
 40
4.5
  1
3
  0
TEXT
  8
L-ZISSEN
 10
99.0
 20
238.0
 30
0.0
 40
4.5
  1
5
  0
TEXT
  8
L-ZISSEN
 10
113.0
 20
248.0
 30
0.0
 40
4.5
  1
02
  0
TEXT
  8
L-ZISSEN
 10
113.0
 20
241.0
 30
0.0
 40
4.5
  1
03J
  0
TEXT
  8
L-ZISSEN
 10
170.0
 20
85.0
 30
0.0
 40
4.5
  1
Rc 1/4
  0
TEXT
  8
L-ZISSEN
 10
170.0
 20
75.0
 30
0.0
 40
4.5
  1
Rc 3/8
  0
SOLID
  8
L-ZISSEN
 10
213.31045
 20
107.879049
 30
0.0
 11
213.765329
 21
107.391678
 31
0.0
 12
215.0
 22
109.0
 32
0.0
 13
215.0
 23
109.0
 33
0.0
  0
LINE
  8
L-ZISSEN
 10
213.537889
 20
107.635363
 30
0.0
 11
200.0
 21
95.0
 31
0.0
  0
LINE
  8
L-ZISSEN
 10
200.0
 20
95.0
 30
0.0
 11
198.0
 21
95.0
 31
0.0
  0
TEXT
  8
L-ZISSEN
 10
166.0
 20
92.75
 30
0.0
 40
4.5
  1
"1" PORT
  0
ENDSEC
  0
EOF
