  0
SECTION
  2
HEADER
  9
$ACADVER
  1
AC1006
  9
$INSBASE
 10
0.0
 20
0.0
 30
0.0
  9
$EXTMIN
 10
45.0
 20
15.0
  9
$EXTMAX
 10
1825.0
 20
1075.0
  9
$LIMMIN
 10
0.0
 20
0.0
  9
$LIMMAX
 10
1680.0
 20
1188.0
  9
$ORTHOMODE
 70
     0
  9
$REGENMODE
 70
     1
  9
$FILLMODE
 70
     1
  9
$QTEXTMODE
 70
     0
  9
$MIRRTEXT
 70
     1
  9
$DRAGMODE
 70
     2
  9
$LTSCALE
 40
1.0
  9
$OSMODE
 70
     0
  9
$ATTMODE
 70
     1
  9
$TEXTSIZE
 40
4.5
  9
$TRACEWID
 40
0.05
  9
$TEXTSTYLE
  7
STANDARD
  9
$CLAYER
  8
L-ZISSEN
  9
$CELTYPE
  6
BYLAYER
  9
$CECOLOR
 62
   256
  9
$DIMSCALE
 40
1.0
  9
$DIMASZ
 40
2.0
  9
$DIMEXO
 40
1.0
  9
$DIMDLI
 40
0.38
  9
$DIMRND
 40
0.0
  9
$DIMDLE
 40
1.0
  9
$DIMEXE
 40
1.0
  9
$DIMTP
 40
0.0
  9
$DIMTM
 40
0.0
  9
$DIMTXT
 40
4.5
  9
$DIMCEN
 40
0.09
  9
$DIMTSZ
 40
0.0
  9
$DIMTOL
 70
     0
  9
$DIMLIM
 70
     0
  9
$DIMTIH
 70
     0
  9
$DIMTOH
 70
     0
  9
$DIMSE1
 70
     0
  9
$DIMSE2
 70
     0
  9
$DIMTAD
 70
     1
  9
$DIMZIN
 70
     0
  9
$DIMBLK
  1

  9
$DIMASO
 70
     0
  9
$DIMSHO
 70
     0
  9
$DIMPOST
  1

  9
$DIMAPOST
  1

  9
$DIMALT
 70
     0
  9
$DIMALTD
 70
     2
  9
$DIMALTF
 40
25.4
  9
$DIMLFAC
 40
1.0
  9
$DIMTOFL
 70
     1
  9
$DIMTVP
 40
0.0
  9
$DIMTIX
 70
     1
  9
$DIMSOXD
 70
     0
  9
$DIMSAH
 70
     0
  9
$DIMBLK1
  1

  9
$DIMBLK2
  1

  9
$LUNITS
 70
     2
  9
$LUPREC
 70
     4
  9
$AXISMODE
 70
     0
  9
$AXISUNIT
 10
0.0
 20
0.0
  9
$SKETCHINC
 40
0.1
  9
$FILLETRAD
 40
0.0
  9
$AUNITS
 70
     0
  9
$AUPREC
 70
     0
  9
$MENU
  1
acad
  9
$ELEVATION
 40
0.0
  9
$THICKNESS
 40
0.0
  9
$LIMCHECK
 70
     0
  9
$BLIPMODE
 70
     1
  9
$CHAMFERA
 40
5.0
  9
$CHAMFERB
 40
5.0
  9
$SKPOLY
 70
     0
  9
$TDCREATE
 40
2449069.5057925927
  9
$TDUPDATE
 40
2449069.5057925927
  9
$TDINDWG
 40
0.0000000000
  9
$TDUSRTIMER
 40
0.0000000000
  9
$USRTIMER
 70
     1
  9
$ANGBASE
 50
0.0
  9
$ANGDIR
 70
     0
  9
$PDMODE
 70
     0
  9
$PDSIZE
 40
0.0
  9
$PLINEWID
 40
0.0
  9
$COORDS
 70
     2
  9
$SPLFRAME
 70
     0
  9
$SPLINETYPE
 70
     6
  9
$SPLINESEGS
 70
     8
  9
$ATTDIA
 70
     0
  9
$ATTREQ
 70
     1
  9
$HANDLING
 70
     0
  9
$HANDSEED
  5
0
  9
$SURFTAB1
 70
     6
  9
$SURFTAB2
 70
     6
  9
$SURFTYPE
 70
     6
  9
$SURFU
 70
     6
  9
$SURFV
 70
     6
  9
$FLATLAND
 70
     0
  9
$UCSNAME
  2

  9
$UCSORG
 10
0.0
 20
0.0
 30
0.0
  9
$UCSXDIR
 10
1.0
 20
0.0
 30
0.0
  9
$UCSYDIR
 10
0.0
 20
1.0
 30
0.0
  9
$USERI1
 70
     0
  9
$USERI2
 70
     0
  9
$USERI3
 70
     0
  9
$USERI4
 70
     0
  9
$USERI5
 70
     0
  9
$USERR1
 40
0.0
  9
$USERR2
 40
0.0
  9
$USERR3
 40
0.0
  9
$USERR4
 40
0.0
  9
$USERR5
 40
0.0
  9
$WORLDVIEW
 70
     1
  0
ENDSEC
  0
SECTION
  2
TABLES
  0
TABLE
  2
VPORT
 70
     2
  0
VPORT
  2
*ACTIVE
 70
     0
 10
0.0
 20
0.0
 11
1.0
 21
1.0
 12
952.911956
 22
615.298075
 13
0.0
 23
0.0
 14
5.0
 24
5.0
 15
0.0
 25
0.0
 16
0.0
 26
0.0
 36
1.0
 17
0.0
 27
0.0
 37
0.0
 40
1230.59615
 41
1.5487
 42
50.0
 43
0.0
 44
0.0
 50
0.0
 51
0.0
 71
     0
 72
   100
 73
     1
 74
     0
 75
     0
 76
     0
 77
     0
 78
     0
  0
ENDTAB
  0
TABLE
  2
LTYPE
 70
     2
  0
LTYPE
  2
CONTINUOUS
 70
    64
  3
Solid line
 72
    65
 73
     0
 40
0.0
  0
LTYPE
  2
CENTER
 70
    64
  3
____ _ ____ _ ____ _ ____ _ 
 72
    65
 73
     4
 40
60.0
 49
45.0
 49
-5.0
 49
5.0
 49
-5.0
  0
ENDTAB
  0
TABLE
  2
LAYER
 70
     3
  0
LAYER
  2
0
 70
     0
 62
     7
  6
CONTINUOUS
  0
LAYER
  2
L-ZISSEN
 70
    64
 62
     7
  6
CONTINUOUS
  0
LAYER
  2
L-TYUSIN
 70
    64
 62
     1
  6
CENTER
  0
ENDTAB
  0
TABLE
  2
STYLE
 70
     1
  0
STYLE
  2
STANDARD
 70
    64
 40
0.0
 41
1.0
 50
0.0
 71
     0
 42
4.5
  3
TXT
  4

  0
ENDTAB
  0
TABLE
  2
VIEW
 70
     0
  0
ENDTAB
  0
TABLE
  2
UCS
 70
     0
  0
ENDTAB
  0
TABLE
  2
DWGMGR
 70
     0
  0
ENDTAB
  0
ENDSEC
  0
SECTION
  2
BLOCKS
  0
ENDSEC
  0
SECTION
  2
ENTITIES
  0
LINE
  8
L-TYUSIN
 10
201.0
 20
280.0
 30
0.0
 11
279.0
 21
280.0
 31
0.0
  0
LINE
  8
L-TYUSIN
 10
320.0
 20
261.0
 30
0.0
 11
320.0
 21
339.0
 31
0.0
  0
LINE
  8
L-TYUSIN
 10
240.0
 20
241.0
 30
0.0
 11
240.0
 21
432.0
 31
0.0
  0
LINE
  8
L-TYUSIN
 10
240.0
 20
175.0
 30
0.0
 11
240.0
 21
25.0
 31
0.0
  0
LINE
  8
L-TYUSIN
 10
73.0
 20
100.0
 30
0.0
 11
407.0
 21
100.0
 31
0.0
  0
LINE
  8
L-ZISSEN
 10
138.0
 20
147.0
 30
0.0
 11
138.0
 21
53.0
 31
0.0
  0
LINE
  8
L-ZISSEN
 10
342.0
 20
147.0
 30
0.0
 11
342.0
 21
53.0
 31
0.0
  0
LINE
  8
L-ZISSEN
 10
138.0
 20
53.0
 30
0.0
 11
342.0
 21
53.0
 31
0.0
  0
LINE
  8
L-ZISSEN
 10
138.0
 20
147.0
 30
0.0
 11
342.0
 21
147.0
 31
0.0
  0
LINE
  8
L-ZISSEN
 10
126.0
 20
170.0
 30
0.0
 11
354.0
 21
170.0
 31
0.0
  0
CIRCLE
  8
L-ZISSEN
 10
240.0
 20
280.0
 30
0.0
 40
34.0
  0
CIRCLE
  8
L-ZISSEN
 10
320.0
 20
300.0
 30
0.0
 40
34.0
  0
LINE
  8
L-ZISSEN
 10
286.0
 20
155.0
 30
0.0
 11
286.0
 21
170.0
 31
0.0
  0
LINE
  8
L-ZISSEN
 10
354.0
 20
158.294693
 30
0.0
 11
354.0
 21
170.0
 31
0.0
  0
LINE
  8
L-ZISSEN
 10
274.0
 20
155.0
 30
0.0
 11
274.0
 21
170.0
 31
0.0
  0
LINE
  8
L-ZISSEN
 10
206.0
 20
155.0
 30
0.0
 11
206.0
 21
170.0
 31
0.0
  0
LINE
  8
L-ZISSEN
 10
130.0
 20
155.0
 30
0.0
 11
350.0
 21
155.0
 31
0.0
  0
LINE
  8
L-ZISSEN
 10
130.0
 20
45.0
 30
0.0
 11
350.0
 21
45.0
 31
0.0
  0
LINE
  8
L-ZISSEN
 10
350.0
 20
155.0
 30
0.0
 11
350.0
 21
154.529796
 31
0.0
  0
LINE
  8
L-ZISSEN
 10
130.0
 20
155.0
 30
0.0
 11
130.0
 21
154.529796
 31
0.0
  0
LINE
  8
L-ZISSEN
 10
126.0
 20
158.294693
 30
0.0
 11
126.0
 21
170.0
 31
0.0
  0
LINE
  8
L-ZISSEN
 10
194.0
 20
155.0
 30
0.0
 11
194.0
 21
170.0
 31
0.0
  0
LINE
  8
L-ZISSEN
 10
314.0
 20
45.0
 30
0.0
 11
314.0
 21
30.0
 31
0.0
  0
LINE
  8
L-ZISSEN
 10
166.0
 20
30.0
 30
0.0
 11
314.0
 21
30.0
 31
0.0
  0
LINE
  8
L-ZISSEN
 10
246.0
 20
45.0
 30
0.0
 11
246.0
 21
30.0
 31
0.0
  0
LINE
  8
L-TYUSIN
 10
280.0
 20
50.0
 30
0.0
 11
280.0
 21
25.0
 31
0.0
  0
LINE
  8
L-ZISSEN
 10
234.0
 20
45.0
 30
0.0
 11
234.0
 21
30.0
 31
0.0
  0
LINE
  8
L-ZISSEN
 10
166.0
 20
45.0
 30
0.0
 11
166.0
 21
30.0
 31
0.0
  0
LINE
  8
L-TYUSIN
 10
200.0
 20
50.0
 30
0.0
 11
200.0
 21
25.0
 31
0.0
  0
LINE
  8
L-TYUSIN
 10
320.0
 20
175.0
 30
0.0
 11
320.0
 21
150.0
 31
0.0
  0
LINE
  8
L-TYUSIN
 10
160.0
 20
175.0
 30
0.0
 11
160.0
 21
150.0
 31
0.0
  0
LINE
  8
L-TYUSIN
 10
358.0
 20
45.0
 30
0.0
 11
378.0
 21
45.0
 31
0.0
  0
LINE
  8
L-TYUSIN
 10
368.0
 20
55.0
 30
0.0
 11
368.0
 21
35.0
 31
0.0
  0
CIRCLE
  8
L-ZISSEN
 10
368.0
 20
45.0
 30
0.0
 40
5.5
  0
ARC
  8
L-ZISSEN
 10
368.0
 20
45.0
 30
0.0
 40
12.0
 50
225.0
 51
45.0
  0
LINE
  8
L-ZISSEN
 10
360.0
 20
124.0
 30
0.0
 11
360.0
 21
76.0
 31
0.0
  0
LINE
  8
L-ZISSEN
 10
376.485281
 20
53.485281
 30
0.0
 11
360.0
 21
76.0
 31
0.0
  0
LINE
  8
L-ZISSEN
 10
359.514719
 20
36.514719
 30
0.0
 11
342.0
 21
53.0
 31
0.0
  0
CIRCLE
  8
L-ZISSEN
 10
368.0
 20
155.0
 30
0.0
 40
5.5
  0
LINE
  8
L-TYUSIN
 10
358.0
 20
155.0
 30
0.0
 11
378.0
 21
155.0
 31
0.0
  0
LINE
  8
L-TYUSIN
 10
368.0
 20
145.0
 30
0.0
 11
368.0
 21
165.0
 31
0.0
  0
LINE
  8
L-ZISSEN
 10
376.485281
 20
146.514719
 30
0.0
 11
360.0
 21
124.0
 31
0.0
  0
ARC
  8
L-ZISSEN
 10
368.0
 20
155.0
 30
0.0
 40
12.0
 50
315.0
 51
135.0
  0
LINE
  8
L-ZISSEN
 10
359.514719
 20
163.485281
 30
0.0
 11
342.0
 21
147.0
 31
0.0
  0
ARC
  8
L-ZISSEN
 10
112.0
 20
155.0
 30
0.0
 40
12.0
 50
45.0
 51
225.0
  0
CIRCLE
  8
L-ZISSEN
 10
112.0
 20
155.0
 30
0.0
 40
5.5
  0
LINE
  8
L-TYUSIN
 10
122.0
 20
155.0
 30
0.0
 11
102.0
 21
155.0
 31
0.0
  0
LINE
  8
L-TYUSIN
 10
112.0
 20
145.0
 30
0.0
 11
112.0
 21
165.0
 31
0.0
  0
LINE
  8
L-ZISSEN
 10
120.485281
 20
163.485281
 30
0.0
 11
138.0
 21
147.0
 31
0.0
  0
LINE
  8
L-ZISSEN
 10
103.514719
 20
146.514719
 30
0.0
 11
120.0
 21
124.0
 31
0.0
  0
LINE
  8
L-ZISSEN
 10
120.0
 20
124.0
 30
0.0
 11
120.0
 21
76.0
 31
0.0
  0
LINE
  8
L-ZISSEN
 10
103.514719
 20
53.485281
 30
0.0
 11
120.0
 21
76.0
 31
0.0
  0
CIRCLE
  8
L-ZISSEN
 10
112.0
 20
45.0
 30
0.0
 40
5.5
  0
LINE
  8
L-TYUSIN
 10
112.0
 20
55.0
 30
0.0
 11
112.0
 21
35.0
 31
0.0
  0
LINE
  8
L-TYUSIN
 10
122.0
 20
45.0
 30
0.0
 11
102.0
 21
45.0
 31
0.0
  0
ARC
  8
L-ZISSEN
 10
112.0
 20
45.0
 30
0.0
 40
12.0
 50
135.0
 51
315.0
  0
LINE
  8
L-ZISSEN
 10
120.485281
 20
36.514719
 30
0.0
 11
138.0
 21
53.0
 31
0.0
  0
LINE
  8
L-ZISSEN
 10
120.485281
 20
673.485281
 30
0.0
 11
130.0
 21
664.529796
 31
0.0
  0
ARC
  8
L-ZISSEN
 10
112.0
 20
665.0
 30
0.0
 40
12.0
 50
45.0
 51
225.0
  0
LINE
  8
L-TYUSIN
 10
122.0
 20
665.0
 30
0.0
 11
102.0
 21
665.0
 31
0.0
  0
LINE
  8
L-TYUSIN
 10
112.0
 20
655.0
 30
0.0
 11
112.0
 21
675.0
 31
0.0
  0
CIRCLE
  8
L-ZISSEN
 10
112.0
 20
665.0
 30
0.0
 40
5.5
  0
LINE
  8
L-ZISSEN
 10
103.514719
 20
656.514719
 30
0.0
 11
109.749197
 21
648.0
 31
0.0
  0
LINE
  8
L-ZISSEN
 10
103.514719
 20
563.485281
 30
0.0
 11
109.749197
 21
572.0
 31
0.0
  0
LINE
  8
L-ZISSEN
 10
120.485281
 20
546.514719
 30
0.0
 11
126.0
 21
551.705307
 31
0.0
  0
LINE
  8
L-TYUSIN
 10
112.0
 20
565.0
 30
0.0
 11
112.0
 21
545.0
 31
0.0
  0
LINE
  8
L-TYUSIN
 10
122.0
 20
555.0
 30
0.0
 11
102.0
 21
555.0
 31
0.0
  0
CIRCLE
  8
L-ZISSEN
 10
112.0
 20
555.0
 30
0.0
 40
5.5
  0
ARC
  8
L-ZISSEN
 10
112.0
 20
555.0
 30
0.0
 40
12.0
 50
135.0
 51
315.0
  0
LINE
  8
L-ZISSEN
 10
359.514719
 20
546.514719
 30
0.0
 11
354.0
 21
551.705307
 31
0.0
  0
ARC
  8
L-ZISSEN
 10
368.0
 20
555.0
 30
0.0
 40
12.0
 50
225.0
 51
45.0
  0
LINE
  8
L-ZISSEN
 10
376.485281
 20
563.485281
 30
0.0
 11
370.250803
 21
572.0
 31
0.0
  0
LINE
  8
L-TYUSIN
 10
368.0
 20
565.0
 30
0.0
 11
368.0
 21
545.0
 31
0.0
  0
LINE
  8
L-TYUSIN
 10
358.0
 20
555.0
 30
0.0
 11
378.0
 21
555.0
 31
0.0
  0
CIRCLE
  8
L-ZISSEN
 10
368.0
 20
555.0
 30
0.0
 40
5.5
  0
LINE
  8
L-ZISSEN
 10
359.514719
 20
673.485281
 30
0.0
 11
350.0
 21
664.529796
 31
0.0
  0
LINE
  8
L-ZISSEN
 10
376.485281
 20
656.514719
 30
0.0
 11
370.250803
 21
648.0
 31
0.0
  0
ARC
  8
L-ZISSEN
 10
368.0
 20
665.0
 30
0.0
 40
12.0
 50
315.0
 51
135.0
  0
CIRCLE
  8
L-ZISSEN
 10
368.0
 20
665.0
 30
0.0
 40
5.5
  0
LINE
  8
L-TYUSIN
 10
368.0
 20
655.0
 30
0.0
 11
368.0
 21
675.0
 31
0.0
  0
LINE
  8
L-TYUSIN
 10
358.0
 20
665.0
 30
0.0
 11
378.0
 21
665.0
 31
0.0
  0
LINE
  8
L-TYUSIN
 10
160.0
 20
535.0
 30
0.0
 11
160.0
 21
560.0
 31
0.0
  0
LINE
  8
L-TYUSIN
 10
320.0
 20
535.0
 30
0.0
 11
320.0
 21
560.0
 31
0.0
  0
LINE
  8
L-TYUSIN
 10
200.0
 20
660.0
 30
0.0
 11
200.0
 21
685.0
 31
0.0
  0
LINE
  8
L-ZISSEN
 10
166.0
 20
665.0
 30
0.0
 11
166.0
 21
680.0
 31
0.0
  0
LINE
  8
L-ZISSEN
 10
234.0
 20
665.0
 30
0.0
 11
234.0
 21
680.0
 31
0.0
  0
LINE
  8
L-TYUSIN
 10
280.0
 20
660.0
 30
0.0
 11
280.0
 21
685.0
 31
0.0
  0
LINE
  8
L-ZISSEN
 10
246.0
 20
665.0
 30
0.0
 11
246.0
 21
680.0
 31
0.0
  0
LINE
  8
L-ZISSEN
 10
166.0
 20
680.0
 30
0.0
 11
314.0
 21
680.0
 31
0.0
  0
LINE
  8
L-ZISSEN
 10
314.0
 20
665.0
 30
0.0
 11
314.0
 21
680.0
 31
0.0
  0
LINE
  8
L-ZISSEN
 10
194.0
 20
555.0
 30
0.0
 11
194.0
 21
540.0
 31
0.0
  0
LINE
  8
L-ZISSEN
 10
126.0
 20
572.0
 30
0.0
 11
126.0
 21
540.0
 31
0.0
  0
LINE
  8
L-ZISSEN
 10
130.0
 20
555.0
 30
0.0
 11
130.0
 21
572.0
 31
0.0
  0
LINE
  8
L-ZISSEN
 10
350.0
 20
555.0
 30
0.0
 11
350.0
 21
572.0
 31
0.0
  0
LINE
  8
L-ZISSEN
 10
130.0
 20
665.0
 30
0.0
 11
350.0
 21
665.0
 31
0.0
  0
LINE
  8
L-ZISSEN
 10
130.0
 20
555.0
 30
0.0
 11
350.0
 21
555.0
 31
0.0
  0
LINE
  8
L-ZISSEN
 10
206.0
 20
555.0
 30
0.0
 11
206.0
 21
540.0
 31
0.0
  0
LINE
  8
L-ZISSEN
 10
274.0
 20
555.0
 30
0.0
 11
274.0
 21
540.0
 31
0.0
  0
LINE
  8
L-ZISSEN
 10
354.0
 20
572.0
 30
0.0
 11
354.0
 21
540.0
 31
0.0
  0
LINE
  8
L-ZISSEN
 10
286.0
 20
555.0
 30
0.0
 11
286.0
 21
540.0
 31
0.0
  0
LINE
  8
L-ZISSEN
 10
126.0
 20
540.0
 30
0.0
 11
354.0
 21
540.0
 31
0.0
  0
LINE
  8
L-TYUSIN
 10
73.0
 20
610.0
 30
0.0
 11
407.0
 21
610.0
 31
0.0
  0
LINE
  8
L-TYUSIN
 10
240.0
 20
535.0
 30
0.0
 11
240.0
 21
685.0
 31
0.0
  0
LINE
  8
L-ZISSEN
 10
130.0
 20
45.470204
 30
0.0
 11
130.0
 21
45.0
 31
0.0
  0
LINE
  8
L-ZISSEN
 10
350.0
 20
45.470204
 30
0.0
 11
350.0
 21
45.0
 31
0.0
  0
LINE
  8
L-ZISSEN
 10
340.0
 20
335.0
 30
0.0
 11
140.0
 21
335.0
 31
0.0
  0
LINE
  8
L-ZISSEN
 10
130.0
 20
325.0
 30
0.0
 11
130.0
 21
316.0
 31
0.0
  0
LINE
  8
L-ZISSEN
 10
100.0
 20
240.0
 30
0.0
 11
138.0
 21
240.0
 31
0.0
  0
LINE
  8
L-ZISSEN
 10
350.0
 20
246.0
 30
0.0
 11
350.0
 21
284.0
 31
0.0
  0
LINE
  8
L-ZISSEN
 10
100.0
 20
260.0
 30
0.0
 11
130.0
 21
260.0
 31
0.0
  0
LINE
  8
L-ZISSEN
 10
380.0
 20
240.0
 30
0.0
 11
380.0
 21
260.0
 31
0.0
  0
LINE
  8
L-ZISSEN
 10
100.0
 20
240.0
 30
0.0
 11
100.0
 21
260.0
 31
0.0
  0
LINE
  8
L-ZISSEN
 10
342.0
 20
240.0
 30
0.0
 11
380.0
 21
240.0
 31
0.0
  0
LINE
  8
L-ZISSEN
 10
130.0
 20
246.0
 30
0.0
 11
350.0
 21
246.0
 31
0.0
  0
LINE
  8
L-ZISSEN
 10
342.0
 20
240.0
 30
0.0
 11
342.0
 21
246.0
 31
0.0
  0
LINE
  8
L-ZISSEN
 10
138.0
 20
240.0
 30
0.0
 11
138.0
 21
246.0
 31
0.0
  0
LINE
  8
L-ZISSEN
 10
350.0
 20
260.0
 30
0.0
 11
380.0
 21
260.0
 31
0.0
  0
LINE
  8
L-ZISSEN
 10
350.0
 20
316.0
 30
0.0
 11
350.0
 21
325.0
 31
0.0
  0
LINE
  8
L-ZISSEN
 10
130.0
 20
284.0
 30
0.0
 11
130.0
 21
246.0
 31
0.0
  0
LINE
  8
L-ZISSEN
 10
340.0
 20
335.0
 30
0.0
 11
350.0
 21
325.0
 31
0.0
  0
LINE
  8
L-ZISSEN
 10
140.0
 20
335.0
 30
0.0
 11
130.0
 21
325.0
 31
0.0
  0
LINE
  8
L-TYUSIN
 10
281.0
 20
300.0
 30
0.0
 11
359.0
 21
300.0
 31
0.0
  0
LINE
  8
L-ZISSEN
 10
187.495454
 20
280.0
 30
0.0
 11
206.0
 21
280.0
 31
0.0
  0
LINE
  8
L-ZISSEN
 10
212.504546
 20
300.0
 30
0.0
 11
194.0
 21
300.0
 31
0.0
  0
CIRCLE
  8
L-ZISSEN
 10
160.0
 20
300.0
 30
0.0
 40
34.0
  0
LINE
  8
L-TYUSIN
 10
160.0
 20
261.0
 30
0.0
 11
160.0
 21
339.0
 31
0.0
  0
LINE
  8
L-ZISSEN
 10
140.0
 20
885.0
 30
0.0
 11
130.0
 21
895.0
 31
0.0
  0
LINE
  8
L-ZISSEN
 10
340.0
 20
885.0
 30
0.0
 11
350.0
 21
895.0
 31
0.0
  0
LINE
  8
L-ZISSEN
 10
232.496154
 20
930.0
 30
0.0
 11
247.503846
 21
930.0
 31
0.0
  0
LINE
  8
L-ZISSEN
 10
247.503846
 20
950.0
 30
0.0
 11
232.496154
 21
950.0
 31
0.0
  0
LINE
  8
L-ZISSEN
 10
130.0
 20
895.0
 30
0.0
 11
130.0
 21
974.0
 31
0.0
  0
LINE
  8
L-ZISSEN
 10
350.0
 20
960.0
 30
0.0
 11
380.0
 21
960.0
 31
0.0
  0
LINE
  8
L-ZISSEN
 10
138.0
 20
980.0
 30
0.0
 11
138.0
 21
974.0
 31
0.0
  0
LINE
  8
L-ZISSEN
 10
342.0
 20
980.0
 30
0.0
 11
342.0
 21
974.0
 31
0.0
  0
LINE
  8
L-ZISSEN
 10
130.0
 20
974.0
 30
0.0
 11
350.0
 21
974.0
 31
0.0
  0
LINE
  8
L-ZISSEN
 10
342.0
 20
980.0
 30
0.0
 11
380.0
 21
980.0
 31
0.0
  0
LINE
  8
L-ZISSEN
 10
100.0
 20
980.0
 30
0.0
 11
100.0
 21
960.0
 31
0.0
  0
LINE
  8
L-ZISSEN
 10
380.0
 20
980.0
 30
0.0
 11
380.0
 21
960.0
 31
0.0
  0
LINE
  8
L-ZISSEN
 10
100.0
 20
960.0
 30
0.0
 11
130.0
 21
960.0
 31
0.0
  0
LINE
  8
L-ZISSEN
 10
350.0
 20
974.0
 30
0.0
 11
350.0
 21
895.0
 31
0.0
  0
LINE
  8
L-ZISSEN
 10
100.0
 20
980.0
 30
0.0
 11
138.0
 21
980.0
 31
0.0
  0
LINE
  8
L-ZISSEN
 10
340.0
 20
885.0
 30
0.0
 11
140.0
 21
885.0
 31
0.0
  0
CIRCLE
  8
L-ZISSEN
 10
280.0
 20
940.0
 30
0.0
 40
34.0
  0
LINE
  8
L-TYUSIN
 10
240.0
 20
979.0
 30
0.0
 11
240.0
 21
788.0
 31
0.0
  0
LINE
  8
L-TYUSIN
 10
161.0
 20
940.0
 30
0.0
 11
319.0
 21
940.0
 31
0.0
  0
LINE
  8
L-TYUSIN
 10
199.0
 20
300.0
 30
0.0
 11
121.0
 21
300.0
 31
0.0
  0
LINE
  8
L-ZISSEN
 10
267.495454
 20
300.0
 30
0.0
 11
286.0
 21
300.0
 31
0.0
  0
LINE
  8
L-ZISSEN
 10
292.504546
 20
280.0
 30
0.0
 11
274.0
 21
280.0
 31
0.0
  0
LINE
  8
L-TYUSIN
 10
280.0
 20
979.0
 30
0.0
 11
280.0
 21
901.0
 31
0.0
  0
CIRCLE
  8
L-ZISSEN
 10
200.0
 20
940.0
 30
0.0
 40
34.0
  0
LINE
  8
L-TYUSIN
 10
200.0
 20
979.0
 30
0.0
 11
200.0
 21
901.0
 31
0.0
  0
LINE
  8
L-TYUSIN
 10
465.0
 20
280.0
 30
0.0
 11
615.0
 21
280.0
 31
0.0
  0
LINE
  8
L-TYUSIN
 10
540.0
 20
235.0
 30
0.0
 11
540.0
 21
493.5
 31
0.0
  0
LINE
  8
L-TYUSIN
 10
513.0
 20
300.0
 30
0.0
 11
465.0
 21
300.0
 31
0.0
  0
LINE
  8
L-ZISSEN
 10
485.0
 20
334.0
 30
0.0
 11
470.0
 21
334.0
 31
0.0
  0
LINE
  8
L-ZISSEN
 10
485.0
 20
266.0
 30
0.0
 11
470.0
 21
266.0
 31
0.0
  0
LINE
  8
L-ZISSEN
 10
470.0
 20
334.0
 30
0.0
 11
470.0
 21
246.0
 31
0.0
  0
LINE
  8
L-ZISSEN
 10
508.0
 20
316.0
 30
0.0
 11
508.0
 21
284.0
 31
0.0
  0
LINE
  8
L-ZISSEN
 10
473.0
 20
246.0
 30
0.0
 11
470.0
 21
246.0
 31
0.0
  0
LINE
  8
L-ZISSEN
 10
610.0
 20
314.0
 30
0.0
 11
610.0
 21
246.0
 31
0.0
  0
LINE
  8
L-ZISSEN
 10
607.0
 20
246.0
 30
0.0
 11
610.0
 21
246.0
 31
0.0
  0
LINE
  8
L-ZISSEN
 10
595.0
 20
314.0
 30
0.0
 11
610.0
 21
314.0
 31
0.0
  0
LINE
  8
L-ZISSEN
 10
473.0
 20
240.0
 30
0.0
 11
607.0
 21
240.0
 31
0.0
  0
LINE
  8
L-ZISSEN
 10
473.0
 20
260.0
 30
0.0
 11
473.0
 21
240.0
 31
0.0
  0
LINE
  8
L-ZISSEN
 10
516.0
 20
260.0
 30
0.0
 11
516.0
 21
240.0
 31
0.0
  0
LINE
  8
L-ZISSEN
 10
473.0
 20
260.0
 30
0.0
 11
516.0
 21
260.0
 31
0.0
  0
LINE
  8
L-TYUSIN
 10
485.0
 20
265.0
 30
0.0
 11
485.0
 21
235.0
 31
0.0
  0
LINE
  8
L-ZISSEN
 10
607.0
 20
260.0
 30
0.0
 11
564.0
 21
260.0
 31
0.0
  0
LINE
  8
L-TYUSIN
 10
595.0
 20
265.0
 30
0.0
 11
595.0
 21
235.0
 31
0.0
  0
LINE
  8
L-ZISSEN
 10
607.0
 20
260.0
 30
0.0
 11
607.0
 21
240.0
 31
0.0
  0
LINE
  8
L-ZISSEN
 10
564.0
 20
260.0
 30
0.0
 11
564.0
 21
240.0
 31
0.0
  0
LINE
  8
L-ZISSEN
 10
485.0
 20
335.0
 30
0.0
 11
595.0
 21
335.0
 31
0.0
  0
LINE
  8
L-ZISSEN
 10
485.0
 20
316.0
 30
0.0
 11
508.0
 21
316.0
 31
0.0
  0
LINE
  8
L-ZISSEN
 10
485.0
 20
284.0
 30
0.0
 11
508.0
 21
284.0
 31
0.0
  0
LINE
  8
L-ZISSEN
 10
322.0
 20
336.0
 30
0.0
 11
158.0
 21
336.0
 31
0.0
  0
LINE
  8
L-ZISSEN
 10
485.0
 20
336.0
 30
0.0
 11
595.0
 21
336.0
 31
0.0
  0
LINE
  8
L-ZISSEN
 10
322.0
 20
427.0
 30
0.0
 11
158.0
 21
427.0
 31
0.0
  0
LINE
  8
L-ZISSEN
 10
158.0
 20
427.0
 30
0.0
 11
158.0
 21
335.0
 31
0.0
  0
LINE
  8
L-ZISSEN
 10
322.0
 20
427.0
 30
0.0
 11
322.0
 21
335.0
 31
0.0
  0
LINE
  8
L-TYUSIN
 10
73.0
 20
378.0
 30
0.0
 11
407.0
 21
378.0
 31
0.0
  0
ARC
  8
L-ZISSEN
 10
300.0
 20
654.0
 30
0.0
 40
10.0
 50
203.578178
 51
336.421822
  0
ARC
  8
L-ZISSEN
 10
270.0
 20
566.0
 30
0.0
 40
10.0
 50
23.578178
 51
156.421822
  0
LINE
  8
L-ZISSEN
 10
158.0
 20
555.0
 30
0.0
 11
158.0
 21
584.136191
 31
0.0
  0
LINE
  8
L-ZISSEN
 10
322.0
 20
555.0
 30
0.0
 11
322.0
 21
584.136191
 31
0.0
  0
LINE
  8
L-ZISSEN
 10
158.0
 20
570.0
 30
0.0
 11
200.834849
 21
570.0
 31
0.0
  0
LINE
  8
L-ZISSEN
 10
158.0
 20
650.0
 30
0.0
 11
170.834849
 21
650.0
 31
0.0
  0
LINE
  8
L-ZISSEN
 10
279.165151
 20
570.0
 30
0.0
 11
322.0
 21
570.0
 31
0.0
  0
LINE
  8
L-ZISSEN
 10
309.165151
 20
650.0
 30
0.0
 11
322.0
 21
650.0
 31
0.0
  0
ARC
  8
L-ZISSEN
 10
300.0
 20
654.0
 30
0.0
 40
11.0
 50
338.676314
 51
201.323686
  0
ARC
  8
L-ZISSEN
 10
270.0
 20
566.0
 30
0.0
 40
11.0
 50
158.676314
 51
21.323686
  0
CIRCLE
  8
L-ZISSEN
 10
270.0
 20
566.0
 30
0.0
 40
8.0
  0
CIRCLE
  8
L-ZISSEN
 10
300.0
 20
654.0
 30
0.0
 40
8.0
  0
CIRCLE
  8
L-ZISSEN
 10
180.0
 20
654.0
 30
0.0
 40
8.0
  0
ARC
  8
L-ZISSEN
 10
180.0
 20
654.0
 30
0.0
 40
11.0
 50
338.676314
 51
201.323686
  0
ARC
  8
L-ZISSEN
 10
180.0
 20
654.0
 30
0.0
 40
10.0
 50
203.578178
 51
336.421822
  0
ARC
  8
L-ZISSEN
 10
210.0
 20
566.0
 30
0.0
 40
10.0
 50
23.578178
 51
156.421822
  0
CIRCLE
  8
L-ZISSEN
 10
210.0
 20
566.0
 30
0.0
 40
8.0
  0
ARC
  8
L-ZISSEN
 10
210.0
 20
566.0
 30
0.0
 40
11.0
 50
158.676314
 51
21.323686
  0
LINE
  8
L-ZISSEN
 10
189.165151
 20
650.0
 30
0.0
 11
290.834849
 21
650.0
 31
0.0
  0
LINE
  8
L-ZISSEN
 10
219.165151
 20
570.0
 30
0.0
 11
260.834849
 21
570.0
 31
0.0
  0
LINE
  8
L-ZISSEN
 10
309.5
 20
560.0
 30
0.0
 11
309.5
 21
570.0
 31
0.0
  0
LINE
  8
L-ZISSEN
 10
339.0
 20
560.0
 30
0.0
 11
309.5
 21
560.0
 31
0.0
  0
LINE
  8
L-ZISSEN
 10
339.0
 20
660.0
 30
0.0
 11
309.5
 21
660.0
 31
0.0
  0
LINE
  8
L-ZISSEN
 10
309.5
 20
659.545268
 30
0.0
 11
309.5
 21
660.0
 31
0.0
  0
LINE
  8
L-ZISSEN
 10
141.0
 20
660.0
 30
0.0
 11
170.5
 21
660.0
 31
0.0
  0
LINE
  8
L-ZISSEN
 10
170.5
 20
560.0
 30
0.0
 11
170.5
 21
570.0
 31
0.0
  0
LINE
  8
L-ZISSEN
 10
141.0
 20
560.0
 30
0.0
 11
170.5
 21
560.0
 31
0.0
  0
LINE
  8
L-ZISSEN
 10
170.5
 20
659.545268
 30
0.0
 11
170.5
 21
660.0
 31
0.0
  0
LINE
  8
L-ZISSEN
 10
339.0
 20
418.0
 30
0.0
 11
280.246951
 21
418.0
 31
0.0
  0
LINE
  8
L-ZISSEN
 10
322.0
 20
346.0
 30
0.0
 11
158.0
 21
346.0
 31
0.0
  0
LINE
  8
L-ZISSEN
 10
280.246951
 20
414.0
 30
0.0
 11
259.753049
 21
414.0
 31
0.0
  0
LINE
  8
L-ZISSEN
 10
309.5
 20
418.0
 30
0.0
 11
309.5
 21
346.0
 31
0.0
  0
LINE
  8
L-ZISSEN
 10
280.246951
 20
418.0
 30
0.0
 11
280.246951
 21
346.0
 31
0.0
  0
LINE
  8
L-ZISSEN
 10
259.753049
 20
427.0
 30
0.0
 11
259.753049
 21
346.0
 31
0.0
  0
LINE
  8
L-ZISSEN
 10
199.753049
 20
414.0
 30
0.0
 11
220.246951
 21
414.0
 31
0.0
  0
LINE
  8
L-ZISSEN
 10
220.246951
 20
427.0
 30
0.0
 11
220.246951
 21
346.0
 31
0.0
  0
LINE
  8
L-ZISSEN
 10
199.753049
 20
418.0
 30
0.0
 11
199.753049
 21
346.0
 31
0.0
  0
LINE
  8
L-ZISSEN
 10
170.5
 20
418.0
 30
0.0
 11
170.5
 21
346.0
 31
0.0
  0
LINE
  8
L-ZISSEN
 10
199.753049
 20
418.0
 30
0.0
 11
141.0
 21
418.0
 31
0.0
  0
LINE
  8
L-ZISSEN
 10
218.0
 20
426.5
 30
0.0
 11
218.0
 21
414.0
 31
0.0
  0
LINE
  8
L-ZISSEN
 10
202.0
 20
426.5
 30
0.0
 11
202.0
 21
414.0
 31
0.0
  0
LINE
  8
L-ZISSEN
 10
202.0
 20
426.5
 30
0.0
 11
218.0
 21
426.5
 31
0.0
  0
LINE
  8
L-ZISSEN
 10
278.0
 20
426.5
 30
0.0
 11
262.0
 21
426.5
 31
0.0
  0
LINE
  8
L-ZISSEN
 10
278.0
 20
426.5
 30
0.0
 11
278.0
 21
414.0
 31
0.0
  0
LINE
  8
L-ZISSEN
 10
262.0
 20
426.5
 30
0.0
 11
262.0
 21
414.0
 31
0.0
  0
LINE
  8
L-TYUSIN
 10
480.0
 20
378.0
 30
0.0
 11
600.0
 21
378.0
 31
0.0
  0
LINE
  8
L-ZISSEN
 10
490.0
 20
418.0
 30
0.0
 11
490.0
 21
338.0
 31
0.0
  0
LINE
  8
L-ZISSEN
 10
490.0
 20
338.0
 30
0.0
 11
590.0
 21
338.0
 31
0.0
  0
LINE
  8
L-ZISSEN
 10
590.0
 20
338.0
 30
0.0
 11
590.0
 21
418.0
 31
0.0
  0
LINE
  8
L-ZISSEN
 10
590.0
 20
418.0
 30
0.0
 11
553.0
 21
418.0
 31
0.0
  0
LINE
  8
L-ZISSEN
 10
553.0
 20
413.707142
 30
0.0
 11
553.0
 21
426.0
 31
0.0
  0
LINE
  8
L-ZISSEN
 10
553.0
 20
426.0
 30
0.0
 11
527.0
 21
426.0
 31
0.0
  0
LINE
  8
L-ZISSEN
 10
527.0
 20
426.0
 30
0.0
 11
527.0
 21
413.707142
 31
0.0
  0
ARC
  8
L-ZISSEN
 10
540.0
 20
378.0
 30
0.0
 40
38.0
 50
110.00519
 51
69.99481
  0
LINE
  8
L-ZISSEN
 10
527.0
 20
418.0
 30
0.0
 11
490.0
 21
418.0
 31
0.0
  0
CIRCLE
  8
L-ZISSEN
 10
580.0
 20
408.0
 30
0.0
 40
6.5
  0
CIRCLE
  8
L-ZISSEN
 10
500.0
 20
408.0
 30
0.0
 40
6.5
  0
CIRCLE
  8
L-ZISSEN
 10
500.0
 20
348.0
 30
0.0
 40
6.5
  0
CIRCLE
  8
L-ZISSEN
 10
580.0
 20
348.0
 30
0.0
 40
6.5
  0
LINE
  8
L-ZISSEN
 10
500.0
 20
427.0
 30
0.0
 11
580.0
 21
427.0
 31
0.0
  0
LINE
  8
L-ZISSEN
 10
500.0
 20
427.0
 30
0.0
 11
500.0
 21
418.0
 31
0.0
  0
LINE
  8
L-ZISSEN
 10
580.0
 20
427.0
 30
0.0
 11
580.0
 21
418.0
 31
0.0
  0
LINE
  8
L-ZISSEN
 10
485.0
 20
346.0
 30
0.0
 11
490.0
 21
346.0
 31
0.0
  0
LINE
  8
L-ZISSEN
 10
590.0
 20
346.0
 30
0.0
 11
595.0
 21
346.0
 31
0.0
  0
LINE
  8
L-ZISSEN
 10
592.0
 20
426.5
 30
0.0
 11
580.0
 21
426.5
 31
0.0
  0
LINE
  8
L-ZISSEN
 10
592.0
 20
426.5
 30
0.0
 11
592.0
 21
414.0
 31
0.0
  0
LINE
  8
L-ZISSEN
 10
590.0
 20
414.0
 30
0.0
 11
595.0
 21
414.0
 31
0.0
  0
LINE
  8
L-ZISSEN
 10
595.0
 20
260.0
 30
0.0
 11
595.0
 21
414.0
 31
0.0
  0
LINE
  8
L-ZISSEN
 10
485.0
 20
260.0
 30
0.0
 11
485.0
 21
284.0
 31
0.0
  0
LINE
  8
L-ZISSEN
 10
488.0
 20
426.5
 30
0.0
 11
488.0
 21
414.0
 31
0.0
  0
LINE
  8
L-ZISSEN
 10
488.0
 20
426.5
 30
0.0
 11
500.0
 21
426.5
 31
0.0
  0
LINE
  8
L-ZISSEN
 10
490.0
 20
414.0
 30
0.0
 11
485.0
 21
414.0
 31
0.0
  0
LINE
  8
L-ZISSEN
 10
485.0
 20
316.0
 30
0.0
 11
485.0
 21
414.0
 31
0.0
  0
LINE
  8
L-ZISSEN
 10
402.0
 20
426.0
 30
0.0
 11
402.0
 21
340.0
 31
0.0
  0
LINE
  8
L-ZISSEN
 10
339.0
 20
418.0
 30
0.0
 11
339.0
 21
338.0
 31
0.0
  0
LINE
  8
L-ZISSEN
 10
402.0
 20
340.0
 30
0.0
 11
339.0
 21
340.0
 31
0.0
  0
LINE
  8
L-ZISSEN
 10
402.0
 20
426.0
 30
0.0
 11
322.0
 21
426.0
 31
0.0
  0
LINE
  8
L-ZISSEN
 10
348.5
 20
414.5
 30
0.0
 11
339.0
 21
414.5
 31
0.0
  0
LINE
  8
L-ZISSEN
 10
348.5
 20
401.5
 30
0.0
 11
339.0
 21
401.5
 31
0.0
  0
LINE
  8
L-ZISSEN
 10
348.5
 20
414.5
 30
0.0
 11
348.5
 21
401.5
 31
0.0
  0
LINE
  8
L-ZISSEN
 10
348.5
 20
354.5
 30
0.0
 11
339.0
 21
354.5
 31
0.0
  0
LINE
  8
L-ZISSEN
 10
348.5
 20
341.5
 30
0.0
 11
339.0
 21
341.5
 31
0.0
  0
LINE
  8
L-ZISSEN
 10
348.5
 20
341.5
 30
0.0
 11
348.5
 21
354.5
 31
0.0
  0
LINE
  8
L-ZISSEN
 10
402.0
 20
572.0
 30
0.0
 11
348.5
 21
572.0
 31
0.0
  0
LINE
  8
L-ZISSEN
 10
402.0
 20
648.0
 30
0.0
 11
348.5
 21
648.0
 31
0.0
  0
LINE
  8
L-ZISSEN
 10
402.0
 20
648.0
 30
0.0
 11
402.0
 21
572.0
 31
0.0
  0
LINE
  8
L-ZISSEN
 10
339.0
 20
560.0
 30
0.0
 11
339.0
 21
584.729844
 31
0.0
  0
LINE
  8
L-ZISSEN
 10
350.0
 20
648.0
 30
0.0
 11
350.0
 21
665.0
 31
0.0
  0
LINE
  8
L-ZISSEN
 10
364.1
 20
623.0
 30
0.0
 11
402.0
 21
623.0
 31
0.0
  0
LINE
  8
L-ZISSEN
 10
364.1
 20
597.0
 30
0.0
 11
402.0
 21
597.0
 31
0.0
  0
LINE
  8
L-ZISSEN
 10
339.0
 20
635.270156
 30
0.0
 11
339.0
 21
660.0
 31
0.0
  0
LINE
  8
L-ZISSEN
 10
348.5
 20
563.5
 30
0.0
 11
339.0
 21
563.5
 31
0.0
  0
LINE
  8
L-ZISSEN
 10
348.5
 20
576.5
 30
0.0
 11
339.0
 21
576.5
 31
0.0
  0
LINE
  8
L-ZISSEN
 10
348.5
 20
576.5
 30
0.0
 11
348.5
 21
563.5
 31
0.0
  0
LINE
  8
L-ZISSEN
 10
348.5
 20
656.5
 30
0.0
 11
339.0
 21
656.5
 31
0.0
  0
LINE
  8
L-ZISSEN
 10
348.5
 20
643.5
 30
0.0
 11
348.5
 21
656.5
 31
0.0
  0
LINE
  8
L-ZISSEN
 10
348.5
 20
643.5
 30
0.0
 11
339.0
 21
643.5
 31
0.0
  0
LINE
  8
L-ZISSEN
 10
131.5
 20
414.5
 30
0.0
 11
131.5
 21
401.5
 31
0.0
  0
LINE
  8
L-ZISSEN
 10
131.5
 20
401.5
 30
0.0
 11
141.0
 21
401.5
 31
0.0
  0
LINE
  8
L-ZISSEN
 10
131.5
 20
414.5
 30
0.0
 11
141.0
 21
414.5
 31
0.0
  0
LINE
  8
L-ZISSEN
 10
131.5
 20
354.5
 30
0.0
 11
141.0
 21
354.5
 31
0.0
  0
LINE
  8
L-ZISSEN
 10
131.5
 20
341.5
 30
0.0
 11
131.5
 21
354.5
 31
0.0
  0
LINE
  8
L-ZISSEN
 10
131.5
 20
341.5
 30
0.0
 11
141.0
 21
341.5
 31
0.0
  0
LINE
  8
L-ZISSEN
 10
141.0
 20
418.0
 30
0.0
 11
141.0
 21
338.0
 31
0.0
  0
LINE
  8
L-ZISSEN
 10
141.0
 20
338.0
 30
0.0
 11
158.0
 21
338.0
 31
0.0
  0
LINE
  8
L-ZISSEN
 10
339.0
 20
338.0
 30
0.0
 11
322.0
 21
338.0
 31
0.0
  0
LINE
  8
L-ZISSEN
 10
141.0
 20
560.0
 30
0.0
 11
141.0
 21
584.729844
 31
0.0
  0
LINE
  8
L-ZISSEN
 10
131.5
 20
576.5
 30
0.0
 11
141.0
 21
576.5
 31
0.0
  0
LINE
  8
L-ZISSEN
 10
131.5
 20
563.5
 30
0.0
 11
141.0
 21
563.5
 31
0.0
  0
LINE
  8
L-ZISSEN
 10
141.0
 20
635.270156
 30
0.0
 11
141.0
 21
660.0
 31
0.0
  0
LINE
  8
L-ZISSEN
 10
131.5
 20
643.5
 30
0.0
 11
141.0
 21
643.5
 31
0.0
  0
LINE
  8
L-ZISSEN
 10
131.5
 20
656.5
 30
0.0
 11
141.0
 21
656.5
 31
0.0
  0
LINE
  8
L-ZISSEN
 10
131.5
 20
643.5
 30
0.0
 11
131.5
 21
656.5
 31
0.0
  0
LINE
  8
L-ZISSEN
 10
131.5
 20
576.5
 30
0.0
 11
131.5
 21
563.5
 31
0.0
  0
LINE
  8
L-ZISSEN
 10
130.0
 20
648.0
 30
0.0
 11
130.0
 21
665.0
 31
0.0
  0
LINE
  8
L-ZISSEN
 10
402.0
 20
413.707142
 30
0.0
 11
348.5
 21
413.707142
 31
0.0
  0
LINE
  8
L-ZISSEN
 10
339.0
 20
882.0
 30
0.0
 11
322.0
 21
882.0
 31
0.0
  0
LINE
  8
L-ZISSEN
 10
141.0
 20
882.0
 30
0.0
 11
158.0
 21
882.0
 31
0.0
  0
LINE
  8
L-ZISSEN
 10
141.0
 20
802.0
 30
0.0
 11
141.0
 21
882.0
 31
0.0
  0
LINE
  8
L-ZISSEN
 10
131.5
 20
878.5
 30
0.0
 11
141.0
 21
878.5
 31
0.0
  0
LINE
  8
L-ZISSEN
 10
131.5
 20
878.5
 30
0.0
 11
131.5
 21
865.5
 31
0.0
  0
LINE
  8
L-ZISSEN
 10
131.5
 20
865.5
 30
0.0
 11
141.0
 21
865.5
 31
0.0
  0
LINE
  8
L-ZISSEN
 10
131.5
 20
805.5
 30
0.0
 11
141.0
 21
805.5
 31
0.0
  0
LINE
  8
L-ZISSEN
 10
131.5
 20
818.5
 30
0.0
 11
141.0
 21
818.5
 31
0.0
  0
LINE
  8
L-ZISSEN
 10
131.5
 20
805.5
 30
0.0
 11
131.5
 21
818.5
 31
0.0
  0
LINE
  8
L-ZISSEN
 10
348.5
 20
878.5
 30
0.0
 11
348.5
 21
865.5
 31
0.0
  0
LINE
  8
L-ZISSEN
 10
348.5
 20
878.5
 30
0.0
 11
339.0
 21
878.5
 31
0.0
  0
LINE
  8
L-ZISSEN
 10
348.5
 20
865.5
 30
0.0
 11
339.0
 21
865.5
 31
0.0
  0
LINE
  8
L-ZISSEN
 10
348.5
 20
805.5
 30
0.0
 11
348.5
 21
818.5
 31
0.0
  0
LINE
  8
L-ZISSEN
 10
348.5
 20
818.5
 30
0.0
 11
339.0
 21
818.5
 31
0.0
  0
LINE
  8
L-ZISSEN
 10
348.5
 20
805.5
 30
0.0
 11
339.0
 21
805.5
 31
0.0
  0
LINE
  8
L-ZISSEN
 10
339.0
 20
802.0
 30
0.0
 11
339.0
 21
882.0
 31
0.0
  0
LINE
  8
L-ZISSEN
 10
292.0
 20
793.5
 30
0.0
 11
292.0
 21
806.0
 31
0.0
  0
LINE
  8
L-ZISSEN
 10
308.0
 20
793.5
 30
0.0
 11
308.0
 21
806.0
 31
0.0
  0
LINE
  8
L-ZISSEN
 10
308.0
 20
793.5
 30
0.0
 11
292.0
 21
793.5
 31
0.0
  0
LINE
  8
L-ZISSEN
 10
172.0
 20
793.5
 30
0.0
 11
188.0
 21
793.5
 31
0.0
  0
LINE
  8
L-ZISSEN
 10
172.0
 20
793.5
 30
0.0
 11
172.0
 21
806.0
 31
0.0
  0
LINE
  8
L-ZISSEN
 10
188.0
 20
793.5
 30
0.0
 11
188.0
 21
806.0
 31
0.0
  0
LINE
  8
L-ZISSEN
 10
169.753049
 20
802.0
 30
0.0
 11
141.0
 21
802.0
 31
0.0
  0
LINE
  8
L-ZISSEN
 10
169.753049
 20
802.0
 30
0.0
 11
169.753049
 21
874.0
 31
0.0
  0
LINE
  8
L-ZISSEN
 10
190.246951
 20
793.0
 30
0.0
 11
190.246951
 21
874.0
 31
0.0
  0
LINE
  8
L-ZISSEN
 10
169.753049
 20
806.0
 30
0.0
 11
190.246951
 21
806.0
 31
0.0
  0
LINE
  8
L-ZISSEN
 10
289.753049
 20
793.0
 30
0.0
 11
289.753049
 21
874.0
 31
0.0
  0
LINE
  8
L-ZISSEN
 10
310.246951
 20
802.0
 30
0.0
 11
310.246951
 21
874.0
 31
0.0
  0
LINE
  8
L-ZISSEN
 10
310.246951
 20
806.0
 30
0.0
 11
289.753049
 21
806.0
 31
0.0
  0
LINE
  8
L-ZISSEN
 10
322.0
 20
874.0
 30
0.0
 11
158.0
 21
874.0
 31
0.0
  0
LINE
  8
L-ZISSEN
 10
339.0
 20
802.0
 30
0.0
 11
310.246951
 21
802.0
 31
0.0
  0
LINE
  8
L-TYUSIN
 10
73.0
 20
842.0
 30
0.0
 11
407.0
 21
842.0
 31
0.0
  0
LINE
  8
L-ZISSEN
 10
322.0
 20
793.0
 30
0.0
 11
322.0
 21
885.0
 31
0.0
  0
LINE
  8
L-ZISSEN
 10
158.0
 20
793.0
 30
0.0
 11
158.0
 21
885.0
 31
0.0
  0
LINE
  8
L-ZISSEN
 10
322.0
 20
793.0
 30
0.0
 11
158.0
 21
793.0
 31
0.0
  0
LINE
  8
L-ZISSEN
 10
322.0
 20
884.0
 30
0.0
 11
158.0
 21
884.0
 31
0.0
  0
LINE
  8
L-ZISSEN
 10
1094.0
 20
54.0
 30
0.0
 11
1146.0
 21
54.0
 31
0.0
  0
LINE
  8
L-TYUSIN
 10
1185.0
 20
660.0
 30
0.0
 11
1185.0
 21
30.0
 31
0.0
  0
LINE
  8
L-TYUSIN
 10
685.0
 20
240.0
 30
0.0
 11
1185.0
 21
240.0
 31
0.0
  0
LINE
  8
L-TYUSIN
 10
685.0
 20
660.0
 30
0.0
 11
685.0
 21
30.0
 31
0.0
  0
CIRCLE
  8
L-ZISSEN
 10
1140.0
 20
480.0
 30
0.0
 40
4.49995
  0
CIRCLE
  8
L-ZISSEN
 10
1100.0
 20
480.0
 30
0.0
 40
4.49995
  0
CIRCLE
  8
L-ZISSEN
 10
1140.0
 20
520.0
 30
0.0
 40
4.49995
  0
CIRCLE
  8
L-ZISSEN
 10
1100.0
 20
520.0
 30
0.0
 40
4.49995
  0
CIRCLE
  8
L-ZISSEN
 10
1120.0
 20
500.0
 30
0.0
 40
19.0
  0
CIRCLE
  8
L-ZISSEN
 10
1120.0
 20
500.0
 30
0.0
 40
11.0
  0
LINE
  8
L-ZISSEN
 10
943.0
 20
526.0
 30
0.0
 11
1017.1
 21
526.0
 31
0.0
  0
LINE
  8
L-ZISSEN
 10
886.9
 20
474.0
 30
0.0
 11
1017.1
 21
474.0
 31
0.0
  0
LINE
  8
L-ZISSEN
 10
1017.1
 20
564.0
 30
0.0
 11
886.9
 21
564.0
 31
0.0
  0
LINE
  8
L-ZISSEN
 10
1017.1
 20
616.0
 30
0.0
 11
886.9
 21
616.0
 31
0.0
  0
LINE
  8
L-ZISSEN
  6
CONTINUOUS
 62
     7
 10
955.1
 20
406.0
 30
0.0
 11
1001.1
 21
404.393644
 31
0.0
  0
LINE
  8
L-ZISSEN
  6
CONTINUOUS
 62
     7
 10
1001.1
 20
355.606356
 30
0.0
 11
1001.1
 21
404.393644
 31
0.0
  0
LINE
  8
L-ZISSEN
  6
CONTINUOUS
 62
     7
 10
955.1
 20
354.0
 30
0.0
 11
1001.1
 21
355.606356
 31
0.0
  0
LINE
  8
L-ZISSEN
  6
CONTINUOUS
 62
     7
 10
955.1
 20
264.0
 30
0.0
 11
1001.1
 21
265.606356
 31
0.0
  0
LINE
  8
L-ZISSEN
  6
CONTINUOUS
 62
     7
 10
955.1
 20
316.0
 30
0.0
 11
1001.1
 21
314.393644
 31
0.0
  0
LINE
  8
L-ZISSEN
  6
CONTINUOUS
 62
     7
 10
1001.1
 20
265.606356
 30
0.0
 11
1001.1
 21
314.393644
 31
0.0
  0
LINE
  8
L-ZISSEN
 10
1021.74282
 20
475.50005
 30
0.0
 11
1017.1
 21
475.50005
 31
0.0
  0
LINE
  8
L-ZISSEN
 10
1021.74282
 20
484.49995
 30
0.0
 11
1021.74282
 21
475.50005
 31
0.0
  0
LINE
  8
L-ZISSEN
 10
1021.74282
 20
484.49995
 30
0.0
 11
1017.1
 21
484.49995
 31
0.0
  0
LINE
  8
L-ZISSEN
 10
1021.74282
 20
515.50005
 30
0.0
 11
1017.1
 21
515.50005
 31
0.0
  0
LINE
  8
L-ZISSEN
 10
1021.74282
 20
515.50005
 30
0.0
 11
1021.74282
 21
524.49995
 31
0.0
  0
LINE
  8
L-ZISSEN
 10
1028.7
 20
511.0
 30
0.0
 11
1028.7
 21
489.0
 31
0.0
  0
LINE
  8
L-ZISSEN
 10
1028.7
 20
489.0
 30
0.0
 11
1027.7
 21
489.0
 31
0.0
  0
LINE
  8
L-ZISSEN
 10
1027.7
 20
511.0
 30
0.0
 11
1028.7
 21
511.0
 31
0.0
  0
LINE
  8
L-ZISSEN
 10
1021.74282
 20
524.49995
 30
0.0
 11
1017.1
 21
524.49995
 31
0.0
  0
LINE
  8
L-ZISSEN
 10
1021.74282
 20
481.0
 30
0.0
 11
1027.7
 21
481.0
 31
0.0
  0
LINE
  8
L-ZISSEN
 10
1021.74282
 20
519.0
 30
0.0
 11
1027.7
 21
519.0
 31
0.0
  0
LINE
  8
L-ZISSEN
 10
1017.1
 20
526.0
 30
0.0
 11
1017.1
 21
474.0
 31
0.0
  0
LINE
  8
L-ZISSEN
 10
1027.7
 20
519.0
 30
0.0
 11
1027.7
 21
481.0
 31
0.0
  0
LINE
  8
L-ZISSEN
 10
1027.7
 20
609.0
 30
0.0
 11
1027.7
 21
571.0
 31
0.0
  0
LINE
  8
L-ZISSEN
 10
1017.1
 20
616.0
 30
0.0
 11
1017.1
 21
564.0
 31
0.0
  0
LINE
  8
L-ZISSEN
 10
1021.74282
 20
609.0
 30
0.0
 11
1027.7
 21
609.0
 31
0.0
  0
LINE
  8
L-ZISSEN
 10
1021.74282
 20
571.0
 30
0.0
 11
1027.7
 21
571.0
 31
0.0
  0
LINE
  8
L-ZISSEN
 10
1021.74282
 20
614.49995
 30
0.0
 11
1017.1
 21
614.49995
 31
0.0
  0
LINE
  8
L-ZISSEN
 10
1027.7
 20
601.0
 30
0.0
 11
1028.7
 21
601.0
 31
0.0
  0
LINE
  8
L-ZISSEN
 10
1028.7
 20
579.0
 30
0.0
 11
1027.7
 21
579.0
 31
0.0
  0
LINE
  8
L-ZISSEN
 10
1028.7
 20
601.0
 30
0.0
 11
1028.7
 21
579.0
 31
0.0
  0
LINE
  8
L-ZISSEN
 10
1021.74282
 20
605.50005
 30
0.0
 11
1021.74282
 21
614.49995
 31
0.0
  0
LINE
  8
L-ZISSEN
 10
1021.74282
 20
605.50005
 30
0.0
 11
1017.1
 21
605.50005
 31
0.0
  0
LINE
  8
L-ZISSEN
 10
1021.74282
 20
574.49995
 30
0.0
 11
1017.1
 21
574.49995
 31
0.0
  0
LINE
  8
L-ZISSEN
 10
1021.74282
 20
574.49995
 30
0.0
 11
1021.74282
 21
565.50005
 31
0.0
  0
LINE
  8
L-ZISSEN
 10
1021.74282
 20
565.50005
 30
0.0
 11
1017.1
 21
565.50005
 31
0.0
  0
CIRCLE
  8
L-ZISSEN
 10
1120.0
 20
290.0
 30
0.0
 40
11.0
  0
CIRCLE
  8
L-ZISSEN
 10
1120.0
 20
290.0
 30
0.0
 40
9.0
  0
CIRCLE
  8
L-ZISSEN
 10
1120.0
 20
290.0
 30
0.0
 40
7.25
  0
LINE
  8
L-ZISSEN
 10
1001.1
 20
391.0
 30
0.0
 11
1014.1
 21
391.0
 31
0.0
  0
LINE
  8
L-ZISSEN
  6
CONTINUOUS
 62
     7
 10
1014.1
 20
389.0
 30
0.0
 11
1020.1
 21
389.0
 31
0.0
  0
LINE
  8
L-ZISSEN
  6
CONTINUOUS
 62
     7
 10
1020.1
 20
387.25
 30
0.0
 11
1027.1
 21
387.25
 31
0.0
  0
LINE
  8
L-ZISSEN
 10
1001.1
 20
369.0
 30
0.0
 11
1014.1
 21
369.0
 31
0.0
  0
LINE
  8
L-ZISSEN
  6
CONTINUOUS
 62
     7
 10
1020.1
 20
389.0
 30
0.0
 11
1020.1
 21
371.0
 31
0.0
  0
LINE
  8
L-ZISSEN
  6
CONTINUOUS
 62
     7
 10
1014.1
 20
371.0
 30
0.0
 11
1020.1
 21
371.0
 31
0.0
  0
LINE
  8
L-ZISSEN
  6
CONTINUOUS
 62
     7
 10
1020.1
 20
372.75
 30
0.0
 11
1027.1
 21
372.75
 31
0.0
  0
LINE
  8
L-ZISSEN
  6
CONTINUOUS
 62
     7
 10
1027.1
 20
387.25
 30
0.0
 11
1027.1
 21
372.75
 31
0.0
  0
LINE
  8
L-ZISSEN
  6
CONTINUOUS
 62
     7
 10
1014.1
 20
391.0
 30
0.0
 11
1014.1
 21
369.0
 31
0.0
  0
LINE
  8
L-ZISSEN
  6
CONTINUOUS
 62
     7
 10
1014.1
 20
301.0
 30
0.0
 11
1014.1
 21
279.0
 31
0.0
  0
LINE
  8
L-ZISSEN
  6
CONTINUOUS
 62
     7
 10
1027.1
 20
297.25
 30
0.0
 11
1027.1
 21
282.75
 31
0.0
  0
LINE
  8
L-ZISSEN
  6
CONTINUOUS
 62
     7
 10
1020.1
 20
282.75
 30
0.0
 11
1027.1
 21
282.75
 31
0.0
  0
LINE
  8
L-ZISSEN
  6
CONTINUOUS
 62
     7
 10
1014.1
 20
281.0
 30
0.0
 11
1020.1
 21
281.0
 31
0.0
  0
LINE
  8
L-ZISSEN
  6
CONTINUOUS
 62
     7
 10
1020.1
 20
299.0
 30
0.0
 11
1020.1
 21
281.0
 31
0.0
  0
LINE
  8
L-ZISSEN
 10
1001.1
 20
279.0
 30
0.0
 11
1014.1
 21
279.0
 31
0.0
  0
LINE
  8
L-ZISSEN
  6
CONTINUOUS
 62
     7
 10
1020.1
 20
297.25
 30
0.0
 11
1027.1
 21
297.25
 31
0.0
  0
LINE
  8
L-ZISSEN
  6
CONTINUOUS
 62
     7
 10
1014.1
 20
299.0
 30
0.0
 11
1020.1
 21
299.0
 31
0.0
  0
LINE
  8
L-ZISSEN
 10
1001.1
 20
301.0
 30
0.0
 11
1014.1
 21
301.0
 31
0.0
  0
LINE
  8
L-ZISSEN
 10
943.0
 20
106.0
 30
0.0
 11
1017.1
 21
106.0
 31
0.0
  0
LINE
  8
L-ZISSEN
 10
886.9
 20
54.0
 30
0.0
 11
1017.1
 21
54.0
 31
0.0
  0
LINE
  8
L-ZISSEN
 10
1017.1
 20
144.0
 30
0.0
 11
886.9
 21
144.0
 31
0.0
  0
LINE
  8
L-ZISSEN
 10
1017.1
 20
196.0
 30
0.0
 11
886.9
 21
196.0
 31
0.0
  0
CIRCLE
  8
L-ZISSEN
 10
1120.0
 20
80.0
 30
0.0
 40
11.0
  0
CIRCLE
  8
L-ZISSEN
 10
1120.0
 20
80.0
 30
0.0
 40
9.0
  0
CIRCLE
  8
L-ZISSEN
 10
1120.0
 20
80.0
 30
0.0
 40
7.25
  0
CIRCLE
  8
L-ZISSEN
 10
1120.0
 20
80.0
 30
0.0
 40
19.0
  0
CIRCLE
  8
L-ZISSEN
 10
1100.0
 20
100.0
 30
0.0
 40
4.49995
  0
CIRCLE
  8
L-ZISSEN
 10
1140.0
 20
100.0
 30
0.0
 40
4.49995
  0
CIRCLE
  8
L-ZISSEN
 10
1100.0
 20
60.0
 30
0.0
 40
4.49995
  0
CIRCLE
  8
L-ZISSEN
 10
1140.0
 20
60.0
 30
0.0
 40
4.49995
  0
LINE
  8
L-ZISSEN
  6
CONTINUOUS
 62
     7
 10
1040.7
 20
91.0
 30
0.0
 11
1040.7
 21
69.0
 31
0.0
  0
LINE
  8
L-ZISSEN
  6
CONTINUOUS
 62
     7
 10
1054.0
 20
87.25
 30
0.0
 11
1054.0
 21
72.75
 31
0.0
  0
LINE
  8
L-ZISSEN
  6
CONTINUOUS
 62
     7
 10
1046.7
 20
72.75
 30
0.0
 11
1054.0
 21
72.75
 31
0.0
  0
LINE
  8
L-ZISSEN
  6
CONTINUOUS
 62
     7
 10
1040.7
 20
71.0
 30
0.0
 11
1046.7
 21
71.0
 31
0.0
  0
LINE
  8
L-ZISSEN
  6
CONTINUOUS
 62
     7
 10
1046.7
 20
89.0
 30
0.0
 11
1046.7
 21
71.0
 31
0.0
  0
LINE
  8
L-ZISSEN
 10
1027.7
 20
69.0
 30
0.0
 11
1040.7
 21
69.0
 31
0.0
  0
LINE
  8
L-ZISSEN
  6
CONTINUOUS
 62
     7
 10
1046.7
 20
87.25
 30
0.0
 11
1054.0
 21
87.25
 31
0.0
  0
LINE
  8
L-ZISSEN
  6
CONTINUOUS
 62
     7
 10
1040.7
 20
89.0
 30
0.0
 11
1046.7
 21
89.0
 31
0.0
  0
LINE
  8
L-ZISSEN
 10
1027.7
 20
91.0
 30
0.0
 11
1040.7
 21
91.0
 31
0.0
  0
LINE
  8
L-ZISSEN
 10
1027.7
 20
181.0
 30
0.0
 11
1040.7
 21
181.0
 31
0.0
  0
LINE
  8
L-ZISSEN
  6
CONTINUOUS
 62
     7
 10
1040.7
 20
179.0
 30
0.0
 11
1046.7
 21
179.0
 31
0.0
  0
LINE
  8
L-ZISSEN
  6
CONTINUOUS
 62
     7
 10
1046.7
 20
177.25
 30
0.0
 11
1054.0
 21
177.25
 31
0.0
  0
LINE
  8
L-ZISSEN
 10
1027.7
 20
159.0
 30
0.0
 11
1040.7
 21
159.0
 31
0.0
  0
LINE
  8
L-ZISSEN
  6
CONTINUOUS
 62
     7
 10
1046.7
 20
179.0
 30
0.0
 11
1046.7
 21
161.0
 31
0.0
  0
LINE
  8
L-ZISSEN
  6
CONTINUOUS
 62
     7
 10
1040.7
 20
161.0
 30
0.0
 11
1046.7
 21
161.0
 31
0.0
  0
LINE
  8
L-ZISSEN
  6
CONTINUOUS
 62
     7
 10
1046.7
 20
162.75
 30
0.0
 11
1054.0
 21
162.75
 31
0.0
  0
LINE
  8
L-ZISSEN
  6
CONTINUOUS
 62
     7
 10
1054.0
 20
177.25
 30
0.0
 11
1054.0
 21
162.75
 31
0.0
  0
LINE
  8
L-ZISSEN
  6
CONTINUOUS
 62
     7
 10
1040.7
 20
181.0
 30
0.0
 11
1040.7
 21
159.0
 31
0.0
  0
LINE
  8
L-ZISSEN
 10
1027.7
 20
99.0
 30
0.0
 11
1027.7
 21
61.0
 31
0.0
  0
LINE
  8
L-ZISSEN
 10
1017.1
 20
106.0
 30
0.0
 11
1017.1
 21
54.0
 31
0.0
  0
LINE
  8
L-ZISSEN
 10
1021.74282
 20
99.0
 30
0.0
 11
1027.7
 21
99.0
 31
0.0
  0
LINE
  8
L-ZISSEN
 10
1021.74282
 20
61.0
 30
0.0
 11
1027.7
 21
61.0
 31
0.0
  0
LINE
  8
L-ZISSEN
 10
1021.74282
 20
104.49995
 30
0.0
 11
1017.1
 21
104.49995
 31
0.0
  0
LINE
  8
L-ZISSEN
 10
1021.74282
 20
95.50005
 30
0.0
 11
1021.74282
 21
104.49995
 31
0.0
  0
LINE
  8
L-ZISSEN
 10
1021.74282
 20
95.50005
 30
0.0
 11
1017.1
 21
95.50005
 31
0.0
  0
LINE
  8
L-ZISSEN
 10
1021.74282
 20
64.49995
 30
0.0
 11
1017.1
 21
64.49995
 31
0.0
  0
LINE
  8
L-ZISSEN
 10
1021.74282
 20
64.49995
 30
0.0
 11
1021.74282
 21
55.50005
 31
0.0
  0
LINE
  8
L-ZISSEN
 10
1021.74282
 20
55.50005
 30
0.0
 11
1017.1
 21
55.50005
 31
0.0
  0
LINE
  8
L-ZISSEN
 10
1021.74282
 20
145.50005
 30
0.0
 11
1017.1
 21
145.50005
 31
0.0
  0
LINE
  8
L-ZISSEN
 10
1021.74282
 20
154.49995
 30
0.0
 11
1021.74282
 21
145.50005
 31
0.0
  0
LINE
  8
L-ZISSEN
 10
1021.74282
 20
154.49995
 30
0.0
 11
1017.1
 21
154.49995
 31
0.0
  0
LINE
  8
L-ZISSEN
 10
1021.74282
 20
185.50005
 30
0.0
 11
1017.1
 21
185.50005
 31
0.0
  0
LINE
  8
L-ZISSEN
 10
1021.74282
 20
185.50005
 30
0.0
 11
1021.74282
 21
194.49995
 31
0.0
  0
LINE
  8
L-ZISSEN
 10
1021.74282
 20
194.49995
 30
0.0
 11
1017.1
 21
194.49995
 31
0.0
  0
LINE
  8
L-ZISSEN
 10
1021.74282
 20
151.0
 30
0.0
 11
1027.7
 21
151.0
 31
0.0
  0
LINE
  8
L-ZISSEN
 10
1021.74282
 20
189.0
 30
0.0
 11
1027.7
 21
189.0
 31
0.0
  0
LINE
  8
L-ZISSEN
 10
1017.1
 20
196.0
 30
0.0
 11
1017.1
 21
144.0
 31
0.0
  0
LINE
  8
L-ZISSEN
 10
1027.7
 20
189.0
 30
0.0
 11
1027.7
 21
151.0
 31
0.0
  0
LINE
  8
L-ZISSEN
 10
1343.0
 20
534.0
 30
0.0
 11
1291.0
 21
534.0
 31
0.0
  0
LINE
  8
L-ZISSEN
 10
1343.0
 20
539.6
 30
0.0
 11
1343.0
 21
526.0
 31
0.0
  0
LINE
  8
L-ZISSEN
 10
1291.0
 20
539.6
 30
0.0
 11
1291.0
 21
526.0
 31
0.0
  0
LINE
  8
L-ZISSEN
 10
1291.0
 20
539.6
 30
0.0
 11
1343.0
 21
539.6
 31
0.0
  0
LINE
  8
L-ZISSEN
  6
CONTINUOUS
 62
     7
 10
1298.5
 20
543.2
 30
0.0
 11
1291.5
 21
543.2
 31
0.0
  0
LINE
  8
L-ZISSEN
  6
CONTINUOUS
 62
     7
 10
1298.5
 20
539.6
 30
0.0
 11
1298.5
 21
543.2
 31
0.0
  0
LINE
  8
L-ZISSEN
  6
CONTINUOUS
 62
     7
 10
1291.5
 20
539.6
 30
0.0
 11
1291.5
 21
543.2
 31
0.0
  0
LINE
  8
L-ZISSEN
  6
CONTINUOUS
 62
     7
 10
1335.5
 20
539.6
 30
0.0
 11
1335.5
 21
543.2
 31
0.0
  0
LINE
  8
L-ZISSEN
  6
CONTINUOUS
 62
     7
 10
1342.5
 20
539.6
 30
0.0
 11
1342.5
 21
543.2
 31
0.0
  0
LINE
  8
L-ZISSEN
  6
CONTINUOUS
 62
     7
 10
1342.5
 20
543.2
 30
0.0
 11
1335.5
 21
543.2
 31
0.0
  0
LINE
  8
L-ZISSEN
 10
1434.0
 20
539.6
 30
0.0
 11
1434.0
 21
546.1
 31
0.0
  0
LINE
  8
L-ZISSEN
 10
1442.0
 20
546.1
 30
0.0
 11
1442.0
 21
543.2
 31
0.0
  0
LINE
  8
L-ZISSEN
  6
CONTINUOUS
 62
     7
 10
1442.0
 20
546.1
 30
0.0
 11
1434.0
 21
546.1
 31
0.0
  0
LINE
  8
L-ZISSEN
  6
CONTINUOUS
 62
     7
 10
1445.5
 20
539.6
 30
0.0
 11
1445.5
 21
543.2
 31
0.0
  0
LINE
  8
L-ZISSEN
  6
CONTINUOUS
 62
     7
 10
1438.5
 20
539.6
 30
0.0
 11
1438.5
 21
543.2
 31
0.0
  0
LINE
  8
L-ZISSEN
  6
CONTINUOUS
 62
     7
 10
1438.5
 20
543.2
 30
0.0
 11
1445.5
 21
543.2
 31
0.0
  0
LINE
  8
L-ZISSEN
  6
CONTINUOUS
 62
     7
 10
1401.5
 20
543.2
 30
0.0
 11
1394.5
 21
543.2
 31
0.0
  0
LINE
  8
L-ZISSEN
  6
CONTINUOUS
 62
     7
 10
1401.5
 20
539.6
 30
0.0
 11
1401.5
 21
543.2
 31
0.0
  0
LINE
  8
L-ZISSEN
  6
CONTINUOUS
 62
     7
 10
1394.5
 20
539.6
 30
0.0
 11
1394.5
 21
543.2
 31
0.0
  0
LINE
  8
L-ZISSEN
 10
1394.0
 20
539.6
 30
0.0
 11
1446.0
 21
539.6
 31
0.0
  0
LINE
  8
L-ZISSEN
 10
1392.0
 20
534.0
 30
0.0
 11
1448.0
 21
534.0
 31
0.0
  0
LINE
  8
L-ZISSEN
 10
1446.0
 20
539.6
 30
0.0
 11
1446.0
 21
474.0
 31
0.0
  0
LINE
  8
L-ZISSEN
 10
1394.0
 20
474.0
 30
0.0
 11
1394.0
 21
539.6
 31
0.0
  0
CIRCLE
  8
L-ZISSEN
 10
1332.0
 20
608.0
 30
0.0
 40
4.0
  0
LINE
  8
L-ZISSEN
  6
CONTINUOUS
 62
     7
 10
1328.0
 20
546.1
 30
0.0
 11
1336.0
 21
546.1
 31
0.0
  0
LINE
  8
L-ZISSEN
 10
1328.0
 20
546.1
 30
0.0
 11
1328.0
 21
539.6
 31
0.0
  0
LINE
  8
L-ZISSEN
 10
1336.0
 20
543.2
 30
0.0
 11
1336.0
 21
546.1
 31
0.0
  0
LINE
  8
L-ZISSEN
  6
CONTINUOUS
 62
     7
 10
942.5
 20
119.1
 30
0.0
 11
935.5
 21
119.1
 31
0.0
  0
LINE
  8
L-ZISSEN
  6
CONTINUOUS
 62
     7
 10
942.5
 20
115.5
 30
0.0
 11
942.5
 21
119.1
 31
0.0
  0
LINE
  8
L-ZISSEN
  6
CONTINUOUS
 62
     7
 10
935.5
 20
115.5
 30
0.0
 11
935.5
 21
119.1
 31
0.0
  0
LINE
  8
L-ZISSEN
  6
CONTINUOUS
 62
     7
 10
886.9
 20
104.5
 30
0.0
 11
883.6
 21
104.5
 31
0.0
  0
LINE
  8
L-ZISSEN
  6
CONTINUOUS
 62
     7
 10
886.9
 20
95.5
 30
0.0
 11
883.6
 21
95.5
 31
0.0
  0
LINE
  8
L-ZISSEN
  6
CONTINUOUS
 62
     7
 10
883.6
 20
104.5
 30
0.0
 11
883.6
 21
95.5
 31
0.0
  0
LINE
  8
L-ZISSEN
  6
CONTINUOUS
 62
     7
 10
891.5
 20
115.5
 30
0.0
 11
891.5
 21
119.1
 31
0.0
  0
LINE
  8
L-ZISSEN
  6
CONTINUOUS
 62
     7
 10
898.5
 20
115.5
 30
0.0
 11
898.5
 21
119.1
 31
0.0
  0
LINE
  8
L-ZISSEN
  6
CONTINUOUS
 62
     7
 10
898.5
 20
119.1
 30
0.0
 11
891.5
 21
119.1
 31
0.0
  0
LINE
  8
L-ZISSEN
 10
891.0
 20
115.5
 30
0.0
 11
943.0
 21
115.5
 31
0.0
  0
LINE
  8
L-ZISSEN
 10
886.9
 20
106.0
 30
0.0
 11
891.0
 21
106.0
 31
0.0
  0
LINE
  8
L-ZISSEN
 10
891.0
 20
115.5
 30
0.0
 11
891.0
 21
106.0
 31
0.0
  0
LINE
  8
L-ZISSEN
 10
943.0
 20
115.5
 30
0.0
 11
943.0
 21
106.0
 31
0.0
  0
LINE
  8
L-ZISSEN
 10
909.5
 20
114.0
 30
0.0
 11
909.5
 21
111.618381
 31
0.0
  0
LINE
  8
L-ZISSEN
 10
924.5
 20
114.0
 30
0.0
 11
924.5
 21
111.618381
 31
0.0
  0
CIRCLE
  8
L-ZISSEN
 10
917.0
 20
101.0
 30
0.0
 40
9.3
  0
ARC
  8
L-ZISSEN
 10
917.0
 20
101.0
 30
0.0
 40
13.0
 50
125.234418
 51
54.765582
  0
LINE
  8
L-ZISSEN
 10
943.0
 20
114.0
 30
0.0
 11
891.0
 21
114.0
 31
0.0
  0
LINE
  8
L-ZISSEN
 10
945.1
 20
106.0
 30
0.0
 11
945.1
 21
54.0
 31
0.0
  0
LINE
  8
L-ZISSEN
 10
888.9
 20
106.0
 30
0.0
 11
888.9
 21
54.0
 31
0.0
  0
LINE
  8
L-ZISSEN
 10
886.9
 20
106.0
 30
0.0
 11
886.9
 21
54.0
 31
0.0
  0
LINE
  8
L-ZISSEN
  6
CONTINUOUS
 62
     7
 10
883.6
 20
64.5
 30
0.0
 11
883.6
 21
55.5
 31
0.0
  0
LINE
  8
L-ZISSEN
  6
CONTINUOUS
 62
     7
 10
886.9
 20
55.5
 30
0.0
 11
883.6
 21
55.5
 31
0.0
  0
LINE
  8
L-ZISSEN
  6
CONTINUOUS
 62
     7
 10
886.9
 20
64.5
 30
0.0
 11
883.6
 21
64.5
 31
0.0
  0
LINE
  8
L-ZISSEN
 10
1092.0
 20
88.0
 30
0.0
 11
1092.0
 21
114.0
 31
0.0
  0
LINE
  8
L-ZISSEN
  6
CONTINUOUS
 62
     7
 10
1094.5
 20
115.5
 30
0.0
 11
1094.5
 21
119.1
 31
0.0
  0
LINE
  8
L-ZISSEN
  6
CONTINUOUS
 62
     7
 10
1101.5
 20
115.5
 30
0.0
 11
1101.5
 21
119.1
 31
0.0
  0
LINE
  8
L-ZISSEN
  6
CONTINUOUS
 62
     7
 10
1101.5
 20
119.1
 30
0.0
 11
1094.5
 21
119.1
 31
0.0
  0
LINE
  8
L-ZISSEN
 10
1092.0
 20
88.0
 30
0.0
 11
1094.0
 21
88.0
 31
0.0
  0
LINE
  8
L-ZISSEN
 10
1092.0
 20
114.0
 30
0.0
 11
1148.0
 21
114.0
 31
0.0
  0
LINE
  8
L-ZISSEN
 10
1094.0
 20
115.5
 30
0.0
 11
1146.0
 21
115.5
 31
0.0
  0
LINE
  8
L-ZISSEN
 10
1094.0
 20
54.0
 30
0.0
 11
1094.0
 21
115.5
 31
0.0
  0
LINE
  8
L-ZISSEN
 10
1094.0
 20
106.0
 30
0.0
 11
1146.0
 21
106.0
 31
0.0
  0
LINE
  8
L-ZISSEN
  6
CONTINUOUS
 62
     7
 10
1138.5
 20
119.1
 30
0.0
 11
1145.5
 21
119.1
 31
0.0
  0
LINE
  8
L-ZISSEN
  6
CONTINUOUS
 62
     7
 10
1138.5
 20
115.5
 30
0.0
 11
1138.5
 21
119.1
 31
0.0
  0
LINE
  8
L-ZISSEN
  6
CONTINUOUS
 62
     7
 10
1145.5
 20
115.5
 30
0.0
 11
1145.5
 21
119.1
 31
0.0
  0
LINE
  8
L-ZISSEN
 10
1148.0
 20
88.0
 30
0.0
 11
1148.0
 21
114.0
 31
0.0
  0
LINE
  8
L-ZISSEN
 10
1146.0
 20
88.0
 30
0.0
 11
1148.0
 21
88.0
 31
0.0
  0
LINE
  8
L-ZISSEN
 10
1146.0
 20
115.5
 30
0.0
 11
1146.0
 21
54.0
 31
0.0
  0
LINE
  8
L-TYUSIN
 10
685.0
 20
450.0
 30
0.0
 11
1465.0
 21
450.0
 31
0.0
  0
LINE
  8
L-TYUSIN
 62
     1
 10
1151.0
 20
75.0
 30
0.0
 11
1141.0
 21
75.0
 31
0.0
  0
TEXT
  8
L-ZISSEN
 10
1210.0
 20
640.0
 30
0.0
 40
4.5
  1
PILOT LAMP
  0
TEXT
  8
L-ZISSEN
 10
1210.0
 20
630.0
 30
0.0
 40
4.5
  1
MODEL No. :
  0
TEXT
  8
L-ZISSEN
 10
1255.0
 20
630.0
 30
0.0
 40
4.5
  1
MVD-491-**YS
  0
LINE
  8
L-ZISSEN
 10
226.0
 20
621.5
 30
0.0
 11
226.0
 21
598.5
 31
0.0
  0
CIRCLE
  8
L-ZISSEN
 10
222.0
 20
632.0
 30
0.0
 40
3.5
  0
CIRCLE
  8
L-ZISSEN
 10
222.0
 20
588.0
 30
0.0
 40
3.5
  0
CIRCLE
  8
L-ZISSEN
 10
178.0
 20
588.0
 30
0.0
 40
3.5
  0
CIRCLE
  8
L-ZISSEN
 10
178.0
 20
632.0
 30
0.0
 40
3.5
  0
LINE
  8
L-ZISSEN
 10
174.0
 20
636.0
 30
0.0
 11
174.0
 21
584.0
 31
0.0
  0
LINE
  8
L-ZISSEN
 10
226.0
 20
636.0
 30
0.0
 11
226.0
 21
584.0
 31
0.0
  0
LINE
  8
L-ZISSEN
 10
161.9
 20
636.0
 30
0.0
 11
230.1
 21
636.0
 31
0.0
  0
LINE
  8
L-ZISSEN
 10
161.9
 20
584.0
 30
0.0
 11
230.1
 21
584.0
 31
0.0
  0
LINE
  8
L-ZISSEN
  6
CONTINUOUS
 62
     7
 10
161.9
 20
636.0
 30
0.0
 11
115.9
 21
634.393644
 31
0.0
  0
LINE
  8
L-ZISSEN
  6
CONTINUOUS
 62
     7
 10
115.9
 20
634.393644
 30
0.0
 11
115.9
 21
585.606356
 31
0.0
  0
LINE
  8
L-ZISSEN
  6
CONTINUOUS
 62
     7
 10
114.9
 20
599.0
 30
0.0
 11
115.9
 21
599.0
 31
0.0
  0
LINE
  8
L-ZISSEN
  6
CONTINUOUS
 62
     7
 10
114.9
 20
599.0
 30
0.0
 11
114.9
 21
621.0
 31
0.0
  0
LINE
  8
L-ZISSEN
  6
CONTINUOUS
 62
     7
 10
114.9
 20
621.0
 30
0.0
 11
115.9
 21
621.0
 31
0.0
  0
LINE
  8
L-ZISSEN
  6
CONTINUOUS
 62
     7
 10
161.9
 20
584.0
 30
0.0
 11
115.9
 21
585.606356
 31
0.0
  0
LINE
  8
L-ZISSEN
  6
CONTINUOUS
 62
     7
 10
171.9
 20
636.0
 30
0.0
 11
171.9
 21
584.0
 31
0.0
  0
LINE
  8
L-ZISSEN
  6
CONTINUOUS
 62
     7
 10
233.4
 20
625.5
 30
0.0
 11
233.4
 21
634.5
 31
0.0
  0
LINE
  8
L-ZISSEN
  6
CONTINUOUS
 62
     7
 10
230.1
 20
634.5
 30
0.0
 11
233.4
 21
634.5
 31
0.0
  0
LINE
  8
L-ZISSEN
  6
CONTINUOUS
 62
     7
 10
230.1
 20
625.5
 30
0.0
 11
233.4
 21
625.5
 31
0.0
  0
LINE
  8
L-ZISSEN
  6
CONTINUOUS
 62
     7
 10
230.1
 20
585.5
 30
0.0
 11
233.4
 21
585.5
 31
0.0
  0
LINE
  8
L-ZISSEN
  6
CONTINUOUS
 62
     7
 10
230.1
 20
594.5
 30
0.0
 11
233.4
 21
594.5
 31
0.0
  0
LINE
  8
L-ZISSEN
  6
CONTINUOUS
 62
     7
 10
233.4
 20
585.5
 30
0.0
 11
233.4
 21
594.5
 31
0.0
  0
LINE
  8
L-ZISSEN
  6
CONTINUOUS
 62
     7
 10
230.1
 20
584.0
 30
0.0
 11
230.1
 21
636.0
 31
0.0
  0
LINE
  8
L-ZISSEN
  6
CONTINUOUS
 62
     7
 10
228.1
 20
636.0
 30
0.0
 11
228.1
 21
584.0
 31
0.0
  0
LINE
  8
L-ZISSEN
 10
213.0
 20
636.0
 30
0.0
 11
213.0
 21
638.0
 31
0.0
  0
LINE
  8
L-ZISSEN
 10
213.0
 20
582.0
 30
0.0
 11
213.0
 21
584.0
 31
0.0
  0
LINE
  8
L-ZISSEN
 10
187.0
 20
582.0
 30
0.0
 11
187.0
 21
584.0
 31
0.0
  0
LINE
  8
L-ZISSEN
 10
187.0
 20
582.0
 30
0.0
 11
213.0
 21
582.0
 31
0.0
  0
LINE
  8
L-ZISSEN
 10
187.0
 20
636.0
 30
0.0
 11
187.0
 21
638.0
 31
0.0
  0
LINE
  8
L-ZISSEN
 10
187.0
 20
638.0
 30
0.0
 11
213.0
 21
638.0
 31
0.0
  0
LINE
  8
L-TYUSIN
  6
CENTER
 62
     1
 10
212.0
 20
589.0
 30
0.0
 11
212.0
 21
579.0
 31
0.0
  0
LINE
  8
L-ZISSEN
 10
322.0
 20
635.863809
 30
0.0
 11
322.0
 21
665.0
 31
0.0
  0
LINE
  8
L-ZISSEN
  6
CONTINUOUS
 62
     7
 10
318.1
 20
427.0
 30
0.0
 11
364.1
 21
428.606356
 31
0.0
  0
LINE
  8
L-ZISSEN
  6
CONTINUOUS
 62
     7
 10
249.9
 20
437.5
 30
0.0
 11
246.6
 21
437.5
 31
0.0
  0
LINE
  8
L-ZISSEN
  6
CONTINUOUS
 62
     7
 10
249.9
 20
428.5
 30
0.0
 11
246.6
 21
428.5
 31
0.0
  0
LINE
  8
L-ZISSEN
  6
CONTINUOUS
 62
     7
 10
246.6
 20
437.5
 30
0.0
 11
246.6
 21
428.5
 31
0.0
  0
LINE
  8
L-ZISSEN
 10
249.9
 20
479.0
 30
0.0
 11
249.9
 21
427.0
 31
0.0
  0
LINE
  8
L-ZISSEN
 10
251.9
 20
479.0
 30
0.0
 11
251.9
 21
427.0
 31
0.0
  0
LINE
  8
L-ZISSEN
 10
308.1
 20
479.0
 30
0.0
 11
308.1
 21
427.0
 31
0.0
  0
LINE
  8
L-ZISSEN
  6
CONTINUOUS
 62
     7
 10
364.1
 20
428.606356
 30
0.0
 11
364.1
 21
477.393644
 31
0.0
  0
LINE
  8
L-ZISSEN
 10
306.0
 20
487.0
 30
0.0
 11
254.0
 21
487.0
 31
0.0
  0
ARC
  8
L-ZISSEN
 10
280.0
 20
474.0
 30
0.0
 40
13.0
 50
125.234418
 51
54.765582
  0
CIRCLE
  8
L-ZISSEN
 10
280.0
 20
474.0
 30
0.0
 40
9.3
  0
LINE
  8
L-ZISSEN
 10
287.5
 20
487.0
 30
0.0
 11
287.5
 21
484.618381
 31
0.0
  0
LINE
  8
L-ZISSEN
 10
272.5
 20
487.0
 30
0.0
 11
272.5
 21
484.618381
 31
0.0
  0
LINE
  8
L-ZISSEN
 10
306.0
 20
488.5
 30
0.0
 11
306.0
 21
479.0
 31
0.0
  0
LINE
  8
L-ZISSEN
 10
254.0
 20
488.5
 30
0.0
 11
254.0
 21
479.0
 31
0.0
  0
LINE
  8
L-ZISSEN
 10
249.9
 20
479.0
 30
0.0
 11
254.0
 21
479.0
 31
0.0
  0
LINE
  8
L-ZISSEN
 10
306.0
 20
479.0
 30
0.0
 11
318.1
 21
479.0
 31
0.0
  0
LINE
  8
L-ZISSEN
 10
254.0
 20
488.5
 30
0.0
 11
306.0
 21
488.5
 31
0.0
  0
LINE
  8
L-ZISSEN
  6
CONTINUOUS
 62
     7
 10
261.5
 20
492.1
 30
0.0
 11
254.5
 21
492.1
 31
0.0
  0
LINE
  8
L-ZISSEN
  6
CONTINUOUS
 62
     7
 10
261.5
 20
488.5
 30
0.0
 11
261.5
 21
492.1
 31
0.0
  0
LINE
  8
L-ZISSEN
  6
CONTINUOUS
 62
     7
 10
254.5
 20
488.5
 30
0.0
 11
254.5
 21
492.1
 31
0.0
  0
LINE
  8
L-ZISSEN
  6
CONTINUOUS
 62
     7
 10
246.6
 20
477.5
 30
0.0
 11
246.6
 21
468.5
 31
0.0
  0
LINE
  8
L-ZISSEN
  6
CONTINUOUS
 62
     7
 10
249.9
 20
468.5
 30
0.0
 11
246.6
 21
468.5
 31
0.0
  0
LINE
  8
L-ZISSEN
  6
CONTINUOUS
 62
     7
 10
249.9
 20
477.5
 30
0.0
 11
246.6
 21
477.5
 31
0.0
  0
LINE
  8
L-ZISSEN
  6
CONTINUOUS
 62
     7
 10
318.1
 20
479.0
 30
0.0
 11
364.1
 21
477.393644
 31
0.0
  0
LINE
  8
L-ZISSEN
  6
CONTINUOUS
 62
     7
 10
365.1
 20
442.0
 30
0.0
 11
364.1
 21
442.0
 31
0.0
  0
LINE
  8
L-ZISSEN
  6
CONTINUOUS
 62
     7
 10
365.1
 20
464.0
 30
0.0
 11
365.1
 21
442.0
 31
0.0
  0
LINE
  8
L-ZISSEN
  6
CONTINUOUS
 62
     7
 10
365.1
 20
464.0
 30
0.0
 11
364.1
 21
464.0
 31
0.0
  0
LINE
  8
L-ZISSEN
  6
CONTINUOUS
 62
     7
 10
298.5
 20
488.5
 30
0.0
 11
298.5
 21
492.1
 31
0.0
  0
LINE
  8
L-ZISSEN
  6
CONTINUOUS
 62
     7
 10
305.5
 20
488.5
 30
0.0
 11
305.5
 21
492.1
 31
0.0
  0
LINE
  8
L-ZISSEN
  6
CONTINUOUS
 62
     7
 10
305.5
 20
492.1
 30
0.0
 11
298.5
 21
492.1
 31
0.0
  0
LINE
  8
L-TYUSIN
  6
CENTER
 62
     1
 10
259.0
 20
772.0
 30
0.0
 11
277.0
 21
772.0
 31
0.0
  0
LINE
  8
L-TYUSIN
  6
CENTER
 62
     1
 10
268.0
 20
781.0
 30
0.0
 11
268.0
 21
763.0
 31
0.0
  0
CIRCLE
  8
L-ZISSEN
 10
268.0
 20
772.0
 30
0.0
 40
5.7225
  0
LINE
  8
L-ZISSEN
  6
CONTINUOUS
 62
     7
 10
305.5
 20
727.9
 30
0.0
 11
298.5
 21
727.9
 31
0.0
  0
LINE
  8
L-ZISSEN
  6
CONTINUOUS
 62
     7
 10
305.5
 20
731.5
 30
0.0
 11
305.5
 21
727.9
 31
0.0
  0
LINE
  8
L-ZISSEN
  6
CONTINUOUS
 62
     7
 10
298.5
 20
731.5
 30
0.0
 11
298.5
 21
727.9
 31
0.0
  0
LINE
  8
L-ZISSEN
  6
CONTINUOUS
 62
     7
 10
365.1
 20
756.0
 30
0.0
 11
364.1
 21
756.0
 31
0.0
  0
LINE
  8
L-ZISSEN
  6
CONTINUOUS
 62
     7
 10
365.1
 20
756.0
 30
0.0
 11
365.1
 21
778.0
 31
0.0
  0
LINE
  8
L-ZISSEN
  6
CONTINUOUS
 62
     7
 10
365.1
 20
778.0
 30
0.0
 11
364.1
 21
778.0
 31
0.0
  0
LINE
  8
L-ZISSEN
  6
CONTINUOUS
 62
     7
 10
318.1
 20
741.0
 30
0.0
 11
364.1
 21
742.606356
 31
0.0
  0
LINE
  8
L-ZISSEN
  6
CONTINUOUS
 62
     7
 10
249.9
 20
742.5
 30
0.0
 11
246.6
 21
742.5
 31
0.0
  0
LINE
  8
L-ZISSEN
  6
CONTINUOUS
 62
     7
 10
249.9
 20
751.5
 30
0.0
 11
246.6
 21
751.5
 31
0.0
  0
LINE
  8
L-ZISSEN
  6
CONTINUOUS
 62
     7
 10
246.6
 20
742.5
 30
0.0
 11
246.6
 21
751.5
 31
0.0
  0
LINE
  8
L-ZISSEN
  6
CONTINUOUS
 62
     7
 10
254.5
 20
731.5
 30
0.0
 11
254.5
 21
727.9
 31
0.0
  0
LINE
  8
L-ZISSEN
  6
CONTINUOUS
 62
     7
 10
261.5
 20
731.5
 30
0.0
 11
261.5
 21
727.9
 31
0.0
  0
LINE
  8
L-ZISSEN
  6
CONTINUOUS
 62
     7
 10
261.5
 20
727.9
 30
0.0
 11
254.5
 21
727.9
 31
0.0
  0
LINE
  8
L-ZISSEN
 10
254.0
 20
731.5
 30
0.0
 11
306.0
 21
731.5
 31
0.0
  0
LINE
  8
L-ZISSEN
 10
306.0
 20
741.0
 30
0.0
 11
318.1
 21
741.0
 31
0.0
  0
LINE
  8
L-ZISSEN
 10
249.9
 20
741.0
 30
0.0
 11
254.0
 21
741.0
 31
0.0
  0
LINE
  8
L-ZISSEN
 10
254.0
 20
731.5
 30
0.0
 11
254.0
 21
741.0
 31
0.0
  0
LINE
  8
L-ZISSEN
 10
306.0
 20
731.5
 30
0.0
 11
306.0
 21
741.0
 31
0.0
  0
LINE
  8
L-ZISSEN
 10
272.5
 20
733.0
 30
0.0
 11
272.5
 21
735.381619
 31
0.0
  0
LINE
  8
L-ZISSEN
 10
287.5
 20
733.0
 30
0.0
 11
287.5
 21
735.381619
 31
0.0
  0
CIRCLE
  8
L-ZISSEN
 10
280.0
 20
746.0
 30
0.0
 40
9.3
  0
ARC
  8
L-ZISSEN
 10
280.0
 20
746.0
 30
0.0
 40
13.0
 50
305.234418
 51
234.765582
  0
LINE
  8
L-ZISSEN
 10
306.0
 20
733.0
 30
0.0
 11
254.0
 21
733.0
 31
0.0
  0
LINE
  8
L-ZISSEN
  6
CONTINUOUS
 62
     7
 10
364.1
 20
791.393644
 30
0.0
 11
364.1
 21
742.606356
 31
0.0
  0
LINE
  8
L-ZISSEN
 10
308.1
 20
741.0
 30
0.0
 11
308.1
 21
793.0
 31
0.0
  0
LINE
  8
L-ZISSEN
 10
251.9
 20
741.0
 30
0.0
 11
251.9
 21
793.0
 31
0.0
  0
LINE
  8
L-ZISSEN
 10
249.9
 20
741.0
 30
0.0
 11
249.9
 21
793.0
 31
0.0
  0
LINE
  8
L-ZISSEN
  6
CONTINUOUS
 62
     7
 10
246.6
 20
782.5
 30
0.0
 11
246.6
 21
791.5
 31
0.0
  0
LINE
  8
L-ZISSEN
  6
CONTINUOUS
 62
     7
 10
249.9
 20
791.5
 30
0.0
 11
246.6
 21
791.5
 31
0.0
  0
LINE
  8
L-ZISSEN
  6
CONTINUOUS
 62
     7
 10
249.9
 20
782.5
 30
0.0
 11
246.6
 21
782.5
 31
0.0
  0
LINE
  8
L-ZISSEN
  6
CONTINUOUS
 62
     7
 10
318.1
 20
793.0
 30
0.0
 11
364.1
 21
791.393644
 31
0.0
  0
LINE
  8
L-TYUSIN
 62
     1
 10
571.0
 20
448.0
 30
0.0
 11
561.0
 21
448.0
 31
0.0
  0
LINE
  8
L-ZISSEN
 10
566.0
 20
488.5
 30
0.0
 11
566.0
 21
427.0
 31
0.0
  0
LINE
  8
L-ZISSEN
 10
566.0
 20
461.0
 30
0.0
 11
568.0
 21
461.0
 31
0.0
  0
LINE
  8
L-ZISSEN
 10
568.0
 20
461.0
 30
0.0
 11
568.0
 21
487.0
 31
0.0
  0
LINE
  8
L-ZISSEN
  6
CONTINUOUS
 62
     7
 10
565.5
 20
488.5
 30
0.0
 11
565.5
 21
492.1
 31
0.0
  0
LINE
  8
L-ZISSEN
  6
CONTINUOUS
 62
     7
 10
558.5
 20
488.5
 30
0.0
 11
558.5
 21
492.1
 31
0.0
  0
LINE
  8
L-ZISSEN
  6
CONTINUOUS
 62
     7
 10
558.5
 20
492.1
 30
0.0
 11
565.5
 21
492.1
 31
0.0
  0
LINE
  8
L-ZISSEN
 10
514.0
 20
479.0
 30
0.0
 11
566.0
 21
479.0
 31
0.0
  0
LINE
  8
L-ZISSEN
 10
514.0
 20
427.0
 30
0.0
 11
514.0
 21
488.5
 31
0.0
  0
LINE
  8
L-ZISSEN
 10
514.0
 20
488.5
 30
0.0
 11
566.0
 21
488.5
 31
0.0
  0
LINE
  8
L-ZISSEN
 10
512.0
 20
487.0
 30
0.0
 11
568.0
 21
487.0
 31
0.0
  0
LINE
  8
L-ZISSEN
 10
512.0
 20
461.0
 30
0.0
 11
514.0
 21
461.0
 31
0.0
  0
LINE
  8
L-ZISSEN
  6
CONTINUOUS
 62
     7
 10
521.5
 20
492.1
 30
0.0
 11
514.5
 21
492.1
 31
0.0
  0
LINE
  8
L-ZISSEN
  6
CONTINUOUS
 62
     7
 10
521.5
 20
488.5
 30
0.0
 11
521.5
 21
492.1
 31
0.0
  0
LINE
  8
L-ZISSEN
  6
CONTINUOUS
 62
     7
 10
514.5
 20
488.5
 30
0.0
 11
514.5
 21
492.1
 31
0.0
  0
LINE
  8
L-ZISSEN
 10
512.0
 20
461.0
 30
0.0
 11
512.0
 21
487.0
 31
0.0
  0
CIRCLE
  8
L-ZISSEN
 10
540.0
 20
453.0
 30
0.0
 40
11.0
  0
LINE
  8
L-TYUSIN
  6
CENTER
 62
     1
 10
905.0
 20
191.0
 30
0.0
 11
905.0
 21
201.0
 31
0.0
  0
LINE
  8
L-ZISSEN
 10
891.0
 20
158.5
 30
0.0
 11
891.0
 21
181.5
 31
0.0
  0
CIRCLE
  8
L-ZISSEN
 10
895.0
 20
148.0
 30
0.0
 40
3.5
  0
CIRCLE
  8
L-ZISSEN
 10
895.0
 20
192.0
 30
0.0
 40
3.5
  0
CIRCLE
  8
L-ZISSEN
 10
939.0
 20
192.0
 30
0.0
 40
3.5
  0
CIRCLE
  8
L-ZISSEN
 10
939.0
 20
148.0
 30
0.0
 40
3.5
  0
LINE
  8
L-ZISSEN
 10
943.0
 20
144.0
 30
0.0
 11
943.0
 21
196.0
 31
0.0
  0
LINE
  8
L-ZISSEN
 10
891.0
 20
144.0
 30
0.0
 11
891.0
 21
196.0
 31
0.0
  0
LINE
  8
L-ZISSEN
  6
CONTINUOUS
 62
     7
 10
945.1
 20
144.0
 30
0.0
 11
945.1
 21
196.0
 31
0.0
  0
LINE
  8
L-ZISSEN
  6
CONTINUOUS
 62
     7
 10
883.6
 20
154.5
 30
0.0
 11
883.6
 21
145.5
 31
0.0
  0
LINE
  8
L-ZISSEN
  6
CONTINUOUS
 62
     7
 10
886.9
 20
145.5
 30
0.0
 11
883.6
 21
145.5
 31
0.0
  0
LINE
  8
L-ZISSEN
  6
CONTINUOUS
 62
     7
 10
886.9
 20
154.5
 30
0.0
 11
883.6
 21
154.5
 31
0.0
  0
LINE
  8
L-ZISSEN
  6
CONTINUOUS
 62
     7
 10
886.9
 20
194.5
 30
0.0
 11
883.6
 21
194.5
 31
0.0
  0
LINE
  8
L-ZISSEN
  6
CONTINUOUS
 62
     7
 10
886.9
 20
185.5
 30
0.0
 11
883.6
 21
185.5
 31
0.0
  0
LINE
  8
L-ZISSEN
  6
CONTINUOUS
 62
     7
 10
883.6
 20
194.5
 30
0.0
 11
883.6
 21
185.5
 31
0.0
  0
LINE
  8
L-ZISSEN
  6
CONTINUOUS
 62
     7
 10
886.9
 20
196.0
 30
0.0
 11
886.9
 21
144.0
 31
0.0
  0
LINE
  8
L-ZISSEN
  6
CONTINUOUS
 62
     7
 10
888.9
 20
144.0
 30
0.0
 11
888.9
 21
196.0
 31
0.0
  0
LINE
  8
L-ZISSEN
 10
904.0
 20
144.0
 30
0.0
 11
904.0
 21
142.0
 31
0.0
  0
LINE
  8
L-ZISSEN
 10
904.0
 20
198.0
 30
0.0
 11
904.0
 21
196.0
 31
0.0
  0
LINE
  8
L-ZISSEN
 10
930.0
 20
198.0
 30
0.0
 11
930.0
 21
196.0
 31
0.0
  0
LINE
  8
L-ZISSEN
 10
930.0
 20
198.0
 30
0.0
 11
904.0
 21
198.0
 31
0.0
  0
LINE
  8
L-ZISSEN
 10
930.0
 20
144.0
 30
0.0
 11
930.0
 21
142.0
 31
0.0
  0
LINE
  8
L-ZISSEN
 10
930.0
 20
142.0
 30
0.0
 11
904.0
 21
142.0
 31
0.0
  0
LINE
  8
L-ZISSEN
 10
1146.0
 20
325.5
 30
0.0
 11
1146.0
 21
264.0
 31
0.0
  0
CIRCLE
  8
L-ZISSEN
 10
1140.0
 20
270.0
 30
0.0
 40
4.49995
  0
LINE
  8
L-TYUSIN
 62
     1
 10
1151.0
 20
285.0
 30
0.0
 11
1141.0
 21
285.0
 31
0.0
  0
CIRCLE
  8
L-ZISSEN
 10
1100.0
 20
270.0
 30
0.0
 40
4.49995
  0
LINE
  8
L-ZISSEN
 10
1094.0
 20
264.0
 30
0.0
 11
1146.0
 21
264.0
 31
0.0
  0
LINE
  8
L-ZISSEN
 10
1094.0
 20
264.0
 30
0.0
 11
1094.0
 21
325.5
 31
0.0
  0
LINE
  8
L-ZISSEN
  6
CONTINUOUS
 62
     7
 10
1145.5
 20
325.5
 30
0.0
 11
1145.5
 21
329.1
 31
0.0
  0
LINE
  8
L-ZISSEN
  6
CONTINUOUS
 62
     7
 10
1138.5
 20
325.5
 30
0.0
 11
1138.5
 21
329.1
 31
0.0
  0
LINE
  8
L-ZISSEN
  6
CONTINUOUS
 62
     7
 10
1138.5
 20
329.1
 30
0.0
 11
1145.5
 21
329.1
 31
0.0
  0
LINE
  8
L-ZISSEN
 10
1094.0
 20
316.0
 30
0.0
 11
1146.0
 21
316.0
 31
0.0
  0
LINE
  8
L-ZISSEN
 10
1094.0
 20
325.5
 30
0.0
 11
1146.0
 21
325.5
 31
0.0
  0
LINE
  8
L-ZISSEN
 10
1092.0
 20
324.0
 30
0.0
 11
1148.0
 21
324.0
 31
0.0
  0
LINE
  8
L-ZISSEN
  6
CONTINUOUS
 62
     7
 10
1101.5
 20
329.1
 30
0.0
 11
1094.5
 21
329.1
 31
0.0
  0
LINE
  8
L-ZISSEN
  6
CONTINUOUS
 62
     7
 10
1101.5
 20
325.5
 30
0.0
 11
1101.5
 21
329.1
 31
0.0
  0
LINE
  8
L-ZISSEN
  6
CONTINUOUS
 62
     7
 10
1094.5
 20
325.5
 30
0.0
 11
1094.5
 21
329.1
 31
0.0
  0
CIRCLE
  8
L-ZISSEN
 10
1140.0
 20
310.0
 30
0.0
 40
4.49995
  0
CIRCLE
  8
L-ZISSEN
 10
1100.0
 20
310.0
 30
0.0
 40
4.49995
  0
LINE
  8
L-ZISSEN
 10
1146.0
 20
298.0
 30
0.0
 11
1148.0
 21
298.0
 31
0.0
  0
LINE
  8
L-ZISSEN
 10
1148.0
 20
298.0
 30
0.0
 11
1148.0
 21
324.0
 31
0.0
  0
LINE
  8
L-ZISSEN
 10
1092.0
 20
298.0
 30
0.0
 11
1094.0
 21
298.0
 31
0.0
  0
LINE
  8
L-ZISSEN
 10
1092.0
 20
298.0
 30
0.0
 11
1092.0
 21
324.0
 31
0.0
  0
LINE
  8
L-ZISSEN
  6
CONTINUOUS
 62
     7
 10
886.9
 20
274.5
 30
0.0
 11
883.6
 21
274.5
 31
0.0
  0
LINE
  8
L-ZISSEN
  6
CONTINUOUS
 62
     7
 10
886.9
 20
265.5
 30
0.0
 11
883.6
 21
265.5
 31
0.0
  0
LINE
  8
L-ZISSEN
  6
CONTINUOUS
 62
     7
 10
883.6
 20
274.5
 30
0.0
 11
883.6
 21
265.5
 31
0.0
  0
LINE
  8
L-ZISSEN
 10
886.9
 20
316.0
 30
0.0
 11
886.9
 21
264.0
 31
0.0
  0
LINE
  8
L-ZISSEN
 10
888.9
 20
316.0
 30
0.0
 11
888.9
 21
264.0
 31
0.0
  0
LINE
  8
L-ZISSEN
 10
945.1
 20
316.0
 30
0.0
 11
945.1
 21
264.0
 31
0.0
  0
LINE
  8
L-ZISSEN
 10
943.0
 20
324.0
 30
0.0
 11
891.0
 21
324.0
 31
0.0
  0
ARC
  8
L-ZISSEN
 10
917.0
 20
311.0
 30
0.0
 40
13.0
 50
125.234418
 51
54.765582
  0
CIRCLE
  8
L-ZISSEN
 10
917.0
 20
311.0
 30
0.0
 40
9.3
  0
LINE
  8
L-ZISSEN
 10
924.5
 20
324.0
 30
0.0
 11
924.5
 21
321.618381
 31
0.0
  0
LINE
  8
L-ZISSEN
 10
909.5
 20
324.0
 30
0.0
 11
909.5
 21
321.618381
 31
0.0
  0
LINE
  8
L-ZISSEN
 10
943.0
 20
325.5
 30
0.0
 11
943.0
 21
316.0
 31
0.0
  0
LINE
  8
L-ZISSEN
 10
891.0
 20
325.5
 30
0.0
 11
891.0
 21
316.0
 31
0.0
  0
LINE
  8
L-ZISSEN
 10
886.9
 20
316.0
 30
0.0
 11
891.0
 21
316.0
 31
0.0
  0
LINE
  8
L-ZISSEN
 10
891.0
 20
325.5
 30
0.0
 11
943.0
 21
325.5
 31
0.0
  0
LINE
  8
L-ZISSEN
  6
CONTINUOUS
 62
     7
 10
898.5
 20
329.1
 30
0.0
 11
891.5
 21
329.1
 31
0.0
  0
LINE
  8
L-ZISSEN
  6
CONTINUOUS
 62
     7
 10
898.5
 20
325.5
 30
0.0
 11
898.5
 21
329.1
 31
0.0
  0
LINE
  8
L-ZISSEN
  6
CONTINUOUS
 62
     7
 10
891.5
 20
325.5
 30
0.0
 11
891.5
 21
329.1
 31
0.0
  0
LINE
  8
L-ZISSEN
  6
CONTINUOUS
 62
     7
 10
883.6
 20
314.5
 30
0.0
 11
883.6
 21
305.5
 31
0.0
  0
LINE
  8
L-ZISSEN
  6
CONTINUOUS
 62
     7
 10
886.9
 20
305.5
 30
0.0
 11
883.6
 21
305.5
 31
0.0
  0
LINE
  8
L-ZISSEN
  6
CONTINUOUS
 62
     7
 10
886.9
 20
314.5
 30
0.0
 11
883.6
 21
314.5
 31
0.0
  0
LINE
  8
L-ZISSEN
  6
CONTINUOUS
 62
     7
 10
935.5
 20
325.5
 30
0.0
 11
935.5
 21
329.1
 31
0.0
  0
LINE
  8
L-ZISSEN
  6
CONTINUOUS
 62
     7
 10
942.5
 20
325.5
 30
0.0
 11
942.5
 21
329.1
 31
0.0
  0
LINE
  8
L-ZISSEN
  6
CONTINUOUS
 62
     7
 10
942.5
 20
329.1
 30
0.0
 11
935.5
 21
329.1
 31
0.0
  0
LINE
  8
L-ZISSEN
 10
886.9
 20
264.0
 30
0.0
 11
955.1
 21
264.0
 31
0.0
  0
LINE
  8
L-ZISSEN
 10
943.0
 20
316.0
 30
0.0
 11
955.1
 21
316.0
 31
0.0
  0
LINE
  8
L-ZISSEN
 10
930.0
 20
352.0
 30
0.0
 11
904.0
 21
352.0
 31
0.0
  0
LINE
  8
L-ZISSEN
 10
930.0
 20
354.0
 30
0.0
 11
930.0
 21
352.0
 31
0.0
  0
LINE
  8
L-ZISSEN
 10
930.0
 20
408.0
 30
0.0
 11
904.0
 21
408.0
 31
0.0
  0
LINE
  8
L-ZISSEN
 10
930.0
 20
408.0
 30
0.0
 11
930.0
 21
406.0
 31
0.0
  0
LINE
  8
L-ZISSEN
 10
904.0
 20
408.0
 30
0.0
 11
904.0
 21
406.0
 31
0.0
  0
LINE
  8
L-ZISSEN
 10
904.0
 20
354.0
 30
0.0
 11
904.0
 21
352.0
 31
0.0
  0
LINE
  8
L-ZISSEN
  6
CONTINUOUS
 62
     7
 10
888.9
 20
354.0
 30
0.0
 11
888.9
 21
406.0
 31
0.0
  0
LINE
  8
L-ZISSEN
  6
CONTINUOUS
 62
     7
 10
886.9
 20
406.0
 30
0.0
 11
886.9
 21
354.0
 31
0.0
  0
LINE
  8
L-ZISSEN
  6
CONTINUOUS
 62
     7
 10
883.6
 20
404.5
 30
0.0
 11
883.6
 21
395.5
 31
0.0
  0
LINE
  8
L-ZISSEN
  6
CONTINUOUS
 62
     7
 10
886.9
 20
395.5
 30
0.0
 11
883.6
 21
395.5
 31
0.0
  0
LINE
  8
L-ZISSEN
  6
CONTINUOUS
 62
     7
 10
886.9
 20
404.5
 30
0.0
 11
883.6
 21
404.5
 31
0.0
  0
LINE
  8
L-ZISSEN
  6
CONTINUOUS
 62
     7
 10
886.9
 20
364.5
 30
0.0
 11
883.6
 21
364.5
 31
0.0
  0
LINE
  8
L-ZISSEN
  6
CONTINUOUS
 62
     7
 10
886.9
 20
355.5
 30
0.0
 11
883.6
 21
355.5
 31
0.0
  0
LINE
  8
L-ZISSEN
  6
CONTINUOUS
 62
     7
 10
883.6
 20
364.5
 30
0.0
 11
883.6
 21
355.5
 31
0.0
  0
LINE
  8
L-ZISSEN
  6
CONTINUOUS
 62
     7
 10
945.1
 20
354.0
 30
0.0
 11
945.1
 21
406.0
 31
0.0
  0
LINE
  8
L-ZISSEN
 10
891.0
 20
354.0
 30
0.0
 11
891.0
 21
406.0
 31
0.0
  0
LINE
  8
L-ZISSEN
 10
943.0
 20
354.0
 30
0.0
 11
943.0
 21
406.0
 31
0.0
  0
CIRCLE
  8
L-ZISSEN
 10
939.0
 20
358.0
 30
0.0
 40
3.5
  0
CIRCLE
  8
L-ZISSEN
 10
939.0
 20
402.0
 30
0.0
 40
3.5
  0
CIRCLE
  8
L-ZISSEN
 10
895.0
 20
402.0
 30
0.0
 40
3.5
  0
CIRCLE
  8
L-ZISSEN
 10
895.0
 20
358.0
 30
0.0
 40
3.5
  0
LINE
  8
L-ZISSEN
 10
891.0
 20
368.5
 30
0.0
 11
891.0
 21
391.5
 31
0.0
  0
LINE
  8
L-TYUSIN
  6
CENTER
 62
     1
 10
905.0
 20
401.0
 30
0.0
 11
905.0
 21
411.0
 31
0.0
  0
LINE
  8
L-ZISSEN
 10
955.1
 20
406.0
 30
0.0
 11
886.9
 21
406.0
 31
0.0
  0
LINE
  8
L-ZISSEN
 10
955.1
 20
354.0
 30
0.0
 11
886.9
 21
354.0
 31
0.0
  0
LINE
  8
L-ZISSEN
  6
CONTINUOUS
 62
     7
 10
886.9
 20
484.5
 30
0.0
 11
883.6
 21
484.5
 31
0.0
  0
LINE
  8
L-ZISSEN
  6
CONTINUOUS
 62
     7
 10
886.9
 20
475.5
 30
0.0
 11
883.6
 21
475.5
 31
0.0
  0
LINE
  8
L-ZISSEN
  6
CONTINUOUS
 62
     7
 10
883.6
 20
484.5
 30
0.0
 11
883.6
 21
475.5
 31
0.0
  0
LINE
  8
L-ZISSEN
 10
886.9
 20
526.0
 30
0.0
 11
886.9
 21
474.0
 31
0.0
  0
LINE
  8
L-ZISSEN
 10
888.9
 20
526.0
 30
0.0
 11
888.9
 21
474.0
 31
0.0
  0
LINE
  8
L-ZISSEN
 10
945.1
 20
526.0
 30
0.0
 11
945.1
 21
474.0
 31
0.0
  0
LINE
  8
L-ZISSEN
 10
943.0
 20
534.0
 30
0.0
 11
891.0
 21
534.0
 31
0.0
  0
ARC
  8
L-ZISSEN
 10
917.0
 20
521.0
 30
0.0
 40
13.0
 50
125.234418
 51
54.765582
  0
CIRCLE
  8
L-ZISSEN
 10
917.0
 20
521.0
 30
0.0
 40
9.3
  0
LINE
  8
L-ZISSEN
 10
924.5
 20
534.0
 30
0.0
 11
924.5
 21
531.618381
 31
0.0
  0
LINE
  8
L-ZISSEN
 10
909.5
 20
534.0
 30
0.0
 11
909.5
 21
531.618381
 31
0.0
  0
LINE
  8
L-ZISSEN
 10
943.0
 20
535.5
 30
0.0
 11
943.0
 21
526.0
 31
0.0
  0
LINE
  8
L-ZISSEN
 10
891.0
 20
535.5
 30
0.0
 11
891.0
 21
526.0
 31
0.0
  0
LINE
  8
L-ZISSEN
 10
886.9
 20
526.0
 30
0.0
 11
891.0
 21
526.0
 31
0.0
  0
LINE
  8
L-ZISSEN
 10
891.0
 20
535.5
 30
0.0
 11
943.0
 21
535.5
 31
0.0
  0
LINE
  8
L-ZISSEN
  6
CONTINUOUS
 62
     7
 10
898.5
 20
539.1
 30
0.0
 11
891.5
 21
539.1
 31
0.0
  0
LINE
  8
L-ZISSEN
  6
CONTINUOUS
 62
     7
 10
898.5
 20
535.5
 30
0.0
 11
898.5
 21
539.1
 31
0.0
  0
LINE
  8
L-ZISSEN
  6
CONTINUOUS
 62
     7
 10
891.5
 20
535.5
 30
0.0
 11
891.5
 21
539.1
 31
0.0
  0
LINE
  8
L-ZISSEN
  6
CONTINUOUS
 62
     7
 10
883.6
 20
524.5
 30
0.0
 11
883.6
 21
515.5
 31
0.0
  0
LINE
  8
L-ZISSEN
  6
CONTINUOUS
 62
     7
 10
886.9
 20
515.5
 30
0.0
 11
883.6
 21
515.5
 31
0.0
  0
LINE
  8
L-ZISSEN
  6
CONTINUOUS
 62
     7
 10
886.9
 20
524.5
 30
0.0
 11
883.6
 21
524.5
 31
0.0
  0
LINE
  8
L-ZISSEN
  6
CONTINUOUS
 62
     7
 10
935.5
 20
535.5
 30
0.0
 11
935.5
 21
539.1
 31
0.0
  0
LINE
  8
L-ZISSEN
  6
CONTINUOUS
 62
     7
 10
942.5
 20
535.5
 30
0.0
 11
942.5
 21
539.1
 31
0.0
  0
LINE
  8
L-ZISSEN
  6
CONTINUOUS
 62
     7
 10
942.5
 20
539.1
 30
0.0
 11
935.5
 21
539.1
 31
0.0
  0
LINE
  8
L-ZISSEN
 10
930.0
 20
562.0
 30
0.0
 11
904.0
 21
562.0
 31
0.0
  0
LINE
  8
L-ZISSEN
 10
930.0
 20
564.0
 30
0.0
 11
930.0
 21
562.0
 31
0.0
  0
LINE
  8
L-ZISSEN
 10
930.0
 20
618.0
 30
0.0
 11
904.0
 21
618.0
 31
0.0
  0
LINE
  8
L-ZISSEN
 10
930.0
 20
618.0
 30
0.0
 11
930.0
 21
616.0
 31
0.0
  0
LINE
  8
L-ZISSEN
 10
904.0
 20
618.0
 30
0.0
 11
904.0
 21
616.0
 31
0.0
  0
LINE
  8
L-ZISSEN
 10
904.0
 20
564.0
 30
0.0
 11
904.0
 21
562.0
 31
0.0
  0
LINE
  8
L-ZISSEN
  6
CONTINUOUS
 62
     7
 10
888.9
 20
564.0
 30
0.0
 11
888.9
 21
616.0
 31
0.0
  0
LINE
  8
L-ZISSEN
  6
CONTINUOUS
 62
     7
 10
886.9
 20
616.0
 30
0.0
 11
886.9
 21
564.0
 31
0.0
  0
LINE
  8
L-ZISSEN
  6
CONTINUOUS
 62
     7
 10
883.6
 20
614.5
 30
0.0
 11
883.6
 21
605.5
 31
0.0
  0
LINE
  8
L-ZISSEN
  6
CONTINUOUS
 62
     7
 10
886.9
 20
605.5
 30
0.0
 11
883.6
 21
605.5
 31
0.0
  0
LINE
  8
L-ZISSEN
  6
CONTINUOUS
 62
     7
 10
886.9
 20
614.5
 30
0.0
 11
883.6
 21
614.5
 31
0.0
  0
LINE
  8
L-ZISSEN
  6
CONTINUOUS
 62
     7
 10
886.9
 20
574.5
 30
0.0
 11
883.6
 21
574.5
 31
0.0
  0
LINE
  8
L-ZISSEN
  6
CONTINUOUS
 62
     7
 10
886.9
 20
565.5
 30
0.0
 11
883.6
 21
565.5
 31
0.0
  0
LINE
  8
L-ZISSEN
  6
CONTINUOUS
 62
     7
 10
883.6
 20
574.5
 30
0.0
 11
883.6
 21
565.5
 31
0.0
  0
LINE
  8
L-ZISSEN
  6
CONTINUOUS
 62
     7
 10
945.1
 20
564.0
 30
0.0
 11
945.1
 21
616.0
 31
0.0
  0
LINE
  8
L-ZISSEN
 10
891.0
 20
564.0
 30
0.0
 11
891.0
 21
616.0
 31
0.0
  0
LINE
  8
L-ZISSEN
 10
943.0
 20
564.0
 30
0.0
 11
943.0
 21
616.0
 31
0.0
  0
CIRCLE
  8
L-ZISSEN
 10
939.0
 20
568.0
 30
0.0
 40
3.5
  0
CIRCLE
  8
L-ZISSEN
 10
939.0
 20
612.0
 30
0.0
 40
3.5
  0
CIRCLE
  8
L-ZISSEN
 10
895.0
 20
612.0
 30
0.0
 40
3.5
  0
CIRCLE
  8
L-ZISSEN
 10
895.0
 20
568.0
 30
0.0
 40
3.5
  0
LINE
  8
L-ZISSEN
 10
891.0
 20
578.5
 30
0.0
 11
891.0
 21
601.5
 31
0.0
  0
LINE
  8
L-TYUSIN
  6
CENTER
 62
     1
 10
905.0
 20
611.0
 30
0.0
 11
905.0
 21
621.0
 31
0.0
  0
LINE
  8
L-ZISSEN
 10
1146.0
 20
535.5
 30
0.0
 11
1146.0
 21
474.0
 31
0.0
  0
LINE
  8
L-TYUSIN
 62
     1
 10
1151.0
 20
495.0
 30
0.0
 11
1141.0
 21
495.0
 31
0.0
  0
LINE
  8
L-ZISSEN
 10
1094.0
 20
474.0
 30
0.0
 11
1146.0
 21
474.0
 31
0.0
  0
LINE
  8
L-ZISSEN
 10
1094.0
 20
474.0
 30
0.0
 11
1094.0
 21
535.5
 31
0.0
  0
LINE
  8
L-ZISSEN
 10
1092.0
 20
508.0
 30
0.0
 11
1094.0
 21
508.0
 31
0.0
  0
LINE
  8
L-ZISSEN
  6
CONTINUOUS
 62
     7
 10
1094.5
 20
535.5
 30
0.0
 11
1094.5
 21
539.1
 31
0.0
  0
LINE
  8
L-ZISSEN
 10
1092.0
 20
508.0
 30
0.0
 11
1092.0
 21
534.0
 31
0.0
  0
LINE
  8
L-ZISSEN
  6
CONTINUOUS
 62
     7
 10
1101.5
 20
539.1
 30
0.0
 11
1094.5
 21
539.1
 31
0.0
  0
LINE
  8
L-ZISSEN
 10
1094.0
 20
535.5
 30
0.0
 11
1146.0
 21
535.5
 31
0.0
  0
LINE
  8
L-ZISSEN
 10
1092.0
 20
534.0
 30
0.0
 11
1148.0
 21
534.0
 31
0.0
  0
LINE
  8
L-ZISSEN
 10
1094.0
 20
526.0
 30
0.0
 11
1146.0
 21
526.0
 31
0.0
  0
LINE
  8
L-ZISSEN
  6
CONTINUOUS
 62
     7
 10
1138.5
 20
535.5
 30
0.0
 11
1138.5
 21
539.1
 31
0.0
  0
LINE
  8
L-ZISSEN
  6
CONTINUOUS
 62
     7
 10
1138.5
 20
539.1
 30
0.0
 11
1145.5
 21
539.1
 31
0.0
  0
LINE
  8
L-ZISSEN
  6
CONTINUOUS
 62
     7
 10
1145.5
 20
535.5
 30
0.0
 11
1145.5
 21
539.1
 31
0.0
  0
LINE
  8
L-ZISSEN
 10
1148.0
 20
508.0
 30
0.0
 11
1148.0
 21
534.0
 31
0.0
  0
LINE
  8
L-ZISSEN
 10
1146.0
 20
508.0
 30
0.0
 11
1148.0
 21
508.0
 31
0.0
  0
LINE
  8
L-ZISSEN
  6
CONTINUOUS
 62
     7
 10
1101.5
 20
535.5
 30
0.0
 11
1101.5
 21
539.1
 31
0.0
  0
SOLID
  8
L-ZISSEN
 10
538.456513
 20
428.314822
 30
0.0
 11
538.113516
 21
427.743161
 31
0.0
 12
540.0
 22
427.0
 32
0.0
 13
540.0
 23
427.0
 33
0.0
  0
LINE
  8
L-ZISSEN
 10
538.285014
 20
428.028992
 30
0.0
 11
510.0
 21
445.0
 31
0.0
  0
LINE
  8
L-ZISSEN
 10
510.0
 20
445.0
 30
0.0
 11
508.0
 21
445.0
 31
0.0
  0
TEXT
  8
L-ZISSEN
 10
496.357143
 20
442.75
 30
0.0
 40
4.5
  1
P.P
  0
SOLID
  8
L-ZISSEN
 10
1118.290423
 20
472.909835
 30
0.0
 11
1118.7364
 21
472.414306
 31
0.0
 12
1120.0
 22
474.0
 32
0.0
 13
1120.0
 23
474.0
 33
0.0
  0
LINE
  8
L-ZISSEN
 10
1118.513412
 20
472.662071
 30
0.0
 11
1110.0
 21
465.0
 31
0.0
  0
LINE
  8
L-ZISSEN
 10
1110.0
 20
465.0
 30
0.0
 11
1108.0
 21
465.0
 31
0.0
  0
TEXT
  8
L-ZISSEN
 10
1096.357143
 20
462.75
 30
0.0
 40
4.5
  1
P.P
  0
TEXT
  8
L-ZISSEN
 10
1096.357143
 20
252.75
 30
0.0
 40
4.5
  1
P.P
  0
LINE
  8
L-ZISSEN
 10
1110.0
 20
255.0
 30
0.0
 11
1108.0
 21
255.0
 31
0.0
  0
LINE
  8
L-ZISSEN
 10
1118.513412
 20
262.662071
 30
0.0
 11
1110.0
 21
255.0
 31
0.0
  0
SOLID
  8
L-ZISSEN
 10
1118.290423
 20
262.909835
 30
0.0
 11
1118.7364
 21
262.414306
 31
0.0
 12
1120.0
 22
264.0
 32
0.0
 13
1120.0
 23
264.0
 33
0.0
  0
SOLID
  8
L-ZISSEN
 10
1118.290423
 20
52.909835
 30
0.0
 11
1118.7364
 21
52.414306
 31
0.0
 12
1120.0
 22
54.0
 32
0.0
 13
1120.0
 23
54.0
 33
0.0
  0
LINE
  8
L-ZISSEN
 10
1118.513412
 20
52.662071
 30
0.0
 11
1110.0
 21
45.0
 31
0.0
  0
LINE
  8
L-ZISSEN
 10
1110.0
 20
45.0
 30
0.0
 11
1108.0
 21
45.0
 31
0.0
  0
TEXT
  8
L-ZISSEN
 10
1096.357143
 20
42.75
 30
0.0
 40
4.5
  1
P.P
  0
TEXT
  8
L-ZISSEN
 10
1396.357143
 20
462.75
 30
0.0
 40
4.5
  1
P.P
  0
LINE
  8
L-ZISSEN
 10
1410.0
 20
465.0
 30
0.0
 11
1408.0
 21
465.0
 31
0.0
  0
LINE
  8
L-ZISSEN
 10
1418.513412
 20
472.662071
 30
0.0
 11
1410.0
 21
465.0
 31
0.0
  0
SOLID
  8
L-ZISSEN
 10
1418.290423
 20
472.909835
 30
0.0
 11
1418.7364
 21
472.414306
 31
0.0
 12
1420.0
 22
474.0
 32
0.0
 13
1420.0
 23
474.0
 33
0.0
  0
CIRCLE
  8
L-ZISSEN
 10
160.0
 20
300.0
 30
0.0
 40
19.476
  0
CIRCLE
  8
L-ZISSEN
 10
240.0
 20
280.0
 30
0.0
 40
19.476
  0
CIRCLE
  8
L-ZISSEN
 10
320.0
 20
300.0
 30
0.0
 40
19.476
  0
CIRCLE
  8
L-ZISSEN
 10
200.0
 20
940.0
 30
0.0
 40
19.476
  0
CIRCLE
  8
L-ZISSEN
 10
280.0
 20
940.0
 30
0.0
 40
19.476
  0
SOLID
  8
L-ZISSEN
 10
238.737328
 20
278.413566
 30
0.0
 11
239.3201
 21
278.089804
 31
0.0
 12
240.0
 22
280.0
 32
0.0
 13
240.0
 23
280.0
 33
0.0
  0
LINE
  8
L-ZISSEN
 10
239.028714
 20
278.251685
 30
0.0
 11
215.0
 21
235.0
 31
0.0
  0
LINE
  8
L-ZISSEN
 10
215.0
 20
235.0
 30
0.0
 11
213.0
 21
235.0
 31
0.0
  0
TEXT
  8
L-ZISSEN
 10
180.357143
 20
232.75
 30
0.0
 40
4.5
  1
"1" PORT
  0
TEXT
  8
L-ZISSEN
 10
180.0
 20
225.0
 30
0.0
 40
4.5
  1
Rc 1-1/4
  0
TEXT
  8
L-ZISSEN
 10
180.0
 20
215.0
 30
0.0
 40
4.5
  1
Rc 1-1/2
  0
TEXT
  8
L-ZISSEN
 10
75.0
 20
1015.0
 30
0.0
 40
4.5
  1
MODEL No. :
  0
TEXT
  8
L-ZISSEN
 10
120.0
 20
1015.0
 30
0.0
 40
4.5
  1
MVD-491-  Y
  0
TEXT
  8
L-ZISSEN
 10
157.0
 20
1019.0
 30
0.0
 40
4.5
  1
12
  0
TEXT
  8
L-ZISSEN
 10
157.0
 20
1012.0
 30
0.0
 40
4.5
  1
14
  0
TEXT
  8
L-ZISSEN
 10
172.0
 20
1019.0
 30
0.0
 40
4.5
  1
AC-100V
  0
TEXT
  8
L-ZISSEN
 10
172.0
 20
1012.0
 30
0.0
 40
4.5
  1
AC-200V
  0
TEXT
  8
L-ZISSEN
 10
822.0
 20
632.0
 30
0.0
 40
4.5
  1
DC-100V
  0
TEXT
  8
L-ZISSEN
 10
822.0
 20
639.0
 30
0.0
 40
4.5
  1
DC-24V
  0
TEXT
  8
L-ZISSEN
 10
765.0
 20
635.0
 30
0.0
 40
4.5
  1
MVD-491-**YH
  0
TEXT
  8
L-ZISSEN
 10
720.0
 20
635.0
 30
0.0
 40
4.5
  1
MODEL No. :
  0
TEXT
  8
L-ZISSEN
 10
720.0
 20
425.0
 30
0.0
 40
4.5
  1
MODEL No. :
  0
TEXT
  8
L-ZISSEN
 10
765.0
 20
425.0
 30
0.0
 40
4.5
  1
MVD-491-**YR
  0
TEXT
  8
L-ZISSEN
 10
822.0
 20
429.0
 30
0.0
 40
4.5
  1
AC-100V
  0
TEXT
  8
L-ZISSEN
 10
822.0
 20
422.0
 30
0.0
 40
4.5
  1
AC-200V
  0
TEXT
  8
L-ZISSEN
 10
827.0
 20
212.0
 30
0.0
 40
4.5
  1
DC-100V
  0
TEXT
  8
L-ZISSEN
 10
827.0
 20
219.0
 30
0.0
 40
4.5
  1
DC-24V
  0
TEXT
  8
L-ZISSEN
 10
765.0
 20
215.0
 30
0.0
 40
4.5
  1
MVD-491-**YHR
  0
TEXT
  8
L-ZISSEN
 10
720.0
 20
215.0
 30
0.0
 40
4.5
  1
MODEL No. :
  0
TEXT
  8
L-ZISSEN
 10
720.0
 20
645.0
 30
0.0
 40
4.5
  1
PILOT VALVE
  0
TEXT
  8
L-ZISSEN
 10
720.0
 20
435.0
 30
0.0
 40
4.5
  1
PILOT VALVE
  0
TEXT
  8
L-ZISSEN
 10
720.0
 20
225.0
 30
0.0
 40
4.5
  1
PILOT VALVE
  0
TEXT
  8
L-ZISSEN
 10
1210.0
 20
435.0
 30
0.0
 40
4.5
  1
EXTERNAL PILOT AIR SUPPLY
  0
TEXT
  8
L-ZISSEN
 10
1210.0
 20
425.0
 30
0.0
 40
4.5
  1
MODEL No. :
  0
TEXT
  8
L-ZISSEN
 10
1255.0
 20
425.0
 30
0.0
 40
4.5
  1
MVD-491-**YP
  0
CIRCLE
  8
L-ZISSEN
 10
1260.0
 20
385.0
 30
0.0
 40
5.7225
  0
SOLID
  8
L-ZISSEN
 10
1261.649916
 20
386.178511
 30
0.0
 11
1261.178511
 21
386.649916
 31
0.0
 12
1260.0
 22
385.0
 32
0.0
 13
1260.0
 23
385.0
 33
0.0
  0
LINE
  8
L-ZISSEN
 10
1261.414214
 20
386.414214
 30
0.0
 11
1270.0
 21
395.0
 31
0.0
  0
LINE
  8
L-ZISSEN
 10
1270.0
 20
395.0
 30
0.0
 11
1272.0
 21
395.0
 31
0.0
  0
TEXT
  8
L-ZISSEN
 10
1274.0
 20
392.75
 30
0.0
 40
4.5
  1
P.P
  0
LINE
  8
L-ZISSEN
 10
78.0
 20
426.0
 30
0.0
 11
158.0
 21
426.0
 31
0.0
  0
LINE
  8
L-ZISSEN
 10
78.0
 20
413.707142
 30
0.0
 11
131.5
 21
413.707142
 31
0.0
  0
LINE
  8
L-ZISSEN
 10
78.0
 20
426.0
 30
0.0
 11
78.0
 21
340.0
 31
0.0
  0
LINE
  8
L-ZISSEN
 10
78.0
 20
340.0
 30
0.0
 11
141.0
 21
340.0
 31
0.0
  0
LINE
  8
L-TYUSIN
 10
368.0
 20
265.0
 30
0.0
 11
368.0
 21
235.0
 31
0.0
  0
LINE
  8
L-TYUSIN
 10
112.0
 20
265.0
 30
0.0
 11
112.0
 21
235.0
 31
0.0
  0
LINE
  8
L-TYUSIN
 10
368.0
 20
985.0
 30
0.0
 11
368.0
 21
955.0
 31
0.0
  0
LINE
  8
L-TYUSIN
 10
112.0
 20
985.0
 30
0.0
 11
112.0
 21
955.0
 31
0.0
  0
LINE
  8
L-ZISSEN
 10
402.0
 20
880.0
 30
0.0
 11
339.0
 21
880.0
 31
0.0
  0
LINE
  8
L-ZISSEN
 10
402.0
 20
806.292858
 30
0.0
 11
348.5
 21
806.292858
 31
0.0
  0
LINE
  8
L-ZISSEN
 10
402.0
 20
794.0
 30
0.0
 11
322.0
 21
794.0
 31
0.0
  0
LINE
  8
L-ZISSEN
 10
402.0
 20
794.0
 30
0.0
 11
402.0
 21
880.0
 31
0.0
  0
LINE
  8
L-ZISSEN
 10
78.0
 20
794.0
 30
0.0
 11
158.0
 21
794.0
 31
0.0
  0
LINE
  8
L-ZISSEN
 10
78.0
 20
806.292858
 30
0.0
 11
131.5
 21
806.292858
 31
0.0
  0
LINE
  8
L-ZISSEN
 10
78.0
 20
794.0
 30
0.0
 11
78.0
 21
880.0
 31
0.0
  0
LINE
  8
L-ZISSEN
 10
78.0
 20
880.0
 30
0.0
 11
141.0
 21
880.0
 31
0.0
  0
LINE
  8
L-ZISSEN
  6
CONTINUOUS
 62
     7
 10
161.9
 20
793.0
 30
0.0
 11
115.9
 21
791.393644
 31
0.0
  0
LINE
  8
L-ZISSEN
  6
CONTINUOUS
 62
     7
 10
230.1
 20
782.5
 30
0.0
 11
233.4
 21
782.5
 31
0.0
  0
LINE
  8
L-ZISSEN
  6
CONTINUOUS
 62
     7
 10
230.1
 20
791.5
 30
0.0
 11
233.4
 21
791.5
 31
0.0
  0
LINE
  8
L-ZISSEN
  6
CONTINUOUS
 62
     7
 10
233.4
 20
782.5
 30
0.0
 11
233.4
 21
791.5
 31
0.0
  0
LINE
  8
L-ZISSEN
 10
230.1
 20
741.0
 30
0.0
 11
230.1
 21
793.0
 31
0.0
  0
LINE
  8
L-ZISSEN
 10
228.1
 20
741.0
 30
0.0
 11
228.1
 21
793.0
 31
0.0
  0
LINE
  8
L-ZISSEN
 10
171.9
 20
741.0
 30
0.0
 11
171.9
 21
793.0
 31
0.0
  0
LINE
  8
L-ZISSEN
  6
CONTINUOUS
 62
     7
 10
115.9
 20
791.393644
 30
0.0
 11
115.9
 21
742.606356
 31
0.0
  0
LINE
  8
L-ZISSEN
 10
174.0
 20
733.0
 30
0.0
 11
226.0
 21
733.0
 31
0.0
  0
ARC
  8
L-ZISSEN
 10
200.0
 20
746.0
 30
0.0
 40
13.0
 50
305.234418
 51
234.765582
  0
CIRCLE
  8
L-ZISSEN
 10
200.0
 20
746.0
 30
0.0
 40
9.3
  0
LINE
  8
L-ZISSEN
 10
192.5
 20
733.0
 30
0.0
 11
192.5
 21
735.381619
 31
0.0
  0
LINE
  8
L-ZISSEN
 10
207.5
 20
733.0
 30
0.0
 11
207.5
 21
735.381619
 31
0.0
  0
LINE
  8
L-ZISSEN
 10
174.0
 20
731.5
 30
0.0
 11
174.0
 21
741.0
 31
0.0
  0
LINE
  8
L-ZISSEN
 10
226.0
 20
731.5
 30
0.0
 11
226.0
 21
741.0
 31
0.0
  0
LINE
  8
L-ZISSEN
 10
230.1
 20
741.0
 30
0.0
 11
226.0
 21
741.0
 31
0.0
  0
LINE
  8
L-ZISSEN
 10
174.0
 20
741.0
 30
0.0
 11
161.9
 21
741.0
 31
0.0
  0
LINE
  8
L-ZISSEN
 10
226.0
 20
731.5
 30
0.0
 11
174.0
 21
731.5
 31
0.0
  0
LINE
  8
L-ZISSEN
  6
CONTINUOUS
 62
     7
 10
218.5
 20
727.9
 30
0.0
 11
225.5
 21
727.9
 31
0.0
  0
LINE
  8
L-ZISSEN
  6
CONTINUOUS
 62
     7
 10
218.5
 20
731.5
 30
0.0
 11
218.5
 21
727.9
 31
0.0
  0
LINE
  8
L-ZISSEN
  6
CONTINUOUS
 62
     7
 10
225.5
 20
731.5
 30
0.0
 11
225.5
 21
727.9
 31
0.0
  0
LINE
  8
L-ZISSEN
  6
CONTINUOUS
 62
     7
 10
233.4
 20
742.5
 30
0.0
 11
233.4
 21
751.5
 31
0.0
  0
LINE
  8
L-ZISSEN
  6
CONTINUOUS
 62
     7
 10
230.1
 20
751.5
 30
0.0
 11
233.4
 21
751.5
 31
0.0
  0
LINE
  8
L-ZISSEN
  6
CONTINUOUS
 62
     7
 10
230.1
 20
742.5
 30
0.0
 11
233.4
 21
742.5
 31
0.0
  0
LINE
  8
L-ZISSEN
  6
CONTINUOUS
 62
     7
 10
161.9
 20
741.0
 30
0.0
 11
115.9
 21
742.606356
 31
0.0
  0
LINE
  8
L-ZISSEN
  6
CONTINUOUS
 62
     7
 10
114.9
 20
778.0
 30
0.0
 11
115.9
 21
778.0
 31
0.0
  0
LINE
  8
L-ZISSEN
  6
CONTINUOUS
 62
     7
 10
114.9
 20
756.0
 30
0.0
 11
114.9
 21
778.0
 31
0.0
  0
LINE
  8
L-ZISSEN
  6
CONTINUOUS
 62
     7
 10
114.9
 20
756.0
 30
0.0
 11
115.9
 21
756.0
 31
0.0
  0
LINE
  8
L-ZISSEN
  6
CONTINUOUS
 62
     7
 10
181.5
 20
731.5
 30
0.0
 11
181.5
 21
727.9
 31
0.0
  0
LINE
  8
L-ZISSEN
  6
CONTINUOUS
 62
     7
 10
174.5
 20
731.5
 30
0.0
 11
174.5
 21
727.9
 31
0.0
  0
LINE
  8
L-ZISSEN
  6
CONTINUOUS
 62
     7
 10
174.5
 20
727.9
 30
0.0
 11
181.5
 21
727.9
 31
0.0
  0
SOLID
  8
L-ZISSEN
 10
241.709577
 20
802.090165
 30
0.0
 11
241.2636
 21
802.585694
 31
0.0
 12
240.0
 22
801.0
 32
0.0
 13
240.0
 23
801.0
 33
0.0
  0
LINE
  8
L-ZISSEN
 10
241.486588
 20
802.337929
 30
0.0
 11
250.0
 21
810.0
 31
0.0
  0
LINE
  8
L-ZISSEN
 10
250.0
 20
810.0
 30
0.0
 11
252.0
 21
810.0
 31
0.0
  0
TEXT
  8
L-ZISSEN
 10
254.0
 20
807.75
 30
0.0
 40
4.5
  1
P.P
  0
LINE
  8
L-TYUSIN
 10
1250.0
 20
385.0
 30
0.0
 11
1270.0
 21
385.0
 31
0.0
  0
LINE
  8
L-ZISSEN
 10
293.0
 20
582.0
 30
0.0
 11
267.0
 21
582.0
 31
0.0
  0
LINE
  8
L-ZISSEN
 10
293.0
 20
584.0
 30
0.0
 11
293.0
 21
582.0
 31
0.0
  0
LINE
  8
L-ZISSEN
 10
293.0
 20
638.0
 30
0.0
 11
267.0
 21
638.0
 31
0.0
  0
LINE
  8
L-ZISSEN
 10
293.0
 20
638.0
 30
0.0
 11
293.0
 21
636.0
 31
0.0
  0
LINE
  8
L-ZISSEN
 10
267.0
 20
638.0
 30
0.0
 11
267.0
 21
636.0
 31
0.0
  0
LINE
  8
L-ZISSEN
 10
267.0
 20
584.0
 30
0.0
 11
267.0
 21
582.0
 31
0.0
  0
LINE
  8
L-ZISSEN
  6
CONTINUOUS
 62
     7
 10
251.9
 20
584.0
 30
0.0
 11
251.9
 21
636.0
 31
0.0
  0
LINE
  8
L-ZISSEN
  6
CONTINUOUS
 62
     7
 10
249.9
 20
636.0
 30
0.0
 11
249.9
 21
584.0
 31
0.0
  0
LINE
  8
L-ZISSEN
  6
CONTINUOUS
 62
     7
 10
246.6
 20
634.5
 30
0.0
 11
246.6
 21
625.5
 31
0.0
  0
LINE
  8
L-ZISSEN
  6
CONTINUOUS
 62
     7
 10
249.9
 20
625.5
 30
0.0
 11
246.6
 21
625.5
 31
0.0
  0
LINE
  8
L-ZISSEN
  6
CONTINUOUS
 62
     7
 10
249.9
 20
634.5
 30
0.0
 11
246.6
 21
634.5
 31
0.0
  0
LINE
  8
L-ZISSEN
  6
CONTINUOUS
 62
     7
 10
249.9
 20
594.5
 30
0.0
 11
246.6
 21
594.5
 31
0.0
  0
LINE
  8
L-ZISSEN
  6
CONTINUOUS
 62
     7
 10
249.9
 20
585.5
 30
0.0
 11
246.6
 21
585.5
 31
0.0
  0
LINE
  8
L-ZISSEN
  6
CONTINUOUS
 62
     7
 10
246.6
 20
594.5
 30
0.0
 11
246.6
 21
585.5
 31
0.0
  0
LINE
  8
L-ZISSEN
  6
CONTINUOUS
 62
     7
 10
308.1
 20
584.0
 30
0.0
 11
308.1
 21
636.0
 31
0.0
  0
LINE
  8
L-ZISSEN
  6
CONTINUOUS
 62
     7
 10
318.1
 20
636.0
 30
0.0
 11
364.1
 21
634.393644
 31
0.0
  0
LINE
  8
L-ZISSEN
  6
CONTINUOUS
 62
     7
 10
365.1
 20
599.0
 30
0.0
 11
364.1
 21
599.0
 31
0.0
  0
LINE
  8
L-ZISSEN
  6
CONTINUOUS
 62
     7
 10
365.1
 20
621.0
 30
0.0
 11
365.1
 21
599.0
 31
0.0
  0
LINE
  8
L-ZISSEN
  6
CONTINUOUS
 62
     7
 10
365.1
 20
621.0
 30
0.0
 11
364.1
 21
621.0
 31
0.0
  0
LINE
  8
L-ZISSEN
  6
CONTINUOUS
 62
     7
 10
364.1
 20
585.606356
 30
0.0
 11
364.1
 21
634.393644
 31
0.0
  0
LINE
  8
L-ZISSEN
  6
CONTINUOUS
 62
     7
 10
318.1
 20
584.0
 30
0.0
 11
364.1
 21
585.606356
 31
0.0
  0
LINE
  8
L-ZISSEN
 10
318.1
 20
636.0
 30
0.0
 11
249.9
 21
636.0
 31
0.0
  0
LINE
  8
L-ZISSEN
 10
318.1
 20
584.0
 30
0.0
 11
249.9
 21
584.0
 31
0.0
  0
LINE
  8
L-ZISSEN
 10
254.0
 20
584.0
 30
0.0
 11
254.0
 21
636.0
 31
0.0
  0
LINE
  8
L-ZISSEN
 10
306.0
 20
584.0
 30
0.0
 11
306.0
 21
636.0
 31
0.0
  0
CIRCLE
  8
L-ZISSEN
 10
302.0
 20
588.0
 30
0.0
 40
3.5
  0
CIRCLE
  8
L-ZISSEN
 10
302.0
 20
632.0
 30
0.0
 40
3.5
  0
CIRCLE
  8
L-ZISSEN
 10
258.0
 20
632.0
 30
0.0
 40
3.5
  0
CIRCLE
  8
L-ZISSEN
 10
258.0
 20
588.0
 30
0.0
 40
3.5
  0
LINE
  8
L-ZISSEN
 10
254.0
 20
598.5
 30
0.0
 11
254.0
 21
621.5
 31
0.0
  0
LINE
  8
L-TYUSIN
  6
CENTER
 62
     1
 10
268.0
 20
631.0
 30
0.0
 11
268.0
 21
641.0
 31
0.0
  0
LINE
  8
L-ZISSEN
 10
158.0
 20
635.863809
 30
0.0
 11
158.0
 21
665.0
 31
0.0
  0
LINE
  8
L-ZISSEN
  6
CONTINUOUS
 62
     7
 10
161.9
 20
427.0
 30
0.0
 11
115.9
 21
428.606356
 31
0.0
  0
LINE
  8
L-ZISSEN
 10
171.9
 20
479.0
 30
0.0
 11
171.9
 21
427.0
 31
0.0
  0
LINE
  8
L-ZISSEN
  6
CONTINUOUS
 62
     7
 10
161.9
 20
479.0
 30
0.0
 11
115.9
 21
477.393644
 31
0.0
  0
LINE
  8
L-ZISSEN
  6
CONTINUOUS
 62
     7
 10
114.9
 20
464.0
 30
0.0
 11
115.9
 21
464.0
 31
0.0
  0
LINE
  8
L-ZISSEN
  6
CONTINUOUS
 62
     7
 10
114.9
 20
464.0
 30
0.0
 11
114.9
 21
442.0
 31
0.0
  0
LINE
  8
L-ZISSEN
  6
CONTINUOUS
 62
     7
 10
114.9
 20
442.0
 30
0.0
 11
115.9
 21
442.0
 31
0.0
  0
LINE
  8
L-ZISSEN
  6
CONTINUOUS
 62
     7
 10
115.9
 20
428.606356
 30
0.0
 11
115.9
 21
477.393644
 31
0.0
  0
LINE
  8
L-ZISSEN
 10
174.0
 20
479.0
 30
0.0
 11
161.9
 21
479.0
 31
0.0
  0
LINE
  8
L-ZISSEN
  6
CONTINUOUS
 62
     7
 10
174.5
 20
492.1
 30
0.0
 11
181.5
 21
492.1
 31
0.0
  0
LINE
  8
L-ZISSEN
  6
CONTINUOUS
 62
     7
 10
174.5
 20
488.5
 30
0.0
 11
174.5
 21
492.1
 31
0.0
  0
LINE
  8
L-ZISSEN
  6
CONTINUOUS
 62
     7
 10
181.5
 20
488.5
 30
0.0
 11
181.5
 21
492.1
 31
0.0
  0
LINE
  8
L-ZISSEN
  6
CONTINUOUS
 62
     7
 10
230.1
 20
477.5
 30
0.0
 11
233.4
 21
477.5
 31
0.0
  0
LINE
  8
L-ZISSEN
  6
CONTINUOUS
 62
     7
 10
230.1
 20
468.5
 30
0.0
 11
233.4
 21
468.5
 31
0.0
  0
LINE
  8
L-ZISSEN
  6
CONTINUOUS
 62
     7
 10
233.4
 20
477.5
 30
0.0
 11
233.4
 21
468.5
 31
0.0
  0
LINE
  8
L-ZISSEN
  6
CONTINUOUS
 62
     7
 10
225.5
 20
488.5
 30
0.0
 11
225.5
 21
492.1
 31
0.0
  0
LINE
  8
L-ZISSEN
  6
CONTINUOUS
 62
     7
 10
218.5
 20
488.5
 30
0.0
 11
218.5
 21
492.1
 31
0.0
  0
LINE
  8
L-ZISSEN
  6
CONTINUOUS
 62
     7
 10
218.5
 20
492.1
 30
0.0
 11
225.5
 21
492.1
 31
0.0
  0
LINE
  8
L-ZISSEN
 10
226.0
 20
488.5
 30
0.0
 11
174.0
 21
488.5
 31
0.0
  0
LINE
  8
L-ZISSEN
 10
230.1
 20
479.0
 30
0.0
 11
226.0
 21
479.0
 31
0.0
  0
LINE
  8
L-ZISSEN
 10
226.0
 20
488.5
 30
0.0
 11
226.0
 21
479.0
 31
0.0
  0
LINE
  8
L-ZISSEN
 10
174.0
 20
488.5
 30
0.0
 11
174.0
 21
479.0
 31
0.0
  0
LINE
  8
L-ZISSEN
 10
207.5
 20
487.0
 30
0.0
 11
207.5
 21
484.618381
 31
0.0
  0
LINE
  8
L-ZISSEN
 10
192.5
 20
487.0
 30
0.0
 11
192.5
 21
484.618381
 31
0.0
  0
CIRCLE
  8
L-ZISSEN
 10
200.0
 20
474.0
 30
0.0
 40
9.3
  0
ARC
  8
L-ZISSEN
 10
200.0
 20
474.0
 30
0.0
 40
13.0
 50
125.234418
 51
54.765582
  0
LINE
  8
L-ZISSEN
 10
174.0
 20
487.0
 30
0.0
 11
226.0
 21
487.0
 31
0.0
  0
LINE
  8
L-ZISSEN
 10
228.1
 20
479.0
 30
0.0
 11
228.1
 21
427.0
 31
0.0
  0
LINE
  8
L-ZISSEN
 10
230.1
 20
479.0
 30
0.0
 11
230.1
 21
427.0
 31
0.0
  0
LINE
  8
L-ZISSEN
  6
CONTINUOUS
 62
     7
 10
233.4
 20
437.5
 30
0.0
 11
233.4
 21
428.5
 31
0.0
  0
LINE
  8
L-ZISSEN
  6
CONTINUOUS
 62
     7
 10
230.1
 20
428.5
 30
0.0
 11
233.4
 21
428.5
 31
0.0
  0
LINE
  8
L-ZISSEN
  6
CONTINUOUS
 62
     7
 10
230.1
 20
437.5
 30
0.0
 11
233.4
 21
437.5
 31
0.0
  0
LINE
  8
L-ZISSEN
 10
824.0
 20
142.0
 30
0.0
 11
850.0
 21
142.0
 31
0.0
  0
LINE
  8
L-ZISSEN
 10
824.0
 20
144.0
 30
0.0
 11
824.0
 21
142.0
 31
0.0
  0
LINE
  8
L-ZISSEN
 10
824.0
 20
198.0
 30
0.0
 11
850.0
 21
198.0
 31
0.0
  0
LINE
  8
L-ZISSEN
 10
824.0
 20
198.0
 30
0.0
 11
824.0
 21
196.0
 31
0.0
  0
LINE
  8
L-ZISSEN
 10
850.0
 20
198.0
 30
0.0
 11
850.0
 21
196.0
 31
0.0
  0
LINE
  8
L-ZISSEN
 10
850.0
 20
144.0
 30
0.0
 11
850.0
 21
142.0
 31
0.0
  0
LINE
  8
L-ZISSEN
  6
CONTINUOUS
 62
     7
 10
865.1
 20
144.0
 30
0.0
 11
865.1
 21
196.0
 31
0.0
  0
LINE
  8
L-ZISSEN
  6
CONTINUOUS
 62
     7
 10
867.1
 20
196.0
 30
0.0
 11
867.1
 21
144.0
 31
0.0
  0
LINE
  8
L-ZISSEN
  6
CONTINUOUS
 62
     7
 10
870.4
 20
194.5
 30
0.0
 11
870.4
 21
185.5
 31
0.0
  0
LINE
  8
L-ZISSEN
  6
CONTINUOUS
 62
     7
 10
867.1
 20
185.5
 30
0.0
 11
870.4
 21
185.5
 31
0.0
  0
LINE
  8
L-ZISSEN
  6
CONTINUOUS
 62
     7
 10
867.1
 20
194.5
 30
0.0
 11
870.4
 21
194.5
 31
0.0
  0
LINE
  8
L-ZISSEN
  6
CONTINUOUS
 62
     7
 10
867.1
 20
154.5
 30
0.0
 11
870.4
 21
154.5
 31
0.0
  0
LINE
  8
L-ZISSEN
  6
CONTINUOUS
 62
     7
 10
867.1
 20
145.5
 30
0.0
 11
870.4
 21
145.5
 31
0.0
  0
LINE
  8
L-ZISSEN
  6
CONTINUOUS
 62
     7
 10
870.4
 20
154.5
 30
0.0
 11
870.4
 21
145.5
 31
0.0
  0
LINE
  8
L-ZISSEN
  6
CONTINUOUS
 62
     7
 10
808.9
 20
144.0
 30
0.0
 11
808.9
 21
196.0
 31
0.0
  0
LINE
  8
L-ZISSEN
 10
863.0
 20
144.0
 30
0.0
 11
863.0
 21
196.0
 31
0.0
  0
LINE
  8
L-ZISSEN
 10
811.0
 20
144.0
 30
0.0
 11
811.0
 21
196.0
 31
0.0
  0
CIRCLE
  8
L-ZISSEN
 10
815.0
 20
148.0
 30
0.0
 40
3.5
  0
CIRCLE
  8
L-ZISSEN
 10
815.0
 20
192.0
 30
0.0
 40
3.5
  0
CIRCLE
  8
L-ZISSEN
 10
859.0
 20
192.0
 30
0.0
 40
3.5
  0
CIRCLE
  8
L-ZISSEN
 10
859.0
 20
148.0
 30
0.0
 40
3.5
  0
LINE
  8
L-ZISSEN
 10
863.0
 20
158.5
 30
0.0
 11
863.0
 21
181.5
 31
0.0
  0
LINE
  8
L-TYUSIN
  6
CENTER
 62
     1
 10
849.0
 20
149.0
 30
0.0
 11
849.0
 21
139.0
 31
0.0
  0
LINE
  8
L-ZISSEN
  6
CONTINUOUS
 62
     7
 10
867.1
 20
64.5
 30
0.0
 11
870.4
 21
64.5
 31
0.0
  0
LINE
  8
L-ZISSEN
  6
CONTINUOUS
 62
     7
 10
867.1
 20
55.5
 30
0.0
 11
870.4
 21
55.5
 31
0.0
  0
LINE
  8
L-ZISSEN
  6
CONTINUOUS
 62
     7
 10
870.4
 20
64.5
 30
0.0
 11
870.4
 21
55.5
 31
0.0
  0
LINE
  8
L-ZISSEN
 10
867.1
 20
106.0
 30
0.0
 11
867.1
 21
54.0
 31
0.0
  0
LINE
  8
L-ZISSEN
 10
865.1
 20
106.0
 30
0.0
 11
865.1
 21
54.0
 31
0.0
  0
LINE
  8
L-ZISSEN
 10
808.9
 20
106.0
 30
0.0
 11
808.9
 21
54.0
 31
0.0
  0
LINE
  8
L-ZISSEN
 10
811.0
 20
114.0
 30
0.0
 11
863.0
 21
114.0
 31
0.0
  0
ARC
  8
L-ZISSEN
 10
837.0
 20
101.0
 30
0.0
 40
13.0
 50
125.234418
 51
54.765582
  0
CIRCLE
  8
L-ZISSEN
 10
837.0
 20
101.0
 30
0.0
 40
9.3
  0
LINE
  8
L-ZISSEN
 10
829.5
 20
114.0
 30
0.0
 11
829.5
 21
111.618381
 31
0.0
  0
LINE
  8
L-ZISSEN
 10
844.5
 20
114.0
 30
0.0
 11
844.5
 21
111.618381
 31
0.0
  0
LINE
  8
L-ZISSEN
 10
811.0
 20
115.5
 30
0.0
 11
811.0
 21
106.0
 31
0.0
  0
LINE
  8
L-ZISSEN
 10
863.0
 20
115.5
 30
0.0
 11
863.0
 21
106.0
 31
0.0
  0
LINE
  8
L-ZISSEN
 10
867.1
 20
106.0
 30
0.0
 11
863.0
 21
106.0
 31
0.0
  0
LINE
  8
L-ZISSEN
 10
863.0
 20
115.5
 30
0.0
 11
811.0
 21
115.5
 31
0.0
  0
LINE
  8
L-ZISSEN
  6
CONTINUOUS
 62
     7
 10
855.5
 20
119.1
 30
0.0
 11
862.5
 21
119.1
 31
0.0
  0
LINE
  8
L-ZISSEN
  6
CONTINUOUS
 62
     7
 10
855.5
 20
115.5
 30
0.0
 11
855.5
 21
119.1
 31
0.0
  0
LINE
  8
L-ZISSEN
  6
CONTINUOUS
 62
     7
 10
862.5
 20
115.5
 30
0.0
 11
862.5
 21
119.1
 31
0.0
  0
LINE
  8
L-ZISSEN
  6
CONTINUOUS
 62
     7
 10
870.4
 20
104.5
 30
0.0
 11
870.4
 21
95.5
 31
0.0
  0
LINE
  8
L-ZISSEN
  6
CONTINUOUS
 62
     7
 10
867.1
 20
95.5
 30
0.0
 11
870.4
 21
95.5
 31
0.0
  0
LINE
  8
L-ZISSEN
  6
CONTINUOUS
 62
     7
 10
867.1
 20
104.5
 30
0.0
 11
870.4
 21
104.5
 31
0.0
  0
LINE
  8
L-ZISSEN
  6
CONTINUOUS
 62
     7
 10
818.5
 20
115.5
 30
0.0
 11
818.5
 21
119.1
 31
0.0
  0
LINE
  8
L-ZISSEN
  6
CONTINUOUS
 62
     7
 10
811.5
 20
115.5
 30
0.0
 11
811.5
 21
119.1
 31
0.0
  0
LINE
  8
L-ZISSEN
  6
CONTINUOUS
 62
     7
 10
811.5
 20
119.1
 30
0.0
 11
818.5
 21
119.1
 31
0.0
  0
LINE
  8
L-ZISSEN
 10
726.3
 20
189.0
 30
0.0
 11
726.3
 21
151.0
 31
0.0
  0
LINE
  8
L-ZISSEN
 10
736.9
 20
196.0
 30
0.0
 11
736.9
 21
144.0
 31
0.0
  0
LINE
  8
L-ZISSEN
 10
732.25718
 20
189.0
 30
0.0
 11
726.3
 21
189.0
 31
0.0
  0
LINE
  8
L-ZISSEN
 10
732.25718
 20
151.0
 30
0.0
 11
726.3
 21
151.0
 31
0.0
  0
LINE
  8
L-ZISSEN
 10
732.25718
 20
194.49995
 30
0.0
 11
736.9
 21
194.49995
 31
0.0
  0
LINE
  8
L-ZISSEN
 10
732.25718
 20
185.50005
 30
0.0
 11
732.25718
 21
194.49995
 31
0.0
  0
LINE
  8
L-ZISSEN
 10
732.25718
 20
185.50005
 30
0.0
 11
736.9
 21
185.50005
 31
0.0
  0
LINE
  8
L-ZISSEN
 10
732.25718
 20
154.49995
 30
0.0
 11
736.9
 21
154.49995
 31
0.0
  0
LINE
  8
L-ZISSEN
 10
732.25718
 20
154.49995
 30
0.0
 11
732.25718
 21
145.50005
 31
0.0
  0
LINE
  8
L-ZISSEN
 10
732.25718
 20
145.50005
 30
0.0
 11
736.9
 21
145.50005
 31
0.0
  0
LINE
  8
L-ZISSEN
 10
732.25718
 20
55.50005
 30
0.0
 11
736.9
 21
55.50005
 31
0.0
  0
LINE
  8
L-ZISSEN
 10
732.25718
 20
64.49995
 30
0.0
 11
732.25718
 21
55.50005
 31
0.0
  0
LINE
  8
L-ZISSEN
 10
732.25718
 20
64.49995
 30
0.0
 11
736.9
 21
64.49995
 31
0.0
  0
LINE
  8
L-ZISSEN
 10
732.25718
 20
95.50005
 30
0.0
 11
736.9
 21
95.50005
 31
0.0
  0
LINE
  8
L-ZISSEN
 10
732.25718
 20
95.50005
 30
0.0
 11
732.25718
 21
104.49995
 31
0.0
  0
LINE
  8
L-ZISSEN
 10
732.25718
 20
104.49995
 30
0.0
 11
736.9
 21
104.49995
 31
0.0
  0
LINE
  8
L-ZISSEN
 10
732.25718
 20
61.0
 30
0.0
 11
726.3
 21
61.0
 31
0.0
  0
LINE
  8
L-ZISSEN
 10
732.25718
 20
99.0
 30
0.0
 11
726.3
 21
99.0
 31
0.0
  0
LINE
  8
L-ZISSEN
 10
736.9
 20
106.0
 30
0.0
 11
736.9
 21
54.0
 31
0.0
  0
LINE
  8
L-ZISSEN
 10
726.3
 20
99.0
 30
0.0
 11
726.3
 21
61.0
 31
0.0
  0
LINE
  8
L-ZISSEN
  6
CONTINUOUS
 62
     7
 10
713.3
 20
181.0
 30
0.0
 11
713.3
 21
159.0
 31
0.0
  0
LINE
  8
L-ZISSEN
  6
CONTINUOUS
 62
     7
 10
700.0
 20
177.25
 30
0.0
 11
700.0
 21
162.75
 31
0.0
  0
LINE
  8
L-ZISSEN
  6
CONTINUOUS
 62
     7
 10
707.3
 20
162.75
 30
0.0
 11
700.0
 21
162.75
 31
0.0
  0
LINE
  8
L-ZISSEN
  6
CONTINUOUS
 62
     7
 10
713.3
 20
161.0
 30
0.0
 11
707.3
 21
161.0
 31
0.0
  0
LINE
  8
L-ZISSEN
  6
CONTINUOUS
 62
     7
 10
707.3
 20
179.0
 30
0.0
 11
707.3
 21
161.0
 31
0.0
  0
LINE
  8
L-ZISSEN
 10
726.3
 20
159.0
 30
0.0
 11
713.3
 21
159.0
 31
0.0
  0
LINE
  8
L-ZISSEN
  6
CONTINUOUS
 62
     7
 10
707.3
 20
177.25
 30
0.0
 11
700.0
 21
177.25
 31
0.0
  0
LINE
  8
L-ZISSEN
  6
CONTINUOUS
 62
     7
 10
713.3
 20
179.0
 30
0.0
 11
707.3
 21
179.0
 31
0.0
  0
LINE
  8
L-ZISSEN
 10
726.3
 20
181.0
 30
0.0
 11
713.3
 21
181.0
 31
0.0
  0
LINE
  8
L-ZISSEN
 10
726.3
 20
91.0
 30
0.0
 11
713.3
 21
91.0
 31
0.0
  0
LINE
  8
L-ZISSEN
  6
CONTINUOUS
 62
     7
 10
713.3
 20
89.0
 30
0.0
 11
707.3
 21
89.0
 31
0.0
  0
LINE
  8
L-ZISSEN
  6
CONTINUOUS
 62
     7
 10
707.3
 20
87.25
 30
0.0
 11
700.0
 21
87.25
 31
0.0
  0
LINE
  8
L-ZISSEN
 10
726.3
 20
69.0
 30
0.0
 11
713.3
 21
69.0
 31
0.0
  0
LINE
  8
L-ZISSEN
  6
CONTINUOUS
 62
     7
 10
707.3
 20
89.0
 30
0.0
 11
707.3
 21
71.0
 31
0.0
  0
LINE
  8
L-ZISSEN
  6
CONTINUOUS
 62
     7
 10
713.3
 20
71.0
 30
0.0
 11
707.3
 21
71.0
 31
0.0
  0
LINE
  8
L-ZISSEN
  6
CONTINUOUS
 62
     7
 10
707.3
 20
72.75
 30
0.0
 11
700.0
 21
72.75
 31
0.0
  0
LINE
  8
L-ZISSEN
  6
CONTINUOUS
 62
     7
 10
700.0
 20
87.25
 30
0.0
 11
700.0
 21
72.75
 31
0.0
  0
LINE
  8
L-ZISSEN
  6
CONTINUOUS
 62
     7
 10
713.3
 20
91.0
 30
0.0
 11
713.3
 21
69.0
 31
0.0
  0
LINE
  8
L-ZISSEN
 10
736.9
 20
196.0
 30
0.0
 11
867.1
 21
196.0
 31
0.0
  0
LINE
  8
L-ZISSEN
 10
736.9
 20
144.0
 30
0.0
 11
867.1
 21
144.0
 31
0.0
  0
LINE
  8
L-ZISSEN
 10
867.1
 20
54.0
 30
0.0
 11
736.9
 21
54.0
 31
0.0
  0
LINE
  8
L-ZISSEN
 10
811.0
 20
106.0
 30
0.0
 11
736.9
 21
106.0
 31
0.0
  0
CIRCLE
  8
L-ZISSEN
 10
212.0
 20
448.0
 30
0.0
 40
5.7225
  0
LINE
  8
L-TYUSIN
  6
CENTER
 62
     1
 10
221.0
 20
448.0
 30
0.0
 11
203.0
 21
448.0
 31
0.0
  0
LINE
  8
L-TYUSIN
  6
CENTER
 62
     1
 10
212.0
 20
439.0
 30
0.0
 11
212.0
 21
457.0
 31
0.0
  0
CIRCLE
  8
L-ZISSEN
 10
849.0
 20
75.0
 30
0.0
 40
5.7225
  0
LINE
  8
L-TYUSIN
  6
CENTER
 62
     1
 10
849.0
 20
66.0
 30
0.0
 11
849.0
 21
84.0
 31
0.0
  0
LINE
  8
L-TYUSIN
  6
CENTER
 62
     1
 10
858.0
 20
75.0
 30
0.0
 11
840.0
 21
75.0
 31
0.0
  0
LINE
  8
L-ZISSEN
 10
798.9
 20
354.0
 30
0.0
 11
867.1
 21
354.0
 31
0.0
  0
LINE
  8
L-ZISSEN
 10
798.9
 20
406.0
 30
0.0
 11
867.1
 21
406.0
 31
0.0
  0
LINE
  8
L-TYUSIN
  6
CENTER
 62
     1
 10
849.0
 20
359.0
 30
0.0
 11
849.0
 21
349.0
 31
0.0
  0
LINE
  8
L-ZISSEN
 10
863.0
 20
368.5
 30
0.0
 11
863.0
 21
391.5
 31
0.0
  0
CIRCLE
  8
L-ZISSEN
 10
859.0
 20
358.0
 30
0.0
 40
3.5
  0
CIRCLE
  8
L-ZISSEN
 10
859.0
 20
402.0
 30
0.0
 40
3.5
  0
CIRCLE
  8
L-ZISSEN
 10
815.0
 20
402.0
 30
0.0
 40
3.5
  0
CIRCLE
  8
L-ZISSEN
 10
815.0
 20
358.0
 30
0.0
 40
3.5
  0
LINE
  8
L-ZISSEN
 10
811.0
 20
354.0
 30
0.0
 11
811.0
 21
406.0
 31
0.0
  0
LINE
  8
L-ZISSEN
 10
863.0
 20
354.0
 30
0.0
 11
863.0
 21
406.0
 31
0.0
  0
LINE
  8
L-ZISSEN
  6
CONTINUOUS
 62
     7
 10
808.9
 20
354.0
 30
0.0
 11
808.9
 21
406.0
 31
0.0
  0
LINE
  8
L-ZISSEN
  6
CONTINUOUS
 62
     7
 10
870.4
 20
364.5
 30
0.0
 11
870.4
 21
355.5
 31
0.0
  0
LINE
  8
L-ZISSEN
  6
CONTINUOUS
 62
     7
 10
867.1
 20
355.5
 30
0.0
 11
870.4
 21
355.5
 31
0.0
  0
LINE
  8
L-ZISSEN
  6
CONTINUOUS
 62
     7
 10
867.1
 20
364.5
 30
0.0
 11
870.4
 21
364.5
 31
0.0
  0
LINE
  8
L-ZISSEN
  6
CONTINUOUS
 62
     7
 10
867.1
 20
404.5
 30
0.0
 11
870.4
 21
404.5
 31
0.0
  0
LINE
  8
L-ZISSEN
  6
CONTINUOUS
 62
     7
 10
867.1
 20
395.5
 30
0.0
 11
870.4
 21
395.5
 31
0.0
  0
LINE
  8
L-ZISSEN
  6
CONTINUOUS
 62
     7
 10
870.4
 20
404.5
 30
0.0
 11
870.4
 21
395.5
 31
0.0
  0
LINE
  8
L-ZISSEN
  6
CONTINUOUS
 62
     7
 10
867.1
 20
406.0
 30
0.0
 11
867.1
 21
354.0
 31
0.0
  0
LINE
  8
L-ZISSEN
  6
CONTINUOUS
 62
     7
 10
865.1
 20
354.0
 30
0.0
 11
865.1
 21
406.0
 31
0.0
  0
LINE
  8
L-ZISSEN
 10
850.0
 20
354.0
 30
0.0
 11
850.0
 21
352.0
 31
0.0
  0
LINE
  8
L-ZISSEN
 10
850.0
 20
408.0
 30
0.0
 11
850.0
 21
406.0
 31
0.0
  0
LINE
  8
L-ZISSEN
 10
824.0
 20
408.0
 30
0.0
 11
824.0
 21
406.0
 31
0.0
  0
LINE
  8
L-ZISSEN
 10
824.0
 20
408.0
 30
0.0
 11
850.0
 21
408.0
 31
0.0
  0
LINE
  8
L-ZISSEN
 10
824.0
 20
354.0
 30
0.0
 11
824.0
 21
352.0
 31
0.0
  0
LINE
  8
L-ZISSEN
 10
824.0
 20
352.0
 30
0.0
 11
850.0
 21
352.0
 31
0.0
  0
LINE
  8
L-ZISSEN
 10
811.0
 20
316.0
 30
0.0
 11
798.9
 21
316.0
 31
0.0
  0
LINE
  8
L-ZISSEN
 10
867.1
 20
264.0
 30
0.0
 11
798.9
 21
264.0
 31
0.0
  0
LINE
  8
L-ZISSEN
  6
CONTINUOUS
 62
     7
 10
811.5
 20
329.1
 30
0.0
 11
818.5
 21
329.1
 31
0.0
  0
LINE
  8
L-ZISSEN
  6
CONTINUOUS
 62
     7
 10
811.5
 20
325.5
 30
0.0
 11
811.5
 21
329.1
 31
0.0
  0
LINE
  8
L-ZISSEN
  6
CONTINUOUS
 62
     7
 10
818.5
 20
325.5
 30
0.0
 11
818.5
 21
329.1
 31
0.0
  0
LINE
  8
L-ZISSEN
  6
CONTINUOUS
 62
     7
 10
867.1
 20
314.5
 30
0.0
 11
870.4
 21
314.5
 31
0.0
  0
LINE
  8
L-ZISSEN
  6
CONTINUOUS
 62
     7
 10
867.1
 20
305.5
 30
0.0
 11
870.4
 21
305.5
 31
0.0
  0
LINE
  8
L-ZISSEN
  6
CONTINUOUS
 62
     7
 10
870.4
 20
314.5
 30
0.0
 11
870.4
 21
305.5
 31
0.0
  0
LINE
  8
L-ZISSEN
  6
CONTINUOUS
 62
     7
 10
862.5
 20
325.5
 30
0.0
 11
862.5
 21
329.1
 31
0.0
  0
LINE
  8
L-ZISSEN
  6
CONTINUOUS
 62
     7
 10
855.5
 20
325.5
 30
0.0
 11
855.5
 21
329.1
 31
0.0
  0
LINE
  8
L-ZISSEN
  6
CONTINUOUS
 62
     7
 10
855.5
 20
329.1
 30
0.0
 11
862.5
 21
329.1
 31
0.0
  0
LINE
  8
L-ZISSEN
 10
863.0
 20
325.5
 30
0.0
 11
811.0
 21
325.5
 31
0.0
  0
LINE
  8
L-ZISSEN
 10
867.1
 20
316.0
 30
0.0
 11
863.0
 21
316.0
 31
0.0
  0
LINE
  8
L-ZISSEN
 10
863.0
 20
325.5
 30
0.0
 11
863.0
 21
316.0
 31
0.0
  0
LINE
  8
L-ZISSEN
 10
811.0
 20
325.5
 30
0.0
 11
811.0
 21
316.0
 31
0.0
  0
LINE
  8
L-ZISSEN
 10
844.5
 20
324.0
 30
0.0
 11
844.5
 21
321.618381
 31
0.0
  0
LINE
  8
L-ZISSEN
 10
829.5
 20
324.0
 30
0.0
 11
829.5
 21
321.618381
 31
0.0
  0
CIRCLE
  8
L-ZISSEN
 10
837.0
 20
311.0
 30
0.0
 40
9.3
  0
ARC
  8
L-ZISSEN
 10
837.0
 20
311.0
 30
0.0
 40
13.0
 50
125.234418
 51
54.765582
  0
LINE
  8
L-ZISSEN
 10
811.0
 20
324.0
 30
0.0
 11
863.0
 21
324.0
 31
0.0
  0
LINE
  8
L-ZISSEN
 10
808.9
 20
316.0
 30
0.0
 11
808.9
 21
264.0
 31
0.0
  0
LINE
  8
L-ZISSEN
 10
865.1
 20
316.0
 30
0.0
 11
865.1
 21
264.0
 31
0.0
  0
LINE
  8
L-ZISSEN
 10
867.1
 20
316.0
 30
0.0
 11
867.1
 21
264.0
 31
0.0
  0
LINE
  8
L-ZISSEN
  6
CONTINUOUS
 62
     7
 10
870.4
 20
274.5
 30
0.0
 11
870.4
 21
265.5
 31
0.0
  0
LINE
  8
L-ZISSEN
  6
CONTINUOUS
 62
     7
 10
867.1
 20
265.5
 30
0.0
 11
870.4
 21
265.5
 31
0.0
  0
LINE
  8
L-ZISSEN
  6
CONTINUOUS
 62
     7
 10
867.1
 20
274.5
 30
0.0
 11
870.4
 21
274.5
 31
0.0
  0
LINE
  8
L-ZISSEN
 10
752.9
 20
301.0
 30
0.0
 11
739.9
 21
301.0
 31
0.0
  0
LINE
  8
L-ZISSEN
  6
CONTINUOUS
 62
     7
 10
739.9
 20
299.0
 30
0.0
 11
733.9
 21
299.0
 31
0.0
  0
LINE
  8
L-ZISSEN
  6
CONTINUOUS
 62
     7
 10
733.9
 20
297.25
 30
0.0
 11
726.9
 21
297.25
 31
0.0
  0
LINE
  8
L-ZISSEN
 10
752.9
 20
279.0
 30
0.0
 11
739.9
 21
279.0
 31
0.0
  0
LINE
  8
L-ZISSEN
  6
CONTINUOUS
 62
     7
 10
733.9
 20
299.0
 30
0.0
 11
733.9
 21
281.0
 31
0.0
  0
LINE
  8
L-ZISSEN
  6
CONTINUOUS
 62
     7
 10
739.9
 20
281.0
 30
0.0
 11
733.9
 21
281.0
 31
0.0
  0
LINE
  8
L-ZISSEN
  6
CONTINUOUS
 62
     7
 10
733.9
 20
282.75
 30
0.0
 11
726.9
 21
282.75
 31
0.0
  0
LINE
  8
L-ZISSEN
  6
CONTINUOUS
 62
     7
 10
726.9
 20
297.25
 30
0.0
 11
726.9
 21
282.75
 31
0.0
  0
LINE
  8
L-ZISSEN
  6
CONTINUOUS
 62
     7
 10
739.9
 20
301.0
 30
0.0
 11
739.9
 21
279.0
 31
0.0
  0
LINE
  8
L-ZISSEN
  6
CONTINUOUS
 62
     7
 10
739.9
 20
391.0
 30
0.0
 11
739.9
 21
369.0
 31
0.0
  0
LINE
  8
L-ZISSEN
  6
CONTINUOUS
 62
     7
 10
726.9
 20
387.25
 30
0.0
 11
726.9
 21
372.75
 31
0.0
  0
LINE
  8
L-ZISSEN
  6
CONTINUOUS
 62
     7
 10
733.9
 20
372.75
 30
0.0
 11
726.9
 21
372.75
 31
0.0
  0
LINE
  8
L-ZISSEN
  6
CONTINUOUS
 62
     7
 10
739.9
 20
371.0
 30
0.0
 11
733.9
 21
371.0
 31
0.0
  0
LINE
  8
L-ZISSEN
  6
CONTINUOUS
 62
     7
 10
733.9
 20
389.0
 30
0.0
 11
733.9
 21
371.0
 31
0.0
  0
LINE
  8
L-ZISSEN
 10
752.9
 20
369.0
 30
0.0
 11
739.9
 21
369.0
 31
0.0
  0
LINE
  8
L-ZISSEN
  6
CONTINUOUS
 62
     7
 10
733.9
 20
387.25
 30
0.0
 11
726.9
 21
387.25
 31
0.0
  0
LINE
  8
L-ZISSEN
  6
CONTINUOUS
 62
     7
 10
739.9
 20
389.0
 30
0.0
 11
733.9
 21
389.0
 31
0.0
  0
LINE
  8
L-ZISSEN
 10
752.9
 20
391.0
 30
0.0
 11
739.9
 21
391.0
 31
0.0
  0
LINE
  8
L-ZISSEN
  6
CONTINUOUS
 62
     7
 10
752.9
 20
265.606356
 30
0.0
 11
752.9
 21
314.393644
 31
0.0
  0
LINE
  8
L-ZISSEN
  6
CONTINUOUS
 62
     7
 10
798.9
 20
316.0
 30
0.0
 11
752.9
 21
314.393644
 31
0.0
  0
LINE
  8
L-ZISSEN
  6
CONTINUOUS
 62
     7
 10
798.9
 20
264.0
 30
0.0
 11
752.9
 21
265.606356
 31
0.0
  0
LINE
  8
L-ZISSEN
  6
CONTINUOUS
 62
     7
 10
798.9
 20
354.0
 30
0.0
 11
752.9
 21
355.606356
 31
0.0
  0
LINE
  8
L-ZISSEN
  6
CONTINUOUS
 62
     7
 10
752.9
 20
355.606356
 30
0.0
 11
752.9
 21
404.393644
 31
0.0
  0
LINE
  8
L-ZISSEN
  6
CONTINUOUS
 62
     7
 10
798.9
 20
406.0
 30
0.0
 11
752.9
 21
404.393644
 31
0.0
  0
LINE
  8
L-TYUSIN
  6
CENTER
 62
     1
 10
849.0
 20
569.0
 30
0.0
 11
849.0
 21
559.0
 31
0.0
  0
LINE
  8
L-ZISSEN
 10
863.0
 20
578.5
 30
0.0
 11
863.0
 21
601.5
 31
0.0
  0
CIRCLE
  8
L-ZISSEN
 10
859.0
 20
568.0
 30
0.0
 40
3.5
  0
CIRCLE
  8
L-ZISSEN
 10
859.0
 20
612.0
 30
0.0
 40
3.5
  0
CIRCLE
  8
L-ZISSEN
 10
815.0
 20
612.0
 30
0.0
 40
3.5
  0
CIRCLE
  8
L-ZISSEN
 10
815.0
 20
568.0
 30
0.0
 40
3.5
  0
LINE
  8
L-ZISSEN
 10
811.0
 20
564.0
 30
0.0
 11
811.0
 21
616.0
 31
0.0
  0
LINE
  8
L-ZISSEN
 10
863.0
 20
564.0
 30
0.0
 11
863.0
 21
616.0
 31
0.0
  0
LINE
  8
L-ZISSEN
  6
CONTINUOUS
 62
     7
 10
808.9
 20
564.0
 30
0.0
 11
808.9
 21
616.0
 31
0.0
  0
LINE
  8
L-ZISSEN
  6
CONTINUOUS
 62
     7
 10
870.4
 20
574.5
 30
0.0
 11
870.4
 21
565.5
 31
0.0
  0
LINE
  8
L-ZISSEN
  6
CONTINUOUS
 62
     7
 10
867.1
 20
565.5
 30
0.0
 11
870.4
 21
565.5
 31
0.0
  0
LINE
  8
L-ZISSEN
  6
CONTINUOUS
 62
     7
 10
867.1
 20
574.5
 30
0.0
 11
870.4
 21
574.5
 31
0.0
  0
LINE
  8
L-ZISSEN
  6
CONTINUOUS
 62
     7
 10
867.1
 20
614.5
 30
0.0
 11
870.4
 21
614.5
 31
0.0
  0
LINE
  8
L-ZISSEN
  6
CONTINUOUS
 62
     7
 10
867.1
 20
605.5
 30
0.0
 11
870.4
 21
605.5
 31
0.0
  0
LINE
  8
L-ZISSEN
  6
CONTINUOUS
 62
     7
 10
870.4
 20
614.5
 30
0.0
 11
870.4
 21
605.5
 31
0.0
  0
LINE
  8
L-ZISSEN
  6
CONTINUOUS
 62
     7
 10
867.1
 20
616.0
 30
0.0
 11
867.1
 21
564.0
 31
0.0
  0
LINE
  8
L-ZISSEN
  6
CONTINUOUS
 62
     7
 10
865.1
 20
564.0
 30
0.0
 11
865.1
 21
616.0
 31
0.0
  0
LINE
  8
L-ZISSEN
 10
850.0
 20
564.0
 30
0.0
 11
850.0
 21
562.0
 31
0.0
  0
LINE
  8
L-ZISSEN
 10
850.0
 20
618.0
 30
0.0
 11
850.0
 21
616.0
 31
0.0
  0
LINE
  8
L-ZISSEN
 10
824.0
 20
618.0
 30
0.0
 11
824.0
 21
616.0
 31
0.0
  0
LINE
  8
L-ZISSEN
 10
824.0
 20
618.0
 30
0.0
 11
850.0
 21
618.0
 31
0.0
  0
LINE
  8
L-ZISSEN
 10
824.0
 20
564.0
 30
0.0
 11
824.0
 21
562.0
 31
0.0
  0
LINE
  8
L-ZISSEN
 10
824.0
 20
562.0
 30
0.0
 11
850.0
 21
562.0
 31
0.0
  0
LINE
  8
L-ZISSEN
  6
CONTINUOUS
 62
     7
 10
811.5
 20
539.1
 30
0.0
 11
818.5
 21
539.1
 31
0.0
  0
LINE
  8
L-ZISSEN
  6
CONTINUOUS
 62
     7
 10
811.5
 20
535.5
 30
0.0
 11
811.5
 21
539.1
 31
0.0
  0
LINE
  8
L-ZISSEN
  6
CONTINUOUS
 62
     7
 10
818.5
 20
535.5
 30
0.0
 11
818.5
 21
539.1
 31
0.0
  0
LINE
  8
L-ZISSEN
  6
CONTINUOUS
 62
     7
 10
867.1
 20
524.5
 30
0.0
 11
870.4
 21
524.5
 31
0.0
  0
LINE
  8
L-ZISSEN
  6
CONTINUOUS
 62
     7
 10
867.1
 20
515.5
 30
0.0
 11
870.4
 21
515.5
 31
0.0
  0
LINE
  8
L-ZISSEN
  6
CONTINUOUS
 62
     7
 10
870.4
 20
524.5
 30
0.0
 11
870.4
 21
515.5
 31
0.0
  0
LINE
  8
L-ZISSEN
  6
CONTINUOUS
 62
     7
 10
862.5
 20
535.5
 30
0.0
 11
862.5
 21
539.1
 31
0.0
  0
LINE
  8
L-ZISSEN
  6
CONTINUOUS
 62
     7
 10
855.5
 20
535.5
 30
0.0
 11
855.5
 21
539.1
 31
0.0
  0
LINE
  8
L-ZISSEN
  6
CONTINUOUS
 62
     7
 10
855.5
 20
539.1
 30
0.0
 11
862.5
 21
539.1
 31
0.0
  0
LINE
  8
L-ZISSEN
 10
863.0
 20
535.5
 30
0.0
 11
811.0
 21
535.5
 31
0.0
  0
LINE
  8
L-ZISSEN
 10
867.1
 20
526.0
 30
0.0
 11
863.0
 21
526.0
 31
0.0
  0
LINE
  8
L-ZISSEN
 10
863.0
 20
535.5
 30
0.0
 11
863.0
 21
526.0
 31
0.0
  0
LINE
  8
L-ZISSEN
 10
811.0
 20
535.5
 30
0.0
 11
811.0
 21
526.0
 31
0.0
  0
LINE
  8
L-ZISSEN
 10
844.5
 20
534.0
 30
0.0
 11
844.5
 21
531.618381
 31
0.0
  0
LINE
  8
L-ZISSEN
 10
829.5
 20
534.0
 30
0.0
 11
829.5
 21
531.618381
 31
0.0
  0
CIRCLE
  8
L-ZISSEN
 10
837.0
 20
521.0
 30
0.0
 40
9.3
  0
ARC
  8
L-ZISSEN
 10
837.0
 20
521.0
 30
0.0
 40
13.0
 50
125.234418
 51
54.765582
  0
LINE
  8
L-ZISSEN
 10
811.0
 20
534.0
 30
0.0
 11
863.0
 21
534.0
 31
0.0
  0
LINE
  8
L-ZISSEN
 10
808.9
 20
526.0
 30
0.0
 11
808.9
 21
474.0
 31
0.0
  0
LINE
  8
L-ZISSEN
 10
865.1
 20
526.0
 30
0.0
 11
865.1
 21
474.0
 31
0.0
  0
LINE
  8
L-ZISSEN
 10
867.1
 20
526.0
 30
0.0
 11
867.1
 21
474.0
 31
0.0
  0
LINE
  8
L-ZISSEN
  6
CONTINUOUS
 62
     7
 10
870.4
 20
484.5
 30
0.0
 11
870.4
 21
475.5
 31
0.0
  0
LINE
  8
L-ZISSEN
  6
CONTINUOUS
 62
     7
 10
867.1
 20
475.5
 30
0.0
 11
870.4
 21
475.5
 31
0.0
  0
LINE
  8
L-ZISSEN
  6
CONTINUOUS
 62
     7
 10
867.1
 20
484.5
 30
0.0
 11
870.4
 21
484.5
 31
0.0
  0
LINE
  8
L-ZISSEN
 10
732.25718
 20
565.50005
 30
0.0
 11
736.9
 21
565.50005
 31
0.0
  0
LINE
  8
L-ZISSEN
 10
732.25718
 20
574.49995
 30
0.0
 11
732.25718
 21
565.50005
 31
0.0
  0
LINE
  8
L-ZISSEN
 10
732.25718
 20
574.49995
 30
0.0
 11
736.9
 21
574.49995
 31
0.0
  0
LINE
  8
L-ZISSEN
 10
732.25718
 20
605.50005
 30
0.0
 11
736.9
 21
605.50005
 31
0.0
  0
LINE
  8
L-ZISSEN
 10
732.25718
 20
605.50005
 30
0.0
 11
732.25718
 21
614.49995
 31
0.0
  0
LINE
  8
L-ZISSEN
 10
725.3
 20
601.0
 30
0.0
 11
725.3
 21
579.0
 31
0.0
  0
LINE
  8
L-ZISSEN
 10
725.3
 20
579.0
 30
0.0
 11
726.3
 21
579.0
 31
0.0
  0
LINE
  8
L-ZISSEN
 10
726.3
 20
601.0
 30
0.0
 11
725.3
 21
601.0
 31
0.0
  0
LINE
  8
L-ZISSEN
 10
732.25718
 20
614.49995
 30
0.0
 11
736.9
 21
614.49995
 31
0.0
  0
LINE
  8
L-ZISSEN
 10
732.25718
 20
571.0
 30
0.0
 11
726.3
 21
571.0
 31
0.0
  0
LINE
  8
L-ZISSEN
 10
732.25718
 20
609.0
 30
0.0
 11
726.3
 21
609.0
 31
0.0
  0
LINE
  8
L-ZISSEN
 10
736.9
 20
616.0
 30
0.0
 11
736.9
 21
564.0
 31
0.0
  0
LINE
  8
L-ZISSEN
 10
726.3
 20
609.0
 30
0.0
 11
726.3
 21
571.0
 31
0.0
  0
LINE
  8
L-ZISSEN
 10
726.3
 20
519.0
 30
0.0
 11
726.3
 21
481.0
 31
0.0
  0
LINE
  8
L-ZISSEN
 10
736.9
 20
526.0
 30
0.0
 11
736.9
 21
474.0
 31
0.0
  0
LINE
  8
L-ZISSEN
 10
732.25718
 20
519.0
 30
0.0
 11
726.3
 21
519.0
 31
0.0
  0
LINE
  8
L-ZISSEN
 10
732.25718
 20
481.0
 30
0.0
 11
726.3
 21
481.0
 31
0.0
  0
LINE
  8
L-ZISSEN
 10
732.25718
 20
524.49995
 30
0.0
 11
736.9
 21
524.49995
 31
0.0
  0
LINE
  8
L-ZISSEN
 10
726.3
 20
511.0
 30
0.0
 11
725.3
 21
511.0
 31
0.0
  0
LINE
  8
L-ZISSEN
 10
725.3
 20
489.0
 30
0.0
 11
726.3
 21
489.0
 31
0.0
  0
LINE
  8
L-ZISSEN
 10
725.3
 20
511.0
 30
0.0
 11
725.3
 21
489.0
 31
0.0
  0
LINE
  8
L-ZISSEN
 10
732.25718
 20
515.50005
 30
0.0
 11
732.25718
 21
524.49995
 31
0.0
  0
LINE
  8
L-ZISSEN
 10
732.25718
 20
515.50005
 30
0.0
 11
736.9
 21
515.50005
 31
0.0
  0
LINE
  8
L-ZISSEN
 10
732.25718
 20
484.49995
 30
0.0
 11
736.9
 21
484.49995
 31
0.0
  0
LINE
  8
L-ZISSEN
 10
732.25718
 20
484.49995
 30
0.0
 11
732.25718
 21
475.50005
 31
0.0
  0
LINE
  8
L-ZISSEN
 10
732.25718
 20
475.50005
 30
0.0
 11
736.9
 21
475.50005
 31
0.0
  0
LINE
  8
L-ZISSEN
 10
736.9
 20
616.0
 30
0.0
 11
867.1
 21
616.0
 31
0.0
  0
LINE
  8
L-ZISSEN
 10
736.9
 20
564.0
 30
0.0
 11
867.1
 21
564.0
 31
0.0
  0
LINE
  8
L-ZISSEN
 10
867.1
 20
474.0
 30
0.0
 11
736.9
 21
474.0
 31
0.0
  0
LINE
  8
L-ZISSEN
 10
811.0
 20
526.0
 30
0.0
 11
736.9
 21
526.0
 31
0.0
  0
LINE
  8
L-TYUSIN
  6
CENTER
 62
     1
 10
858.0
 20
285.0
 30
0.0
 11
840.0
 21
285.0
 31
0.0
  0
LINE
  8
L-TYUSIN
  6
CENTER
 62
     1
 10
849.0
 20
276.0
 30
0.0
 11
849.0
 21
294.0
 31
0.0
  0
CIRCLE
  8
L-ZISSEN
 10
849.0
 20
285.0
 30
0.0
 40
5.7225
  0
CIRCLE
  8
L-ZISSEN
 10
849.0
 20
495.0
 30
0.0
 40
5.7225
  0
LINE
  8
L-TYUSIN
  6
CENTER
 62
     1
 10
849.0
 20
486.0
 30
0.0
 11
849.0
 21
504.0
 31
0.0
  0
LINE
  8
L-TYUSIN
  6
CENTER
 62
     1
 10
858.0
 20
495.0
 30
0.0
 11
840.0
 21
495.0
 31
0.0
  0
SOLID
  8
L-ZISSEN
 10
877.120697
 20
167.976008
 30
0.0
 11
877.770602
 21
168.124558
 31
0.0
 12
877.0
 22
170.0
 32
0.0
 13
877.0
 23
170.0
 33
0.0
  0
LINE
  8
L-ZISSEN
 10
877.44565
 20
168.050283
 30
0.0
 11
885.0
 21
135.0
 31
0.0
  0
LINE
  8
L-ZISSEN
 10
885.0
 20
135.0
 30
0.0
 11
887.0
 21
135.0
 31
0.0
  0
TEXT
  8
L-ZISSEN
 10
889.0
 20
132.75
 30
0.0
 40
4.5
  1
P.P
  0
SOLID
  8
L-ZISSEN
 10
878.116638
 20
52.307596
 30
0.0
 11
878.605167
 21
52.76123
 31
0.0
 12
877.0
 22
54.0
 32
0.0
 13
877.0
 23
54.0
 33
0.0
  0
LINE
  8
L-ZISSEN
 10
878.360902
 20
52.534413
 30
0.0
 11
890.0
 21
40.0
 31
0.0
  0
LINE
  8
L-ZISSEN
 10
890.0
 20
40.0
 30
0.0
 11
892.0
 21
40.0
 31
0.0
  0
TEXT
  8
L-ZISSEN
 10
894.0
 20
37.75
 30
0.0
 40
4.5
  1
P.P
  0
SOLID
  8
L-ZISSEN
 10
878.116638
 20
262.307596
 30
0.0
 11
878.605167
 21
262.76123
 31
0.0
 12
877.0
 22
264.0
 32
0.0
 13
877.0
 23
264.0
 33
0.0
  0
LINE
  8
L-ZISSEN
 10
878.360902
 20
262.534413
 30
0.0
 11
890.0
 21
250.0
 31
0.0
  0
LINE
  8
L-ZISSEN
 10
890.0
 20
250.0
 30
0.0
 11
892.0
 21
250.0
 31
0.0
  0
TEXT
  8
L-ZISSEN
 10
894.0
 20
247.75
 30
0.0
 40
4.5
  1
P.P
  0
SOLID
  8
L-ZISSEN
 10
877.120697
 20
377.976008
 30
0.0
 11
877.770602
 21
378.124558
 31
0.0
 12
877.0
 22
380.0
 32
0.0
 13
877.0
 23
380.0
 33
0.0
  0
LINE
  8
L-ZISSEN
 10
877.44565
 20
378.050283
 30
0.0
 11
885.0
 21
345.0
 31
0.0
  0
TEXT
  8
L-ZISSEN
 10
889.0
 20
342.75
 30
0.0
 40
4.5
  1
P.P
  0
LINE
  8
L-ZISSEN
 10
885.0
 20
345.0
 30
0.0
 11
887.0
 21
345.0
 31
0.0
  0
TEXT
  8
L-ZISSEN
 10
894.0
 20
457.75
 30
0.0
 40
4.5
  1
P.P
  0
LINE
  8
L-ZISSEN
 10
890.0
 20
460.0
 30
0.0
 11
892.0
 21
460.0
 31
0.0
  0
LINE
  8
L-ZISSEN
 10
878.360902
 20
472.534413
 30
0.0
 11
890.0
 21
460.0
 31
0.0
  0
SOLID
  8
L-ZISSEN
 10
878.116638
 20
472.307596
 30
0.0
 11
878.605167
 21
472.76123
 31
0.0
 12
877.0
 22
474.0
 32
0.0
 13
877.0
 23
474.0
 33
0.0
  0
TEXT
  8
L-ZISSEN
 10
889.0
 20
552.75
 30
0.0
 40
4.5
  1
P.P
  0
LINE
  8
L-ZISSEN
 10
885.0
 20
555.0
 30
0.0
 11
887.0
 21
555.0
 31
0.0
  0
LINE
  8
L-ZISSEN
 10
877.44565
 20
588.050283
 30
0.0
 11
885.0
 21
555.0
 31
0.0
  0
SOLID
  8
L-ZISSEN
 10
877.120697
 20
587.976008
 30
0.0
 11
877.770602
 21
588.124558
 31
0.0
 12
877.0
 22
590.0
 32
0.0
 13
877.0
 23
590.0
 33
0.0
  0
SOLID
  8
L-ZISSEN
 10
239.95286
 20
607.972961
 30
0.0
 11
240.612826
 21
608.067241
 31
0.0
 12
240.0
 22
610.0
 32
0.0
 13
240.0
 23
610.0
 33
0.0
  0
LINE
  8
L-ZISSEN
 10
240.282843
 20
608.020101
 30
0.0
 11
245.0
 21
575.0
 31
0.0
  0
LINE
  8
L-ZISSEN
 10
245.0
 20
575.0
 30
0.0
 11
247.0
 21
575.0
 31
0.0
  0
TEXT
  8
L-ZISSEN
 10
249.0
 20
572.75
 30
0.0
 40
4.5
  1
P.P
  0
SOLID
  8
L-ZISSEN
 10
240.461538
 20
425.025641
 30
0.0
 11
241.076923
 21
425.282051
 31
0.0
 12
240.0
 22
427.0
 32
0.0
 13
240.0
 23
427.0
 33
0.0
  0
LINE
  8
L-ZISSEN
 10
240.769231
 20
425.153846
 30
0.0
 11
245.0
 21
415.0
 31
0.0
  0
LINE
  8
L-ZISSEN
 10
245.0
 20
415.0
 30
0.0
 11
247.0
 21
415.0
 31
0.0
  0
TEXT
  8
L-ZISSEN
 10
249.0
 20
412.75
 30
0.0
 40
4.5
  1
P.P
  0
TEXT
  8
L-ZISSEN
 10
1289.0
 20
552.75
 30
0.0
 40
4.5
  1
P.P
  0
LINE
  8
L-ZISSEN
 10
1277.44565
 20
588.050283
 30
0.0
 11
1285.0
 21
555.0
 31
0.0
  0
LINE
  8
L-ZISSEN
 10
1285.0
 20
555.0
 30
0.0
 11
1287.0
 21
555.0
 31
0.0
  0
SOLID
  8
L-ZISSEN
 10
1277.120697
 20
587.976008
 30
0.0
 11
1277.770602
 21
588.124558
 31
0.0
 12
1277.0
 22
590.0
 32
0.0
 13
1277.0
 23
590.0
 33
0.0
  0
SOLID
  8
L-ZISSEN
 10
1278.116638
 20
472.307596
 30
0.0
 11
1278.605167
 21
472.76123
 31
0.0
 12
1277.0
 22
474.0
 32
0.0
 13
1277.0
 23
474.0
 33
0.0
  0
LINE
  8
L-ZISSEN
 10
1278.360902
 20
472.534413
 30
0.0
 11
1290.0
 21
460.0
 31
0.0
  0
LINE
  8
L-ZISSEN
 10
1290.0
 20
460.0
 30
0.0
 11
1292.0
 21
460.0
 31
0.0
  0
TEXT
  8
L-ZISSEN
 10
1294.0
 20
457.75
 30
0.0
 40
4.5
  1
P.P
  0
LINE
  8
L-ZISSEN
 10
1218.0
 20
543.2
 30
0.0
 11
1218.0
 21
546.1
 31
0.0
  0
LINE
  8
L-ZISSEN
 10
1226.0
 20
546.1
 30
0.0
 11
1226.0
 21
539.6
 31
0.0
  0
LINE
  8
L-ZISSEN
  6
CONTINUOUS
 62
     7
 10
1226.0
 20
546.1
 30
0.0
 11
1218.0
 21
546.1
 31
0.0
  0
LINE
  8
L-ZISSEN
  6
CONTINUOUS
 62
     7
 10
1211.5
 20
543.2
 30
0.0
 11
1218.5
 21
543.2
 31
0.0
  0
LINE
  8
L-ZISSEN
  6
CONTINUOUS
 62
     7
 10
1211.5
 20
539.6
 30
0.0
 11
1211.5
 21
543.2
 31
0.0
  0
LINE
  8
L-ZISSEN
  6
CONTINUOUS
 62
     7
 10
1218.5
 20
539.6
 30
0.0
 11
1218.5
 21
543.2
 31
0.0
  0
LINE
  8
L-ZISSEN
  6
CONTINUOUS
 62
     7
 10
1262.5
 20
539.6
 30
0.0
 11
1262.5
 21
543.2
 31
0.0
  0
LINE
  8
L-ZISSEN
  6
CONTINUOUS
 62
     7
 10
1255.5
 20
539.6
 30
0.0
 11
1255.5
 21
543.2
 31
0.0
  0
LINE
  8
L-ZISSEN
  6
CONTINUOUS
 62
     7
 10
1255.5
 20
543.2
 30
0.0
 11
1262.5
 21
543.2
 31
0.0
  0
LINE
  8
L-ZISSEN
 10
1263.0
 20
539.6
 30
0.0
 11
1211.0
 21
539.6
 31
0.0
  0
LINE
  8
L-ZISSEN
 10
1263.0
 20
539.6
 30
0.0
 11
1263.0
 21
526.0
 31
0.0
  0
LINE
  8
L-ZISSEN
 10
1211.0
 20
539.6
 30
0.0
 11
1211.0
 21
526.0
 31
0.0
  0
LINE
  8
L-ZISSEN
 10
1211.0
 20
534.0
 30
0.0
 11
1263.0
 21
534.0
 31
0.0
  0
CIRCLE
  8
L-ZISSEN
 10
1222.0
 20
572.0
 30
0.0
 40
4.0
  0
LINE
  8
L-ZISSEN
 10
1406.0
 20
539.6
 30
0.0
 11
1406.0
 21
546.1
 31
0.0
  0
LINE
  8
L-ZISSEN
  6
CONTINUOUS
 62
     7
 10
1398.0
 20
546.1
 30
0.0
 11
1406.0
 21
546.1
 31
0.0
  0
LINE
  8
L-ZISSEN
 10
1398.0
 20
546.1
 30
0.0
 11
1398.0
 21
543.2
 31
0.0
  0
LINE
  8
L-ZISSEN
 10
78.0
 20
572.0
 30
0.0
 11
131.5
 21
572.0
 31
0.0
  0
LINE
  8
L-ZISSEN
 10
115.9
 20
597.0
 30
0.0
 11
78.0
 21
597.0
 31
0.0
  0
LINE
  8
L-ZISSEN
 10
115.9
 20
623.0
 30
0.0
 11
78.0
 21
623.0
 31
0.0
  0
LINE
  8
L-ZISSEN
 10
78.0
 20
648.0
 30
0.0
 11
131.5
 21
648.0
 31
0.0
  0
LINE
  8
L-ZISSEN
 10
78.0
 20
648.0
 30
0.0
 11
78.0
 21
572.0
 31
0.0
  0
LINE
  8
L-ZISSEN
 10
78.0
 20
62.0
 30
0.0
 11
109.749197
 21
62.0
 31
0.0
  0
LINE
  8
L-ZISSEN
 10
78.0
 20
138.0
 30
0.0
 11
78.0
 21
62.0
 31
0.0
  0
LINE
  8
L-ZISSEN
 10
78.0
 20
138.0
 30
0.0
 11
109.749197
 21
138.0
 31
0.0
  0
LINE
  8
L-ZISSEN
 10
402.0
 20
138.0
 30
0.0
 11
370.250803
 21
138.0
 31
0.0
  0
LINE
  8
L-ZISSEN
 10
402.0
 20
138.0
 30
0.0
 11
402.0
 21
62.0
 31
0.0
  0
LINE
  8
L-ZISSEN
 10
402.0
 20
62.0
 30
0.0
 11
370.250803
 21
62.0
 31
0.0
  0
ENDSEC
  0
EOF
