  0
SECTION
  2
HEADER
  9
$ACADVER
  1
AC1006
  9
$INSBASE
 10
0.0
 20
0.0
 30
0.0
  9
$EXTMIN
 10
75.0
 20
15.0
  9
$EXTMAX
 10
1825.0
 20
1075.0
  9
$LIMMIN
 10
0.0
 20
0.0
  9
$LIMMAX
 10
1680.0
 20
1188.0
  9
$ORTHOMODE
 70
     0
  9
$REGENMODE
 70
     1
  9
$FILLMODE
 70
     1
  9
$QTEXTMODE
 70
     0
  9
$MIRRTEXT
 70
     1
  9
$DRAGMODE
 70
     2
  9
$LTSCALE
 40
1.0
  9
$OSMODE
 70
     0
  9
$ATTMODE
 70
     1
  9
$TEXTSIZE
 40
4.5
  9
$TRACEWID
 40
0.05
  9
$TEXTSTYLE
  7
STANDARD
  9
$CLAYER
  8
L-ZISSEN
  9
$CELTYPE
  6
BYLAYER
  9
$CECOLOR
 62
   256
  9
$DIMSCALE
 40
1.0
  9
$DIMASZ
 40
2.0
  9
$DIMEXO
 40
1.0
  9
$DIMDLI
 40
0.38
  9
$DIMRND
 40
0.0
  9
$DIMDLE
 40
1.0
  9
$DIMEXE
 40
1.0
  9
$DIMTP
 40
0.0
  9
$DIMTM
 40
0.0
  9
$DIMTXT
 40
4.5
  9
$DIMCEN
 40
0.09
  9
$DIMTSZ
 40
0.0
  9
$DIMTOL
 70
     0
  9
$DIMLIM
 70
     0
  9
$DIMTIH
 70
     0
  9
$DIMTOH
 70
     0
  9
$DIMSE1
 70
     0
  9
$DIMSE2
 70
     0
  9
$DIMTAD
 70
     1
  9
$DIMZIN
 70
     0
  9
$DIMBLK
  1

  9
$DIMASO
 70
     0
  9
$DIMSHO
 70
     0
  9
$DIMPOST
  1

  9
$DIMAPOST
  1

  9
$DIMALT
 70
     0
  9
$DIMALTD
 70
     2
  9
$DIMALTF
 40
25.4
  9
$DIMLFAC
 40
1.0
  9
$DIMTOFL
 70
     1
  9
$DIMTVP
 40
0.0
  9
$DIMTIX
 70
     1
  9
$DIMSOXD
 70
     0
  9
$DIMSAH
 70
     0
  9
$DIMBLK1
  1

  9
$DIMBLK2
  1

  9
$LUNITS
 70
     2
  9
$LUPREC
 70
     4
  9
$AXISMODE
 70
     0
  9
$AXISUNIT
 10
0.0
 20
0.0
  9
$SKETCHINC
 40
0.1
  9
$FILLETRAD
 40
0.0
  9
$AUNITS
 70
     0
  9
$AUPREC
 70
     0
  9
$MENU
  1
acad
  9
$ELEVATION
 40
0.0
  9
$THICKNESS
 40
0.0
  9
$LIMCHECK
 70
     0
  9
$BLIPMODE
 70
     1
  9
$CHAMFERA
 40
5.0
  9
$CHAMFERB
 40
5.0
  9
$SKPOLY
 70
     0
  9
$TDCREATE
 40
2449069.4919098378
  9
$TDUPDATE
 40
2449069.4919098378
  9
$TDINDWG
 40
0.0000000000
  9
$TDUSRTIMER
 40
0.0000000000
  9
$USRTIMER
 70
     1
  9
$ANGBASE
 50
0.0
  9
$ANGDIR
 70
     0
  9
$PDMODE
 70
     0
  9
$PDSIZE
 40
0.0
  9
$PLINEWID
 40
0.0
  9
$COORDS
 70
     2
  9
$SPLFRAME
 70
     0
  9
$SPLINETYPE
 70
     6
  9
$SPLINESEGS
 70
     8
  9
$ATTDIA
 70
     0
  9
$ATTREQ
 70
     1
  9
$HANDLING
 70
     0
  9
$HANDSEED
  5
0
  9
$SURFTAB1
 70
     6
  9
$SURFTAB2
 70
     6
  9
$SURFTYPE
 70
     6
  9
$SURFU
 70
     6
  9
$SURFV
 70
     6
  9
$FLATLAND
 70
     0
  9
$UCSNAME
  2

  9
$UCSORG
 10
0.0
 20
0.0
 30
0.0
  9
$UCSXDIR
 10
1.0
 20
0.0
 30
0.0
  9
$UCSYDIR
 10
0.0
 20
1.0
 30
0.0
  9
$USERI1
 70
     0
  9
$USERI2
 70
     0
  9
$USERI3
 70
     0
  9
$USERI4
 70
     0
  9
$USERI5
 70
     0
  9
$USERR1
 40
0.0
  9
$USERR2
 40
0.0
  9
$USERR3
 40
0.0
  9
$USERR4
 40
0.0
  9
$USERR5
 40
0.0
  9
$WORLDVIEW
 70
     1
  0
ENDSEC
  0
SECTION
  2
TABLES
  0
TABLE
  2
VPORT
 70
     2
  0
VPORT
  2
*ACTIVE
 70
     0
 10
0.0
 20
0.0
 11
1.0
 21
1.0
 12
952.911956
 22
615.298075
 13
0.0
 23
0.0
 14
5.0
 24
5.0
 15
0.0
 25
0.0
 16
0.0
 26
0.0
 36
1.0
 17
0.0
 27
0.0
 37
0.0
 40
1230.59615
 41
1.5487
 42
50.0
 43
0.0
 44
0.0
 50
0.0
 51
0.0
 71
     0
 72
   100
 73
     1
 74
     0
 75
     0
 76
     0
 77
     0
 78
     0
  0
ENDTAB
  0
TABLE
  2
LTYPE
 70
     2
  0
LTYPE
  2
CONTINUOUS
 70
    64
  3
Solid line
 72
    65
 73
     0
 40
0.0
  0
LTYPE
  2
CENTER
 70
    64
  3
____ _ ____ _ ____ _ ____ _ 
 72
    65
 73
     4
 40
60.0
 49
45.0
 49
-5.0
 49
5.0
 49
-5.0
  0
ENDTAB
  0
TABLE
  2
LAYER
 70
     3
  0
LAYER
  2
0
 70
     0
 62
     7
  6
CONTINUOUS
  0
LAYER
  2
L-ZISSEN
 70
    64
 62
     7
  6
CONTINUOUS
  0
LAYER
  2
L-TYUSIN
 70
    64
 62
     1
  6
CENTER
  0
ENDTAB
  0
TABLE
  2
STYLE
 70
     1
  0
STYLE
  2
STANDARD
 70
    64
 40
0.0
 41
1.0
 50
0.0
 71
     0
 42
4.5
  3
TXT
  4

  0
ENDTAB
  0
TABLE
  2
VIEW
 70
     0
  0
ENDTAB
  0
TABLE
  2
UCS
 70
     0
  0
ENDTAB
  0
TABLE
  2
DWGMGR
 70
     0
  0
ENDTAB
  0
ENDSEC
  0
SECTION
  2
BLOCKS
  0
ENDSEC
  0
SECTION
  2
ENTITIES
  0
LINE
  8
L-TYUSIN
 10
381.0
 20
280.0
 30
0.0
 11
459.0
 21
280.0
 31
0.0
  0
LINE
  8
L-TYUSIN
 10
500.0
 20
261.0
 30
0.0
 11
500.0
 21
339.0
 31
0.0
  0
LINE
  8
L-TYUSIN
 10
420.0
 20
241.0
 30
0.0
 11
420.0
 21
432.0
 31
0.0
  0
LINE
  8
L-TYUSIN
 10
420.0
 20
175.0
 30
0.0
 11
420.0
 21
25.0
 31
0.0
  0
LINE
  8
L-TYUSIN
 10
273.0
 20
100.0
 30
0.0
 11
573.0
 21
100.0
 31
0.0
  0
LINE
  8
L-ZISSEN
 10
318.0
 20
147.0
 30
0.0
 11
318.0
 21
53.0
 31
0.0
  0
LINE
  8
L-ZISSEN
 10
522.0
 20
147.0
 30
0.0
 11
522.0
 21
53.0
 31
0.0
  0
LINE
  8
L-ZISSEN
 10
318.0
 20
53.0
 30
0.0
 11
522.0
 21
53.0
 31
0.0
  0
LINE
  8
L-ZISSEN
 10
318.0
 20
147.0
 30
0.0
 11
522.0
 21
147.0
 31
0.0
  0
LINE
  8
L-ZISSEN
 10
306.0
 20
170.0
 30
0.0
 11
534.0
 21
170.0
 31
0.0
  0
CIRCLE
  8
L-ZISSEN
 10
420.0
 20
280.0
 30
0.0
 40
34.0
  0
CIRCLE
  8
L-ZISSEN
 10
500.0
 20
300.0
 30
0.0
 40
34.0
  0
LINE
  8
L-ZISSEN
 10
466.0
 20
155.0
 30
0.0
 11
466.0
 21
170.0
 31
0.0
  0
LINE
  8
L-ZISSEN
 10
534.0
 20
158.294693
 30
0.0
 11
534.0
 21
170.0
 31
0.0
  0
LINE
  8
L-ZISSEN
 10
454.0
 20
155.0
 30
0.0
 11
454.0
 21
170.0
 31
0.0
  0
LINE
  8
L-ZISSEN
 10
386.0
 20
155.0
 30
0.0
 11
386.0
 21
170.0
 31
0.0
  0
LINE
  8
L-ZISSEN
 10
310.0
 20
155.0
 30
0.0
 11
530.0
 21
155.0
 31
0.0
  0
LINE
  8
L-ZISSEN
 10
310.0
 20
45.0
 30
0.0
 11
530.0
 21
45.0
 31
0.0
  0
LINE
  8
L-ZISSEN
 10
530.0
 20
155.0
 30
0.0
 11
530.0
 21
154.529796
 31
0.0
  0
LINE
  8
L-ZISSEN
 10
310.0
 20
155.0
 30
0.0
 11
310.0
 21
154.529796
 31
0.0
  0
LINE
  8
L-ZISSEN
 10
306.0
 20
158.294693
 30
0.0
 11
306.0
 21
170.0
 31
0.0
  0
LINE
  8
L-ZISSEN
 10
374.0
 20
155.0
 30
0.0
 11
374.0
 21
170.0
 31
0.0
  0
LINE
  8
L-ZISSEN
 10
494.0
 20
45.0
 30
0.0
 11
494.0
 21
30.0
 31
0.0
  0
LINE
  8
L-ZISSEN
 10
346.0
 20
30.0
 30
0.0
 11
494.0
 21
30.0
 31
0.0
  0
LINE
  8
L-ZISSEN
 10
426.0
 20
45.0
 30
0.0
 11
426.0
 21
30.0
 31
0.0
  0
LINE
  8
L-TYUSIN
 10
460.0
 20
50.0
 30
0.0
 11
460.0
 21
25.0
 31
0.0
  0
LINE
  8
L-ZISSEN
 10
414.0
 20
45.0
 30
0.0
 11
414.0
 21
30.0
 31
0.0
  0
LINE
  8
L-ZISSEN
 10
346.0
 20
45.0
 30
0.0
 11
346.0
 21
30.0
 31
0.0
  0
LINE
  8
L-TYUSIN
 10
380.0
 20
50.0
 30
0.0
 11
380.0
 21
25.0
 31
0.0
  0
LINE
  8
L-TYUSIN
 10
500.0
 20
175.0
 30
0.0
 11
500.0
 21
150.0
 31
0.0
  0
LINE
  8
L-TYUSIN
 10
340.0
 20
175.0
 30
0.0
 11
340.0
 21
150.0
 31
0.0
  0
LINE
  8
L-TYUSIN
 10
538.0
 20
45.0
 30
0.0
 11
558.0
 21
45.0
 31
0.0
  0
LINE
  8
L-TYUSIN
 10
548.0
 20
55.0
 30
0.0
 11
548.0
 21
35.0
 31
0.0
  0
CIRCLE
  8
L-ZISSEN
 10
548.0
 20
45.0
 30
0.0
 40
5.5
  0
ARC
  8
L-ZISSEN
 10
548.0
 20
45.0
 30
0.0
 40
12.0
 50
225.0
 51
45.0
  0
LINE
  8
L-ZISSEN
 10
540.0
 20
124.0
 30
0.0
 11
540.0
 21
76.0
 31
0.0
  0
LINE
  8
L-ZISSEN
 10
556.485281
 20
53.485281
 30
0.0
 11
540.0
 21
76.0
 31
0.0
  0
LINE
  8
L-ZISSEN
 10
539.514719
 20
36.514719
 30
0.0
 11
522.0
 21
53.0
 31
0.0
  0
CIRCLE
  8
L-ZISSEN
 10
548.0
 20
155.0
 30
0.0
 40
5.5
  0
LINE
  8
L-TYUSIN
 10
538.0
 20
155.0
 30
0.0
 11
558.0
 21
155.0
 31
0.0
  0
LINE
  8
L-TYUSIN
 10
548.0
 20
145.0
 30
0.0
 11
548.0
 21
165.0
 31
0.0
  0
LINE
  8
L-ZISSEN
 10
556.485281
 20
146.514719
 30
0.0
 11
540.0
 21
124.0
 31
0.0
  0
ARC
  8
L-ZISSEN
 10
548.0
 20
155.0
 30
0.0
 40
12.0
 50
315.0
 51
135.0
  0
LINE
  8
L-ZISSEN
 10
539.514719
 20
163.485281
 30
0.0
 11
522.0
 21
147.0
 31
0.0
  0
ARC
  8
L-ZISSEN
 10
292.0
 20
155.0
 30
0.0
 40
12.0
 50
45.0
 51
225.0
  0
CIRCLE
  8
L-ZISSEN
 10
292.0
 20
155.0
 30
0.0
 40
5.5
  0
LINE
  8
L-TYUSIN
 10
302.0
 20
155.0
 30
0.0
 11
282.0
 21
155.0
 31
0.0
  0
LINE
  8
L-TYUSIN
 10
292.0
 20
145.0
 30
0.0
 11
292.0
 21
165.0
 31
0.0
  0
LINE
  8
L-ZISSEN
 10
300.485281
 20
163.485281
 30
0.0
 11
318.0
 21
147.0
 31
0.0
  0
LINE
  8
L-ZISSEN
 10
283.514719
 20
146.514719
 30
0.0
 11
300.0
 21
124.0
 31
0.0
  0
LINE
  8
L-ZISSEN
 10
300.0
 20
124.0
 30
0.0
 11
300.0
 21
76.0
 31
0.0
  0
LINE
  8
L-ZISSEN
 10
283.514719
 20
53.485281
 30
0.0
 11
300.0
 21
76.0
 31
0.0
  0
CIRCLE
  8
L-ZISSEN
 10
292.0
 20
45.0
 30
0.0
 40
5.5
  0
LINE
  8
L-TYUSIN
 10
292.0
 20
55.0
 30
0.0
 11
292.0
 21
35.0
 31
0.0
  0
LINE
  8
L-TYUSIN
 10
302.0
 20
45.0
 30
0.0
 11
282.0
 21
45.0
 31
0.0
  0
ARC
  8
L-ZISSEN
 10
292.0
 20
45.0
 30
0.0
 40
12.0
 50
135.0
 51
315.0
  0
LINE
  8
L-ZISSEN
 10
300.485281
 20
36.514719
 30
0.0
 11
318.0
 21
53.0
 31
0.0
  0
LINE
  8
L-ZISSEN
 10
300.485281
 20
673.485281
 30
0.0
 11
310.0
 21
664.529796
 31
0.0
  0
ARC
  8
L-ZISSEN
 10
292.0
 20
665.0
 30
0.0
 40
12.0
 50
45.0
 51
225.0
  0
LINE
  8
L-TYUSIN
 10
302.0
 20
665.0
 30
0.0
 11
282.0
 21
665.0
 31
0.0
  0
LINE
  8
L-TYUSIN
 10
292.0
 20
655.0
 30
0.0
 11
292.0
 21
675.0
 31
0.0
  0
CIRCLE
  8
L-ZISSEN
 10
292.0
 20
665.0
 30
0.0
 40
5.5
  0
LINE
  8
L-ZISSEN
 10
283.514719
 20
656.514719
 30
0.0
 11
293.410198
 21
643.0
 31
0.0
  0
LINE
  8
L-ZISSEN
 10
283.514719
 20
563.485281
 30
0.0
 11
293.410198
 21
577.0
 31
0.0
  0
LINE
  8
L-ZISSEN
 10
300.485281
 20
546.514719
 30
0.0
 11
306.0
 21
551.705307
 31
0.0
  0
LINE
  8
L-TYUSIN
 10
292.0
 20
565.0
 30
0.0
 11
292.0
 21
545.0
 31
0.0
  0
LINE
  8
L-TYUSIN
 10
302.0
 20
555.0
 30
0.0
 11
282.0
 21
555.0
 31
0.0
  0
CIRCLE
  8
L-ZISSEN
 10
292.0
 20
555.0
 30
0.0
 40
5.5
  0
ARC
  8
L-ZISSEN
 10
292.0
 20
555.0
 30
0.0
 40
12.0
 50
135.0
 51
315.0
  0
LINE
  8
L-ZISSEN
 10
539.514719
 20
546.514719
 30
0.0
 11
534.0
 21
551.705307
 31
0.0
  0
ARC
  8
L-ZISSEN
 10
548.0
 20
555.0
 30
0.0
 40
12.0
 50
225.0
 51
45.0
  0
LINE
  8
L-ZISSEN
 10
556.485281
 20
563.485281
 30
0.0
 11
550.250803
 21
572.0
 31
0.0
  0
LINE
  8
L-TYUSIN
 10
548.0
 20
565.0
 30
0.0
 11
548.0
 21
545.0
 31
0.0
  0
LINE
  8
L-TYUSIN
 10
538.0
 20
555.0
 30
0.0
 11
558.0
 21
555.0
 31
0.0
  0
CIRCLE
  8
L-ZISSEN
 10
548.0
 20
555.0
 30
0.0
 40
5.5
  0
LINE
  8
L-ZISSEN
 10
539.514719
 20
673.485281
 30
0.0
 11
530.0
 21
664.529796
 31
0.0
  0
LINE
  8
L-ZISSEN
 10
556.485281
 20
656.514719
 30
0.0
 11
550.250803
 21
648.0
 31
0.0
  0
ARC
  8
L-ZISSEN
 10
548.0
 20
665.0
 30
0.0
 40
12.0
 50
315.0
 51
135.0
  0
CIRCLE
  8
L-ZISSEN
 10
548.0
 20
665.0
 30
0.0
 40
5.5
  0
LINE
  8
L-TYUSIN
 10
548.0
 20
655.0
 30
0.0
 11
548.0
 21
675.0
 31
0.0
  0
LINE
  8
L-TYUSIN
 10
538.0
 20
665.0
 30
0.0
 11
558.0
 21
665.0
 31
0.0
  0
LINE
  8
L-TYUSIN
 10
340.0
 20
535.0
 30
0.0
 11
340.0
 21
560.0
 31
0.0
  0
LINE
  8
L-TYUSIN
 10
500.0
 20
535.0
 30
0.0
 11
500.0
 21
560.0
 31
0.0
  0
LINE
  8
L-TYUSIN
 10
380.0
 20
660.0
 30
0.0
 11
380.0
 21
685.0
 31
0.0
  0
LINE
  8
L-ZISSEN
 10
346.0
 20
665.0
 30
0.0
 11
346.0
 21
680.0
 31
0.0
  0
LINE
  8
L-ZISSEN
 10
414.0
 20
665.0
 30
0.0
 11
414.0
 21
680.0
 31
0.0
  0
LINE
  8
L-TYUSIN
 10
460.0
 20
660.0
 30
0.0
 11
460.0
 21
685.0
 31
0.0
  0
LINE
  8
L-ZISSEN
 10
426.0
 20
665.0
 30
0.0
 11
426.0
 21
680.0
 31
0.0
  0
LINE
  8
L-ZISSEN
 10
346.0
 20
680.0
 30
0.0
 11
494.0
 21
680.0
 31
0.0
  0
LINE
  8
L-ZISSEN
 10
494.0
 20
665.0
 30
0.0
 11
494.0
 21
680.0
 31
0.0
  0
LINE
  8
L-ZISSEN
 10
374.0
 20
555.0
 30
0.0
 11
374.0
 21
540.0
 31
0.0
  0
LINE
  8
L-ZISSEN
 10
306.0
 20
577.0
 30
0.0
 11
306.0
 21
540.0
 31
0.0
  0
LINE
  8
L-ZISSEN
 10
310.0
 20
555.0
 30
0.0
 11
310.0
 21
577.0
 31
0.0
  0
LINE
  8
L-ZISSEN
 10
530.0
 20
555.0
 30
0.0
 11
530.0
 21
572.0
 31
0.0
  0
LINE
  8
L-ZISSEN
 10
310.0
 20
665.0
 30
0.0
 11
530.0
 21
665.0
 31
0.0
  0
LINE
  8
L-ZISSEN
 10
310.0
 20
555.0
 30
0.0
 11
530.0
 21
555.0
 31
0.0
  0
LINE
  8
L-ZISSEN
 10
386.0
 20
555.0
 30
0.0
 11
386.0
 21
540.0
 31
0.0
  0
LINE
  8
L-ZISSEN
 10
454.0
 20
555.0
 30
0.0
 11
454.0
 21
540.0
 31
0.0
  0
LINE
  8
L-ZISSEN
 10
534.0
 20
572.0
 30
0.0
 11
534.0
 21
540.0
 31
0.0
  0
LINE
  8
L-ZISSEN
 10
466.0
 20
555.0
 30
0.0
 11
466.0
 21
540.0
 31
0.0
  0
LINE
  8
L-ZISSEN
 10
306.0
 20
540.0
 30
0.0
 11
534.0
 21
540.0
 31
0.0
  0
LINE
  8
L-TYUSIN
 10
273.0
 20
610.0
 30
0.0
 11
573.0
 21
610.0
 31
0.0
  0
LINE
  8
L-TYUSIN
 10
420.0
 20
535.0
 30
0.0
 11
420.0
 21
685.0
 31
0.0
  0
LINE
  8
L-ZISSEN
 10
310.0
 20
45.470204
 30
0.0
 11
310.0
 21
45.0
 31
0.0
  0
LINE
  8
L-ZISSEN
 10
530.0
 20
45.470204
 30
0.0
 11
530.0
 21
45.0
 31
0.0
  0
LINE
  8
L-ZISSEN
 10
520.0
 20
335.0
 30
0.0
 11
320.0
 21
335.0
 31
0.0
  0
LINE
  8
L-ZISSEN
 10
310.0
 20
325.0
 30
0.0
 11
310.0
 21
316.0
 31
0.0
  0
LINE
  8
L-ZISSEN
 10
280.0
 20
240.0
 30
0.0
 11
318.0
 21
240.0
 31
0.0
  0
LINE
  8
L-ZISSEN
 10
530.0
 20
246.0
 30
0.0
 11
530.0
 21
284.0
 31
0.0
  0
LINE
  8
L-ZISSEN
 10
280.0
 20
260.0
 30
0.0
 11
310.0
 21
260.0
 31
0.0
  0
LINE
  8
L-ZISSEN
 10
560.0
 20
240.0
 30
0.0
 11
560.0
 21
260.0
 31
0.0
  0
LINE
  8
L-ZISSEN
 10
280.0
 20
240.0
 30
0.0
 11
280.0
 21
260.0
 31
0.0
  0
LINE
  8
L-ZISSEN
 10
522.0
 20
240.0
 30
0.0
 11
560.0
 21
240.0
 31
0.0
  0
LINE
  8
L-ZISSEN
 10
310.0
 20
246.0
 30
0.0
 11
530.0
 21
246.0
 31
0.0
  0
LINE
  8
L-ZISSEN
 10
522.0
 20
240.0
 30
0.0
 11
522.0
 21
246.0
 31
0.0
  0
LINE
  8
L-ZISSEN
 10
318.0
 20
240.0
 30
0.0
 11
318.0
 21
246.0
 31
0.0
  0
LINE
  8
L-ZISSEN
 10
530.0
 20
260.0
 30
0.0
 11
560.0
 21
260.0
 31
0.0
  0
LINE
  8
L-ZISSEN
 10
530.0
 20
316.0
 30
0.0
 11
530.0
 21
325.0
 31
0.0
  0
LINE
  8
L-ZISSEN
 10
310.0
 20
284.0
 30
0.0
 11
310.0
 21
246.0
 31
0.0
  0
LINE
  8
L-ZISSEN
 10
520.0
 20
335.0
 30
0.0
 11
530.0
 21
325.0
 31
0.0
  0
LINE
  8
L-ZISSEN
 10
320.0
 20
335.0
 30
0.0
 11
310.0
 21
325.0
 31
0.0
  0
LINE
  8
L-TYUSIN
 10
461.0
 20
300.0
 30
0.0
 11
539.0
 21
300.0
 31
0.0
  0
LINE
  8
L-ZISSEN
 10
367.495454
 20
280.0
 30
0.0
 11
386.0
 21
280.0
 31
0.0
  0
LINE
  8
L-ZISSEN
 10
392.504546
 20
300.0
 30
0.0
 11
374.0
 21
300.0
 31
0.0
  0
CIRCLE
  8
L-ZISSEN
 10
340.0
 20
300.0
 30
0.0
 40
34.0
  0
LINE
  8
L-TYUSIN
 10
340.0
 20
261.0
 30
0.0
 11
340.0
 21
339.0
 31
0.0
  0
LINE
  8
L-ZISSEN
 10
320.0
 20
885.0
 30
0.0
 11
310.0
 21
895.0
 31
0.0
  0
LINE
  8
L-ZISSEN
 10
520.0
 20
885.0
 30
0.0
 11
530.0
 21
895.0
 31
0.0
  0
LINE
  8
L-ZISSEN
 10
412.496154
 20
930.0
 30
0.0
 11
427.503846
 21
930.0
 31
0.0
  0
LINE
  8
L-ZISSEN
 10
427.503846
 20
950.0
 30
0.0
 11
412.496154
 21
950.0
 31
0.0
  0
LINE
  8
L-ZISSEN
 10
310.0
 20
895.0
 30
0.0
 11
310.0
 21
974.0
 31
0.0
  0
LINE
  8
L-ZISSEN
 10
530.0
 20
960.0
 30
0.0
 11
560.0
 21
960.0
 31
0.0
  0
LINE
  8
L-ZISSEN
 10
318.0
 20
980.0
 30
0.0
 11
318.0
 21
974.0
 31
0.0
  0
LINE
  8
L-ZISSEN
 10
522.0
 20
980.0
 30
0.0
 11
522.0
 21
974.0
 31
0.0
  0
LINE
  8
L-ZISSEN
 10
310.0
 20
974.0
 30
0.0
 11
530.0
 21
974.0
 31
0.0
  0
LINE
  8
L-ZISSEN
 10
522.0
 20
980.0
 30
0.0
 11
560.0
 21
980.0
 31
0.0
  0
LINE
  8
L-ZISSEN
 10
280.0
 20
980.0
 30
0.0
 11
280.0
 21
960.0
 31
0.0
  0
LINE
  8
L-ZISSEN
 10
560.0
 20
980.0
 30
0.0
 11
560.0
 21
960.0
 31
0.0
  0
LINE
  8
L-ZISSEN
 10
280.0
 20
960.0
 30
0.0
 11
310.0
 21
960.0
 31
0.0
  0
LINE
  8
L-ZISSEN
 10
530.0
 20
974.0
 30
0.0
 11
530.0
 21
895.0
 31
0.0
  0
LINE
  8
L-ZISSEN
 10
280.0
 20
980.0
 30
0.0
 11
318.0
 21
980.0
 31
0.0
  0
LINE
  8
L-ZISSEN
 10
520.0
 20
885.0
 30
0.0
 11
320.0
 21
885.0
 31
0.0
  0
CIRCLE
  8
L-ZISSEN
 10
460.0
 20
940.0
 30
0.0
 40
34.0
  0
LINE
  8
L-TYUSIN
 10
420.0
 20
979.0
 30
0.0
 11
420.0
 21
788.0
 31
0.0
  0
LINE
  8
L-TYUSIN
 10
341.0
 20
940.0
 30
0.0
 11
499.0
 21
940.0
 31
0.0
  0
LINE
  8
L-TYUSIN
 10
379.0
 20
300.0
 30
0.0
 11
301.0
 21
300.0
 31
0.0
  0
LINE
  8
L-ZISSEN
 10
447.495454
 20
300.0
 30
0.0
 11
466.0
 21
300.0
 31
0.0
  0
LINE
  8
L-ZISSEN
 10
472.504546
 20
280.0
 30
0.0
 11
454.0
 21
280.0
 31
0.0
  0
LINE
  8
L-TYUSIN
 10
460.0
 20
979.0
 30
0.0
 11
460.0
 21
901.0
 31
0.0
  0
CIRCLE
  8
L-ZISSEN
 10
380.0
 20
940.0
 30
0.0
 40
34.0
  0
LINE
  8
L-TYUSIN
 10
380.0
 20
979.0
 30
0.0
 11
380.0
 21
901.0
 31
0.0
  0
LINE
  8
L-TYUSIN
 10
615.0
 20
280.0
 30
0.0
 11
765.0
 21
280.0
 31
0.0
  0
LINE
  8
L-TYUSIN
 10
690.0
 20
235.0
 30
0.0
 11
690.0
 21
493.5
 31
0.0
  0
LINE
  8
L-TYUSIN
 10
663.0
 20
300.0
 30
0.0
 11
615.0
 21
300.0
 31
0.0
  0
LINE
  8
L-ZISSEN
 10
635.0
 20
334.0
 30
0.0
 11
620.0
 21
334.0
 31
0.0
  0
LINE
  8
L-ZISSEN
 10
635.0
 20
266.0
 30
0.0
 11
620.0
 21
266.0
 31
0.0
  0
LINE
  8
L-ZISSEN
 10
620.0
 20
334.0
 30
0.0
 11
620.0
 21
246.0
 31
0.0
  0
LINE
  8
L-ZISSEN
 10
658.0
 20
316.0
 30
0.0
 11
658.0
 21
284.0
 31
0.0
  0
LINE
  8
L-ZISSEN
 10
623.0
 20
246.0
 30
0.0
 11
620.0
 21
246.0
 31
0.0
  0
LINE
  8
L-ZISSEN
 10
760.0
 20
314.0
 30
0.0
 11
760.0
 21
246.0
 31
0.0
  0
LINE
  8
L-ZISSEN
 10
757.0
 20
246.0
 30
0.0
 11
760.0
 21
246.0
 31
0.0
  0
LINE
  8
L-ZISSEN
 10
745.0
 20
314.0
 30
0.0
 11
760.0
 21
314.0
 31
0.0
  0
LINE
  8
L-ZISSEN
 10
623.0
 20
240.0
 30
0.0
 11
757.0
 21
240.0
 31
0.0
  0
LINE
  8
L-ZISSEN
 10
623.0
 20
260.0
 30
0.0
 11
623.0
 21
240.0
 31
0.0
  0
LINE
  8
L-ZISSEN
 10
666.0
 20
260.0
 30
0.0
 11
666.0
 21
240.0
 31
0.0
  0
LINE
  8
L-ZISSEN
 10
623.0
 20
260.0
 30
0.0
 11
666.0
 21
260.0
 31
0.0
  0
LINE
  8
L-TYUSIN
 10
635.0
 20
265.0
 30
0.0
 11
635.0
 21
235.0
 31
0.0
  0
LINE
  8
L-ZISSEN
 10
757.0
 20
260.0
 30
0.0
 11
714.0
 21
260.0
 31
0.0
  0
LINE
  8
L-TYUSIN
 10
745.0
 20
265.0
 30
0.0
 11
745.0
 21
235.0
 31
0.0
  0
LINE
  8
L-ZISSEN
 10
757.0
 20
260.0
 30
0.0
 11
757.0
 21
240.0
 31
0.0
  0
LINE
  8
L-ZISSEN
 10
714.0
 20
260.0
 30
0.0
 11
714.0
 21
240.0
 31
0.0
  0
LINE
  8
L-ZISSEN
 10
635.0
 20
335.0
 30
0.0
 11
745.0
 21
335.0
 31
0.0
  0
LINE
  8
L-ZISSEN
 10
635.0
 20
316.0
 30
0.0
 11
658.0
 21
316.0
 31
0.0
  0
LINE
  8
L-ZISSEN
 10
635.0
 20
284.0
 30
0.0
 11
658.0
 21
284.0
 31
0.0
  0
LINE
  8
L-ZISSEN
 10
502.0
 20
336.0
 30
0.0
 11
338.0
 21
336.0
 31
0.0
  0
LINE
  8
L-ZISSEN
 10
635.0
 20
336.0
 30
0.0
 11
745.0
 21
336.0
 31
0.0
  0
LINE
  8
L-ZISSEN
 10
502.0
 20
427.0
 30
0.0
 11
338.0
 21
427.0
 31
0.0
  0
LINE
  8
L-ZISSEN
 10
338.0
 20
427.0
 30
0.0
 11
338.0
 21
335.0
 31
0.0
  0
LINE
  8
L-ZISSEN
 10
502.0
 20
427.0
 30
0.0
 11
502.0
 21
335.0
 31
0.0
  0
LINE
  8
L-TYUSIN
 10
273.0
 20
378.0
 30
0.0
 11
573.0
 21
378.0
 31
0.0
  0
ARC
  8
L-ZISSEN
 10
480.0
 20
654.0
 30
0.0
 40
10.0
 50
203.578178
 51
336.421822
  0
ARC
  8
L-ZISSEN
 10
450.0
 20
566.0
 30
0.0
 40
10.0
 50
23.578178
 51
156.421822
  0
LINE
  8
L-ZISSEN
 10
338.0
 20
555.0
 30
0.0
 11
338.0
 21
665.0
 31
0.0
  0
LINE
  8
L-ZISSEN
 10
502.0
 20
555.0
 30
0.0
 11
502.0
 21
584.136191
 31
0.0
  0
LINE
  8
L-ZISSEN
 10
338.0
 20
570.0
 30
0.0
 11
380.834849
 21
570.0
 31
0.0
  0
LINE
  8
L-ZISSEN
 10
338.0
 20
650.0
 30
0.0
 11
350.834849
 21
650.0
 31
0.0
  0
LINE
  8
L-ZISSEN
 10
459.165151
 20
570.0
 30
0.0
 11
502.0
 21
570.0
 31
0.0
  0
LINE
  8
L-ZISSEN
 10
489.165151
 20
650.0
 30
0.0
 11
502.0
 21
650.0
 31
0.0
  0
ARC
  8
L-ZISSEN
 10
480.0
 20
654.0
 30
0.0
 40
11.0
 50
338.676314
 51
201.323686
  0
ARC
  8
L-ZISSEN
 10
450.0
 20
566.0
 30
0.0
 40
11.0
 50
158.676314
 51
21.323686
  0
CIRCLE
  8
L-ZISSEN
 10
450.0
 20
566.0
 30
0.0
 40
8.0
  0
CIRCLE
  8
L-ZISSEN
 10
480.0
 20
654.0
 30
0.0
 40
8.0
  0
CIRCLE
  8
L-ZISSEN
 10
360.0
 20
654.0
 30
0.0
 40
8.0
  0
ARC
  8
L-ZISSEN
 10
360.0
 20
654.0
 30
0.0
 40
11.0
 50
338.676314
 51
201.323686
  0
ARC
  8
L-ZISSEN
 10
360.0
 20
654.0
 30
0.0
 40
10.0
 50
203.578178
 51
336.421822
  0
ARC
  8
L-ZISSEN
 10
390.0
 20
566.0
 30
0.0
 40
10.0
 50
23.578178
 51
156.421822
  0
CIRCLE
  8
L-ZISSEN
 10
390.0
 20
566.0
 30
0.0
 40
8.0
  0
ARC
  8
L-ZISSEN
 10
390.0
 20
566.0
 30
0.0
 40
11.0
 50
158.676314
 51
21.323686
  0
LINE
  8
L-ZISSEN
 10
369.165151
 20
650.0
 30
0.0
 11
470.834849
 21
650.0
 31
0.0
  0
LINE
  8
L-ZISSEN
 10
399.165151
 20
570.0
 30
0.0
 11
440.834849
 21
570.0
 31
0.0
  0
LINE
  8
L-ZISSEN
 10
489.5
 20
560.0
 30
0.0
 11
489.5
 21
570.0
 31
0.0
  0
LINE
  8
L-ZISSEN
 10
519.0
 20
560.0
 30
0.0
 11
489.5
 21
560.0
 31
0.0
  0
LINE
  8
L-ZISSEN
 10
519.0
 20
660.0
 30
0.0
 11
489.5
 21
660.0
 31
0.0
  0
LINE
  8
L-ZISSEN
 10
489.5
 20
659.545268
 30
0.0
 11
489.5
 21
660.0
 31
0.0
  0
LINE
  8
L-ZISSEN
 10
321.0
 20
660.0
 30
0.0
 11
350.5
 21
660.0
 31
0.0
  0
LINE
  8
L-ZISSEN
 10
350.5
 20
560.0
 30
0.0
 11
350.5
 21
570.0
 31
0.0
  0
LINE
  8
L-ZISSEN
 10
321.0
 20
560.0
 30
0.0
 11
350.5
 21
560.0
 31
0.0
  0
LINE
  8
L-ZISSEN
 10
350.5
 20
659.545268
 30
0.0
 11
350.5
 21
660.0
 31
0.0
  0
LINE
  8
L-ZISSEN
 10
519.0
 20
418.0
 30
0.0
 11
460.246951
 21
418.0
 31
0.0
  0
LINE
  8
L-ZISSEN
 10
502.0
 20
346.0
 30
0.0
 11
338.0
 21
346.0
 31
0.0
  0
LINE
  8
L-ZISSEN
 10
460.246951
 20
414.0
 30
0.0
 11
439.753049
 21
414.0
 31
0.0
  0
LINE
  8
L-ZISSEN
 10
489.5
 20
418.0
 30
0.0
 11
489.5
 21
346.0
 31
0.0
  0
LINE
  8
L-ZISSEN
 10
460.246951
 20
418.0
 30
0.0
 11
460.246951
 21
346.0
 31
0.0
  0
LINE
  8
L-ZISSEN
 10
439.753049
 20
427.0
 30
0.0
 11
439.753049
 21
346.0
 31
0.0
  0
LINE
  8
L-ZISSEN
 10
379.753049
 20
414.0
 30
0.0
 11
400.246951
 21
414.0
 31
0.0
  0
LINE
  8
L-ZISSEN
 10
400.246951
 20
427.0
 30
0.0
 11
400.246951
 21
346.0
 31
0.0
  0
LINE
  8
L-ZISSEN
 10
379.753049
 20
418.0
 30
0.0
 11
379.753049
 21
346.0
 31
0.0
  0
LINE
  8
L-ZISSEN
 10
350.5
 20
418.0
 30
0.0
 11
350.5
 21
346.0
 31
0.0
  0
LINE
  8
L-ZISSEN
 10
379.753049
 20
418.0
 30
0.0
 11
321.0
 21
418.0
 31
0.0
  0
LINE
  8
L-ZISSEN
 10
398.0
 20
426.5
 30
0.0
 11
398.0
 21
414.0
 31
0.0
  0
LINE
  8
L-ZISSEN
 10
382.0
 20
426.5
 30
0.0
 11
382.0
 21
414.0
 31
0.0
  0
LINE
  8
L-ZISSEN
 10
382.0
 20
426.5
 30
0.0
 11
398.0
 21
426.5
 31
0.0
  0
LINE
  8
L-ZISSEN
 10
458.0
 20
426.5
 30
0.0
 11
442.0
 21
426.5
 31
0.0
  0
LINE
  8
L-ZISSEN
 10
458.0
 20
426.5
 30
0.0
 11
458.0
 21
414.0
 31
0.0
  0
LINE
  8
L-ZISSEN
 10
442.0
 20
426.5
 30
0.0
 11
442.0
 21
414.0
 31
0.0
  0
LINE
  8
L-TYUSIN
 10
635.0
 20
378.0
 30
0.0
 11
745.0
 21
378.0
 31
0.0
  0
LINE
  8
L-ZISSEN
 10
640.0
 20
418.0
 30
0.0
 11
640.0
 21
338.0
 31
0.0
  0
LINE
  8
L-ZISSEN
 10
640.0
 20
338.0
 30
0.0
 11
740.0
 21
338.0
 31
0.0
  0
LINE
  8
L-ZISSEN
 10
740.0
 20
338.0
 30
0.0
 11
740.0
 21
418.0
 31
0.0
  0
LINE
  8
L-ZISSEN
 10
740.0
 20
418.0
 30
0.0
 11
703.0
 21
418.0
 31
0.0
  0
LINE
  8
L-ZISSEN
 10
703.0
 20
413.707142
 30
0.0
 11
703.0
 21
426.0
 31
0.0
  0
LINE
  8
L-ZISSEN
 10
703.0
 20
426.0
 30
0.0
 11
677.0
 21
426.0
 31
0.0
  0
LINE
  8
L-ZISSEN
 10
677.0
 20
426.0
 30
0.0
 11
677.0
 21
413.707142
 31
0.0
  0
ARC
  8
L-ZISSEN
 10
690.0
 20
378.0
 30
0.0
 40
38.0
 50
110.00519
 51
69.99481
  0
LINE
  8
L-ZISSEN
 10
677.0
 20
418.0
 30
0.0
 11
640.0
 21
418.0
 31
0.0
  0
CIRCLE
  8
L-ZISSEN
 10
730.0
 20
408.0
 30
0.0
 40
6.5
  0
CIRCLE
  8
L-ZISSEN
 10
650.0
 20
408.0
 30
0.0
 40
6.5
  0
CIRCLE
  8
L-ZISSEN
 10
650.0
 20
348.0
 30
0.0
 40
6.5
  0
CIRCLE
  8
L-ZISSEN
 10
730.0
 20
348.0
 30
0.0
 40
6.5
  0
LINE
  8
L-ZISSEN
 10
650.0
 20
427.0
 30
0.0
 11
730.0
 21
427.0
 31
0.0
  0
LINE
  8
L-ZISSEN
 10
650.0
 20
427.0
 30
0.0
 11
650.0
 21
418.0
 31
0.0
  0
LINE
  8
L-ZISSEN
 10
730.0
 20
427.0
 30
0.0
 11
730.0
 21
418.0
 31
0.0
  0
LINE
  8
L-ZISSEN
 10
635.0
 20
346.0
 30
0.0
 11
640.0
 21
346.0
 31
0.0
  0
LINE
  8
L-ZISSEN
 10
740.0
 20
346.0
 30
0.0
 11
745.0
 21
346.0
 31
0.0
  0
LINE
  8
L-ZISSEN
 10
742.0
 20
426.5
 30
0.0
 11
730.0
 21
426.5
 31
0.0
  0
LINE
  8
L-ZISSEN
 10
742.0
 20
426.5
 30
0.0
 11
742.0
 21
414.0
 31
0.0
  0
LINE
  8
L-ZISSEN
 10
740.0
 20
414.0
 30
0.0
 11
745.0
 21
414.0
 31
0.0
  0
LINE
  8
L-ZISSEN
 10
745.0
 20
260.0
 30
0.0
 11
745.0
 21
414.0
 31
0.0
  0
LINE
  8
L-ZISSEN
 10
635.0
 20
260.0
 30
0.0
 11
635.0
 21
284.0
 31
0.0
  0
LINE
  8
L-ZISSEN
 10
638.0
 20
426.5
 30
0.0
 11
638.0
 21
414.0
 31
0.0
  0
LINE
  8
L-ZISSEN
 10
638.0
 20
426.5
 30
0.0
 11
650.0
 21
426.5
 31
0.0
  0
LINE
  8
L-ZISSEN
 10
640.0
 20
414.0
 30
0.0
 11
635.0
 21
414.0
 31
0.0
  0
LINE
  8
L-ZISSEN
 10
635.0
 20
316.0
 30
0.0
 11
635.0
 21
414.0
 31
0.0
  0
LINE
  8
L-ZISSEN
 10
568.0
 20
426.0
 30
0.0
 11
568.0
 21
340.0
 31
0.0
  0
LINE
  8
L-ZISSEN
 10
519.0
 20
418.0
 30
0.0
 11
519.0
 21
338.0
 31
0.0
  0
LINE
  8
L-ZISSEN
 10
568.0
 20
340.0
 30
0.0
 11
519.0
 21
340.0
 31
0.0
  0
LINE
  8
L-ZISSEN
 10
568.0
 20
426.0
 30
0.0
 11
502.0
 21
426.0
 31
0.0
  0
LINE
  8
L-ZISSEN
 10
528.5
 20
414.5
 30
0.0
 11
519.0
 21
414.5
 31
0.0
  0
LINE
  8
L-ZISSEN
 10
528.5
 20
401.5
 30
0.0
 11
519.0
 21
401.5
 31
0.0
  0
LINE
  8
L-ZISSEN
 10
528.5
 20
414.5
 30
0.0
 11
528.5
 21
401.5
 31
0.0
  0
LINE
  8
L-ZISSEN
 10
528.5
 20
354.5
 30
0.0
 11
519.0
 21
354.5
 31
0.0
  0
LINE
  8
L-ZISSEN
 10
528.5
 20
341.5
 30
0.0
 11
519.0
 21
341.5
 31
0.0
  0
LINE
  8
L-ZISSEN
 10
528.5
 20
341.5
 30
0.0
 11
528.5
 21
354.5
 31
0.0
  0
LINE
  8
L-ZISSEN
 10
568.0
 20
572.0
 30
0.0
 11
528.5
 21
572.0
 31
0.0
  0
LINE
  8
L-ZISSEN
 10
568.0
 20
648.0
 30
0.0
 11
528.5
 21
648.0
 31
0.0
  0
LINE
  8
L-ZISSEN
 10
568.0
 20
648.0
 30
0.0
 11
568.0
 21
572.0
 31
0.0
  0
LINE
  8
L-ZISSEN
 10
519.0
 20
560.0
 30
0.0
 11
519.0
 21
584.729844
 31
0.0
  0
LINE
  8
L-ZISSEN
 10
530.0
 20
648.0
 30
0.0
 11
530.0
 21
665.0
 31
0.0
  0
LINE
  8
L-ZISSEN
 10
544.1
 20
623.0
 30
0.0
 11
568.0
 21
623.0
 31
0.0
  0
LINE
  8
L-ZISSEN
 10
544.1
 20
597.0
 30
0.0
 11
568.0
 21
597.0
 31
0.0
  0
LINE
  8
L-ZISSEN
 10
519.0
 20
635.270156
 30
0.0
 11
519.0
 21
660.0
 31
0.0
  0
LINE
  8
L-ZISSEN
 10
528.5
 20
563.5
 30
0.0
 11
519.0
 21
563.5
 31
0.0
  0
LINE
  8
L-ZISSEN
 10
528.5
 20
576.5
 30
0.0
 11
519.0
 21
576.5
 31
0.0
  0
LINE
  8
L-ZISSEN
 10
528.5
 20
576.5
 30
0.0
 11
528.5
 21
563.5
 31
0.0
  0
LINE
  8
L-ZISSEN
 10
528.5
 20
656.5
 30
0.0
 11
519.0
 21
656.5
 31
0.0
  0
LINE
  8
L-ZISSEN
 10
528.5
 20
643.5
 30
0.0
 11
528.5
 21
656.5
 31
0.0
  0
LINE
  8
L-ZISSEN
 10
528.5
 20
643.5
 30
0.0
 11
519.0
 21
643.5
 31
0.0
  0
LINE
  8
L-ZISSEN
 10
311.5
 20
414.5
 30
0.0
 11
311.5
 21
401.5
 31
0.0
  0
LINE
  8
L-ZISSEN
 10
311.5
 20
401.5
 30
0.0
 11
321.0
 21
401.5
 31
0.0
  0
LINE
  8
L-ZISSEN
 10
311.5
 20
414.5
 30
0.0
 11
321.0
 21
414.5
 31
0.0
  0
LINE
  8
L-ZISSEN
 10
311.5
 20
354.5
 30
0.0
 11
321.0
 21
354.5
 31
0.0
  0
LINE
  8
L-ZISSEN
 10
311.5
 20
341.5
 30
0.0
 11
311.5
 21
354.5
 31
0.0
  0
LINE
  8
L-ZISSEN
 10
311.5
 20
341.5
 30
0.0
 11
321.0
 21
341.5
 31
0.0
  0
LINE
  8
L-ZISSEN
 10
321.0
 20
418.0
 30
0.0
 11
321.0
 21
338.0
 31
0.0
  0
LINE
  8
L-ZISSEN
 10
278.0
 20
417.5
 30
0.0
 11
278.0
 21
345.0
 31
0.0
  0
LINE
  8
L-ZISSEN
 10
278.0
 20
417.5
 30
0.0
 11
338.0
 21
426.0
 31
0.0
  0
LINE
  8
L-ZISSEN
 10
278.0
 20
345.0
 30
0.0
 11
311.5
 21
345.0
 31
0.0
  0
LINE
  8
L-ZISSEN
 10
321.0
 20
338.0
 30
0.0
 11
338.0
 21
338.0
 31
0.0
  0
LINE
  8
L-ZISSEN
 10
519.0
 20
338.0
 30
0.0
 11
502.0
 21
338.0
 31
0.0
  0
LINE
  8
L-ZISSEN
 10
321.0
 20
560.0
 30
0.0
 11
321.0
 21
597.0
 31
0.0
  0
LINE
  8
L-ZISSEN
 10
311.5
 20
576.5
 30
0.0
 11
321.0
 21
576.5
 31
0.0
  0
LINE
  8
L-ZISSEN
 10
311.5
 20
563.5
 30
0.0
 11
321.0
 21
563.5
 31
0.0
  0
LINE
  8
L-ZISSEN
 10
338.0
 20
597.0
 30
0.0
 11
278.0
 21
597.0
 31
0.0
  0
LINE
  8
L-ZISSEN
 10
338.0
 20
623.0
 30
0.0
 11
278.0
 21
623.0
 31
0.0
  0
LINE
  8
L-ZISSEN
 10
321.0
 20
623.0
 30
0.0
 11
321.0
 21
660.0
 31
0.0
  0
LINE
  8
L-ZISSEN
 10
311.5
 20
643.5
 30
0.0
 11
321.0
 21
643.5
 31
0.0
  0
LINE
  8
L-ZISSEN
 10
311.5
 20
656.5
 30
0.0
 11
321.0
 21
656.5
 31
0.0
  0
LINE
  8
L-ZISSEN
 10
311.5
 20
643.5
 30
0.0
 11
311.5
 21
656.5
 31
0.0
  0
LINE
  8
L-ZISSEN
 10
311.5
 20
576.5
 30
0.0
 11
311.5
 21
563.5
 31
0.0
  0
LINE
  8
L-ZISSEN
 10
278.0
 20
643.0
 30
0.0
 11
278.0
 21
577.0
 31
0.0
  0
LINE
  8
L-ZISSEN
 10
278.0
 20
577.0
 30
0.0
 11
321.0
 21
577.0
 31
0.0
  0
LINE
  8
L-ZISSEN
 10
321.0
 20
643.0
 30
0.0
 11
278.0
 21
643.0
 31
0.0
  0
LINE
  8
L-ZISSEN
 10
310.0
 20
643.0
 30
0.0
 11
310.0
 21
665.0
 31
0.0
  0
LINE
  8
L-ZISSEN
 10
205.0
 20
316.0
 30
0.0
 11
205.0
 21
414.0
 31
0.0
  0
LINE
  8
L-ZISSEN
 10
200.0
 20
414.0
 30
0.0
 11
205.0
 21
414.0
 31
0.0
  0
LINE
  8
L-ZISSEN
 10
202.0
 20
426.5
 30
0.0
 11
190.0
 21
426.5
 31
0.0
  0
LINE
  8
L-ZISSEN
 10
202.0
 20
426.5
 30
0.0
 11
202.0
 21
414.0
 31
0.0
  0
LINE
  8
L-ZISSEN
 10
205.0
 20
260.0
 30
0.0
 11
205.0
 21
284.0
 31
0.0
  0
LINE
  8
L-ZISSEN
 10
95.0
 20
260.0
 30
0.0
 11
95.0
 21
414.0
 31
0.0
  0
LINE
  8
L-ZISSEN
 10
100.0
 20
414.0
 30
0.0
 11
95.0
 21
414.0
 31
0.0
  0
LINE
  8
L-ZISSEN
 10
98.0
 20
426.5
 30
0.0
 11
98.0
 21
414.0
 31
0.0
  0
LINE
  8
L-ZISSEN
 10
98.0
 20
426.5
 30
0.0
 11
110.0
 21
426.5
 31
0.0
  0
LINE
  8
L-ZISSEN
 10
100.0
 20
346.0
 30
0.0
 11
95.0
 21
346.0
 31
0.0
  0
LINE
  8
L-ZISSEN
 10
205.0
 20
346.0
 30
0.0
 11
200.0
 21
346.0
 31
0.0
  0
LINE
  8
L-ZISSEN
 10
110.0
 20
427.0
 30
0.0
 11
110.0
 21
418.0
 31
0.0
  0
LINE
  8
L-ZISSEN
 10
190.0
 20
427.0
 30
0.0
 11
190.0
 21
418.0
 31
0.0
  0
LINE
  8
L-ZISSEN
 10
190.0
 20
427.0
 30
0.0
 11
110.0
 21
427.0
 31
0.0
  0
CIRCLE
  8
L-ZISSEN
 10
110.0
 20
348.0
 30
0.0
 40
6.5
  0
CIRCLE
  8
L-ZISSEN
 10
190.0
 20
348.0
 30
0.0
 40
6.5
  0
CIRCLE
  8
L-ZISSEN
 10
190.0
 20
408.0
 30
0.0
 40
6.5
  0
CIRCLE
  8
L-ZISSEN
 10
110.0
 20
408.0
 30
0.0
 40
6.5
  0
LINE
  8
L-ZISSEN
 10
163.0
 20
418.0
 30
0.0
 11
200.0
 21
418.0
 31
0.0
  0
LINE
  8
L-ZISSEN
 10
163.0
 20
426.0
 30
0.0
 11
163.0
 21
408.331502
 31
0.0
  0
LINE
  8
L-ZISSEN
 10
137.0
 20
426.0
 30
0.0
 11
163.0
 21
426.0
 31
0.0
  0
LINE
  8
L-ZISSEN
 10
137.0
 20
408.331502
 30
0.0
 11
137.0
 21
426.0
 31
0.0
  0
LINE
  8
L-ZISSEN
 10
100.0
 20
418.0
 30
0.0
 11
137.0
 21
418.0
 31
0.0
  0
LINE
  8
L-ZISSEN
 10
100.0
 20
338.0
 30
0.0
 11
100.0
 21
418.0
 31
0.0
  0
LINE
  8
L-ZISSEN
 10
200.0
 20
338.0
 30
0.0
 11
100.0
 21
338.0
 31
0.0
  0
LINE
  8
L-ZISSEN
 10
200.0
 20
418.0
 30
0.0
 11
200.0
 21
338.0
 31
0.0
  0
LINE
  8
L-TYUSIN
 10
205.0
 20
378.0
 30
0.0
 11
95.0
 21
378.0
 31
0.0
  0
LINE
  8
L-ZISSEN
 10
205.0
 20
336.0
 30
0.0
 11
95.0
 21
336.0
 31
0.0
  0
LINE
  8
L-ZISSEN
 10
205.0
 20
284.0
 30
0.0
 11
182.0
 21
284.0
 31
0.0
  0
LINE
  8
L-ZISSEN
 10
205.0
 20
316.0
 30
0.0
 11
182.0
 21
316.0
 31
0.0
  0
LINE
  8
L-ZISSEN
 10
205.0
 20
335.0
 30
0.0
 11
95.0
 21
335.0
 31
0.0
  0
LINE
  8
L-ZISSEN
 10
126.0
 20
260.0
 30
0.0
 11
126.0
 21
240.0
 31
0.0
  0
LINE
  8
L-ZISSEN
 10
83.0
 20
260.0
 30
0.0
 11
83.0
 21
240.0
 31
0.0
  0
LINE
  8
L-TYUSIN
 10
95.0
 20
265.0
 30
0.0
 11
95.0
 21
235.0
 31
0.0
  0
LINE
  8
L-ZISSEN
 10
83.0
 20
260.0
 30
0.0
 11
126.0
 21
260.0
 31
0.0
  0
LINE
  8
L-TYUSIN
 10
205.0
 20
265.0
 30
0.0
 11
205.0
 21
235.0
 31
0.0
  0
LINE
  8
L-ZISSEN
 10
217.0
 20
260.0
 30
0.0
 11
174.0
 21
260.0
 31
0.0
  0
LINE
  8
L-ZISSEN
 10
174.0
 20
260.0
 30
0.0
 11
174.0
 21
240.0
 31
0.0
  0
LINE
  8
L-ZISSEN
 10
217.0
 20
260.0
 30
0.0
 11
217.0
 21
240.0
 31
0.0
  0
LINE
  8
L-ZISSEN
 10
217.0
 20
240.0
 30
0.0
 11
83.0
 21
240.0
 31
0.0
  0
LINE
  8
L-ZISSEN
 10
95.0
 20
314.0
 30
0.0
 11
80.0
 21
314.0
 31
0.0
  0
LINE
  8
L-ZISSEN
 10
83.0
 20
246.0
 30
0.0
 11
80.0
 21
246.0
 31
0.0
  0
LINE
  8
L-ZISSEN
 10
80.0
 20
314.0
 30
0.0
 11
80.0
 21
246.0
 31
0.0
  0
LINE
  8
L-ZISSEN
 10
217.0
 20
246.0
 30
0.0
 11
220.0
 21
246.0
 31
0.0
  0
LINE
  8
L-ZISSEN
 10
182.0
 20
316.0
 30
0.0
 11
182.0
 21
284.0
 31
0.0
  0
LINE
  8
L-ZISSEN
 10
220.0
 20
334.0
 30
0.0
 11
220.0
 21
246.0
 31
0.0
  0
LINE
  8
L-ZISSEN
 10
205.0
 20
266.0
 30
0.0
 11
220.0
 21
266.0
 31
0.0
  0
LINE
  8
L-ZISSEN
 10
205.0
 20
334.0
 30
0.0
 11
220.0
 21
334.0
 31
0.0
  0
LINE
  8
L-TYUSIN
 10
177.0
 20
300.0
 30
0.0
 11
225.0
 21
300.0
 31
0.0
  0
LINE
  8
L-TYUSIN
 10
150.0
 20
235.0
 30
0.0
 11
150.0
 21
493.5
 31
0.0
  0
LINE
  8
L-TYUSIN
 10
225.0
 20
280.0
 30
0.0
 11
75.0
 21
280.0
 31
0.0
  0
ARC
  8
L-ZISSEN
 10
150.0
 20
378.0
 30
0.0
 40
33.0
 50
113.199843
 51
66.800157
  0
LINE
  8
L-ZISSEN
 10
278.0
 20
408.331502
 30
0.0
 11
311.5
 21
408.331502
 31
0.0
  0
LINE
  8
L-ZISSEN
 10
568.0
 20
413.707142
 30
0.0
 11
528.5
 21
413.707142
 31
0.0
  0
LINE
  8
L-ZISSEN
 10
568.0
 20
806.292858
 30
0.0
 11
528.5
 21
806.292858
 31
0.0
  0
LINE
  8
L-ZISSEN
 10
278.0
 20
811.668498
 30
0.0
 11
311.5
 21
811.668498
 31
0.0
  0
LINE
  8
L-ZISSEN
 10
519.0
 20
882.0
 30
0.0
 11
502.0
 21
882.0
 31
0.0
  0
LINE
  8
L-ZISSEN
 10
321.0
 20
882.0
 30
0.0
 11
338.0
 21
882.0
 31
0.0
  0
LINE
  8
L-ZISSEN
 10
278.0
 20
875.0
 30
0.0
 11
311.5
 21
875.0
 31
0.0
  0
LINE
  8
L-ZISSEN
 10
278.0
 20
802.5
 30
0.0
 11
338.0
 21
794.0
 31
0.0
  0
LINE
  8
L-ZISSEN
 10
278.0
 20
802.5
 30
0.0
 11
278.0
 21
875.0
 31
0.0
  0
LINE
  8
L-ZISSEN
 10
321.0
 20
802.0
 30
0.0
 11
321.0
 21
882.0
 31
0.0
  0
LINE
  8
L-ZISSEN
 10
311.5
 20
878.5
 30
0.0
 11
321.0
 21
878.5
 31
0.0
  0
LINE
  8
L-ZISSEN
 10
311.5
 20
878.5
 30
0.0
 11
311.5
 21
865.5
 31
0.0
  0
LINE
  8
L-ZISSEN
 10
311.5
 20
865.5
 30
0.0
 11
321.0
 21
865.5
 31
0.0
  0
LINE
  8
L-ZISSEN
 10
311.5
 20
805.5
 30
0.0
 11
321.0
 21
805.5
 31
0.0
  0
LINE
  8
L-ZISSEN
 10
311.5
 20
818.5
 30
0.0
 11
321.0
 21
818.5
 31
0.0
  0
LINE
  8
L-ZISSEN
 10
311.5
 20
805.5
 30
0.0
 11
311.5
 21
818.5
 31
0.0
  0
LINE
  8
L-ZISSEN
 10
528.5
 20
878.5
 30
0.0
 11
528.5
 21
865.5
 31
0.0
  0
LINE
  8
L-ZISSEN
 10
528.5
 20
878.5
 30
0.0
 11
519.0
 21
878.5
 31
0.0
  0
LINE
  8
L-ZISSEN
 10
528.5
 20
865.5
 30
0.0
 11
519.0
 21
865.5
 31
0.0
  0
LINE
  8
L-ZISSEN
 10
528.5
 20
805.5
 30
0.0
 11
528.5
 21
818.5
 31
0.0
  0
LINE
  8
L-ZISSEN
 10
528.5
 20
818.5
 30
0.0
 11
519.0
 21
818.5
 31
0.0
  0
LINE
  8
L-ZISSEN
 10
528.5
 20
805.5
 30
0.0
 11
519.0
 21
805.5
 31
0.0
  0
LINE
  8
L-ZISSEN
 10
568.0
 20
794.0
 30
0.0
 11
502.0
 21
794.0
 31
0.0
  0
LINE
  8
L-ZISSEN
 10
568.0
 20
880.0
 30
0.0
 11
519.0
 21
880.0
 31
0.0
  0
LINE
  8
L-ZISSEN
 10
519.0
 20
802.0
 30
0.0
 11
519.0
 21
882.0
 31
0.0
  0
LINE
  8
L-ZISSEN
 10
568.0
 20
794.0
 30
0.0
 11
568.0
 21
880.0
 31
0.0
  0
LINE
  8
L-ZISSEN
 10
472.0
 20
793.5
 30
0.0
 11
472.0
 21
806.0
 31
0.0
  0
LINE
  8
L-ZISSEN
 10
488.0
 20
793.5
 30
0.0
 11
488.0
 21
806.0
 31
0.0
  0
LINE
  8
L-ZISSEN
 10
488.0
 20
793.5
 30
0.0
 11
472.0
 21
793.5
 31
0.0
  0
LINE
  8
L-ZISSEN
 10
352.0
 20
793.5
 30
0.0
 11
368.0
 21
793.5
 31
0.0
  0
LINE
  8
L-ZISSEN
 10
352.0
 20
793.5
 30
0.0
 11
352.0
 21
806.0
 31
0.0
  0
LINE
  8
L-ZISSEN
 10
368.0
 20
793.5
 30
0.0
 11
368.0
 21
806.0
 31
0.0
  0
LINE
  8
L-ZISSEN
 10
349.753049
 20
802.0
 30
0.0
 11
321.0
 21
802.0
 31
0.0
  0
LINE
  8
L-ZISSEN
 10
349.753049
 20
802.0
 30
0.0
 11
349.753049
 21
874.0
 31
0.0
  0
LINE
  8
L-ZISSEN
 10
370.246951
 20
793.0
 30
0.0
 11
370.246951
 21
874.0
 31
0.0
  0
LINE
  8
L-ZISSEN
 10
349.753049
 20
806.0
 30
0.0
 11
370.246951
 21
806.0
 31
0.0
  0
LINE
  8
L-ZISSEN
 10
469.753049
 20
793.0
 30
0.0
 11
469.753049
 21
874.0
 31
0.0
  0
LINE
  8
L-ZISSEN
 10
490.246951
 20
802.0
 30
0.0
 11
490.246951
 21
874.0
 31
0.0
  0
LINE
  8
L-ZISSEN
 10
490.246951
 20
806.0
 30
0.0
 11
469.753049
 21
806.0
 31
0.0
  0
LINE
  8
L-ZISSEN
 10
502.0
 20
874.0
 30
0.0
 11
338.0
 21
874.0
 31
0.0
  0
LINE
  8
L-ZISSEN
 10
519.0
 20
802.0
 30
0.0
 11
490.246951
 21
802.0
 31
0.0
  0
LINE
  8
L-TYUSIN
 10
273.0
 20
842.0
 30
0.0
 11
573.0
 21
842.0
 31
0.0
  0
LINE
  8
L-ZISSEN
 10
502.0
 20
793.0
 30
0.0
 11
502.0
 21
885.0
 31
0.0
  0
LINE
  8
L-ZISSEN
 10
338.0
 20
793.0
 30
0.0
 11
338.0
 21
885.0
 31
0.0
  0
LINE
  8
L-ZISSEN
 10
502.0
 20
793.0
 30
0.0
 11
338.0
 21
793.0
 31
0.0
  0
LINE
  8
L-ZISSEN
 10
502.0
 20
884.0
 30
0.0
 11
338.0
 21
884.0
 31
0.0
  0
LINE
  8
L-ZISSEN
 10
1054.0
 20
54.0
 30
0.0
 11
1106.0
 21
54.0
 31
0.0
  0
LINE
  8
L-TYUSIN
 10
1145.0
 20
660.0
 30
0.0
 11
1145.0
 21
30.0
 31
0.0
  0
LINE
  8
L-TYUSIN
 10
815.0
 20
240.0
 30
0.0
 11
1145.0
 21
240.0
 31
0.0
  0
LINE
  8
L-TYUSIN
 10
815.0
 20
660.0
 30
0.0
 11
815.0
 21
30.0
 31
0.0
  0
CIRCLE
  8
L-ZISSEN
 10
1100.0
 20
480.0
 30
0.0
 40
4.49995
  0
CIRCLE
  8
L-ZISSEN
 10
1060.0
 20
480.0
 30
0.0
 40
4.49995
  0
CIRCLE
  8
L-ZISSEN
 10
1100.0
 20
520.0
 30
0.0
 40
4.49995
  0
CIRCLE
  8
L-ZISSEN
 10
1060.0
 20
520.0
 30
0.0
 40
4.49995
  0
CIRCLE
  8
L-ZISSEN
 10
1080.0
 20
500.0
 30
0.0
 40
19.0
  0
CIRCLE
  8
L-ZISSEN
 10
1080.0
 20
500.0
 30
0.0
 40
11.0
  0
LINE
  8
L-ZISSEN
 10
903.0
 20
526.0
 30
0.0
 11
977.1
 21
526.0
 31
0.0
  0
LINE
  8
L-ZISSEN
 10
846.9
 20
474.0
 30
0.0
 11
977.1
 21
474.0
 31
0.0
  0
LINE
  8
L-ZISSEN
 10
977.1
 20
564.0
 30
0.0
 11
846.9
 21
564.0
 31
0.0
  0
LINE
  8
L-ZISSEN
 10
977.1
 20
616.0
 30
0.0
 11
846.9
 21
616.0
 31
0.0
  0
LINE
  8
L-ZISSEN
  6
CONTINUOUS
 62
     7
 10
915.1
 20
406.0
 30
0.0
 11
961.1
 21
404.393644
 31
0.0
  0
LINE
  8
L-ZISSEN
  6
CONTINUOUS
 62
     7
 10
961.1
 20
355.606356
 30
0.0
 11
961.1
 21
404.393644
 31
0.0
  0
LINE
  8
L-ZISSEN
  6
CONTINUOUS
 62
     7
 10
915.1
 20
354.0
 30
0.0
 11
961.1
 21
355.606356
 31
0.0
  0
LINE
  8
L-ZISSEN
  6
CONTINUOUS
 62
     7
 10
915.1
 20
264.0
 30
0.0
 11
961.1
 21
265.606356
 31
0.0
  0
LINE
  8
L-ZISSEN
  6
CONTINUOUS
 62
     7
 10
915.1
 20
316.0
 30
0.0
 11
961.1
 21
314.393644
 31
0.0
  0
LINE
  8
L-ZISSEN
  6
CONTINUOUS
 62
     7
 10
961.1
 20
265.606356
 30
0.0
 11
961.1
 21
314.393644
 31
0.0
  0
LINE
  8
L-ZISSEN
 10
981.74282
 20
475.50005
 30
0.0
 11
977.1
 21
475.50005
 31
0.0
  0
LINE
  8
L-ZISSEN
 10
981.74282
 20
484.49995
 30
0.0
 11
981.74282
 21
475.50005
 31
0.0
  0
LINE
  8
L-ZISSEN
 10
981.74282
 20
484.49995
 30
0.0
 11
977.1
 21
484.49995
 31
0.0
  0
LINE
  8
L-ZISSEN
 10
981.74282
 20
515.50005
 30
0.0
 11
977.1
 21
515.50005
 31
0.0
  0
LINE
  8
L-ZISSEN
 10
981.74282
 20
515.50005
 30
0.0
 11
981.74282
 21
524.49995
 31
0.0
  0
LINE
  8
L-ZISSEN
 10
988.7
 20
511.0
 30
0.0
 11
988.7
 21
489.0
 31
0.0
  0
LINE
  8
L-ZISSEN
 10
988.7
 20
489.0
 30
0.0
 11
987.7
 21
489.0
 31
0.0
  0
LINE
  8
L-ZISSEN
 10
987.7
 20
511.0
 30
0.0
 11
988.7
 21
511.0
 31
0.0
  0
LINE
  8
L-ZISSEN
 10
981.74282
 20
524.49995
 30
0.0
 11
977.1
 21
524.49995
 31
0.0
  0
LINE
  8
L-ZISSEN
 10
981.74282
 20
481.0
 30
0.0
 11
987.7
 21
481.0
 31
0.0
  0
LINE
  8
L-ZISSEN
 10
981.74282
 20
519.0
 30
0.0
 11
987.7
 21
519.0
 31
0.0
  0
LINE
  8
L-ZISSEN
 10
977.1
 20
526.0
 30
0.0
 11
977.1
 21
474.0
 31
0.0
  0
LINE
  8
L-ZISSEN
 10
987.7
 20
519.0
 30
0.0
 11
987.7
 21
481.0
 31
0.0
  0
LINE
  8
L-ZISSEN
 10
987.7
 20
609.0
 30
0.0
 11
987.7
 21
571.0
 31
0.0
  0
LINE
  8
L-ZISSEN
 10
977.1
 20
616.0
 30
0.0
 11
977.1
 21
564.0
 31
0.0
  0
LINE
  8
L-ZISSEN
 10
981.74282
 20
609.0
 30
0.0
 11
987.7
 21
609.0
 31
0.0
  0
LINE
  8
L-ZISSEN
 10
981.74282
 20
571.0
 30
0.0
 11
987.7
 21
571.0
 31
0.0
  0
LINE
  8
L-ZISSEN
 10
981.74282
 20
614.49995
 30
0.0
 11
977.1
 21
614.49995
 31
0.0
  0
LINE
  8
L-ZISSEN
 10
987.7
 20
601.0
 30
0.0
 11
988.7
 21
601.0
 31
0.0
  0
LINE
  8
L-ZISSEN
 10
988.7
 20
579.0
 30
0.0
 11
987.7
 21
579.0
 31
0.0
  0
LINE
  8
L-ZISSEN
 10
988.7
 20
601.0
 30
0.0
 11
988.7
 21
579.0
 31
0.0
  0
LINE
  8
L-ZISSEN
 10
981.74282
 20
605.50005
 30
0.0
 11
981.74282
 21
614.49995
 31
0.0
  0
LINE
  8
L-ZISSEN
 10
981.74282
 20
605.50005
 30
0.0
 11
977.1
 21
605.50005
 31
0.0
  0
LINE
  8
L-ZISSEN
 10
981.74282
 20
574.49995
 30
0.0
 11
977.1
 21
574.49995
 31
0.0
  0
LINE
  8
L-ZISSEN
 10
981.74282
 20
574.49995
 30
0.0
 11
981.74282
 21
565.50005
 31
0.0
  0
LINE
  8
L-ZISSEN
 10
981.74282
 20
565.50005
 30
0.0
 11
977.1
 21
565.50005
 31
0.0
  0
CIRCLE
  8
L-ZISSEN
 10
1080.0
 20
290.0
 30
0.0
 40
11.0
  0
CIRCLE
  8
L-ZISSEN
 10
1080.0
 20
290.0
 30
0.0
 40
9.0
  0
CIRCLE
  8
L-ZISSEN
 10
1080.0
 20
290.0
 30
0.0
 40
7.25
  0
LINE
  8
L-ZISSEN
 10
961.1
 20
391.0
 30
0.0
 11
974.1
 21
391.0
 31
0.0
  0
LINE
  8
L-ZISSEN
  6
CONTINUOUS
 62
     7
 10
974.1
 20
389.0
 30
0.0
 11
980.1
 21
389.0
 31
0.0
  0
LINE
  8
L-ZISSEN
  6
CONTINUOUS
 62
     7
 10
980.1
 20
387.25
 30
0.0
 11
987.1
 21
387.25
 31
0.0
  0
LINE
  8
L-ZISSEN
 10
961.1
 20
369.0
 30
0.0
 11
974.1
 21
369.0
 31
0.0
  0
LINE
  8
L-ZISSEN
  6
CONTINUOUS
 62
     7
 10
980.1
 20
389.0
 30
0.0
 11
980.1
 21
371.0
 31
0.0
  0
LINE
  8
L-ZISSEN
  6
CONTINUOUS
 62
     7
 10
974.1
 20
371.0
 30
0.0
 11
980.1
 21
371.0
 31
0.0
  0
LINE
  8
L-ZISSEN
  6
CONTINUOUS
 62
     7
 10
980.1
 20
372.75
 30
0.0
 11
987.1
 21
372.75
 31
0.0
  0
LINE
  8
L-ZISSEN
  6
CONTINUOUS
 62
     7
 10
987.1
 20
387.25
 30
0.0
 11
987.1
 21
372.75
 31
0.0
  0
LINE
  8
L-ZISSEN
  6
CONTINUOUS
 62
     7
 10
974.1
 20
391.0
 30
0.0
 11
974.1
 21
369.0
 31
0.0
  0
LINE
  8
L-ZISSEN
  6
CONTINUOUS
 62
     7
 10
974.1
 20
301.0
 30
0.0
 11
974.1
 21
279.0
 31
0.0
  0
LINE
  8
L-ZISSEN
  6
CONTINUOUS
 62
     7
 10
987.1
 20
297.25
 30
0.0
 11
987.1
 21
282.75
 31
0.0
  0
LINE
  8
L-ZISSEN
  6
CONTINUOUS
 62
     7
 10
980.1
 20
282.75
 30
0.0
 11
987.1
 21
282.75
 31
0.0
  0
LINE
  8
L-ZISSEN
  6
CONTINUOUS
 62
     7
 10
974.1
 20
281.0
 30
0.0
 11
980.1
 21
281.0
 31
0.0
  0
LINE
  8
L-ZISSEN
  6
CONTINUOUS
 62
     7
 10
980.1
 20
299.0
 30
0.0
 11
980.1
 21
281.0
 31
0.0
  0
LINE
  8
L-ZISSEN
 10
961.1
 20
279.0
 30
0.0
 11
974.1
 21
279.0
 31
0.0
  0
LINE
  8
L-ZISSEN
  6
CONTINUOUS
 62
     7
 10
980.1
 20
297.25
 30
0.0
 11
987.1
 21
297.25
 31
0.0
  0
LINE
  8
L-ZISSEN
  6
CONTINUOUS
 62
     7
 10
974.1
 20
299.0
 30
0.0
 11
980.1
 21
299.0
 31
0.0
  0
LINE
  8
L-ZISSEN
 10
961.1
 20
301.0
 30
0.0
 11
974.1
 21
301.0
 31
0.0
  0
LINE
  8
L-ZISSEN
 10
903.0
 20
106.0
 30
0.0
 11
977.1
 21
106.0
 31
0.0
  0
LINE
  8
L-ZISSEN
 10
846.9
 20
54.0
 30
0.0
 11
977.1
 21
54.0
 31
0.0
  0
LINE
  8
L-ZISSEN
 10
977.1
 20
144.0
 30
0.0
 11
846.9
 21
144.0
 31
0.0
  0
LINE
  8
L-ZISSEN
 10
977.1
 20
196.0
 30
0.0
 11
846.9
 21
196.0
 31
0.0
  0
CIRCLE
  8
L-ZISSEN
 10
1080.0
 20
80.0
 30
0.0
 40
11.0
  0
CIRCLE
  8
L-ZISSEN
 10
1080.0
 20
80.0
 30
0.0
 40
9.0
  0
CIRCLE
  8
L-ZISSEN
 10
1080.0
 20
80.0
 30
0.0
 40
7.25
  0
CIRCLE
  8
L-ZISSEN
 10
1080.0
 20
80.0
 30
0.0
 40
19.0
  0
CIRCLE
  8
L-ZISSEN
 10
1060.0
 20
100.0
 30
0.0
 40
4.49995
  0
CIRCLE
  8
L-ZISSEN
 10
1100.0
 20
100.0
 30
0.0
 40
4.49995
  0
CIRCLE
  8
L-ZISSEN
 10
1060.0
 20
60.0
 30
0.0
 40
4.49995
  0
CIRCLE
  8
L-ZISSEN
 10
1100.0
 20
60.0
 30
0.0
 40
4.49995
  0
LINE
  8
L-ZISSEN
  6
CONTINUOUS
 62
     7
 10
1000.7
 20
91.0
 30
0.0
 11
1000.7
 21
69.0
 31
0.0
  0
LINE
  8
L-ZISSEN
  6
CONTINUOUS
 62
     7
 10
1014.0
 20
87.25
 30
0.0
 11
1014.0
 21
72.75
 31
0.0
  0
LINE
  8
L-ZISSEN
  6
CONTINUOUS
 62
     7
 10
1006.7
 20
72.75
 30
0.0
 11
1014.0
 21
72.75
 31
0.0
  0
LINE
  8
L-ZISSEN
  6
CONTINUOUS
 62
     7
 10
1000.7
 20
71.0
 30
0.0
 11
1006.7
 21
71.0
 31
0.0
  0
LINE
  8
L-ZISSEN
  6
CONTINUOUS
 62
     7
 10
1006.7
 20
89.0
 30
0.0
 11
1006.7
 21
71.0
 31
0.0
  0
LINE
  8
L-ZISSEN
 10
987.7
 20
69.0
 30
0.0
 11
1000.7
 21
69.0
 31
0.0
  0
LINE
  8
L-ZISSEN
  6
CONTINUOUS
 62
     7
 10
1006.7
 20
87.25
 30
0.0
 11
1014.0
 21
87.25
 31
0.0
  0
LINE
  8
L-ZISSEN
  6
CONTINUOUS
 62
     7
 10
1000.7
 20
89.0
 30
0.0
 11
1006.7
 21
89.0
 31
0.0
  0
LINE
  8
L-ZISSEN
 10
987.7
 20
91.0
 30
0.0
 11
1000.7
 21
91.0
 31
0.0
  0
LINE
  8
L-ZISSEN
 10
987.7
 20
181.0
 30
0.0
 11
1000.7
 21
181.0
 31
0.0
  0
LINE
  8
L-ZISSEN
  6
CONTINUOUS
 62
     7
 10
1000.7
 20
179.0
 30
0.0
 11
1006.7
 21
179.0
 31
0.0
  0
LINE
  8
L-ZISSEN
  6
CONTINUOUS
 62
     7
 10
1006.7
 20
177.25
 30
0.0
 11
1014.0
 21
177.25
 31
0.0
  0
LINE
  8
L-ZISSEN
 10
987.7
 20
159.0
 30
0.0
 11
1000.7
 21
159.0
 31
0.0
  0
LINE
  8
L-ZISSEN
  6
CONTINUOUS
 62
     7
 10
1006.7
 20
179.0
 30
0.0
 11
1006.7
 21
161.0
 31
0.0
  0
LINE
  8
L-ZISSEN
  6
CONTINUOUS
 62
     7
 10
1000.7
 20
161.0
 30
0.0
 11
1006.7
 21
161.0
 31
0.0
  0
LINE
  8
L-ZISSEN
  6
CONTINUOUS
 62
     7
 10
1006.7
 20
162.75
 30
0.0
 11
1014.0
 21
162.75
 31
0.0
  0
LINE
  8
L-ZISSEN
  6
CONTINUOUS
 62
     7
 10
1014.0
 20
177.25
 30
0.0
 11
1014.0
 21
162.75
 31
0.0
  0
LINE
  8
L-ZISSEN
  6
CONTINUOUS
 62
     7
 10
1000.7
 20
181.0
 30
0.0
 11
1000.7
 21
159.0
 31
0.0
  0
LINE
  8
L-ZISSEN
 10
987.7
 20
99.0
 30
0.0
 11
987.7
 21
61.0
 31
0.0
  0
LINE
  8
L-ZISSEN
 10
977.1
 20
106.0
 30
0.0
 11
977.1
 21
54.0
 31
0.0
  0
LINE
  8
L-ZISSEN
 10
981.74282
 20
99.0
 30
0.0
 11
987.7
 21
99.0
 31
0.0
  0
LINE
  8
L-ZISSEN
 10
981.74282
 20
61.0
 30
0.0
 11
987.7
 21
61.0
 31
0.0
  0
LINE
  8
L-ZISSEN
 10
981.74282
 20
104.49995
 30
0.0
 11
977.1
 21
104.49995
 31
0.0
  0
LINE
  8
L-ZISSEN
 10
981.74282
 20
95.50005
 30
0.0
 11
981.74282
 21
104.49995
 31
0.0
  0
LINE
  8
L-ZISSEN
 10
981.74282
 20
95.50005
 30
0.0
 11
977.1
 21
95.50005
 31
0.0
  0
LINE
  8
L-ZISSEN
 10
981.74282
 20
64.49995
 30
0.0
 11
977.1
 21
64.49995
 31
0.0
  0
LINE
  8
L-ZISSEN
 10
981.74282
 20
64.49995
 30
0.0
 11
981.74282
 21
55.50005
 31
0.0
  0
LINE
  8
L-ZISSEN
 10
981.74282
 20
55.50005
 30
0.0
 11
977.1
 21
55.50005
 31
0.0
  0
LINE
  8
L-ZISSEN
 10
981.74282
 20
145.50005
 30
0.0
 11
977.1
 21
145.50005
 31
0.0
  0
LINE
  8
L-ZISSEN
 10
981.74282
 20
154.49995
 30
0.0
 11
981.74282
 21
145.50005
 31
0.0
  0
LINE
  8
L-ZISSEN
 10
981.74282
 20
154.49995
 30
0.0
 11
977.1
 21
154.49995
 31
0.0
  0
LINE
  8
L-ZISSEN
 10
981.74282
 20
185.50005
 30
0.0
 11
977.1
 21
185.50005
 31
0.0
  0
LINE
  8
L-ZISSEN
 10
981.74282
 20
185.50005
 30
0.0
 11
981.74282
 21
194.49995
 31
0.0
  0
LINE
  8
L-ZISSEN
 10
981.74282
 20
194.49995
 30
0.0
 11
977.1
 21
194.49995
 31
0.0
  0
LINE
  8
L-ZISSEN
 10
981.74282
 20
151.0
 30
0.0
 11
987.7
 21
151.0
 31
0.0
  0
LINE
  8
L-ZISSEN
 10
981.74282
 20
189.0
 30
0.0
 11
987.7
 21
189.0
 31
0.0
  0
LINE
  8
L-ZISSEN
 10
977.1
 20
196.0
 30
0.0
 11
977.1
 21
144.0
 31
0.0
  0
LINE
  8
L-ZISSEN
 10
987.7
 20
189.0
 30
0.0
 11
987.7
 21
151.0
 31
0.0
  0
LINE
  8
L-ZISSEN
 10
1223.0
 20
534.0
 30
0.0
 11
1171.0
 21
534.0
 31
0.0
  0
LINE
  8
L-ZISSEN
 10
1223.0
 20
539.6
 30
0.0
 11
1223.0
 21
526.0
 31
0.0
  0
LINE
  8
L-ZISSEN
 10
1171.0
 20
539.6
 30
0.0
 11
1171.0
 21
526.0
 31
0.0
  0
LINE
  8
L-ZISSEN
 10
1171.0
 20
539.6
 30
0.0
 11
1223.0
 21
539.6
 31
0.0
  0
LINE
  8
L-ZISSEN
  6
CONTINUOUS
 62
     7
 10
1178.5
 20
543.2
 30
0.0
 11
1171.5
 21
543.2
 31
0.0
  0
LINE
  8
L-ZISSEN
  6
CONTINUOUS
 62
     7
 10
1178.5
 20
539.6
 30
0.0
 11
1178.5
 21
543.2
 31
0.0
  0
LINE
  8
L-ZISSEN
  6
CONTINUOUS
 62
     7
 10
1171.5
 20
539.6
 30
0.0
 11
1171.5
 21
543.2
 31
0.0
  0
LINE
  8
L-ZISSEN
  6
CONTINUOUS
 62
     7
 10
1215.5
 20
539.6
 30
0.0
 11
1215.5
 21
543.2
 31
0.0
  0
LINE
  8
L-ZISSEN
  6
CONTINUOUS
 62
     7
 10
1222.5
 20
539.6
 30
0.0
 11
1222.5
 21
543.2
 31
0.0
  0
LINE
  8
L-ZISSEN
  6
CONTINUOUS
 62
     7
 10
1222.5
 20
543.2
 30
0.0
 11
1215.5
 21
543.2
 31
0.0
  0
LINE
  8
L-ZISSEN
 10
1314.0
 20
539.6
 30
0.0
 11
1314.0
 21
546.1
 31
0.0
  0
LINE
  8
L-ZISSEN
 10
1322.0
 20
546.1
 30
0.0
 11
1322.0
 21
543.2
 31
0.0
  0
LINE
  8
L-ZISSEN
  6
CONTINUOUS
 62
     7
 10
1322.0
 20
546.1
 30
0.0
 11
1314.0
 21
546.1
 31
0.0
  0
LINE
  8
L-ZISSEN
  6
CONTINUOUS
 62
     7
 10
1325.5
 20
539.6
 30
0.0
 11
1325.5
 21
543.2
 31
0.0
  0
LINE
  8
L-ZISSEN
  6
CONTINUOUS
 62
     7
 10
1318.5
 20
539.6
 30
0.0
 11
1318.5
 21
543.2
 31
0.0
  0
LINE
  8
L-ZISSEN
  6
CONTINUOUS
 62
     7
 10
1318.5
 20
543.2
 30
0.0
 11
1325.5
 21
543.2
 31
0.0
  0
LINE
  8
L-ZISSEN
  6
CONTINUOUS
 62
     7
 10
1281.5
 20
543.2
 30
0.0
 11
1274.5
 21
543.2
 31
0.0
  0
LINE
  8
L-ZISSEN
  6
CONTINUOUS
 62
     7
 10
1281.5
 20
539.6
 30
0.0
 11
1281.5
 21
543.2
 31
0.0
  0
LINE
  8
L-ZISSEN
  6
CONTINUOUS
 62
     7
 10
1274.5
 20
539.6
 30
0.0
 11
1274.5
 21
543.2
 31
0.0
  0
LINE
  8
L-ZISSEN
 10
1274.0
 20
539.6
 30
0.0
 11
1326.0
 21
539.6
 31
0.0
  0
LINE
  8
L-ZISSEN
 10
1272.0
 20
534.0
 30
0.0
 11
1328.0
 21
534.0
 31
0.0
  0
LINE
  8
L-ZISSEN
 10
1326.0
 20
539.6
 30
0.0
 11
1326.0
 21
474.0
 31
0.0
  0
LINE
  8
L-ZISSEN
 10
1274.0
 20
474.0
 30
0.0
 11
1274.0
 21
539.6
 31
0.0
  0
CIRCLE
  8
L-ZISSEN
 10
1212.0
 20
608.0
 30
0.0
 40
4.0
  0
LINE
  8
L-ZISSEN
  6
CONTINUOUS
 62
     7
 10
1208.0
 20
546.1
 30
0.0
 11
1216.0
 21
546.1
 31
0.0
  0
LINE
  8
L-ZISSEN
 10
1208.0
 20
546.1
 30
0.0
 11
1208.0
 21
539.6
 31
0.0
  0
LINE
  8
L-ZISSEN
 10
1216.0
 20
543.2
 30
0.0
 11
1216.0
 21
546.1
 31
0.0
  0
LINE
  8
L-ZISSEN
  6
CONTINUOUS
 62
     7
 10
902.5
 20
119.1
 30
0.0
 11
895.5
 21
119.1
 31
0.0
  0
LINE
  8
L-ZISSEN
  6
CONTINUOUS
 62
     7
 10
902.5
 20
115.5
 30
0.0
 11
902.5
 21
119.1
 31
0.0
  0
LINE
  8
L-ZISSEN
  6
CONTINUOUS
 62
     7
 10
895.5
 20
115.5
 30
0.0
 11
895.5
 21
119.1
 31
0.0
  0
LINE
  8
L-ZISSEN
  6
CONTINUOUS
 62
     7
 10
846.9
 20
104.5
 30
0.0
 11
843.6
 21
104.5
 31
0.0
  0
LINE
  8
L-ZISSEN
  6
CONTINUOUS
 62
     7
 10
846.9
 20
95.5
 30
0.0
 11
843.6
 21
95.5
 31
0.0
  0
LINE
  8
L-ZISSEN
  6
CONTINUOUS
 62
     7
 10
843.6
 20
104.5
 30
0.0
 11
843.6
 21
95.5
 31
0.0
  0
LINE
  8
L-ZISSEN
  6
CONTINUOUS
 62
     7
 10
851.5
 20
115.5
 30
0.0
 11
851.5
 21
119.1
 31
0.0
  0
LINE
  8
L-ZISSEN
  6
CONTINUOUS
 62
     7
 10
858.5
 20
115.5
 30
0.0
 11
858.5
 21
119.1
 31
0.0
  0
LINE
  8
L-ZISSEN
  6
CONTINUOUS
 62
     7
 10
858.5
 20
119.1
 30
0.0
 11
851.5
 21
119.1
 31
0.0
  0
LINE
  8
L-ZISSEN
 10
851.0
 20
115.5
 30
0.0
 11
903.0
 21
115.5
 31
0.0
  0
LINE
  8
L-ZISSEN
 10
846.9
 20
106.0
 30
0.0
 11
851.0
 21
106.0
 31
0.0
  0
LINE
  8
L-ZISSEN
 10
851.0
 20
115.5
 30
0.0
 11
851.0
 21
106.0
 31
0.0
  0
LINE
  8
L-ZISSEN
 10
903.0
 20
115.5
 30
0.0
 11
903.0
 21
106.0
 31
0.0
  0
LINE
  8
L-ZISSEN
 10
869.5
 20
114.0
 30
0.0
 11
869.5
 21
111.618381
 31
0.0
  0
LINE
  8
L-ZISSEN
 10
884.5
 20
114.0
 30
0.0
 11
884.5
 21
111.618381
 31
0.0
  0
CIRCLE
  8
L-ZISSEN
 10
877.0
 20
101.0
 30
0.0
 40
9.3
  0
ARC
  8
L-ZISSEN
 10
877.0
 20
101.0
 30
0.0
 40
13.0
 50
125.234418
 51
54.765582
  0
LINE
  8
L-ZISSEN
 10
903.0
 20
114.0
 30
0.0
 11
851.0
 21
114.0
 31
0.0
  0
LINE
  8
L-ZISSEN
 10
905.1
 20
106.0
 30
0.0
 11
905.1
 21
54.0
 31
0.0
  0
LINE
  8
L-ZISSEN
 10
848.9
 20
106.0
 30
0.0
 11
848.9
 21
54.0
 31
0.0
  0
LINE
  8
L-ZISSEN
 10
846.9
 20
106.0
 30
0.0
 11
846.9
 21
54.0
 31
0.0
  0
LINE
  8
L-ZISSEN
  6
CONTINUOUS
 62
     7
 10
843.6
 20
64.5
 30
0.0
 11
843.6
 21
55.5
 31
0.0
  0
LINE
  8
L-ZISSEN
  6
CONTINUOUS
 62
     7
 10
846.9
 20
55.5
 30
0.0
 11
843.6
 21
55.5
 31
0.0
  0
LINE
  8
L-ZISSEN
  6
CONTINUOUS
 62
     7
 10
846.9
 20
64.5
 30
0.0
 11
843.6
 21
64.5
 31
0.0
  0
LINE
  8
L-ZISSEN
 10
1052.0
 20
88.0
 30
0.0
 11
1052.0
 21
114.0
 31
0.0
  0
LINE
  8
L-ZISSEN
  6
CONTINUOUS
 62
     7
 10
1054.5
 20
115.5
 30
0.0
 11
1054.5
 21
119.1
 31
0.0
  0
LINE
  8
L-ZISSEN
  6
CONTINUOUS
 62
     7
 10
1061.5
 20
115.5
 30
0.0
 11
1061.5
 21
119.1
 31
0.0
  0
LINE
  8
L-ZISSEN
  6
CONTINUOUS
 62
     7
 10
1061.5
 20
119.1
 30
0.0
 11
1054.5
 21
119.1
 31
0.0
  0
LINE
  8
L-ZISSEN
 10
1052.0
 20
88.0
 30
0.0
 11
1054.0
 21
88.0
 31
0.0
  0
LINE
  8
L-ZISSEN
 10
1052.0
 20
114.0
 30
0.0
 11
1108.0
 21
114.0
 31
0.0
  0
LINE
  8
L-ZISSEN
 10
1054.0
 20
115.5
 30
0.0
 11
1106.0
 21
115.5
 31
0.0
  0
LINE
  8
L-ZISSEN
 10
1054.0
 20
54.0
 30
0.0
 11
1054.0
 21
115.5
 31
0.0
  0
LINE
  8
L-ZISSEN
 10
1054.0
 20
106.0
 30
0.0
 11
1106.0
 21
106.0
 31
0.0
  0
LINE
  8
L-ZISSEN
  6
CONTINUOUS
 62
     7
 10
1098.5
 20
119.1
 30
0.0
 11
1105.5
 21
119.1
 31
0.0
  0
LINE
  8
L-ZISSEN
  6
CONTINUOUS
 62
     7
 10
1098.5
 20
115.5
 30
0.0
 11
1098.5
 21
119.1
 31
0.0
  0
LINE
  8
L-ZISSEN
  6
CONTINUOUS
 62
     7
 10
1105.5
 20
115.5
 30
0.0
 11
1105.5
 21
119.1
 31
0.0
  0
LINE
  8
L-ZISSEN
 10
1108.0
 20
88.0
 30
0.0
 11
1108.0
 21
114.0
 31
0.0
  0
LINE
  8
L-ZISSEN
 10
1106.0
 20
88.0
 30
0.0
 11
1108.0
 21
88.0
 31
0.0
  0
LINE
  8
L-ZISSEN
 10
1106.0
 20
115.5
 30
0.0
 11
1106.0
 21
54.0
 31
0.0
  0
LINE
  8
L-TYUSIN
 10
815.0
 20
450.0
 30
0.0
 11
1345.0
 21
450.0
 31
0.0
  0
LINE
  8
L-TYUSIN
 62
     1
 10
1111.0
 20
75.0
 30
0.0
 11
1101.0
 21
75.0
 31
0.0
  0
TEXT
  8
L-ZISSEN
 10
1170.0
 20
640.0
 30
0.0
 40
4.5
  1
PILOT LAMP
  0
TEXT
  8
L-ZISSEN
 10
1170.0
 20
630.0
 30
0.0
 40
4.5
  1
MODEL No. :
  0
TEXT
  8
L-ZISSEN
 10
1215.0
 20
630.0
 30
0.0
 40
4.5
  1
MVS-491-**YS
  0
LINE
  8
L-ZISSEN
 10
434.0
 20
598.5
 30
0.0
 11
434.0
 21
621.5
 31
0.0
  0
CIRCLE
  8
L-ZISSEN
 10
438.0
 20
588.0
 30
0.0
 40
3.5
  0
CIRCLE
  8
L-ZISSEN
 10
438.0
 20
632.0
 30
0.0
 40
3.5
  0
CIRCLE
  8
L-ZISSEN
 10
482.0
 20
632.0
 30
0.0
 40
3.5
  0
CIRCLE
  8
L-ZISSEN
 10
482.0
 20
588.0
 30
0.0
 40
3.5
  0
LINE
  8
L-ZISSEN
 10
486.0
 20
584.0
 30
0.0
 11
486.0
 21
636.0
 31
0.0
  0
LINE
  8
L-ZISSEN
 10
434.0
 20
584.0
 30
0.0
 11
434.0
 21
636.0
 31
0.0
  0
LINE
  8
L-ZISSEN
 10
498.1
 20
584.0
 30
0.0
 11
429.9
 21
584.0
 31
0.0
  0
LINE
  8
L-ZISSEN
 10
498.1
 20
636.0
 30
0.0
 11
429.9
 21
636.0
 31
0.0
  0
LINE
  8
L-ZISSEN
  6
CONTINUOUS
 62
     7
 10
498.1
 20
584.0
 30
0.0
 11
544.1
 21
585.606356
 31
0.0
  0
LINE
  8
L-ZISSEN
  6
CONTINUOUS
 62
     7
 10
544.1
 20
585.606356
 30
0.0
 11
544.1
 21
634.393644
 31
0.0
  0
LINE
  8
L-ZISSEN
  6
CONTINUOUS
 62
     7
 10
545.1
 20
621.0
 30
0.0
 11
544.1
 21
621.0
 31
0.0
  0
LINE
  8
L-ZISSEN
  6
CONTINUOUS
 62
     7
 10
545.1
 20
621.0
 30
0.0
 11
545.1
 21
599.0
 31
0.0
  0
LINE
  8
L-ZISSEN
  6
CONTINUOUS
 62
     7
 10
545.1
 20
599.0
 30
0.0
 11
544.1
 21
599.0
 31
0.0
  0
LINE
  8
L-ZISSEN
  6
CONTINUOUS
 62
     7
 10
498.1
 20
636.0
 30
0.0
 11
544.1
 21
634.393644
 31
0.0
  0
LINE
  8
L-ZISSEN
  6
CONTINUOUS
 62
     7
 10
488.1
 20
584.0
 30
0.0
 11
488.1
 21
636.0
 31
0.0
  0
LINE
  8
L-ZISSEN
  6
CONTINUOUS
 62
     7
 10
426.6
 20
594.5
 30
0.0
 11
426.6
 21
585.5
 31
0.0
  0
LINE
  8
L-ZISSEN
  6
CONTINUOUS
 62
     7
 10
429.9
 20
585.5
 30
0.0
 11
426.6
 21
585.5
 31
0.0
  0
LINE
  8
L-ZISSEN
  6
CONTINUOUS
 62
     7
 10
429.9
 20
594.5
 30
0.0
 11
426.6
 21
594.5
 31
0.0
  0
LINE
  8
L-ZISSEN
  6
CONTINUOUS
 62
     7
 10
429.9
 20
634.5
 30
0.0
 11
426.6
 21
634.5
 31
0.0
  0
LINE
  8
L-ZISSEN
  6
CONTINUOUS
 62
     7
 10
429.9
 20
625.5
 30
0.0
 11
426.6
 21
625.5
 31
0.0
  0
LINE
  8
L-ZISSEN
  6
CONTINUOUS
 62
     7
 10
426.6
 20
634.5
 30
0.0
 11
426.6
 21
625.5
 31
0.0
  0
LINE
  8
L-ZISSEN
  6
CONTINUOUS
 62
     7
 10
429.9
 20
636.0
 30
0.0
 11
429.9
 21
584.0
 31
0.0
  0
LINE
  8
L-ZISSEN
  6
CONTINUOUS
 62
     7
 10
431.9
 20
584.0
 30
0.0
 11
431.9
 21
636.0
 31
0.0
  0
LINE
  8
L-ZISSEN
 10
447.0
 20
584.0
 30
0.0
 11
447.0
 21
582.0
 31
0.0
  0
LINE
  8
L-ZISSEN
 10
447.0
 20
638.0
 30
0.0
 11
447.0
 21
636.0
 31
0.0
  0
LINE
  8
L-ZISSEN
 10
473.0
 20
638.0
 30
0.0
 11
473.0
 21
636.0
 31
0.0
  0
LINE
  8
L-ZISSEN
 10
473.0
 20
638.0
 30
0.0
 11
447.0
 21
638.0
 31
0.0
  0
LINE
  8
L-ZISSEN
 10
473.0
 20
584.0
 30
0.0
 11
473.0
 21
582.0
 31
0.0
  0
LINE
  8
L-ZISSEN
 10
473.0
 20
582.0
 30
0.0
 11
447.0
 21
582.0
 31
0.0
  0
LINE
  8
L-TYUSIN
  6
CENTER
 62
     1
 10
448.0
 20
631.0
 30
0.0
 11
448.0
 21
641.0
 31
0.0
  0
LINE
  8
L-ZISSEN
 10
502.0
 20
635.863809
 30
0.0
 11
502.0
 21
665.0
 31
0.0
  0
LINE
  8
L-ZISSEN
  6
CONTINUOUS
 62
     7
 10
498.1
 20
427.0
 30
0.0
 11
544.1
 21
428.606356
 31
0.0
  0
LINE
  8
L-ZISSEN
  6
CONTINUOUS
 62
     7
 10
429.9
 20
437.5
 30
0.0
 11
426.6
 21
437.5
 31
0.0
  0
LINE
  8
L-ZISSEN
  6
CONTINUOUS
 62
     7
 10
429.9
 20
428.5
 30
0.0
 11
426.6
 21
428.5
 31
0.0
  0
LINE
  8
L-ZISSEN
  6
CONTINUOUS
 62
     7
 10
426.6
 20
437.5
 30
0.0
 11
426.6
 21
428.5
 31
0.0
  0
LINE
  8
L-ZISSEN
 10
429.9
 20
479.0
 30
0.0
 11
429.9
 21
427.0
 31
0.0
  0
LINE
  8
L-ZISSEN
 10
431.9
 20
479.0
 30
0.0
 11
431.9
 21
427.0
 31
0.0
  0
LINE
  8
L-ZISSEN
 10
488.1
 20
479.0
 30
0.0
 11
488.1
 21
427.0
 31
0.0
  0
LINE
  8
L-ZISSEN
  6
CONTINUOUS
 62
     7
 10
544.1
 20
428.606356
 30
0.0
 11
544.1
 21
477.393644
 31
0.0
  0
LINE
  8
L-ZISSEN
 10
486.0
 20
487.0
 30
0.0
 11
434.0
 21
487.0
 31
0.0
  0
ARC
  8
L-ZISSEN
 10
460.0
 20
474.0
 30
0.0
 40
13.0
 50
125.234418
 51
54.765582
  0
CIRCLE
  8
L-ZISSEN
 10
460.0
 20
474.0
 30
0.0
 40
9.3
  0
LINE
  8
L-ZISSEN
 10
467.5
 20
487.0
 30
0.0
 11
467.5
 21
484.618381
 31
0.0
  0
LINE
  8
L-ZISSEN
 10
452.5
 20
487.0
 30
0.0
 11
452.5
 21
484.618381
 31
0.0
  0
LINE
  8
L-ZISSEN
 10
486.0
 20
488.5
 30
0.0
 11
486.0
 21
479.0
 31
0.0
  0
LINE
  8
L-ZISSEN
 10
434.0
 20
488.5
 30
0.0
 11
434.0
 21
479.0
 31
0.0
  0
LINE
  8
L-ZISSEN
 10
429.9
 20
479.0
 30
0.0
 11
434.0
 21
479.0
 31
0.0
  0
LINE
  8
L-ZISSEN
 10
486.0
 20
479.0
 30
0.0
 11
498.1
 21
479.0
 31
0.0
  0
LINE
  8
L-ZISSEN
 10
434.0
 20
488.5
 30
0.0
 11
486.0
 21
488.5
 31
0.0
  0
LINE
  8
L-ZISSEN
  6
CONTINUOUS
 62
     7
 10
441.5
 20
492.1
 30
0.0
 11
434.5
 21
492.1
 31
0.0
  0
LINE
  8
L-ZISSEN
  6
CONTINUOUS
 62
     7
 10
441.5
 20
488.5
 30
0.0
 11
441.5
 21
492.1
 31
0.0
  0
LINE
  8
L-ZISSEN
  6
CONTINUOUS
 62
     7
 10
434.5
 20
488.5
 30
0.0
 11
434.5
 21
492.1
 31
0.0
  0
LINE
  8
L-ZISSEN
  6
CONTINUOUS
 62
     7
 10
426.6
 20
477.5
 30
0.0
 11
426.6
 21
468.5
 31
0.0
  0
LINE
  8
L-ZISSEN
  6
CONTINUOUS
 62
     7
 10
429.9
 20
468.5
 30
0.0
 11
426.6
 21
468.5
 31
0.0
  0
LINE
  8
L-ZISSEN
  6
CONTINUOUS
 62
     7
 10
429.9
 20
477.5
 30
0.0
 11
426.6
 21
477.5
 31
0.0
  0
LINE
  8
L-ZISSEN
  6
CONTINUOUS
 62
     7
 10
498.1
 20
479.0
 30
0.0
 11
544.1
 21
477.393644
 31
0.0
  0
LINE
  8
L-ZISSEN
  6
CONTINUOUS
 62
     7
 10
545.1
 20
442.0
 30
0.0
 11
544.1
 21
442.0
 31
0.0
  0
LINE
  8
L-ZISSEN
  6
CONTINUOUS
 62
     7
 10
545.1
 20
464.0
 30
0.0
 11
545.1
 21
442.0
 31
0.0
  0
LINE
  8
L-ZISSEN
  6
CONTINUOUS
 62
     7
 10
545.1
 20
464.0
 30
0.0
 11
544.1
 21
464.0
 31
0.0
  0
LINE
  8
L-ZISSEN
  6
CONTINUOUS
 62
     7
 10
478.5
 20
488.5
 30
0.0
 11
478.5
 21
492.1
 31
0.0
  0
LINE
  8
L-ZISSEN
  6
CONTINUOUS
 62
     7
 10
485.5
 20
488.5
 30
0.0
 11
485.5
 21
492.1
 31
0.0
  0
LINE
  8
L-ZISSEN
  6
CONTINUOUS
 62
     7
 10
485.5
 20
492.1
 30
0.0
 11
478.5
 21
492.1
 31
0.0
  0
LINE
  8
L-TYUSIN
  6
CENTER
 62
     1
 10
439.0
 20
772.0
 30
0.0
 11
457.0
 21
772.0
 31
0.0
  0
LINE
  8
L-TYUSIN
  6
CENTER
 62
     1
 10
448.0
 20
781.0
 30
0.0
 11
448.0
 21
763.0
 31
0.0
  0
CIRCLE
  8
L-ZISSEN
 10
448.0
 20
772.0
 30
0.0
 40
5.7225
  0
LINE
  8
L-ZISSEN
  6
CONTINUOUS
 62
     7
 10
485.5
 20
727.9
 30
0.0
 11
478.5
 21
727.9
 31
0.0
  0
LINE
  8
L-ZISSEN
  6
CONTINUOUS
 62
     7
 10
485.5
 20
731.5
 30
0.0
 11
485.5
 21
727.9
 31
0.0
  0
LINE
  8
L-ZISSEN
  6
CONTINUOUS
 62
     7
 10
478.5
 20
731.5
 30
0.0
 11
478.5
 21
727.9
 31
0.0
  0
LINE
  8
L-ZISSEN
  6
CONTINUOUS
 62
     7
 10
545.1
 20
756.0
 30
0.0
 11
544.1
 21
756.0
 31
0.0
  0
LINE
  8
L-ZISSEN
  6
CONTINUOUS
 62
     7
 10
545.1
 20
756.0
 30
0.0
 11
545.1
 21
778.0
 31
0.0
  0
LINE
  8
L-ZISSEN
  6
CONTINUOUS
 62
     7
 10
545.1
 20
778.0
 30
0.0
 11
544.1
 21
778.0
 31
0.0
  0
LINE
  8
L-ZISSEN
  6
CONTINUOUS
 62
     7
 10
498.1
 20
741.0
 30
0.0
 11
544.1
 21
742.606356
 31
0.0
  0
LINE
  8
L-ZISSEN
  6
CONTINUOUS
 62
     7
 10
429.9
 20
742.5
 30
0.0
 11
426.6
 21
742.5
 31
0.0
  0
LINE
  8
L-ZISSEN
  6
CONTINUOUS
 62
     7
 10
429.9
 20
751.5
 30
0.0
 11
426.6
 21
751.5
 31
0.0
  0
LINE
  8
L-ZISSEN
  6
CONTINUOUS
 62
     7
 10
426.6
 20
742.5
 30
0.0
 11
426.6
 21
751.5
 31
0.0
  0
LINE
  8
L-ZISSEN
  6
CONTINUOUS
 62
     7
 10
434.5
 20
731.5
 30
0.0
 11
434.5
 21
727.9
 31
0.0
  0
LINE
  8
L-ZISSEN
  6
CONTINUOUS
 62
     7
 10
441.5
 20
731.5
 30
0.0
 11
441.5
 21
727.9
 31
0.0
  0
LINE
  8
L-ZISSEN
  6
CONTINUOUS
 62
     7
 10
441.5
 20
727.9
 30
0.0
 11
434.5
 21
727.9
 31
0.0
  0
LINE
  8
L-ZISSEN
 10
434.0
 20
731.5
 30
0.0
 11
486.0
 21
731.5
 31
0.0
  0
LINE
  8
L-ZISSEN
 10
486.0
 20
741.0
 30
0.0
 11
498.1
 21
741.0
 31
0.0
  0
LINE
  8
L-ZISSEN
 10
429.9
 20
741.0
 30
0.0
 11
434.0
 21
741.0
 31
0.0
  0
LINE
  8
L-ZISSEN
 10
434.0
 20
731.5
 30
0.0
 11
434.0
 21
741.0
 31
0.0
  0
LINE
  8
L-ZISSEN
 10
486.0
 20
731.5
 30
0.0
 11
486.0
 21
741.0
 31
0.0
  0
LINE
  8
L-ZISSEN
 10
452.5
 20
733.0
 30
0.0
 11
452.5
 21
735.381619
 31
0.0
  0
LINE
  8
L-ZISSEN
 10
467.5
 20
733.0
 30
0.0
 11
467.5
 21
735.381619
 31
0.0
  0
CIRCLE
  8
L-ZISSEN
 10
460.0
 20
746.0
 30
0.0
 40
9.3
  0
ARC
  8
L-ZISSEN
 10
460.0
 20
746.0
 30
0.0
 40
13.0
 50
305.234418
 51
234.765582
  0
LINE
  8
L-ZISSEN
 10
486.0
 20
733.0
 30
0.0
 11
434.0
 21
733.0
 31
0.0
  0
LINE
  8
L-ZISSEN
  6
CONTINUOUS
 62
     7
 10
544.1
 20
791.393644
 30
0.0
 11
544.1
 21
742.606356
 31
0.0
  0
LINE
  8
L-ZISSEN
 10
488.1
 20
741.0
 30
0.0
 11
488.1
 21
793.0
 31
0.0
  0
LINE
  8
L-ZISSEN
 10
431.9
 20
741.0
 30
0.0
 11
431.9
 21
793.0
 31
0.0
  0
LINE
  8
L-ZISSEN
 10
429.9
 20
741.0
 30
0.0
 11
429.9
 21
793.0
 31
0.0
  0
LINE
  8
L-ZISSEN
  6
CONTINUOUS
 62
     7
 10
426.6
 20
782.5
 30
0.0
 11
426.6
 21
791.5
 31
0.0
  0
LINE
  8
L-ZISSEN
  6
CONTINUOUS
 62
     7
 10
429.9
 20
791.5
 30
0.0
 11
426.6
 21
791.5
 31
0.0
  0
LINE
  8
L-ZISSEN
  6
CONTINUOUS
 62
     7
 10
429.9
 20
782.5
 30
0.0
 11
426.6
 21
782.5
 31
0.0
  0
LINE
  8
L-ZISSEN
  6
CONTINUOUS
 62
     7
 10
498.1
 20
793.0
 30
0.0
 11
544.1
 21
791.393644
 31
0.0
  0
LINE
  8
L-TYUSIN
 62
     1
 10
721.0
 20
448.0
 30
0.0
 11
711.0
 21
448.0
 31
0.0
  0
LINE
  8
L-ZISSEN
 10
716.0
 20
488.5
 30
0.0
 11
716.0
 21
427.0
 31
0.0
  0
LINE
  8
L-ZISSEN
 10
716.0
 20
461.0
 30
0.0
 11
718.0
 21
461.0
 31
0.0
  0
LINE
  8
L-ZISSEN
 10
718.0
 20
461.0
 30
0.0
 11
718.0
 21
487.0
 31
0.0
  0
LINE
  8
L-ZISSEN
  6
CONTINUOUS
 62
     7
 10
715.5
 20
488.5
 30
0.0
 11
715.5
 21
492.1
 31
0.0
  0
LINE
  8
L-ZISSEN
  6
CONTINUOUS
 62
     7
 10
708.5
 20
488.5
 30
0.0
 11
708.5
 21
492.1
 31
0.0
  0
LINE
  8
L-ZISSEN
  6
CONTINUOUS
 62
     7
 10
708.5
 20
492.1
 30
0.0
 11
715.5
 21
492.1
 31
0.0
  0
LINE
  8
L-ZISSEN
 10
664.0
 20
479.0
 30
0.0
 11
716.0
 21
479.0
 31
0.0
  0
LINE
  8
L-ZISSEN
 10
664.0
 20
427.0
 30
0.0
 11
664.0
 21
488.5
 31
0.0
  0
LINE
  8
L-ZISSEN
 10
664.0
 20
488.5
 30
0.0
 11
716.0
 21
488.5
 31
0.0
  0
LINE
  8
L-ZISSEN
 10
662.0
 20
487.0
 30
0.0
 11
718.0
 21
487.0
 31
0.0
  0
LINE
  8
L-ZISSEN
 10
662.0
 20
461.0
 30
0.0
 11
664.0
 21
461.0
 31
0.0
  0
LINE
  8
L-ZISSEN
  6
CONTINUOUS
 62
     7
 10
671.5
 20
492.1
 30
0.0
 11
664.5
 21
492.1
 31
0.0
  0
LINE
  8
L-ZISSEN
  6
CONTINUOUS
 62
     7
 10
671.5
 20
488.5
 30
0.0
 11
671.5
 21
492.1
 31
0.0
  0
LINE
  8
L-ZISSEN
  6
CONTINUOUS
 62
     7
 10
664.5
 20
488.5
 30
0.0
 11
664.5
 21
492.1
 31
0.0
  0
LINE
  8
L-ZISSEN
 10
662.0
 20
461.0
 30
0.0
 11
662.0
 21
487.0
 31
0.0
  0
CIRCLE
  8
L-ZISSEN
 10
690.0
 20
453.0
 30
0.0
 40
11.0
  0
LINE
  8
L-ZISSEN
 10
122.0
 20
461.0
 30
0.0
 11
122.0
 21
487.0
 31
0.0
  0
LINE
  8
L-ZISSEN
  6
CONTINUOUS
 62
     7
 10
124.5
 20
488.5
 30
0.0
 11
124.5
 21
492.1
 31
0.0
  0
LINE
  8
L-ZISSEN
  6
CONTINUOUS
 62
     7
 10
131.5
 20
488.5
 30
0.0
 11
131.5
 21
492.1
 31
0.0
  0
LINE
  8
L-ZISSEN
  6
CONTINUOUS
 62
     7
 10
131.5
 20
492.1
 30
0.0
 11
124.5
 21
492.1
 31
0.0
  0
LINE
  8
L-ZISSEN
 10
122.0
 20
461.0
 30
0.0
 11
124.0
 21
461.0
 31
0.0
  0
LINE
  8
L-ZISSEN
 10
122.0
 20
487.0
 30
0.0
 11
178.0
 21
487.0
 31
0.0
  0
LINE
  8
L-ZISSEN
 10
124.0
 20
488.5
 30
0.0
 11
176.0
 21
488.5
 31
0.0
  0
LINE
  8
L-ZISSEN
 10
124.0
 20
427.0
 30
0.0
 11
124.0
 21
488.5
 31
0.0
  0
LINE
  8
L-ZISSEN
 10
124.0
 20
479.0
 30
0.0
 11
176.0
 21
479.0
 31
0.0
  0
LINE
  8
L-ZISSEN
  6
CONTINUOUS
 62
     7
 10
168.5
 20
492.1
 30
0.0
 11
175.5
 21
492.1
 31
0.0
  0
LINE
  8
L-ZISSEN
  6
CONTINUOUS
 62
     7
 10
168.5
 20
488.5
 30
0.0
 11
168.5
 21
492.1
 31
0.0
  0
LINE
  8
L-ZISSEN
  6
CONTINUOUS
 62
     7
 10
175.5
 20
488.5
 30
0.0
 11
175.5
 21
492.1
 31
0.0
  0
LINE
  8
L-ZISSEN
 10
178.0
 20
461.0
 30
0.0
 11
178.0
 21
487.0
 31
0.0
  0
LINE
  8
L-ZISSEN
 10
176.0
 20
461.0
 30
0.0
 11
178.0
 21
461.0
 31
0.0
  0
LINE
  8
L-ZISSEN
 10
176.0
 20
488.5
 30
0.0
 11
176.0
 21
427.0
 31
0.0
  0
LINE
  8
L-TYUSIN
 62
     1
 10
119.0
 20
448.0
 30
0.0
 11
129.0
 21
448.0
 31
0.0
  0
CIRCLE
  8
L-ZISSEN
 10
170.0
 20
433.0
 30
0.0
 40
4.5
  0
CIRCLE
  8
L-ZISSEN
 10
130.0
 20
433.0
 30
0.0
 40
4.5
  0
CIRCLE
  8
L-ZISSEN
 10
130.0
 20
473.0
 30
0.0
 40
4.5
  0
CIRCLE
  8
L-ZISSEN
 10
170.0
 20
473.0
 30
0.0
 40
4.5
  0
LINE
  8
L-ZISSEN
 10
568.0
 20
62.0
 30
0.0
 11
550.250803
 21
62.0
 31
0.0
  0
LINE
  8
L-ZISSEN
 10
568.0
 20
138.0
 30
0.0
 11
550.250803
 21
138.0
 31
0.0
  0
LINE
  8
L-ZISSEN
 10
568.0
 20
138.0
 30
0.0
 11
568.0
 21
62.0
 31
0.0
  0
LINE
  8
L-ZISSEN
 10
293.410198
 20
133.0
 30
0.0
 11
278.0
 21
133.0
 31
0.0
  0
LINE
  8
L-ZISSEN
 10
278.0
 20
133.0
 30
0.0
 11
278.0
 21
67.0
 31
0.0
  0
LINE
  8
L-ZISSEN
 10
278.0
 20
67.0
 30
0.0
 11
293.410198
 21
67.0
 31
0.0
  0
LINE
  8
L-TYUSIN
  6
CENTER
 62
     1
 10
865.0
 20
191.0
 30
0.0
 11
865.0
 21
201.0
 31
0.0
  0
LINE
  8
L-ZISSEN
 10
851.0
 20
158.5
 30
0.0
 11
851.0
 21
181.5
 31
0.0
  0
CIRCLE
  8
L-ZISSEN
 10
855.0
 20
148.0
 30
0.0
 40
3.5
  0
CIRCLE
  8
L-ZISSEN
 10
855.0
 20
192.0
 30
0.0
 40
3.5
  0
CIRCLE
  8
L-ZISSEN
 10
899.0
 20
192.0
 30
0.0
 40
3.5
  0
CIRCLE
  8
L-ZISSEN
 10
899.0
 20
148.0
 30
0.0
 40
3.5
  0
LINE
  8
L-ZISSEN
 10
903.0
 20
144.0
 30
0.0
 11
903.0
 21
196.0
 31
0.0
  0
LINE
  8
L-ZISSEN
 10
851.0
 20
144.0
 30
0.0
 11
851.0
 21
196.0
 31
0.0
  0
LINE
  8
L-ZISSEN
  6
CONTINUOUS
 62
     7
 10
905.1
 20
144.0
 30
0.0
 11
905.1
 21
196.0
 31
0.0
  0
LINE
  8
L-ZISSEN
  6
CONTINUOUS
 62
     7
 10
843.6
 20
154.5
 30
0.0
 11
843.6
 21
145.5
 31
0.0
  0
LINE
  8
L-ZISSEN
  6
CONTINUOUS
 62
     7
 10
846.9
 20
145.5
 30
0.0
 11
843.6
 21
145.5
 31
0.0
  0
LINE
  8
L-ZISSEN
  6
CONTINUOUS
 62
     7
 10
846.9
 20
154.5
 30
0.0
 11
843.6
 21
154.5
 31
0.0
  0
LINE
  8
L-ZISSEN
  6
CONTINUOUS
 62
     7
 10
846.9
 20
194.5
 30
0.0
 11
843.6
 21
194.5
 31
0.0
  0
LINE
  8
L-ZISSEN
  6
CONTINUOUS
 62
     7
 10
846.9
 20
185.5
 30
0.0
 11
843.6
 21
185.5
 31
0.0
  0
LINE
  8
L-ZISSEN
  6
CONTINUOUS
 62
     7
 10
843.6
 20
194.5
 30
0.0
 11
843.6
 21
185.5
 31
0.0
  0
LINE
  8
L-ZISSEN
  6
CONTINUOUS
 62
     7
 10
846.9
 20
196.0
 30
0.0
 11
846.9
 21
144.0
 31
0.0
  0
LINE
  8
L-ZISSEN
  6
CONTINUOUS
 62
     7
 10
848.9
 20
144.0
 30
0.0
 11
848.9
 21
196.0
 31
0.0
  0
LINE
  8
L-ZISSEN
 10
864.0
 20
144.0
 30
0.0
 11
864.0
 21
142.0
 31
0.0
  0
LINE
  8
L-ZISSEN
 10
864.0
 20
198.0
 30
0.0
 11
864.0
 21
196.0
 31
0.0
  0
LINE
  8
L-ZISSEN
 10
890.0
 20
198.0
 30
0.0
 11
890.0
 21
196.0
 31
0.0
  0
LINE
  8
L-ZISSEN
 10
890.0
 20
198.0
 30
0.0
 11
864.0
 21
198.0
 31
0.0
  0
LINE
  8
L-ZISSEN
 10
890.0
 20
144.0
 30
0.0
 11
890.0
 21
142.0
 31
0.0
  0
LINE
  8
L-ZISSEN
 10
890.0
 20
142.0
 30
0.0
 11
864.0
 21
142.0
 31
0.0
  0
LINE
  8
L-ZISSEN
 10
1106.0
 20
325.5
 30
0.0
 11
1106.0
 21
264.0
 31
0.0
  0
CIRCLE
  8
L-ZISSEN
 10
1100.0
 20
270.0
 30
0.0
 40
4.49995
  0
LINE
  8
L-TYUSIN
 62
     1
 10
1111.0
 20
285.0
 30
0.0
 11
1101.0
 21
285.0
 31
0.0
  0
CIRCLE
  8
L-ZISSEN
 10
1060.0
 20
270.0
 30
0.0
 40
4.49995
  0
LINE
  8
L-ZISSEN
 10
1054.0
 20
264.0
 30
0.0
 11
1106.0
 21
264.0
 31
0.0
  0
LINE
  8
L-ZISSEN
 10
1054.0
 20
264.0
 30
0.0
 11
1054.0
 21
325.5
 31
0.0
  0
LINE
  8
L-ZISSEN
  6
CONTINUOUS
 62
     7
 10
1105.5
 20
325.5
 30
0.0
 11
1105.5
 21
329.1
 31
0.0
  0
LINE
  8
L-ZISSEN
  6
CONTINUOUS
 62
     7
 10
1098.5
 20
325.5
 30
0.0
 11
1098.5
 21
329.1
 31
0.0
  0
LINE
  8
L-ZISSEN
  6
CONTINUOUS
 62
     7
 10
1098.5
 20
329.1
 30
0.0
 11
1105.5
 21
329.1
 31
0.0
  0
LINE
  8
L-ZISSEN
 10
1054.0
 20
316.0
 30
0.0
 11
1106.0
 21
316.0
 31
0.0
  0
LINE
  8
L-ZISSEN
 10
1054.0
 20
325.5
 30
0.0
 11
1106.0
 21
325.5
 31
0.0
  0
LINE
  8
L-ZISSEN
 10
1052.0
 20
324.0
 30
0.0
 11
1108.0
 21
324.0
 31
0.0
  0
LINE
  8
L-ZISSEN
  6
CONTINUOUS
 62
     7
 10
1061.5
 20
329.1
 30
0.0
 11
1054.5
 21
329.1
 31
0.0
  0
LINE
  8
L-ZISSEN
  6
CONTINUOUS
 62
     7
 10
1061.5
 20
325.5
 30
0.0
 11
1061.5
 21
329.1
 31
0.0
  0
LINE
  8
L-ZISSEN
  6
CONTINUOUS
 62
     7
 10
1054.5
 20
325.5
 30
0.0
 11
1054.5
 21
329.1
 31
0.0
  0
CIRCLE
  8
L-ZISSEN
 10
1100.0
 20
310.0
 30
0.0
 40
4.49995
  0
CIRCLE
  8
L-ZISSEN
 10
1060.0
 20
310.0
 30
0.0
 40
4.49995
  0
LINE
  8
L-ZISSEN
 10
1106.0
 20
298.0
 30
0.0
 11
1108.0
 21
298.0
 31
0.0
  0
LINE
  8
L-ZISSEN
 10
1108.0
 20
298.0
 30
0.0
 11
1108.0
 21
324.0
 31
0.0
  0
LINE
  8
L-ZISSEN
 10
1052.0
 20
298.0
 30
0.0
 11
1054.0
 21
298.0
 31
0.0
  0
LINE
  8
L-ZISSEN
 10
1052.0
 20
298.0
 30
0.0
 11
1052.0
 21
324.0
 31
0.0
  0
LINE
  8
L-ZISSEN
  6
CONTINUOUS
 62
     7
 10
846.9
 20
274.5
 30
0.0
 11
843.6
 21
274.5
 31
0.0
  0
LINE
  8
L-ZISSEN
  6
CONTINUOUS
 62
     7
 10
846.9
 20
265.5
 30
0.0
 11
843.6
 21
265.5
 31
0.0
  0
LINE
  8
L-ZISSEN
  6
CONTINUOUS
 62
     7
 10
843.6
 20
274.5
 30
0.0
 11
843.6
 21
265.5
 31
0.0
  0
LINE
  8
L-ZISSEN
 10
846.9
 20
316.0
 30
0.0
 11
846.9
 21
264.0
 31
0.0
  0
LINE
  8
L-ZISSEN
 10
848.9
 20
316.0
 30
0.0
 11
848.9
 21
264.0
 31
0.0
  0
LINE
  8
L-ZISSEN
 10
905.1
 20
316.0
 30
0.0
 11
905.1
 21
264.0
 31
0.0
  0
LINE
  8
L-ZISSEN
 10
903.0
 20
324.0
 30
0.0
 11
851.0
 21
324.0
 31
0.0
  0
ARC
  8
L-ZISSEN
 10
877.0
 20
311.0
 30
0.0
 40
13.0
 50
125.234418
 51
54.765582
  0
CIRCLE
  8
L-ZISSEN
 10
877.0
 20
311.0
 30
0.0
 40
9.3
  0
LINE
  8
L-ZISSEN
 10
884.5
 20
324.0
 30
0.0
 11
884.5
 21
321.618381
 31
0.0
  0
LINE
  8
L-ZISSEN
 10
869.5
 20
324.0
 30
0.0
 11
869.5
 21
321.618381
 31
0.0
  0
LINE
  8
L-ZISSEN
 10
903.0
 20
325.5
 30
0.0
 11
903.0
 21
316.0
 31
0.0
  0
LINE
  8
L-ZISSEN
 10
851.0
 20
325.5
 30
0.0
 11
851.0
 21
316.0
 31
0.0
  0
LINE
  8
L-ZISSEN
 10
846.9
 20
316.0
 30
0.0
 11
851.0
 21
316.0
 31
0.0
  0
LINE
  8
L-ZISSEN
 10
851.0
 20
325.5
 30
0.0
 11
903.0
 21
325.5
 31
0.0
  0
LINE
  8
L-ZISSEN
  6
CONTINUOUS
 62
     7
 10
858.5
 20
329.1
 30
0.0
 11
851.5
 21
329.1
 31
0.0
  0
LINE
  8
L-ZISSEN
  6
CONTINUOUS
 62
     7
 10
858.5
 20
325.5
 30
0.0
 11
858.5
 21
329.1
 31
0.0
  0
LINE
  8
L-ZISSEN
  6
CONTINUOUS
 62
     7
 10
851.5
 20
325.5
 30
0.0
 11
851.5
 21
329.1
 31
0.0
  0
LINE
  8
L-ZISSEN
  6
CONTINUOUS
 62
     7
 10
843.6
 20
314.5
 30
0.0
 11
843.6
 21
305.5
 31
0.0
  0
LINE
  8
L-ZISSEN
  6
CONTINUOUS
 62
     7
 10
846.9
 20
305.5
 30
0.0
 11
843.6
 21
305.5
 31
0.0
  0
LINE
  8
L-ZISSEN
  6
CONTINUOUS
 62
     7
 10
846.9
 20
314.5
 30
0.0
 11
843.6
 21
314.5
 31
0.0
  0
LINE
  8
L-ZISSEN
  6
CONTINUOUS
 62
     7
 10
895.5
 20
325.5
 30
0.0
 11
895.5
 21
329.1
 31
0.0
  0
LINE
  8
L-ZISSEN
  6
CONTINUOUS
 62
     7
 10
902.5
 20
325.5
 30
0.0
 11
902.5
 21
329.1
 31
0.0
  0
LINE
  8
L-ZISSEN
  6
CONTINUOUS
 62
     7
 10
902.5
 20
329.1
 30
0.0
 11
895.5
 21
329.1
 31
0.0
  0
LINE
  8
L-ZISSEN
 10
846.9
 20
264.0
 30
0.0
 11
915.1
 21
264.0
 31
0.0
  0
LINE
  8
L-ZISSEN
 10
903.0
 20
316.0
 30
0.0
 11
915.1
 21
316.0
 31
0.0
  0
LINE
  8
L-ZISSEN
 10
890.0
 20
352.0
 30
0.0
 11
864.0
 21
352.0
 31
0.0
  0
LINE
  8
L-ZISSEN
 10
890.0
 20
354.0
 30
0.0
 11
890.0
 21
352.0
 31
0.0
  0
LINE
  8
L-ZISSEN
 10
890.0
 20
408.0
 30
0.0
 11
864.0
 21
408.0
 31
0.0
  0
LINE
  8
L-ZISSEN
 10
890.0
 20
408.0
 30
0.0
 11
890.0
 21
406.0
 31
0.0
  0
LINE
  8
L-ZISSEN
 10
864.0
 20
408.0
 30
0.0
 11
864.0
 21
406.0
 31
0.0
  0
LINE
  8
L-ZISSEN
 10
864.0
 20
354.0
 30
0.0
 11
864.0
 21
352.0
 31
0.0
  0
LINE
  8
L-ZISSEN
  6
CONTINUOUS
 62
     7
 10
848.9
 20
354.0
 30
0.0
 11
848.9
 21
406.0
 31
0.0
  0
LINE
  8
L-ZISSEN
  6
CONTINUOUS
 62
     7
 10
846.9
 20
406.0
 30
0.0
 11
846.9
 21
354.0
 31
0.0
  0
LINE
  8
L-ZISSEN
  6
CONTINUOUS
 62
     7
 10
843.6
 20
404.5
 30
0.0
 11
843.6
 21
395.5
 31
0.0
  0
LINE
  8
L-ZISSEN
  6
CONTINUOUS
 62
     7
 10
846.9
 20
395.5
 30
0.0
 11
843.6
 21
395.5
 31
0.0
  0
LINE
  8
L-ZISSEN
  6
CONTINUOUS
 62
     7
 10
846.9
 20
404.5
 30
0.0
 11
843.6
 21
404.5
 31
0.0
  0
LINE
  8
L-ZISSEN
  6
CONTINUOUS
 62
     7
 10
846.9
 20
364.5
 30
0.0
 11
843.6
 21
364.5
 31
0.0
  0
LINE
  8
L-ZISSEN
  6
CONTINUOUS
 62
     7
 10
846.9
 20
355.5
 30
0.0
 11
843.6
 21
355.5
 31
0.0
  0
LINE
  8
L-ZISSEN
  6
CONTINUOUS
 62
     7
 10
843.6
 20
364.5
 30
0.0
 11
843.6
 21
355.5
 31
0.0
  0
LINE
  8
L-ZISSEN
  6
CONTINUOUS
 62
     7
 10
905.1
 20
354.0
 30
0.0
 11
905.1
 21
406.0
 31
0.0
  0
LINE
  8
L-ZISSEN
 10
851.0
 20
354.0
 30
0.0
 11
851.0
 21
406.0
 31
0.0
  0
LINE
  8
L-ZISSEN
 10
903.0
 20
354.0
 30
0.0
 11
903.0
 21
406.0
 31
0.0
  0
CIRCLE
  8
L-ZISSEN
 10
899.0
 20
358.0
 30
0.0
 40
3.5
  0
CIRCLE
  8
L-ZISSEN
 10
899.0
 20
402.0
 30
0.0
 40
3.5
  0
CIRCLE
  8
L-ZISSEN
 10
855.0
 20
402.0
 30
0.0
 40
3.5
  0
CIRCLE
  8
L-ZISSEN
 10
855.0
 20
358.0
 30
0.0
 40
3.5
  0
LINE
  8
L-ZISSEN
 10
851.0
 20
368.5
 30
0.0
 11
851.0
 21
391.5
 31
0.0
  0
LINE
  8
L-TYUSIN
  6
CENTER
 62
     1
 10
865.0
 20
401.0
 30
0.0
 11
865.0
 21
411.0
 31
0.0
  0
LINE
  8
L-ZISSEN
 10
915.1
 20
406.0
 30
0.0
 11
846.9
 21
406.0
 31
0.0
  0
LINE
  8
L-ZISSEN
 10
915.1
 20
354.0
 30
0.0
 11
846.9
 21
354.0
 31
0.0
  0
LINE
  8
L-ZISSEN
  6
CONTINUOUS
 62
     7
 10
846.9
 20
484.5
 30
0.0
 11
843.6
 21
484.5
 31
0.0
  0
LINE
  8
L-ZISSEN
  6
CONTINUOUS
 62
     7
 10
846.9
 20
475.5
 30
0.0
 11
843.6
 21
475.5
 31
0.0
  0
LINE
  8
L-ZISSEN
  6
CONTINUOUS
 62
     7
 10
843.6
 20
484.5
 30
0.0
 11
843.6
 21
475.5
 31
0.0
  0
LINE
  8
L-ZISSEN
 10
846.9
 20
526.0
 30
0.0
 11
846.9
 21
474.0
 31
0.0
  0
LINE
  8
L-ZISSEN
 10
848.9
 20
526.0
 30
0.0
 11
848.9
 21
474.0
 31
0.0
  0
LINE
  8
L-ZISSEN
 10
905.1
 20
526.0
 30
0.0
 11
905.1
 21
474.0
 31
0.0
  0
LINE
  8
L-ZISSEN
 10
903.0
 20
534.0
 30
0.0
 11
851.0
 21
534.0
 31
0.0
  0
ARC
  8
L-ZISSEN
 10
877.0
 20
521.0
 30
0.0
 40
13.0
 50
125.234418
 51
54.765582
  0
CIRCLE
  8
L-ZISSEN
 10
877.0
 20
521.0
 30
0.0
 40
9.3
  0
LINE
  8
L-ZISSEN
 10
884.5
 20
534.0
 30
0.0
 11
884.5
 21
531.618381
 31
0.0
  0
LINE
  8
L-ZISSEN
 10
869.5
 20
534.0
 30
0.0
 11
869.5
 21
531.618381
 31
0.0
  0
LINE
  8
L-ZISSEN
 10
903.0
 20
535.5
 30
0.0
 11
903.0
 21
526.0
 31
0.0
  0
LINE
  8
L-ZISSEN
 10
851.0
 20
535.5
 30
0.0
 11
851.0
 21
526.0
 31
0.0
  0
LINE
  8
L-ZISSEN
 10
846.9
 20
526.0
 30
0.0
 11
851.0
 21
526.0
 31
0.0
  0
LINE
  8
L-ZISSEN
 10
851.0
 20
535.5
 30
0.0
 11
903.0
 21
535.5
 31
0.0
  0
LINE
  8
L-ZISSEN
  6
CONTINUOUS
 62
     7
 10
858.5
 20
539.1
 30
0.0
 11
851.5
 21
539.1
 31
0.0
  0
LINE
  8
L-ZISSEN
  6
CONTINUOUS
 62
     7
 10
858.5
 20
535.5
 30
0.0
 11
858.5
 21
539.1
 31
0.0
  0
LINE
  8
L-ZISSEN
  6
CONTINUOUS
 62
     7
 10
851.5
 20
535.5
 30
0.0
 11
851.5
 21
539.1
 31
0.0
  0
LINE
  8
L-ZISSEN
  6
CONTINUOUS
 62
     7
 10
843.6
 20
524.5
 30
0.0
 11
843.6
 21
515.5
 31
0.0
  0
LINE
  8
L-ZISSEN
  6
CONTINUOUS
 62
     7
 10
846.9
 20
515.5
 30
0.0
 11
843.6
 21
515.5
 31
0.0
  0
LINE
  8
L-ZISSEN
  6
CONTINUOUS
 62
     7
 10
846.9
 20
524.5
 30
0.0
 11
843.6
 21
524.5
 31
0.0
  0
LINE
  8
L-ZISSEN
  6
CONTINUOUS
 62
     7
 10
895.5
 20
535.5
 30
0.0
 11
895.5
 21
539.1
 31
0.0
  0
LINE
  8
L-ZISSEN
  6
CONTINUOUS
 62
     7
 10
902.5
 20
535.5
 30
0.0
 11
902.5
 21
539.1
 31
0.0
  0
LINE
  8
L-ZISSEN
  6
CONTINUOUS
 62
     7
 10
902.5
 20
539.1
 30
0.0
 11
895.5
 21
539.1
 31
0.0
  0
LINE
  8
L-ZISSEN
 10
890.0
 20
562.0
 30
0.0
 11
864.0
 21
562.0
 31
0.0
  0
LINE
  8
L-ZISSEN
 10
890.0
 20
564.0
 30
0.0
 11
890.0
 21
562.0
 31
0.0
  0
LINE
  8
L-ZISSEN
 10
890.0
 20
618.0
 30
0.0
 11
864.0
 21
618.0
 31
0.0
  0
LINE
  8
L-ZISSEN
 10
890.0
 20
618.0
 30
0.0
 11
890.0
 21
616.0
 31
0.0
  0
LINE
  8
L-ZISSEN
 10
864.0
 20
618.0
 30
0.0
 11
864.0
 21
616.0
 31
0.0
  0
LINE
  8
L-ZISSEN
 10
864.0
 20
564.0
 30
0.0
 11
864.0
 21
562.0
 31
0.0
  0
LINE
  8
L-ZISSEN
  6
CONTINUOUS
 62
     7
 10
848.9
 20
564.0
 30
0.0
 11
848.9
 21
616.0
 31
0.0
  0
LINE
  8
L-ZISSEN
  6
CONTINUOUS
 62
     7
 10
846.9
 20
616.0
 30
0.0
 11
846.9
 21
564.0
 31
0.0
  0
LINE
  8
L-ZISSEN
  6
CONTINUOUS
 62
     7
 10
843.6
 20
614.5
 30
0.0
 11
843.6
 21
605.5
 31
0.0
  0
LINE
  8
L-ZISSEN
  6
CONTINUOUS
 62
     7
 10
846.9
 20
605.5
 30
0.0
 11
843.6
 21
605.5
 31
0.0
  0
LINE
  8
L-ZISSEN
  6
CONTINUOUS
 62
     7
 10
846.9
 20
614.5
 30
0.0
 11
843.6
 21
614.5
 31
0.0
  0
LINE
  8
L-ZISSEN
  6
CONTINUOUS
 62
     7
 10
846.9
 20
574.5
 30
0.0
 11
843.6
 21
574.5
 31
0.0
  0
LINE
  8
L-ZISSEN
  6
CONTINUOUS
 62
     7
 10
846.9
 20
565.5
 30
0.0
 11
843.6
 21
565.5
 31
0.0
  0
LINE
  8
L-ZISSEN
  6
CONTINUOUS
 62
     7
 10
843.6
 20
574.5
 30
0.0
 11
843.6
 21
565.5
 31
0.0
  0
LINE
  8
L-ZISSEN
  6
CONTINUOUS
 62
     7
 10
905.1
 20
564.0
 30
0.0
 11
905.1
 21
616.0
 31
0.0
  0
LINE
  8
L-ZISSEN
 10
851.0
 20
564.0
 30
0.0
 11
851.0
 21
616.0
 31
0.0
  0
LINE
  8
L-ZISSEN
 10
903.0
 20
564.0
 30
0.0
 11
903.0
 21
616.0
 31
0.0
  0
CIRCLE
  8
L-ZISSEN
 10
899.0
 20
568.0
 30
0.0
 40
3.5
  0
CIRCLE
  8
L-ZISSEN
 10
899.0
 20
612.0
 30
0.0
 40
3.5
  0
CIRCLE
  8
L-ZISSEN
 10
855.0
 20
612.0
 30
0.0
 40
3.5
  0
CIRCLE
  8
L-ZISSEN
 10
855.0
 20
568.0
 30
0.0
 40
3.5
  0
LINE
  8
L-ZISSEN
 10
851.0
 20
578.5
 30
0.0
 11
851.0
 21
601.5
 31
0.0
  0
LINE
  8
L-TYUSIN
  6
CENTER
 62
     1
 10
865.0
 20
611.0
 30
0.0
 11
865.0
 21
621.0
 31
0.0
  0
LINE
  8
L-ZISSEN
 10
1106.0
 20
535.5
 30
0.0
 11
1106.0
 21
474.0
 31
0.0
  0
LINE
  8
L-TYUSIN
 62
     1
 10
1111.0
 20
495.0
 30
0.0
 11
1101.0
 21
495.0
 31
0.0
  0
LINE
  8
L-ZISSEN
 10
1054.0
 20
474.0
 30
0.0
 11
1106.0
 21
474.0
 31
0.0
  0
LINE
  8
L-ZISSEN
 10
1054.0
 20
474.0
 30
0.0
 11
1054.0
 21
535.5
 31
0.0
  0
LINE
  8
L-ZISSEN
 10
1052.0
 20
508.0
 30
0.0
 11
1054.0
 21
508.0
 31
0.0
  0
LINE
  8
L-ZISSEN
  6
CONTINUOUS
 62
     7
 10
1054.5
 20
535.5
 30
0.0
 11
1054.5
 21
539.1
 31
0.0
  0
LINE
  8
L-ZISSEN
 10
1052.0
 20
508.0
 30
0.0
 11
1052.0
 21
534.0
 31
0.0
  0
LINE
  8
L-ZISSEN
  6
CONTINUOUS
 62
     7
 10
1061.5
 20
539.1
 30
0.0
 11
1054.5
 21
539.1
 31
0.0
  0
LINE
  8
L-ZISSEN
 10
1054.0
 20
535.5
 30
0.0
 11
1106.0
 21
535.5
 31
0.0
  0
LINE
  8
L-ZISSEN
 10
1052.0
 20
534.0
 30
0.0
 11
1108.0
 21
534.0
 31
0.0
  0
LINE
  8
L-ZISSEN
 10
1054.0
 20
526.0
 30
0.0
 11
1106.0
 21
526.0
 31
0.0
  0
LINE
  8
L-ZISSEN
  6
CONTINUOUS
 62
     7
 10
1098.5
 20
535.5
 30
0.0
 11
1098.5
 21
539.1
 31
0.0
  0
LINE
  8
L-ZISSEN
  6
CONTINUOUS
 62
     7
 10
1098.5
 20
539.1
 30
0.0
 11
1105.5
 21
539.1
 31
0.0
  0
LINE
  8
L-ZISSEN
  6
CONTINUOUS
 62
     7
 10
1105.5
 20
535.5
 30
0.0
 11
1105.5
 21
539.1
 31
0.0
  0
LINE
  8
L-ZISSEN
 10
1108.0
 20
508.0
 30
0.0
 11
1108.0
 21
534.0
 31
0.0
  0
LINE
  8
L-ZISSEN
 10
1106.0
 20
508.0
 30
0.0
 11
1108.0
 21
508.0
 31
0.0
  0
LINE
  8
L-ZISSEN
  6
CONTINUOUS
 62
     7
 10
1061.5
 20
535.5
 30
0.0
 11
1061.5
 21
539.1
 31
0.0
  0
SOLID
  8
L-ZISSEN
 10
458.432344
 20
428.285911
 30
0.0
 11
458.10003
 21
427.707973
 31
0.0
 12
460.0
 22
427.0
 32
0.0
 13
460.0
 23
427.0
 33
0.0
  0
LINE
  8
L-ZISSEN
 10
458.266187
 20
427.996942
 30
0.0
 11
420.0
 21
450.0
 31
0.0
  0
LINE
  8
L-ZISSEN
 10
420.0
 20
450.0
 30
0.0
 11
418.0
 21
450.0
 31
0.0
  0
TEXT
  8
L-ZISSEN
 10
406.357143
 20
447.75
 30
0.0
 40
4.5
  1
P.P
  0
SOLID
  8
L-ZISSEN
 10
688.456513
 20
428.314822
 30
0.0
 11
688.113516
 21
427.743161
 31
0.0
 12
690.0
 22
427.0
 32
0.0
 13
690.0
 23
427.0
 33
0.0
  0
LINE
  8
L-ZISSEN
 10
688.285014
 20
428.028992
 30
0.0
 11
660.0
 21
445.0
 31
0.0
  0
LINE
  8
L-ZISSEN
 10
660.0
 20
445.0
 30
0.0
 11
658.0
 21
445.0
 31
0.0
  0
TEXT
  8
L-ZISSEN
 10
646.357143
 20
442.75
 30
0.0
 40
4.5
  1
P.P
  0
SOLID
  8
L-ZISSEN
 10
460.83205
 20
608.150999
 30
0.0
 11
461.38675
 21
608.520799
 31
0.0
 12
460.0
 22
610.0
 32
0.0
 13
460.0
 23
610.0
 33
0.0
  0
LINE
  8
L-ZISSEN
 10
461.1094
 20
608.335899
 30
0.0
 11
480.0
 21
580.0
 31
0.0
  0
LINE
  8
L-ZISSEN
 10
480.0
 20
580.0
 30
0.0
 11
482.0
 21
580.0
 31
0.0
  0
TEXT
  8
L-ZISSEN
 10
484.0
 20
577.75
 30
0.0
 40
4.5
  1
P.P
  0
SOLID
  8
L-ZISSEN
 10
1078.290423
 20
472.909835
 30
0.0
 11
1078.7364
 21
472.414306
 31
0.0
 12
1080.0
 22
474.0
 32
0.0
 13
1080.0
 23
474.0
 33
0.0
  0
LINE
  8
L-ZISSEN
 10
1078.513412
 20
472.662071
 30
0.0
 11
1070.0
 21
465.0
 31
0.0
  0
LINE
  8
L-ZISSEN
 10
1070.0
 20
465.0
 30
0.0
 11
1068.0
 21
465.0
 31
0.0
  0
TEXT
  8
L-ZISSEN
 10
1056.357143
 20
462.75
 30
0.0
 40
4.5
  1
P.P
  0
SOLID
  8
L-ZISSEN
 10
875.2
 20
473.066667
 30
0.0
 11
875.6
 21
472.533333
 31
0.0
 12
877.0
 22
474.0
 32
0.0
 13
877.0
 23
474.0
 33
0.0
  0
LINE
  8
L-ZISSEN
 10
875.4
 20
472.8
 30
0.0
 11
865.0
 21
465.0
 31
0.0
  0
LINE
  8
L-ZISSEN
 10
865.0
 20
465.0
 30
0.0
 11
863.0
 21
465.0
 31
0.0
  0
TEXT
  8
L-ZISSEN
 10
851.357143
 20
462.75
 30
0.0
 40
4.5
  1
P.P
  0
SOLID
  8
L-ZISSEN
 10
877.819787
 20
588.14553
 30
0.0
 11
878.376924
 21
588.511648
 31
0.0
 12
877.0
 22
590.0
 32
0.0
 13
877.0
 23
590.0
 33
0.0
  0
LINE
  8
L-ZISSEN
 10
878.098356
 20
588.328589
 30
0.0
 11
900.0
 21
555.0
 31
0.0
  0
LINE
  8
L-ZISSEN
 10
900.0
 20
555.0
 30
0.0
 11
902.0
 21
555.0
 31
0.0
  0
TEXT
  8
L-ZISSEN
 10
904.0
 20
552.75
 30
0.0
 40
4.5
  1
P.P
  0
SOLID
  8
L-ZISSEN
 10
877.819787
 20
378.14553
 30
0.0
 11
878.376924
 21
378.511648
 31
0.0
 12
877.0
 22
380.0
 32
0.0
 13
877.0
 23
380.0
 33
0.0
  0
LINE
  8
L-ZISSEN
 10
878.098356
 20
378.328589
 30
0.0
 11
900.0
 21
345.0
 31
0.0
  0
TEXT
  8
L-ZISSEN
 10
904.0
 20
342.75
 30
0.0
 40
4.5
  1
P.P
  0
LINE
  8
L-ZISSEN
 10
900.0
 20
345.0
 30
0.0
 11
902.0
 21
345.0
 31
0.0
  0
TEXT
  8
L-ZISSEN
 10
851.357143
 20
252.75
 30
0.0
 40
4.5
  1
P.P
  0
LINE
  8
L-ZISSEN
 10
865.0
 20
255.0
 30
0.0
 11
863.0
 21
255.0
 31
0.0
  0
LINE
  8
L-ZISSEN
 10
875.4
 20
262.8
 30
0.0
 11
865.0
 21
255.0
 31
0.0
  0
SOLID
  8
L-ZISSEN
 10
875.2
 20
263.066667
 30
0.0
 11
875.6
 21
262.533333
 31
0.0
 12
877.0
 22
264.0
 32
0.0
 13
877.0
 23
264.0
 33
0.0
  0
TEXT
  8
L-ZISSEN
 10
1056.357143
 20
252.75
 30
0.0
 40
4.5
  1
P.P
  0
LINE
  8
L-ZISSEN
 10
1070.0
 20
255.0
 30
0.0
 11
1068.0
 21
255.0
 31
0.0
  0
LINE
  8
L-ZISSEN
 10
1078.513412
 20
262.662071
 30
0.0
 11
1070.0
 21
255.0
 31
0.0
  0
SOLID
  8
L-ZISSEN
 10
1078.290423
 20
262.909835
 30
0.0
 11
1078.7364
 21
262.414306
 31
0.0
 12
1080.0
 22
264.0
 32
0.0
 13
1080.0
 23
264.0
 33
0.0
  0
SOLID
  8
L-ZISSEN
 10
877.819787
 20
168.14553
 30
0.0
 11
878.376924
 21
168.511648
 31
0.0
 12
877.0
 22
170.0
 32
0.0
 13
877.0
 23
170.0
 33
0.0
  0
LINE
  8
L-ZISSEN
 10
878.098356
 20
168.328589
 30
0.0
 11
900.0
 21
135.0
 31
0.0
  0
LINE
  8
L-ZISSEN
 10
900.0
 20
135.0
 30
0.0
 11
902.0
 21
135.0
 31
0.0
  0
TEXT
  8
L-ZISSEN
 10
904.0
 20
132.75
 30
0.0
 40
4.5
  1
P.P
  0
SOLID
  8
L-ZISSEN
 10
875.2
 20
53.066667
 30
0.0
 11
875.6
 21
52.533333
 31
0.0
 12
877.0
 22
54.0
 32
0.0
 13
877.0
 23
54.0
 33
0.0
  0
LINE
  8
L-ZISSEN
 10
875.4
 20
52.8
 30
0.0
 11
865.0
 21
45.0
 31
0.0
  0
LINE
  8
L-ZISSEN
 10
865.0
 20
45.0
 30
0.0
 11
863.0
 21
45.0
 31
0.0
  0
TEXT
  8
L-ZISSEN
 10
851.357143
 20
42.75
 30
0.0
 40
4.5
  1
P.P
  0
SOLID
  8
L-ZISSEN
 10
1078.290423
 20
52.909835
 30
0.0
 11
1078.7364
 21
52.414306
 31
0.0
 12
1080.0
 22
54.0
 32
0.0
 13
1080.0
 23
54.0
 33
0.0
  0
LINE
  8
L-ZISSEN
 10
1078.513412
 20
52.662071
 30
0.0
 11
1070.0
 21
45.0
 31
0.0
  0
LINE
  8
L-ZISSEN
 10
1070.0
 20
45.0
 30
0.0
 11
1068.0
 21
45.0
 31
0.0
  0
TEXT
  8
L-ZISSEN
 10
1056.357143
 20
42.75
 30
0.0
 40
4.5
  1
P.P
  0
TEXT
  8
L-ZISSEN
 10
1171.357143
 20
462.75
 30
0.0
 40
4.5
  1
P.P
  0
LINE
  8
L-ZISSEN
 10
1185.0
 20
465.0
 30
0.0
 11
1183.0
 21
465.0
 31
0.0
  0
LINE
  8
L-ZISSEN
 10
1195.4
 20
472.8
 30
0.0
 11
1185.0
 21
465.0
 31
0.0
  0
SOLID
  8
L-ZISSEN
 10
1195.2
 20
473.066667
 30
0.0
 11
1195.6
 21
472.533333
 31
0.0
 12
1197.0
 22
474.0
 32
0.0
 13
1197.0
 23
474.0
 33
0.0
  0
TEXT
  8
L-ZISSEN
 10
1276.357143
 20
462.75
 30
0.0
 40
4.5
  1
P.P
  0
LINE
  8
L-ZISSEN
 10
1290.0
 20
465.0
 30
0.0
 11
1288.0
 21
465.0
 31
0.0
  0
LINE
  8
L-ZISSEN
 10
1298.513412
 20
472.662071
 30
0.0
 11
1290.0
 21
465.0
 31
0.0
  0
SOLID
  8
L-ZISSEN
 10
1298.290423
 20
472.909835
 30
0.0
 11
1298.7364
 21
472.414306
 31
0.0
 12
1300.0
 22
474.0
 32
0.0
 13
1300.0
 23
474.0
 33
0.0
  0
SOLID
  8
L-ZISSEN
 10
1195.579998
 20
588.55269
 30
0.0
 11
1196.126153
 21
588.170382
 31
0.0
 12
1197.0
 22
590.0
 32
0.0
 13
1197.0
 23
590.0
 33
0.0
  0
LINE
  8
L-ZISSEN
 10
1195.853075
 20
588.361536
 30
0.0
 11
1190.0
 21
580.0
 31
0.0
  0
LINE
  8
L-ZISSEN
 10
1190.0
 20
580.0
 30
0.0
 11
1188.0
 21
580.0
 31
0.0
  0
TEXT
  8
L-ZISSEN
 10
1176.357143
 20
577.75
 30
0.0
 40
4.5
  1
P.P
  0
CIRCLE
  8
L-ZISSEN
 10
340.0
 20
300.0
 30
0.0
 40
19.476
  0
CIRCLE
  8
L-ZISSEN
 10
420.0
 20
280.0
 30
0.0
 40
19.476
  0
CIRCLE
  8
L-ZISSEN
 10
500.0
 20
300.0
 30
0.0
 40
19.476
  0
CIRCLE
  8
L-ZISSEN
 10
380.0
 20
940.0
 30
0.0
 40
19.476
  0
CIRCLE
  8
L-ZISSEN
 10
460.0
 20
940.0
 30
0.0
 40
19.476
  0
SOLID
  8
L-ZISSEN
 10
418.737328
 20
278.413566
 30
0.0
 11
419.3201
 21
278.089804
 31
0.0
 12
420.0
 22
280.0
 32
0.0
 13
420.0
 23
280.0
 33
0.0
  0
LINE
  8
L-ZISSEN
 10
419.028714
 20
278.251685
 30
0.0
 11
395.0
 21
235.0
 31
0.0
  0
LINE
  8
L-ZISSEN
 10
395.0
 20
235.0
 30
0.0
 11
393.0
 21
235.0
 31
0.0
  0
TEXT
  8
L-ZISSEN
 10
360.357143
 20
232.75
 30
0.0
 40
4.5
  1
"1" PORT
  0
TEXT
  8
L-ZISSEN
 10
360.0
 20
225.0
 30
0.0
 40
4.5
  1
Rc 1-1/4
  0
TEXT
  8
L-ZISSEN
 10
360.0
 20
215.0
 30
0.0
 40
4.5
  1
Rc 1-1/2
  0
TEXT
  8
L-ZISSEN
 10
75.0
 20
1000.0
 30
0.0
 40
4.5
  1
MODEL No. :
  0
TEXT
  8
L-ZISSEN
 10
120.0
 20
1000.0
 30
0.0
 40
4.5
  1
MVS-491-  Y
  0
TEXT
  8
L-ZISSEN
 10
157.0
 20
1004.0
 30
0.0
 40
4.5
  1
12
  0
TEXT
  8
L-ZISSEN
 10
157.0
 20
997.0
 30
0.0
 40
4.5
  1
14
  0
TEXT
  8
L-ZISSEN
 10
172.0
 20
1004.0
 30
0.0
 40
4.5
  1
AC-100V
  0
TEXT
  8
L-ZISSEN
 10
172.0
 20
997.0
 30
0.0
 40
4.5
  1
AC-200V
  0
TEXT
  8
L-ZISSEN
 10
942.0
 20
632.0
 30
0.0
 40
4.5
  1
DC-100V
  0
TEXT
  8
L-ZISSEN
 10
942.0
 20
639.0
 30
0.0
 40
4.5
  1
DC-24V
  0
TEXT
  8
L-ZISSEN
 10
885.0
 20
635.0
 30
0.0
 40
4.5
  1
MVS-491-**YH
  0
TEXT
  8
L-ZISSEN
 10
840.0
 20
635.0
 30
0.0
 40
4.5
  1
MODEL No. :
  0
TEXT
  8
L-ZISSEN
 10
840.0
 20
425.0
 30
0.0
 40
4.5
  1
MODEL No. :
  0
TEXT
  8
L-ZISSEN
 10
885.0
 20
425.0
 30
0.0
 40
4.5
  1
MVS-491-**YR
  0
TEXT
  8
L-ZISSEN
 10
942.0
 20
429.0
 30
0.0
 40
4.5
  1
AC-100V
  0
TEXT
  8
L-ZISSEN
 10
942.0
 20
422.0
 30
0.0
 40
4.5
  1
AC-200V
  0
TEXT
  8
L-ZISSEN
 10
947.0
 20
212.0
 30
0.0
 40
4.5
  1
DC-100V
  0
TEXT
  8
L-ZISSEN
 10
947.0
 20
219.0
 30
0.0
 40
4.5
  1
DC-24V
  0
TEXT
  8
L-ZISSEN
 10
885.0
 20
215.0
 30
0.0
 40
4.5
  1
MVS-491-**YHR
  0
TEXT
  8
L-ZISSEN
 10
840.0
 20
215.0
 30
0.0
 40
4.5
  1
MODEL No. :
  0
TEXT
  8
L-ZISSEN
 10
840.0
 20
645.0
 30
0.0
 40
4.5
  1
PILOT VALVE
  0
TEXT
  8
L-ZISSEN
 10
840.0
 20
435.0
 30
0.0
 40
4.5
  1
PILOT VALVE
  0
TEXT
  8
L-ZISSEN
 10
840.0
 20
225.0
 30
0.0
 40
4.5
  1
PILOT VALVE
  0
SOLID
  8
L-ZISSEN
 10
418.566279
 20
799.566279
 30
0.0
 11
419.108768
 21
799.178787
 31
0.0
 12
420.0
 22
801.0
 32
0.0
 13
420.0
 23
801.0
 33
0.0
  0
LINE
  8
L-ZISSEN
 10
418.837524
 20
799.372533
 30
0.0
 11
405.0
 21
780.0
 31
0.0
  0
LINE
  8
L-ZISSEN
 10
405.0
 20
780.0
 30
0.0
 11
403.0
 21
780.0
 31
0.0
  0
TEXT
  8
L-ZISSEN
 10
391.357143
 20
777.75
 30
0.0
 40
4.5
  1
P.P
  0
TEXT
  8
L-ZISSEN
 10
1170.0
 20
435.0
 30
0.0
 40
4.5
  1
EXTERNAL PILOT AIR SUPPLY
  0
TEXT
  8
L-ZISSEN
 10
1170.0
 20
425.0
 30
0.0
 40
4.5
  1
MODEL No. :
  0
TEXT
  8
L-ZISSEN
 10
1215.0
 20
425.0
 30
0.0
 40
4.5
  1
MVS-491-**YP
  0
CIRCLE
  8
L-ZISSEN
 10
1220.0
 20
395.0
 30
0.0
 40
5.7225
  0
SOLID
  8
L-ZISSEN
 10
1221.649916
 20
396.178511
 30
0.0
 11
1221.178511
 21
396.649916
 31
0.0
 12
1220.0
 22
395.0
 32
0.0
 13
1220.0
 23
395.0
 33
0.0
  0
LINE
  8
L-ZISSEN
 10
1221.414214
 20
396.414214
 30
0.0
 11
1230.0
 21
405.0
 31
0.0
  0
LINE
  8
L-ZISSEN
 10
1230.0
 20
405.0
 30
0.0
 11
1232.0
 21
405.0
 31
0.0
  0
TEXT
  8
L-ZISSEN
 10
1234.0
 20
402.75
 30
0.0
 40
4.5
  1
P.P
  0
LINE
  8
L-TYUSIN
 10
292.0
 20
265.0
 30
0.0
 11
292.0
 21
235.0
 31
0.0
  0
LINE
  8
L-TYUSIN
 10
548.0
 20
265.0
 30
0.0
 11
548.0
 21
235.0
 31
0.0
  0
LINE
  8
L-TYUSIN
 10
548.0
 20
985.0
 30
0.0
 11
548.0
 21
955.0
 31
0.0
  0
LINE
  8
L-TYUSIN
 10
292.0
 20
985.0
 30
0.0
 11
292.0
 21
955.0
 31
0.0
  0
ENDSEC
  0
EOF
