  0
SECTION
  2
HEADER
  9
$ACADVER
  1
AC1006
  9
$INSBASE
 10
0.0
 20
0.0
 30
0.0
  9
$EXTMIN
 10
0.0
 20
0.0
  9
$EXTMAX
 10
1321.999996
 20
720.5
  9
$LIMMIN
 10
0.0
 20
0.0
  9
$LIMMAX
 10
420.0
 20
297.0
  9
$ORTHOMODE
 70
     0
  9
$REGENMODE
 70
     1
  9
$FILLMODE
 70
     1
  9
$QTEXTMODE
 70
     0
  9
$MIRRTEXT
 70
     1
  9
$DRAGMODE
 70
     2
  9
$LTSCALE
 40
1.0
  9
$OSMODE
 70
     0
  9
$ATTMODE
 70
     1
  9
$TEXTSIZE
 40
0.2
  9
$TRACEWID
 40
0.05
  9
$TEXTSTYLE
  7
STANDARD
  9
$CLAYER
  8
L-ZISSEN
  9
$CELTYPE
  6
BYLAYER
  9
$CECOLOR
 62
   256
  9
$DIMSCALE
 40
1.0
  9
$DIMASZ
 40
1.5
  9
$DIMEXO
 40
1.0
  9
$DIMDLI
 40
0.38
  9
$DIMRND
 40
0.0
  9
$DIMDLE
 40
0.0
  9
$DIMEXE
 40
1.0
  9
$DIMTP
 40
0.0
  9
$DIMTM
 40
0.0
  9
$DIMTXT
 40
2.5
  9
$DIMCEN
 40
0.09
  9
$DIMTSZ
 40
0.0
  9
$DIMTOL
 70
     0
  9
$DIMLIM
 70
     0
  9
$DIMTIH
 70
     0
  9
$DIMTOH
 70
     0
  9
$DIMSE1
 70
     0
  9
$DIMSE2
 70
     0
  9
$DIMTAD
 70
     1
  9
$DIMZIN
 70
     0
  9
$DIMBLK
  1

  9
$DIMASO
 70
     1
  9
$DIMSHO
 70
     0
  9
$DIMPOST
  1

  9
$DIMAPOST
  1

  9
$DIMALT
 70
     0
  9
$DIMALTD
 70
     2
  9
$DIMALTF
 40
25.4
  9
$DIMLFAC
 40
1.0
  9
$DIMTOFL
 70
     1
  9
$DIMTVP
 40
0.0
  9
$DIMTIX
 70
     1
  9
$DIMSOXD
 70
     0
  9
$DIMSAH
 70
     0
  9
$DIMBLK1
  1

  9
$DIMBLK2
  1

  9
$LUNITS
 70
     2
  9
$LUPREC
 70
     4
  9
$AXISMODE
 70
     0
  9
$AXISUNIT
 10
0.0
 20
0.0
  9
$SKETCHINC
 40
0.1
  9
$FILLETRAD
 40
0.0
  9
$AUNITS
 70
     0
  9
$AUPREC
 70
     0
  9
$MENU
  1
acad
  9
$ELEVATION
 40
0.0
  9
$THICKNESS
 40
0.0
  9
$LIMCHECK
 70
     0
  9
$BLIPMODE
 70
     1
  9
$CHAMFERA
 40
0.0
  9
$CHAMFERB
 40
0.0
  9
$SKPOLY
 70
     0
  9
$TDCREATE
 40
2449657.7494608797
  9
$TDUPDATE
 40
2449657.7494608797
  9
$TDINDWG
 40
0.0000000000
  9
$TDUSRTIMER
 40
0.0000000000
  9
$USRTIMER
 70
     1
  9
$ANGBASE
 50
0.0
  9
$ANGDIR
 70
     0
  9
$PDMODE
 70
     0
  9
$PDSIZE
 40
0.0
  9
$PLINEWID
 40
0.0
  9
$COORDS
 70
     0
  9
$SPLFRAME
 70
     0
  9
$SPLINETYPE
 70
     6
  9
$SPLINESEGS
 70
     8
  9
$ATTDIA
 70
     0
  9
$ATTREQ
 70
     1
  9
$HANDLING
 70
     0
  9
$HANDSEED
  5
0
  9
$SURFTAB1
 70
     6
  9
$SURFTAB2
 70
     6
  9
$SURFTYPE
 70
     6
  9
$SURFU
 70
     6
  9
$SURFV
 70
     6
  9
$FLATLAND
 70
     0
  9
$UCSNAME
  2

  9
$UCSORG
 10
0.0
 20
0.0
 30
0.0
  9
$UCSXDIR
 10
1.0
 20
0.0
 30
0.0
  9
$UCSYDIR
 10
0.0
 20
1.0
 30
0.0
  9
$USERI1
 70
     0
  9
$USERI2
 70
     0
  9
$USERI3
 70
     0
  9
$USERI4
 70
     0
  9
$USERI5
 70
     0
  9
$USERR1
 40
0.0
  9
$USERR2
 40
0.0
  9
$USERR3
 40
0.0
  9
$USERR4
 40
0.0
  9
$USERR5
 40
0.0
  9
$WORLDVIEW
 70
     1
  0
ENDSEC
  0
SECTION
  2
TABLES
  0
TABLE
  2
VPORT
 70
     2
  0
VPORT
  2
*ACTIVE
 70
     0
 10
0.0
 20
0.0
 11
1.0
 21
1.0
 12
672.061538
 22
348.824954
 13
0.0
 23
0.0
 14
1.0
 24
1.0
 15
0.0
 25
0.0
 16
0.0
 26
0.0
 36
1.0
 17
0.0
 27
0.0
 37
0.0
 40
855.66681
 41
1.5487
 42
50.0
 43
0.0
 44
0.0
 50
0.0
 51
0.0
 71
     0
 72
   100
 73
     1
 74
     0
 75
     0
 76
     0
 77
     0
 78
     0
  0
ENDTAB
  0
TABLE
  2
LTYPE
 70
     2
  0
LTYPE
  2
CONTINUOUS
 70
    64
  3
Solid line
 72
    65
 73
     0
 40
0.0
  0
LTYPE
  2
CENTER
 70
    64
  3
_____ _ ____ _ ____ _ ____
 72
    65
 73
     4
 40
18.0
 49
15.0
 49
-1.0
 49
1.0
 49
-1.0
  0
ENDTAB
  0
TABLE
  2
LAYER
 70
     3
  0
LAYER
  2
0
 70
     0
 62
     7
  6
CONTINUOUS
  0
LAYER
  2
L-ZISSEN
 70
    64
 62
     7
  6
CONTINUOUS
  0
LAYER
  2
L-TYUSIN
 70
    64
 62
     1
  6
CENTER
  0
ENDTAB
  0
TABLE
  2
STYLE
 70
     1
  0
STYLE
  2
STANDARD
 70
    64
 40
0.0
 41
1.0
 50
0.0
 71
     0
 42
0.2
  3
txt
  4

  0
ENDTAB
  0
TABLE
  2
VIEW
 70
     0
  0
ENDTAB
  0
TABLE
  2
UCS
 70
     0
  0
ENDTAB
  0
TABLE
  2
DWGMGR
 70
     0
  0
ENDTAB
  0
ENDSEC
  0
SECTION
  2
BLOCKS
  0
ENDSEC
  0
SECTION
  2
ENTITIES
  0
LINE
  8
L-TYUSIN
 10
1040.0
 20
165.0
 30
0.0
 11
1315.0
 21
165.0
 31
0.0
  0
LINE
  8
L-ZISSEN
 10
1265.5
 20
60.969655
 30
0.0
 11
1265.5
 21
39.030345
 31
0.0
  0
LINE
  8
L-ZISSEN
 10
1265.5
 20
60.969655
 30
0.0
 11
1260.0
 21
60.969655
 31
0.0
  0
LINE
  8
L-ZISSEN
 10
1265.5
 20
39.030345
 30
0.0
 11
1260.0
 21
39.030345
 31
0.0
  0
LINE
  8
L-ZISSEN
 10
1260.0
 20
60.969655
 30
0.0
 11
1260.0
 21
39.030345
 31
0.0
  0
LINE
  8
L-ZISSEN
 10
1250.5
 20
59.2
 30
0.0
 11
1257.65
 21
59.2
 31
0.0
  0
LINE
  8
L-ZISSEN
 10
1250.5
 20
40.8
 30
0.0
 11
1257.65
 21
40.8
 31
0.0
  0
LINE
  8
L-ZISSEN
 10
1257.65
 20
58.5
 30
0.0
 11
1260.0
 21
58.5
 31
0.0
  0
LINE
  8
L-ZISSEN
 10
1257.65
 20
41.5
 30
0.0
 11
1260.0
 21
41.5
 31
0.0
  0
LINE
  8
L-ZISSEN
 10
1257.65
 20
59.2
 30
0.0
 11
1257.65
 21
40.8
 31
0.0
  0
CIRCLE
  8
L-ZISSEN
 10
1295.0
 20
50.0
 30
0.0
 40
6.5
  0
CIRCLE
  8
L-ZISSEN
 10
1295.0
 20
50.0
 30
0.0
 40
11.25
  0
LINE
  8
L-ZISSEN
 10
1250.5
 20
63.0
 30
0.0
 11
1250.5
 21
37.0
 31
0.0
  0
LINE
  8
L-ZISSEN
 10
1223.5
 20
63.0
 30
0.0
 11
1250.5
 21
63.0
 31
0.0
  0
LINE
  8
L-ZISSEN
 10
1196.5
 20
65.0
 30
0.0
 11
1223.5
 21
65.0
 31
0.0
  0
LINE
  8
L-ZISSEN
 10
1250.5
 20
37.0
 30
0.0
 11
1235.5
 21
37.0
 31
0.0
  0
LINE
  8
L-ZISSEN
 10
1196.5
 20
65.0
 30
0.0
 11
1196.5
 21
43.0
 31
0.0
  0
LINE
  8
L-ZISSEN
 10
1223.5
 20
65.0
 30
0.0
 11
1223.5
 21
43.0
 31
0.0
  0
LINE
  8
L-ZISSEN
 10
1224.5
 20
40.5
 30
0.0
 11
1240.5
 21
40.5
 31
0.0
  0
LINE
  8
L-ZISSEN
 10
1195.5
 20
43.0
 30
0.0
 11
1195.5
 21
37.0
 31
0.0
  0
LINE
  8
L-ZISSEN
 10
1224.5
 20
43.0
 30
0.0
 11
1224.5
 21
37.0
 31
0.0
  0
LINE
  8
L-ZISSEN
 10
1240.5
 20
40.5
 30
0.0
 11
1240.5
 21
37.0
 31
0.0
  0
LINE
  8
L-ZISSEN
 10
1195.5
 20
43.0
 30
0.0
 11
1224.5
 21
43.0
 31
0.0
  0
LINE
  8
L-ZISSEN
 10
1223.5
 20
92.0
 30
0.0
 11
1250.5
 21
92.0
 31
0.0
  0
LINE
  8
L-ZISSEN
 10
1250.5
 20
118.0
 30
0.0
 11
1223.5
 21
118.0
 31
0.0
  0
LINE
  8
L-ZISSEN
 10
1250.5
 20
92.0
 30
0.0
 11
1250.5
 21
118.0
 31
0.0
  0
LINE
  8
L-ZISSEN
 10
1257.65
 20
95.8
 30
0.0
 11
1257.65
 21
114.2
 31
0.0
  0
LINE
  8
L-ZISSEN
 10
1257.65
 20
113.5
 30
0.0
 11
1260.0
 21
113.5
 31
0.0
  0
LINE
  8
L-ZISSEN
 10
1257.65
 20
96.5
 30
0.0
 11
1260.0
 21
96.5
 31
0.0
  0
LINE
  8
L-ZISSEN
 10
1250.5
 20
114.2
 30
0.0
 11
1257.65
 21
114.2
 31
0.0
  0
LINE
  8
L-ZISSEN
 10
1250.5
 20
95.8
 30
0.0
 11
1257.65
 21
95.8
 31
0.0
  0
LINE
  8
L-ZISSEN
 10
1260.0
 20
94.030345
 30
0.0
 11
1260.0
 21
115.969655
 31
0.0
  0
LINE
  8
L-ZISSEN
 10
1265.5
 20
115.969655
 30
0.0
 11
1260.0
 21
115.969655
 31
0.0
  0
LINE
  8
L-ZISSEN
 10
1265.5
 20
94.030345
 30
0.0
 11
1260.0
 21
94.030345
 31
0.0
  0
LINE
  8
L-ZISSEN
 10
1265.5
 20
94.030345
 30
0.0
 11
1265.5
 21
115.969655
 31
0.0
  0
LINE
  8
L-ZISSEN
 10
1223.5
 20
91.5
 30
0.0
 11
1223.5
 21
118.5
 31
0.0
  0
LINE
  8
L-ZISSEN
 10
1196.5
 20
91.5
 30
0.0
 11
1196.5
 21
118.5
 31
0.0
  0
LINE
  8
L-ZISSEN
 10
1196.5
 20
91.5
 30
0.0
 11
1223.5
 21
91.5
 31
0.0
  0
LINE
  8
L-ZISSEN
 10
1196.5
 20
118.5
 30
0.0
 11
1223.5
 21
118.5
 31
0.0
  0
LINE
  8
L-ZISSEN
 10
1195.5
 20
119.5
 30
0.0
 11
1195.5
 21
90.5
 31
0.0
  0
LINE
  8
L-ZISSEN
 10
1195.5
 20
90.5
 30
0.0
 11
1224.5
 21
90.5
 31
0.0
  0
LINE
  8
L-ZISSEN
 10
1224.5
 20
90.5
 30
0.0
 11
1224.5
 21
92.0
 31
0.0
  0
LINE
  8
L-ZISSEN
 10
1224.5
 20
119.5
 30
0.0
 11
1195.5
 21
119.5
 31
0.0
  0
LINE
  8
L-ZISSEN
 10
1224.5
 20
118.0
 30
0.0
 11
1224.5
 21
119.5
 31
0.0
  0
LINE
  8
L-ZISSEN
 10
1309.5
 20
43.0
 30
0.0
 11
1308.0
 21
43.0
 31
0.0
  0
LINE
  8
L-ZISSEN
 10
1280.5
 20
43.0
 30
0.0
 11
1280.5
 21
37.0
 31
0.0
  0
LINE
  8
L-ZISSEN
 10
1309.5
 20
43.0
 30
0.0
 11
1309.5
 21
37.0
 31
0.0
  0
LINE
  8
L-ZISSEN
 10
1281.5
 20
65.0
 30
0.0
 11
1281.5
 21
43.0
 31
0.0
  0
LINE
  8
L-ZISSEN
 10
1308.5
 20
65.0
 30
0.0
 11
1308.5
 21
43.0
 31
0.0
  0
LINE
  8
L-ZISSEN
 10
1308.5
 20
65.0
 30
0.0
 11
1281.5
 21
65.0
 31
0.0
  0
LINE
  8
L-ZISSEN
 10
1309.5
 20
40.5
 30
0.0
 11
1303.87412
 21
40.5
 31
0.0
  0
LINE
  8
L-ZISSEN
 10
1283.5
 20
40.5
 30
0.0
 11
1283.5
 21
37.0
 31
0.0
  0
LINE
  8
L-ZISSEN
 10
1306.5
 20
40.5
 30
0.0
 11
1306.5
 21
37.0
 31
0.0
  0
LINE
  8
L-ZISSEN
 10
1286.12588
 20
40.5
 30
0.0
 11
1280.5
 21
40.5
 31
0.0
  0
CIRCLE
  8
L-ZISSEN
 10
1295.0
 20
50.0
 30
0.0
 40
13.0
  0
LINE
  8
L-ZISSEN
 10
1308.0
 20
50.0
 30
0.0
 11
1308.0
 21
40.5
 31
0.0
  0
LINE
  8
L-ZISSEN
 10
1282.0
 20
50.0
 30
0.0
 11
1282.0
 21
40.5
 31
0.0
  0
LINE
  8
L-ZISSEN
 10
1282.0
 20
43.0
 30
0.0
 11
1280.5
 21
43.0
 31
0.0
  0
TEXT
  8
L-ZISSEN
 10
1050.0
 20
150.0
 30
0.0
 40
4.5
  1
ELECTRICAL CONNECTION
  0
TEXT
  8
L-ZISSEN
 10
1050.0
 20
140.0
 30
0.0
 40
4.5
  1
MODEL No. :
  0
TEXT
  8
L-ZISSEN
 10
1095.0
 20
140.0
 30
0.0
 40
4.5
  1
MVD-4*2-0*YM1
  0
LINE
  8
L-TYUSIN
 10
1040.0
 20
335.0
 30
0.0
 11
1040.0
 21
15.0
 31
0.0
  0
LINE
  8
L-ZISSEN
 10
1235.5
 20
90.0
 30
0.0
 11
1235.5
 21
92.0
 31
0.0
  0
LINE
  8
L-ZISSEN
 10
1235.5
 20
118.0
 30
0.0
 11
1235.5
 21
120.0
 31
0.0
  0
LINE
  8
L-TYUSIN
 10
1040.0
 20
265.0
 30
0.0
 11
1200.0
 21
265.0
 31
0.0
  0
TEXT
  8
L-ZISSEN
 10
1050.0
 20
320.0
 30
0.0
 40
4.5
  1
EXTERNAL PILOT AIR SUPPLY
  0
TEXT
  8
L-ZISSEN
 10
1050.0
 20
310.0
 30
0.0
 40
4.5
  1
MODEL No. :
  0
TEXT
  8
L-ZISSEN
 10
1095.0
 20
310.0
 30
0.0
 40
4.5
  1
MVD-4*2-0*YP
  0
TEXT
  8
L-ZISSEN
 10
1050.0
 20
250.0
 30
0.0
 40
4.5
  1
LOCK TYPE MANUAL OPERATION BUTTON
  0
TEXT
  8
L-ZISSEN
 10
1050.0
 20
240.0
 30
0.0
 40
4.5
  1
MODEL No. :
  0
TEXT
  8
L-ZISSEN
 10
1095.0
 20
240.0
 30
0.0
 40
4.5
  1
MVD-4*2-0*YR
  0
LINE
  8
L-ZISSEN
 10
1107.886751
 20
210.0
 30
0.0
 11
1110.773503
 21
215.0
 31
0.0
  0
LINE
  8
L-ZISSEN
 10
1110.773503
 20
215.0
 30
0.0
 11
1107.886751
 21
220.0
 31
0.0
  0
LINE
  8
L-ZISSEN
 10
1107.886751
 20
220.0
 30
0.0
 11
1102.113249
 21
220.0
 31
0.0
  0
LINE
  8
L-ZISSEN
 10
1102.113249
 20
220.0
 30
0.0
 11
1099.226497
 21
215.0
 31
0.0
  0
LINE
  8
L-ZISSEN
 10
1099.226497
 20
215.0
 30
0.0
 11
1102.113249
 21
210.0
 31
0.0
  0
LINE
  8
L-ZISSEN
 10
1102.113249
 20
210.0
 30
0.0
 11
1107.886751
 21
210.0
 31
0.0
  0
LINE
  8
L-ZISSEN
 10
1099.226497
 20
201.6
 30
0.0
 11
1099.226497
 21
190.0
 31
0.0
  0
LINE
  8
L-ZISSEN
 10
1110.773503
 20
201.6
 30
0.0
 11
1110.773503
 21
190.0
 31
0.0
  0
LINE
  8
L-ZISSEN
 10
1099.226497
 20
201.6
 30
0.0
 11
1110.773503
 21
201.6
 31
0.0
  0
LINE
  8
L-ZISSEN
 10
1280.5
 20
39.0
 30
0.0
 11
1279.0
 21
39.0
 31
0.0
  0
LINE
  8
L-ZISSEN
 10
1311.0
 20
39.0
 30
0.0
 11
1309.5
 21
39.0
 31
0.0
  0
SOLID
  8
L-ZISSEN
 10
1103.821489
 20
216.649916
 30
0.0
 11
1103.350084
 21
216.178511
 31
0.0
 12
1105.0
 22
215.0
 32
0.0
 13
1105.0
 23
215.0
 33
0.0
  0
LINE
  8
L-ZISSEN
 10
1103.585786
 20
216.414214
 30
0.0
 11
1095.0
 21
225.0
 31
0.0
  0
LINE
  8
L-ZISSEN
 10
1095.0
 20
225.0
 30
0.0
 11
1093.0
 21
225.0
 31
0.0
  0
TEXT
  8
L-ZISSEN
 10
1082.0
 20
222.75
 30
0.0
 40
4.5
  1
P.P
  0
CIRCLE
  8
L-ZISSEN
 10
1105.0
 20
290.0
 30
0.0
 40
5.7225
  0
SOLID
  8
L-ZISSEN
 10
1106.178511
 20
288.350084
 30
0.0
 11
1106.649916
 21
288.821489
 31
0.0
 12
1105.0
 22
290.0
 32
0.0
 13
1105.0
 23
290.0
 33
0.0
  0
LINE
  8
L-ZISSEN
 10
1106.414214
 20
288.585786
 30
0.0
 11
1115.0
 21
280.0
 31
0.0
  0
LINE
  8
L-ZISSEN
 10
1115.0
 20
280.0
 30
0.0
 11
1117.0
 21
280.0
 31
0.0
  0
TEXT
  8
L-ZISSEN
 10
1119.0
 20
277.75
 30
0.0
 40
4.5
  1
P.P
  0
TEXT
  8
L-ZISSEN
 10
600.0
 20
430.0
 30
0.0
 40
4.5
  1
SUB-BASE CONNECTION
  0
LINE
  8
L-TYUSIN
 10
48.6
 20
360.0
 30
0.0
 11
391.4
 21
360.0
 31
0.0
  0
LINE
  8
L-TYUSIN
 10
220.0
 20
409.0
 30
0.0
 11
220.0
 21
311.0
 31
0.0
  0
LINE
  8
L-ZISSEN
 10
145.1
 20
323.0
 30
0.0
 11
145.1
 21
345.0
 31
0.0
  0
LINE
  8
L-ZISSEN
 10
163.1
 20
404.0
 30
0.0
 11
276.9
 21
404.0
 31
0.0
  0
LINE
  8
L-ZISSEN
 10
294.9
 20
397.0
 30
0.0
 11
294.9
 21
375.0
 31
0.0
  0
LINE
  8
L-ZISSEN
 10
276.9
 20
316.0
 30
0.0
 11
163.1
 21
316.0
 31
0.0
  0
LINE
  8
L-ZISSEN
 10
294.9
 20
177.0
 30
0.0
 11
294.9
 21
109.0
 31
0.0
  0
LINE
  8
L-ZISSEN
 10
145.1
 20
109.0
 30
0.0
 11
145.1
 21
177.0
 31
0.0
  0
LINE
  8
L-TYUSIN
 10
46.6
 20
140.0
 30
0.0
 11
393.4
 21
140.0
 31
0.0
  0
LINE
  8
L-ZISSEN
 10
275.0
 20
178.0
 30
0.0
 11
237.0
 21
178.0
 31
0.0
  0
LINE
  8
L-ZISSEN
 10
368.4
 20
110.0
 30
0.0
 11
71.6
 21
110.0
 31
0.0
  0
LINE
  8
L-TYUSIN
 10
438.0
 20
140.0
 30
0.0
 11
522.0
 21
140.0
 31
0.0
  0
LINE
  8
L-TYUSIN
 10
220.0
 20
183.0
 30
0.0
 11
220.0
 21
56.0
 31
0.0
  0
LINE
  8
L-TYUSIN
 10
480.0
 20
269.7
 30
0.0
 11
480.0
 21
46.0
 31
0.0
  0
LINE
  8
L-ZISSEN
 10
368.4
 20
170.0
 30
0.0
 11
283.9
 21
170.0
 31
0.0
  0
LINE
  8
L-ZISSEN
 10
283.9
 20
170.0
 30
0.0
 11
283.9
 21
120.0
 31
0.0
  0
LINE
  8
L-ZISSEN
 10
283.9
 20
120.0
 30
0.0
 11
156.1
 21
120.0
 31
0.0
  0
LINE
  8
L-ZISSEN
 10
156.1
 20
120.0
 30
0.0
 11
156.1
 21
170.0
 31
0.0
  0
LINE
  8
L-ZISSEN
 10
156.1
 20
170.0
 30
0.0
 11
71.6
 21
170.0
 31
0.0
  0
LINE
  8
L-ZISSEN
 10
361.9
 20
177.0
 30
0.0
 11
256.0
 21
177.0
 31
0.0
  0
LINE
  8
L-ZISSEN
 10
275.0
 20
177.0
 30
0.0
 11
275.0
 21
178.0
 31
0.0
  0
LINE
  8
L-ZISSEN
 10
237.0
 20
177.0
 30
0.0
 11
237.0
 21
178.0
 31
0.0
  0
LINE
  8
L-ZISSEN
 10
203.0
 20
177.0
 30
0.0
 11
203.0
 21
178.0
 31
0.0
  0
LINE
  8
L-ZISSEN
 10
165.0
 20
177.0
 30
0.0
 11
165.0
 21
178.0
 31
0.0
  0
LINE
  8
L-ZISSEN
 10
165.0
 20
178.0
 30
0.0
 11
203.0
 21
178.0
 31
0.0
  0
LINE
  8
L-ZISSEN
 10
256.0
 20
161.12463
 30
0.0
 11
256.0
 21
178.0
 31
0.0
  0
LINE
  8
L-ZISSEN
 10
244.0
 20
165.0
 30
0.0
 11
244.0
 21
178.0
 31
0.0
  0
LINE
  8
L-ZISSEN
 10
244.0
 20
177.0
 30
0.0
 11
184.0
 21
177.0
 31
0.0
  0
LINE
  8
L-ZISSEN
 10
156.1
 20
161.12463
 30
0.0
 11
172.0
 21
161.12463
 31
0.0
  0
LINE
  8
L-ZISSEN
 10
256.0
 20
161.12463
 30
0.0
 11
283.9
 21
161.12463
 31
0.0
  0
LINE
  8
L-ZISSEN
 10
172.0
 20
161.12463
 30
0.0
 11
172.0
 21
178.0
 31
0.0
  0
LINE
  8
L-ZISSEN
 10
184.0
 20
161.12463
 30
0.0
 11
184.0
 21
178.0
 31
0.0
  0
LINE
  8
L-ZISSEN
 10
184.0
 20
161.12463
 30
0.0
 11
187.0
 21
161.12463
 31
0.0
  0
LINE
  8
L-ZISSEN
 10
172.0
 20
177.0
 30
0.0
 11
78.1
 21
177.0
 31
0.0
  0
LINE
  8
L-ZISSEN
 10
255.0
 20
152.5
 30
0.0
 11
235.0
 21
152.5
 31
0.0
  0
LINE
  8
L-ZISSEN
 10
255.0
 20
152.5
 30
0.0
 11
255.0
 21
120.0
 31
0.0
  0
LINE
  8
L-ZISSEN
 10
235.0
 20
152.5
 30
0.0
 11
235.0
 21
120.0
 31
0.0
  0
LINE
  8
L-ZISSEN
 10
185.0
 20
152.5
 30
0.0
 11
185.0
 21
120.0
 31
0.0
  0
LINE
  8
L-ZISSEN
 10
205.0
 20
152.5
 30
0.0
 11
205.0
 21
120.0
 31
0.0
  0
LINE
  8
L-ZISSEN
 10
185.0
 20
152.5
 30
0.0
 11
205.0
 21
152.5
 31
0.0
  0
LINE
  8
L-ZISSEN
 10
524.0
 20
110.0
 30
0.0
 11
436.0
 21
110.0
 31
0.0
  0
LINE
  8
L-ZISSEN
 10
492.5
 20
177.0
 30
0.0
 11
467.5
 21
177.0
 31
0.0
  0
LINE
  8
L-ZISSEN
 10
361.9
 20
376.0
 30
0.0
 11
268.0
 21
376.0
 31
0.0
  0
LINE
  8
L-ZISSEN
 10
361.9
 20
344.0
 30
0.0
 11
256.0
 21
344.0
 31
0.0
  0
LINE
  8
L-ZISSEN
 10
283.9
 20
397.0
 30
0.0
 11
283.9
 21
376.0
 31
0.0
  0
LINE
  8
L-ZISSEN
 10
156.1
 20
323.0
 30
0.0
 11
156.1
 21
344.0
 31
0.0
  0
LINE
  8
L-ZISSEN
 10
78.1
 20
347.5
 30
0.0
 11
122.1
 21
347.5
 31
0.0
  0
LINE
  8
L-ZISSEN
 10
78.1
 20
372.5
 30
0.0
 11
122.1
 21
372.5
 31
0.0
  0
LINE
  8
L-ZISSEN
 10
156.1
 20
376.0
 30
0.0
 11
156.1
 21
397.0
 31
0.0
  0
LINE
  8
L-ZISSEN
 10
283.9
 20
344.0
 30
0.0
 11
283.9
 21
323.0
 31
0.0
  0
LINE
  8
L-ZISSEN
 10
165.0
 20
376.0
 30
0.0
 11
165.0
 21
375.0
 31
0.0
  0
LINE
  8
L-ZISSEN
 10
203.0
 20
344.0
 30
0.0
 11
203.0
 21
376.0
 31
0.0
  0
LINE
  8
L-ZISSEN
 10
237.0
 20
344.0
 30
0.0
 11
237.0
 21
376.0
 31
0.0
  0
LINE
  8
L-ZISSEN
 10
275.0
 20
376.0
 30
0.0
 11
275.0
 21
375.0
 31
0.0
  0
LINE
  8
L-ZISSEN
 10
317.9
 20
372.5
 30
0.0
 11
361.9
 21
372.5
 31
0.0
  0
LINE
  8
L-ZISSEN
 10
317.9
 20
347.5
 30
0.0
 11
361.9
 21
347.5
 31
0.0
  0
LINE
  8
L-ZISSEN
 10
203.0
 20
347.5
 30
0.0
 11
237.0
 21
347.5
 31
0.0
  0
LINE
  8
L-ZISSEN
 10
203.0
 20
372.5
 30
0.0
 11
237.0
 21
372.5
 31
0.0
  0
LINE
  8
L-ZISSEN
 10
368.4
 20
323.0
 30
0.0
 11
283.9
 21
323.0
 31
0.0
  0
LINE
  8
L-ZISSEN
 10
368.4
 20
397.0
 30
0.0
 11
283.9
 21
397.0
 31
0.0
  0
LINE
  8
L-ZISSEN
 10
283.9
 20
397.0
 30
0.0
 11
276.9
 21
404.0
 31
0.0
  0
LINE
  8
L-ZISSEN
 10
156.1
 20
397.0
 30
0.0
 11
71.6
 21
397.0
 31
0.0
  0
LINE
  8
L-ZISSEN
 10
156.1
 20
397.0
 30
0.0
 11
163.1
 21
404.0
 31
0.0
  0
LINE
  8
L-ZISSEN
 10
283.9
 20
323.0
 30
0.0
 11
276.9
 21
316.0
 31
0.0
  0
LINE
  8
L-ZISSEN
 10
156.1
 20
323.0
 30
0.0
 11
163.1
 21
316.0
 31
0.0
  0
LINE
  8
L-ZISSEN
 10
156.1
 20
323.0
 30
0.0
 11
71.6
 21
323.0
 31
0.0
  0
LINE
  8
L-ZISSEN
 10
260.0
 20
567.5
 30
0.0
 11
260.0
 21
600.0
 31
0.0
  0
LINE
  8
L-ZISSEN
 10
280.0
 20
567.5
 30
0.0
 11
280.0
 21
600.0
 31
0.0
  0
LINE
  8
L-ZISSEN
 10
280.0
 20
567.5
 30
0.0
 11
260.0
 21
567.5
 31
0.0
  0
LINE
  8
L-ZISSEN
 10
268.0
 20
543.0
 30
0.0
 11
361.9
 21
543.0
 31
0.0
  0
LINE
  8
L-ZISSEN
 10
256.0
 20
558.87537
 30
0.0
 11
253.357003
 21
558.87537
 31
0.0
  0
LINE
  8
L-ZISSEN
 10
256.0
 20
558.87537
 30
0.0
 11
256.0
 21
542.0
 31
0.0
  0
LINE
  8
L-ZISSEN
 10
268.0
 20
555.0
 30
0.0
 11
268.0
 21
542.0
 31
0.0
  0
LINE
  8
L-ZISSEN
 10
184.0
 20
558.87537
 30
0.0
 11
178.0
 21
558.87537
 31
0.0
  0
LINE
  8
L-ZISSEN
 10
283.9
 20
558.87537
 30
0.0
 11
278.0
 21
558.87537
 31
0.0
  0
LINE
  8
L-ZISSEN
 10
196.0
 20
543.0
 30
0.0
 11
256.0
 21
543.0
 31
0.0
  0
LINE
  8
L-ZISSEN
 10
196.0
 20
558.87537
 30
0.0
 11
196.0
 21
542.0
 31
0.0
  0
LINE
  8
L-ZISSEN
 10
184.0
 20
558.87537
 30
0.0
 11
184.0
 21
542.0
 31
0.0
  0
LINE
  8
L-ZISSEN
 10
275.0
 20
542.0
 30
0.0
 11
237.0
 21
542.0
 31
0.0
  0
LINE
  8
L-ZISSEN
 10
275.0
 20
543.0
 30
0.0
 11
275.0
 21
542.0
 31
0.0
  0
LINE
  8
L-ZISSEN
 10
237.0
 20
543.0
 30
0.0
 11
237.0
 21
542.0
 31
0.0
  0
LINE
  8
L-ZISSEN
 10
203.0
 20
543.0
 30
0.0
 11
203.0
 21
542.0
 31
0.0
  0
LINE
  8
L-ZISSEN
 10
165.0
 20
543.0
 30
0.0
 11
165.0
 21
542.0
 31
0.0
  0
LINE
  8
L-ZISSEN
 10
78.1
 20
543.0
 30
0.0
 11
184.0
 21
543.0
 31
0.0
  0
LINE
  8
L-ZISSEN
 10
156.1
 20
550.0
 30
0.0
 11
71.6
 21
550.0
 31
0.0
  0
LINE
  8
L-ZISSEN
 10
156.1
 20
600.0
 30
0.0
 11
156.1
 21
550.0
 31
0.0
  0
LINE
  8
L-ZISSEN
 10
283.9
 20
600.0
 30
0.0
 11
156.1
 21
600.0
 31
0.0
  0
LINE
  8
L-ZISSEN
 10
283.9
 20
550.0
 30
0.0
 11
283.9
 21
600.0
 31
0.0
  0
LINE
  8
L-ZISSEN
 10
368.4
 20
550.0
 30
0.0
 11
283.9
 21
550.0
 31
0.0
  0
LINE
  8
L-ZISSEN
 10
368.4
 20
610.0
 30
0.0
 11
71.6
 21
610.0
 31
0.0
  0
LINE
  8
L-ZISSEN
 10
165.0
 20
542.0
 30
0.0
 11
203.0
 21
542.0
 31
0.0
  0
LINE
  8
L-TYUSIN
 10
46.6
 20
580.0
 30
0.0
 11
393.4
 21
580.0
 31
0.0
  0
LINE
  8
L-ZISSEN
 10
145.1
 20
611.0
 30
0.0
 11
145.1
 21
543.0
 31
0.0
  0
LINE
  8
L-ZISSEN
 10
294.9
 20
543.0
 30
0.0
 11
294.9
 21
611.0
 31
0.0
  0
LINE
  8
L-TYUSIN
 10
220.0
 20
537.0
 30
0.0
 11
220.0
 21
664.0
 31
0.0
  0
LINE
  8
L-ZISSEN
 10
180.0
 20
567.5
 30
0.0
 11
180.0
 21
600.0
 31
0.0
  0
LINE
  8
L-ZISSEN
 10
160.0
 20
567.5
 30
0.0
 11
180.0
 21
567.5
 31
0.0
  0
LINE
  8
L-ZISSEN
 10
160.0
 20
567.5
 30
0.0
 11
160.0
 21
600.0
 31
0.0
  0
CIRCLE
  8
L-ZISSEN
 10
242.0
 20
555.0
 30
0.0
 40
12.0
  0
CIRCLE
  8
L-ZISSEN
 10
210.0
 20
555.0
 30
0.0
 40
12.0
  0
LINE
  8
L-ZISSEN
 10
198.642997
 20
558.87537
 30
0.0
 11
196.0
 21
558.87537
 31
0.0
  0
LINE
  8
L-ZISSEN
 10
230.642997
 20
558.87537
 30
0.0
 11
221.357003
 21
558.87537
 31
0.0
  0
LINE
  8
L-ZISSEN
 10
198.0
 20
392.0
 30
0.0
 11
198.0
 21
376.0
 31
0.0
  0
LINE
  8
L-ZISSEN
 10
156.1
 20
392.0
 30
0.0
 11
160.0
 21
392.0
 31
0.0
  0
LINE
  8
L-ZISSEN
 10
156.1
 20
328.0
 30
0.0
 11
185.0
 21
328.0
 31
0.0
  0
LINE
  8
L-ZISSEN
 10
222.0
 20
392.0
 30
0.0
 11
222.0
 21
376.0
 31
0.0
  0
LINE
  8
L-ZISSEN
 10
230.0
 20
392.0
 30
0.0
 11
230.0
 21
376.0
 31
0.0
  0
LINE
  8
L-ZISSEN
 10
254.0
 20
392.0
 30
0.0
 11
254.0
 21
376.0
 31
0.0
  0
ARC
  8
L-ZISSEN
 10
270.0
 20
394.0
 30
0.0
 40
10.0
 50
0.0
 51
180.0
  0
LINE
  8
L-ZISSEN
 10
260.0
 20
394.0
 30
0.0
 11
260.0
 21
381.656854
 31
0.0
  0
LINE
  8
L-ZISSEN
 10
280.0
 20
394.0
 30
0.0
 11
280.0
 21
376.0
 31
0.0
  0
LINE
  8
L-ZISSEN
 10
280.0
 20
392.0
 30
0.0
 11
283.9
 21
392.0
 31
0.0
  0
LINE
  8
L-ZISSEN
 10
180.0
 20
394.0
 30
0.0
 11
180.0
 21
382.0
 31
0.0
  0
ARC
  8
L-ZISSEN
 10
170.0
 20
394.0
 30
0.0
 40
10.0
 50
0.0
 51
180.0
  0
LINE
  8
L-ZISSEN
 10
160.0
 20
394.0
 30
0.0
 11
160.0
 21
376.0
 31
0.0
  0
LINE
  8
L-ZISSEN
 10
180.0
 20
392.0
 30
0.0
 11
260.0
 21
392.0
 31
0.0
  0
ARC
  8
L-ZISSEN
 10
190.0
 20
376.0
 30
0.0
 40
6.0
 50
0.0
 51
180.0
  0
ARC
  8
L-ZISSEN
 10
178.0
 20
344.0
 30
0.0
 40
6.0
 50
180.0
 51
0.0
  0
LINE
  8
L-ZISSEN
 10
184.0
 20
376.0
 30
0.0
 11
78.1
 21
376.0
 31
0.0
  0
LINE
  8
L-ZISSEN
 10
172.5
 20
344.0
 30
0.0
 11
78.1
 21
344.0
 31
0.0
  0
ARC
  8
L-ZISSEN
 10
262.0
 20
376.0
 30
0.0
 40
6.0
 50
0.0
 51
180.0
  0
ARC
  8
L-ZISSEN
 10
250.0
 20
344.0
 30
0.0
 40
6.0
 50
180.0
 51
0.0
  0
LINE
  8
L-ZISSEN
 10
256.0
 20
376.0
 30
0.0
 11
237.0
 21
376.0
 31
0.0
  0
LINE
  8
L-ZISSEN
 10
244.0
 20
344.0
 30
0.0
 11
184.0
 21
344.0
 31
0.0
  0
LINE
  8
L-ZISSEN
 10
230.0
 20
376.0
 30
0.0
 11
222.0
 21
376.0
 31
0.0
  0
LINE
  8
L-ZISSEN
 10
203.0
 20
376.0
 30
0.0
 11
196.0
 21
376.0
 31
0.0
  0
LINE
  8
L-ZISSEN
 10
205.0
 20
326.0
 30
0.0
 11
205.0
 21
344.0
 31
0.0
  0
ARC
  8
L-ZISSEN
 10
195.0
 20
326.0
 30
0.0
 40
10.0
 50
180.0
 51
0.0
  0
LINE
  8
L-ZISSEN
 10
185.0
 20
326.0
 30
0.0
 11
185.0
 21
344.0
 31
0.0
  0
ARC
  8
L-ZISSEN
 10
245.0
 20
326.0
 30
0.0
 40
10.0
 50
180.0
 51
0.0
  0
LINE
  8
L-ZISSEN
 10
255.0
 20
326.0
 30
0.0
 11
255.0
 21
338.0
 31
0.0
  0
LINE
  8
L-ZISSEN
 10
235.0
 20
326.0
 30
0.0
 11
235.0
 21
344.0
 31
0.0
  0
LINE
  8
L-ZISSEN
 10
205.0
 20
328.0
 30
0.0
 11
235.0
 21
328.0
 31
0.0
  0
LINE
  8
L-ZISSEN
 10
255.0
 20
328.0
 30
0.0
 11
283.9
 21
328.0
 31
0.0
  0
LINE
  8
L-ZISSEN
 10
443.0
 20
110.0
 30
0.0
 11
443.0
 21
170.0
 31
0.0
  0
LINE
  8
L-ZISSEN
 10
517.0
 20
170.0
 30
0.0
 11
517.0
 21
110.0
 31
0.0
  0
LINE
  8
L-ZISSEN
 10
467.5
 20
177.0
 30
0.0
 11
462.5
 21
170.0
 31
0.0
  0
LINE
  8
L-ZISSEN
 10
492.5
 20
177.0
 30
0.0
 11
497.5
 21
170.0
 31
0.0
  0
LINE
  8
L-ZISSEN
 10
443.0
 20
170.0
 30
0.0
 11
517.0
 21
170.0
 31
0.0
  0
LINE
  8
L-ZISSEN
 10
458.0
 20
178.0
 30
0.0
 11
502.0
 21
178.0
 31
0.0
  0
LINE
  8
L-ZISSEN
 10
524.0
 20
120.0
 30
0.0
 11
517.0
 21
120.0
 31
0.0
  0
LINE
  8
L-ZISSEN
 10
436.0
 20
109.0
 30
0.0
 11
436.0
 21
152.5
 31
0.0
  0
LINE
  8
L-ZISSEN
 10
436.0
 20
152.5
 30
0.0
 11
443.0
 21
152.5
 31
0.0
  0
LINE
  8
L-ZISSEN
 10
524.0
 20
152.5
 30
0.0
 11
517.0
 21
152.5
 31
0.0
  0
LINE
  8
L-ZISSEN
 10
524.0
 20
109.0
 30
0.0
 11
524.0
 21
152.5
 31
0.0
  0
LINE
  8
L-ZISSEN
 10
443.0
 20
120.0
 30
0.0
 11
436.0
 21
120.0
 31
0.0
  0
LINE
  8
L-ZISSEN
 10
512.0
 20
177.0
 30
0.0
 11
512.0
 21
170.0
 31
0.0
  0
LINE
  8
L-ZISSEN
 10
512.0
 20
177.0
 30
0.0
 11
502.0
 21
177.0
 31
0.0
  0
CIRCLE
  8
L-ZISSEN
 10
262.0
 20
376.0
 30
0.0
 40
4.25
  0
CIRCLE
  8
L-ZISSEN
 10
250.0
 20
344.0
 30
0.0
 40
4.25
  0
LINE
  8
L-ZISSEN
 10
274.0
 20
338.0
 30
0.0
 11
250.0
 21
338.0
 31
0.0
  0
LINE
  8
L-ZISSEN
 10
244.0
 20
344.0
 30
0.0
 11
237.0
 21
344.0
 31
0.0
  0
LINE
  8
L-ZISSEN
 10
237.0
 20
349.0
 30
0.0
 11
244.0
 21
349.0
 31
0.0
  0
LINE
  8
L-ZISSEN
 10
237.0
 20
371.0
 30
0.0
 11
244.0
 21
371.0
 31
0.0
  0
LINE
  8
L-ZISSEN
 10
244.0
 20
376.0
 30
0.0
 11
237.0
 21
376.0
 31
0.0
  0
LINE
  8
L-ZISSEN
 10
267.5
 20
369.0
 30
0.0
 11
267.5
 21
376.0
 31
0.0
  0
LINE
  8
L-ZISSEN
 10
259.0
 20
351.0
 30
0.0
 11
267.5
 21
351.0
 31
0.0
  0
LINE
  8
L-ZISSEN
 10
259.0
 20
369.0
 30
0.0
 11
267.5
 21
369.0
 31
0.0
  0
ARC
  8
L-ZISSEN
 10
259.0
 20
360.0
 30
0.0
 40
9.0
 50
90.0
 51
270.0
  0
LINE
  8
L-ZISSEN
 10
267.5
 20
344.0
 30
0.0
 11
267.5
 21
351.0
 31
0.0
  0
LINE
  8
L-ZISSEN
 10
244.0
 20
344.0
 30
0.0
 11
244.0
 21
376.0
 31
0.0
  0
LINE
  8
L-ZISSEN
 10
237.0
 20
344.0
 30
0.0
 11
237.0
 21
376.0
 31
0.0
  0
LINE
  8
L-ZISSEN
 10
262.864102
 20
366.0
 30
0.0
 11
266.328203
 21
360.0
 31
0.0
  0
LINE
  8
L-ZISSEN
 10
255.935898
 20
354.0
 30
0.0
 11
262.864102
 21
354.0
 31
0.0
  0
LINE
  8
L-ZISSEN
 10
262.864102
 20
366.0
 30
0.0
 11
255.935898
 21
366.0
 31
0.0
  0
LINE
  8
L-ZISSEN
 10
255.935898
 20
366.0
 30
0.0
 11
252.471797
 21
360.0
 31
0.0
  0
LINE
  8
L-ZISSEN
 10
252.471797
 20
360.0
 30
0.0
 11
255.935898
 21
354.0
 31
0.0
  0
LINE
  8
L-ZISSEN
 10
262.864102
 20
354.0
 30
0.0
 11
266.328203
 21
360.0
 31
0.0
  0
LINE
  8
L-ZISSEN
 10
307.65
 20
348.75
 30
0.0
 11
307.65
 21
345.0
 31
0.0
  0
LINE
  8
L-ZISSEN
 10
277.65
 20
375.0
 30
0.0
 11
277.65
 21
345.0
 31
0.0
  0
LINE
  8
L-ZISSEN
 10
307.65
 20
375.0
 30
0.0
 11
307.65
 21
371.25
 31
0.0
  0
LINE
  8
L-ZISSEN
 10
278.65
 20
346.25
 30
0.0
 11
306.15
 21
346.25
 31
0.0
  0
LINE
  8
L-ZISSEN
 10
278.65
 20
373.75
 30
0.0
 11
306.15
 21
373.75
 31
0.0
  0
LINE
  8
L-ZISSEN
 10
306.15
 20
346.25
 30
0.0
 11
306.15
 21
373.75
 31
0.0
  0
LINE
  8
L-ZISSEN
 10
278.65
 20
346.25
 30
0.0
 11
278.65
 21
373.75
 31
0.0
  0
LINE
  8
L-ZISSEN
 10
317.9
 20
371.25
 30
0.0
 11
317.9
 21
375.0
 31
0.0
  0
LINE
  8
L-ZISSEN
 10
306.15
 20
371.25
 30
0.0
 11
321.65
 21
371.25
 31
0.0
  0
LINE
  8
L-ZISSEN
 10
321.65
 20
348.75
 30
0.0
 11
321.65
 21
371.25
 31
0.0
  0
LINE
  8
L-ZISSEN
 10
306.15
 20
348.75
 30
0.0
 11
321.65
 21
348.75
 31
0.0
  0
LINE
  8
L-ZISSEN
 10
324.55
 20
350.8
 30
0.0
 11
324.55
 21
369.2
 31
0.0
  0
LINE
  8
L-ZISSEN
 10
324.55
 20
368.5
 30
0.0
 11
326.9
 21
368.5
 31
0.0
  0
LINE
  8
L-ZISSEN
 10
324.55
 20
351.5
 30
0.0
 11
326.9
 21
351.5
 31
0.0
  0
LINE
  8
L-ZISSEN
 10
321.65
 20
369.2
 30
0.0
 11
324.55
 21
369.2
 31
0.0
  0
LINE
  8
L-ZISSEN
 10
321.65
 20
350.8
 30
0.0
 11
324.55
 21
350.8
 31
0.0
  0
LINE
  8
L-ZISSEN
 10
326.9
 20
349.030345
 30
0.0
 11
326.9
 21
370.969655
 31
0.0
  0
LINE
  8
L-ZISSEN
 10
332.4
 20
370.969655
 30
0.0
 11
326.9
 21
370.969655
 31
0.0
  0
LINE
  8
L-ZISSEN
 10
332.4
 20
349.030345
 30
0.0
 11
326.9
 21
349.030345
 31
0.0
  0
LINE
  8
L-ZISSEN
 10
332.4
 20
349.030345
 30
0.0
 11
332.4
 21
370.969655
 31
0.0
  0
LINE
  8
L-ZISSEN
 10
317.9
 20
345.0
 30
0.0
 11
274.0
 21
345.0
 31
0.0
  0
LINE
  8
L-ZISSEN
 10
317.9
 20
375.0
 30
0.0
 11
274.0
 21
375.0
 31
0.0
  0
LINE
  8
L-ZISSEN
 10
317.9
 20
345.0
 30
0.0
 11
317.9
 21
348.75
 31
0.0
  0
LINE
  8
L-ZISSEN
 10
274.0
 20
376.0
 30
0.0
 11
274.0
 21
338.0
 31
0.0
  0
LINE
  8
L-ZISSEN
 10
294.9
 20
345.0
 30
0.0
 11
294.9
 21
323.0
 31
0.0
  0
LINE
  8
L-ZISSEN
 10
275.0
 20
345.0
 30
0.0
 11
275.0
 21
344.0
 31
0.0
  0
LINE
  8
L-ZISSEN
 10
245.75
 20
221.8
 30
0.0
 11
245.75
 21
216.0
 31
0.0
  0
LINE
  8
L-ZISSEN
 10
254.25
 20
221.8
 30
0.0
 11
254.25
 21
216.0
 31
0.0
  0
LINE
  8
L-ZISSEN
 10
254.25
 20
221.8
 30
0.0
 11
245.75
 21
221.8
 31
0.0
  0
LINE
  8
L-ZISSEN
 10
237.0
 20
194.0
 30
0.0
 11
237.0
 21
216.0
 31
0.0
  0
LINE
  8
L-ZISSEN
 10
244.0
 20
186.0
 30
0.0
 11
237.0
 21
186.0
 31
0.0
  0
LINE
  8
L-ZISSEN
 10
267.5
 20
216.0
 30
0.0
 11
267.5
 21
229.0
 31
0.0
  0
LINE
  8
L-ZISSEN
 10
244.0
 20
194.0
 30
0.0
 11
237.0
 21
194.0
 31
0.0
  0
LINE
  8
L-ZISSEN
 10
267.5
 20
216.0
 30
0.0
 11
237.0
 21
216.0
 31
0.0
  0
LINE
  8
L-ZISSEN
 10
266.0
 20
197.0
 30
0.0
 11
256.0
 21
197.0
 31
0.0
  0
LINE
  8
L-ZISSEN
 10
266.0
 20
181.0
 30
0.0
 11
256.0
 21
181.0
 31
0.0
  0
LINE
  8
L-ZISSEN
 10
244.0
 20
178.0
 30
0.0
 11
244.0
 21
216.0
 31
0.0
  0
LINE
  8
L-ZISSEN
 10
256.0
 20
178.0
 30
0.0
 11
256.0
 21
216.0
 31
0.0
  0
ARC
  8
L-ZISSEN
 10
266.0
 20
189.0
 30
0.0
 40
8.0
 50
270.0
 51
90.0
  0
LINE
  8
L-ZISSEN
 10
250.0
 20
231.0
 30
0.0
 11
250.0
 21
221.8
 31
0.0
  0
LINE
  8
L-ZISSEN
 10
268.0
 20
231.0
 30
0.0
 11
268.0
 21
229.0
 31
0.0
  0
LINE
  8
L-ZISSEN
 10
267.5
 20
229.0
 30
0.0
 11
274.0
 21
229.0
 31
0.0
  0
LINE
  8
L-ZISSEN
 10
250.0
 20
231.0
 30
0.0
 11
268.0
 21
231.0
 31
0.0
  0
LINE
  8
L-ZISSEN
 10
274.0
 20
179.0
 30
0.0
 11
237.0
 21
179.0
 31
0.0
  0
LINE
  8
L-ZISSEN
 10
237.0
 20
178.0
 30
0.0
 11
237.0
 21
186.0
 31
0.0
  0
LINE
  8
L-ZISSEN
 10
266.328203
 20
238.1
 30
0.0
 11
252.471797
 21
238.1
 31
0.0
  0
LINE
  8
L-ZISSEN
 10
252.471797
 20
238.1
 30
0.0
 11
252.471797
 21
231.0
 31
0.0
  0
LINE
  8
L-ZISSEN
 10
266.328203
 20
238.1
 30
0.0
 11
266.328203
 21
231.0
 31
0.0
  0
LINE
  8
L-ZISSEN
 10
274.0
 20
229.0
 30
0.0
 11
317.9
 21
229.0
 31
0.0
  0
LINE
  8
L-ZISSEN
 10
317.9
 20
186.2
 30
0.0
 11
274.0
 21
186.2
 31
0.0
  0
LINE
  8
L-ZISSEN
 10
317.9
 20
229.0
 30
0.0
 11
317.9
 21
186.2
 31
0.0
  0
LINE
  8
L-ZISSEN
 10
320.9
 20
214.814955
 30
0.0
 11
317.9
 21
214.814955
 31
0.0
  0
LINE
  8
L-ZISSEN
 10
320.9
 20
195.185045
 30
0.0
 11
317.9
 21
195.185045
 31
0.0
  0
LINE
  8
L-ZISSEN
 10
320.9
 20
214.814955
 30
0.0
 11
320.9
 21
195.185045
 31
0.0
  0
LINE
  8
L-ZISSEN
 10
278.65
 20
264.7
 30
0.0
 11
278.65
 21
233.5
 31
0.0
  0
LINE
  8
L-ZISSEN
 10
278.65
 20
264.7
 30
0.0
 11
321.65
 21
264.7
 31
0.0
  0
LINE
  8
L-ZISSEN
 10
306.15
 20
242.2
 30
0.0
 11
321.65
 21
242.2
 31
0.0
  0
LINE
  8
L-ZISSEN
 10
321.65
 20
264.7
 30
0.0
 11
321.65
 21
242.2
 31
0.0
  0
LINE
  8
L-ZISSEN
 10
306.15
 20
264.7
 30
0.0
 11
306.15
 21
233.5
 31
0.0
  0
LINE
  8
L-ZISSEN
 10
332.4
 20
264.419655
 30
0.0
 11
332.4
 21
242.480345
 31
0.0
  0
LINE
  8
L-ZISSEN
 10
332.4
 20
264.419655
 30
0.0
 11
326.9
 21
264.419655
 31
0.0
  0
LINE
  8
L-ZISSEN
 10
332.4
 20
242.480345
 30
0.0
 11
326.9
 21
242.480345
 31
0.0
  0
LINE
  8
L-ZISSEN
 10
326.9
 20
264.419655
 30
0.0
 11
326.9
 21
242.480345
 31
0.0
  0
LINE
  8
L-ZISSEN
 10
321.65
 20
262.65
 30
0.0
 11
324.55
 21
262.65
 31
0.0
  0
LINE
  8
L-ZISSEN
 10
321.65
 20
244.25
 30
0.0
 11
324.55
 21
244.25
 31
0.0
  0
LINE
  8
L-ZISSEN
 10
324.55
 20
261.95
 30
0.0
 11
326.9
 21
261.95
 31
0.0
  0
LINE
  8
L-ZISSEN
 10
324.55
 20
244.95
 30
0.0
 11
326.9
 21
244.95
 31
0.0
  0
LINE
  8
L-ZISSEN
 10
324.55
 20
262.65
 30
0.0
 11
324.55
 21
244.25
 31
0.0
  0
LINE
  8
L-ZISSEN
 10
277.15
 20
233.5
 30
0.0
 11
277.15
 21
229.0
 31
0.0
  0
LINE
  8
L-ZISSEN
 10
307.65
 20
233.5
 30
0.0
 11
307.65
 21
229.0
 31
0.0
  0
LINE
  8
L-ZISSEN
 10
277.15
 20
233.5
 30
0.0
 11
307.65
 21
233.5
 31
0.0
  0
LINE
  8
L-ZISSEN
 10
274.0
 20
178.0
 30
0.0
 11
274.0
 21
229.0
 31
0.0
  0
LINE
  8
L-ZISSEN
 10
500.25
 20
221.8
 30
0.0
 11
500.25
 21
216.0
 31
0.0
  0
LINE
  8
L-ZISSEN
 10
496.0
 20
221.8
 30
0.0
 11
500.25
 21
221.8
 31
0.0
  0
LINE
  8
L-ZISSEN
 10
464.0
 20
221.8
 30
0.0
 11
459.75
 21
221.8
 31
0.0
  0
LINE
  8
L-ZISSEN
 10
459.75
 20
221.8
 30
0.0
 11
459.75
 21
216.0
 31
0.0
  0
LINE
  8
L-ZISSEN
 10
496.0
 20
216.0
 30
0.0
 11
502.0
 21
216.0
 31
0.0
  0
LINE
  8
L-ZISSEN
 10
502.0
 20
216.0
 30
0.0
 11
502.0
 21
170.0
 31
0.0
  0
LINE
  8
L-ZISSEN
 10
458.0
 20
216.0
 30
0.0
 11
464.0
 21
216.0
 31
0.0
  0
LINE
  8
L-ZISSEN
 10
458.0
 20
179.0
 30
0.0
 11
502.0
 21
179.0
 31
0.0
  0
LINE
  8
L-ZISSEN
 10
496.0
 20
179.0
 30
0.0
 11
496.0
 21
229.0
 31
0.0
  0
LINE
  8
L-ZISSEN
 10
464.0
 20
179.0
 30
0.0
 11
464.0
 21
229.0
 31
0.0
  0
LINE
  8
L-ZISSEN
 10
458.0
 20
170.0
 30
0.0
 11
458.0
 21
216.0
 31
0.0
  0
LINE
  8
L-ZISSEN
 10
464.0
 20
181.0
 30
0.0
 11
458.0
 21
181.0
 31
0.0
  0
LINE
  8
L-ZISSEN
 10
464.0
 20
197.0
 30
0.0
 11
458.0
 21
197.0
 31
0.0
  0
LINE
  8
L-ZISSEN
 10
465.0
 20
187.0
 30
0.0
 11
495.0
 21
187.0
 31
0.0
  0
LINE
  8
L-ZISSEN
 10
471.5
 20
209.907477
 30
0.0
 11
471.5
 21
200.092523
 31
0.0
  0
LINE
  8
L-ZISSEN
 10
480.0
 20
214.814955
 30
0.0
 11
471.5
 21
209.907477
 31
0.0
  0
LINE
  8
L-ZISSEN
 10
488.5
 20
209.907477
 30
0.0
 11
480.0
 21
214.814955
 31
0.0
  0
LINE
  8
L-ZISSEN
 10
488.5
 20
200.092523
 30
0.0
 11
488.5
 21
209.907477
 31
0.0
  0
LINE
  8
L-ZISSEN
 10
480.0
 20
195.185045
 30
0.0
 11
488.5
 21
200.092523
 31
0.0
  0
LINE
  8
L-ZISSEN
 10
471.5
 20
200.092523
 30
0.0
 11
480.0
 21
195.185045
 31
0.0
  0
LINE
  8
L-ZISSEN
 10
464.0
 20
229.0
 30
0.0
 11
496.0
 21
229.0
 31
0.0
  0
LINE
  8
L-ZISSEN
 10
464.75
 20
233.5
 30
0.0
 11
495.25
 21
233.5
 31
0.0
  0
LINE
  8
L-ZISSEN
 10
495.25
 20
233.5
 30
0.0
 11
495.25
 21
229.0
 31
0.0
  0
LINE
  8
L-ZISSEN
 10
464.75
 20
233.5
 30
0.0
 11
464.75
 21
229.0
 31
0.0
  0
CIRCLE
  8
L-ZISSEN
 10
480.0
 20
253.45
 30
0.0
 40
6.5
  0
LINE
  8
L-ZISSEN
 10
466.25
 20
264.7
 30
0.0
 11
466.25
 21
233.5
 31
0.0
  0
LINE
  8
L-ZISSEN
 10
493.75
 20
264.7
 30
0.0
 11
493.75
 21
233.5
 31
0.0
  0
CIRCLE
  8
L-ZISSEN
 10
480.0
 20
253.45
 30
0.0
 40
11.25
  0
LINE
  8
L-ZISSEN
 10
466.25
 20
264.7
 30
0.0
 11
493.75
 21
264.7
 31
0.0
  0
CIRCLE
  8
L-ZISSEN
 10
480.0
 20
205.0
 30
0.0
 40
2.067
  0
LINE
  8
L-ZISSEN
 10
465.0
 20
187.0
 30
0.0
 11
465.0
 21
229.0
 31
0.0
  0
LINE
  8
L-ZISSEN
 10
495.0
 20
187.0
 30
0.0
 11
495.0
 21
229.0
 31
0.0
  0
LINE
  8
L-ZISSEN
 10
497.5
 20
170.0
 30
0.0
 11
497.5
 21
178.0
 31
0.0
  0
LINE
  8
L-ZISSEN
 10
462.5
 20
170.0
 30
0.0
 11
462.5
 21
178.0
 31
0.0
  0
LINE
  8
L-ZISSEN
 10
257.75
 20
498.2
 30
0.0
 11
257.75
 21
504.0
 31
0.0
  0
LINE
  8
L-ZISSEN
 10
266.25
 20
498.2
 30
0.0
 11
266.25
 21
504.0
 31
0.0
  0
LINE
  8
L-ZISSEN
 10
266.25
 20
498.2
 30
0.0
 11
257.75
 21
498.2
 31
0.0
  0
LINE
  8
L-ZISSEN
 10
237.0
 20
526.0
 30
0.0
 11
237.0
 21
504.0
 31
0.0
  0
LINE
  8
L-ZISSEN
 10
244.0
 20
534.0
 30
0.0
 11
237.0
 21
534.0
 31
0.0
  0
LINE
  8
L-ZISSEN
 10
267.5
 20
504.0
 30
0.0
 11
267.5
 21
491.0
 31
0.0
  0
LINE
  8
L-ZISSEN
 10
244.0
 20
526.0
 30
0.0
 11
237.0
 21
526.0
 31
0.0
  0
LINE
  8
L-ZISSEN
 10
267.5
 20
504.0
 30
0.0
 11
237.0
 21
504.0
 31
0.0
  0
LINE
  8
L-ZISSEN
 10
244.0
 20
534.0
 30
0.0
 11
244.0
 21
504.0
 31
0.0
  0
LINE
  8
L-ZISSEN
 10
268.0
 20
542.0
 30
0.0
 11
268.0
 21
504.0
 31
0.0
  0
LINE
  8
L-ZISSEN
 10
250.0
 20
489.0
 30
0.0
 11
250.0
 21
504.0
 31
0.0
  0
LINE
  8
L-ZISSEN
 10
268.0
 20
489.0
 30
0.0
 11
268.0
 21
491.0
 31
0.0
  0
LINE
  8
L-ZISSEN
 10
267.5
 20
491.0
 30
0.0
 11
274.0
 21
491.0
 31
0.0
  0
LINE
  8
L-ZISSEN
 10
250.0
 20
489.0
 30
0.0
 11
268.0
 21
489.0
 31
0.0
  0
LINE
  8
L-ZISSEN
 10
274.0
 20
541.0
 30
0.0
 11
237.0
 21
541.0
 31
0.0
  0
LINE
  8
L-ZISSEN
 10
237.0
 20
542.0
 30
0.0
 11
237.0
 21
534.0
 31
0.0
  0
LINE
  8
L-ZISSEN
 10
266.328203
 20
481.9
 30
0.0
 11
252.471797
 21
481.9
 31
0.0
  0
LINE
  8
L-ZISSEN
 10
252.471797
 20
481.9
 30
0.0
 11
252.471797
 21
489.0
 31
0.0
  0
LINE
  8
L-ZISSEN
 10
266.328203
 20
481.9
 30
0.0
 11
266.328203
 21
489.0
 31
0.0
  0
LINE
  8
L-ZISSEN
 10
274.0
 20
491.0
 30
0.0
 11
317.9
 21
491.0
 31
0.0
  0
LINE
  8
L-ZISSEN
 10
317.9
 20
533.8
 30
0.0
 11
274.0
 21
533.8
 31
0.0
  0
LINE
  8
L-ZISSEN
 10
317.9
 20
491.0
 30
0.0
 11
317.9
 21
533.8
 31
0.0
  0
LINE
  8
L-ZISSEN
 10
320.9
 20
505.185045
 30
0.0
 11
317.9
 21
505.185045
 31
0.0
  0
LINE
  8
L-ZISSEN
 10
320.9
 20
524.814955
 30
0.0
 11
317.9
 21
524.814955
 31
0.0
  0
LINE
  8
L-ZISSEN
 10
320.9
 20
505.185045
 30
0.0
 11
320.9
 21
524.814955
 31
0.0
  0
LINE
  8
L-ZISSEN
 10
278.65
 20
455.3
 30
0.0
 11
278.65
 21
486.5
 31
0.0
  0
LINE
  8
L-ZISSEN
 10
278.65
 20
455.3
 30
0.0
 11
321.65
 21
455.3
 31
0.0
  0
LINE
  8
L-ZISSEN
 10
306.15
 20
477.8
 30
0.0
 11
321.65
 21
477.8
 31
0.0
  0
LINE
  8
L-ZISSEN
 10
321.65
 20
455.3
 30
0.0
 11
321.65
 21
477.8
 31
0.0
  0
LINE
  8
L-ZISSEN
 10
306.15
 20
455.3
 30
0.0
 11
306.15
 21
486.5
 31
0.0
  0
LINE
  8
L-ZISSEN
 10
332.4
 20
455.580345
 30
0.0
 11
332.4
 21
477.519655
 31
0.0
  0
LINE
  8
L-ZISSEN
 10
332.4
 20
455.580345
 30
0.0
 11
326.9
 21
455.580345
 31
0.0
  0
LINE
  8
L-ZISSEN
 10
332.4
 20
477.519655
 30
0.0
 11
326.9
 21
477.519655
 31
0.0
  0
LINE
  8
L-ZISSEN
 10
326.9
 20
455.580345
 30
0.0
 11
326.9
 21
477.519655
 31
0.0
  0
LINE
  8
L-ZISSEN
 10
321.65
 20
457.35
 30
0.0
 11
324.55
 21
457.35
 31
0.0
  0
LINE
  8
L-ZISSEN
 10
321.65
 20
475.75
 30
0.0
 11
324.55
 21
475.75
 31
0.0
  0
LINE
  8
L-ZISSEN
 10
324.55
 20
458.05
 30
0.0
 11
326.9
 21
458.05
 31
0.0
  0
LINE
  8
L-ZISSEN
 10
324.55
 20
475.05
 30
0.0
 11
326.9
 21
475.05
 31
0.0
  0
LINE
  8
L-ZISSEN
 10
324.55
 20
457.35
 30
0.0
 11
324.55
 21
475.75
 31
0.0
  0
LINE
  8
L-ZISSEN
 10
277.15
 20
486.5
 30
0.0
 11
277.15
 21
491.0
 31
0.0
  0
LINE
  8
L-ZISSEN
 10
307.65
 20
486.5
 30
0.0
 11
307.65
 21
491.0
 31
0.0
  0
LINE
  8
L-ZISSEN
 10
277.15
 20
486.5
 30
0.0
 11
307.65
 21
486.5
 31
0.0
  0
LINE
  8
L-ZISSEN
 10
274.0
 20
542.0
 30
0.0
 11
274.0
 21
491.0
 31
0.0
  0
LINE
  8
L-ZISSEN
 10
256.0
 20
542.0
 30
0.0
 11
256.0
 21
504.0
 31
0.0
  0
LINE
  8
L-ZISSEN
 10
245.75
 20
498.2
 30
0.0
 11
245.75
 21
504.0
 31
0.0
  0
LINE
  8
L-ZISSEN
 10
250.0
 20
498.2
 30
0.0
 11
245.75
 21
498.2
 31
0.0
  0
LINE
  8
L-ZISSEN
 10
299.5
 20
109.0
 30
0.0
 11
140.5
 21
109.0
 31
0.0
  0
LINE
  8
L-ZISSEN
 10
329.5
 20
51.0
 30
0.0
 11
293.0
 21
51.0
 31
0.0
  0
LINE
  8
L-ZISSEN
 10
329.5
 20
78.0
 30
0.0
 11
299.5
 21
78.0
 31
0.0
  0
LINE
  8
L-ZISSEN
 10
110.5
 20
51.0
 30
0.0
 11
110.5
 21
78.0
 31
0.0
  0
LINE
  8
L-ZISSEN
 10
147.0
 20
51.0
 30
0.0
 11
147.0
 21
61.0
 31
0.0
  0
LINE
  8
L-TYUSIN
 10
200.0
 20
85.0
 30
0.0
 11
240.0
 21
85.0
 31
0.0
  0
LINE
  8
L-ZISSEN
 10
140.5
 20
61.0
 30
0.0
 11
299.5
 21
61.0
 31
0.0
  0
LINE
  8
L-ZISSEN
 10
140.5
 20
61.0
 30
0.0
 11
140.5
 21
109.0
 31
0.0
  0
LINE
  8
L-ZISSEN
 10
299.5
 20
61.0
 30
0.0
 11
299.5
 21
109.0
 31
0.0
  0
LINE
  8
L-ZISSEN
 10
293.0
 20
51.0
 30
0.0
 11
293.0
 21
61.0
 31
0.0
  0
LINE
  8
L-ZISSEN
 10
329.5
 20
51.0
 30
0.0
 11
329.5
 21
78.0
 31
0.0
  0
LINE
  8
L-ZISSEN
 10
147.0
 20
51.0
 30
0.0
 11
110.5
 21
51.0
 31
0.0
  0
LINE
  8
L-ZISSEN
 10
140.5
 20
78.0
 30
0.0
 11
110.5
 21
78.0
 31
0.0
  0
LINE
  8
L-TYUSIN
 10
274.0
 20
105.0
 30
0.0
 11
274.0
 21
65.0
 31
0.0
  0
LINE
  8
L-TYUSIN
 10
254.0
 20
85.0
 30
0.0
 11
294.0
 21
85.0
 31
0.0
  0
LINE
  8
L-TYUSIN
 10
166.0
 20
105.0
 30
0.0
 11
166.0
 21
65.0
 31
0.0
  0
LINE
  8
L-TYUSIN
 10
186.0
 20
85.0
 30
0.0
 11
146.0
 21
85.0
 31
0.0
  0
LINE
  8
L-TYUSIN
 10
318.5
 20
83.0
 30
0.0
 11
318.5
 21
46.0
 31
0.0
  0
LINE
  8
L-TYUSIN
 10
121.5
 20
83.0
 30
0.0
 11
121.5
 21
46.0
 31
0.0
  0
LINE
  8
L-ZISSEN
 10
253.0
 20
165.0
 30
0.0
 11
237.0
 21
165.0
 31
0.0
  0
LINE
  8
L-ZISSEN
 10
237.0
 20
165.0
 30
0.0
 11
237.0
 21
152.5
 31
0.0
  0
LINE
  8
L-ZISSEN
 10
253.0
 20
165.0
 30
0.0
 11
253.0
 21
152.5
 31
0.0
  0
LINE
  8
L-ZISSEN
 10
203.0
 20
165.0
 30
0.0
 11
187.0
 21
165.0
 31
0.0
  0
LINE
  8
L-ZISSEN
 10
187.0
 20
165.0
 30
0.0
 11
187.0
 21
152.5
 31
0.0
  0
LINE
  8
L-ZISSEN
 10
203.0
 20
165.0
 30
0.0
 11
203.0
 21
152.5
 31
0.0
  0
LINE
  8
L-ZISSEN
 10
203.0
 20
161.12463
 30
0.0
 11
237.0
 21
161.12463
 31
0.0
  0
LINE
  8
L-TYUSIN
 10
121.5
 20
637.0
 30
0.0
 11
121.5
 21
674.0
 31
0.0
  0
LINE
  8
L-TYUSIN
 10
318.5
 20
637.0
 30
0.0
 11
318.5
 21
674.0
 31
0.0
  0
LINE
  8
L-TYUSIN
 10
247.0
 20
615.0
 30
0.0
 11
247.0
 21
655.0
 31
0.0
  0
LINE
  8
L-ZISSEN
 10
140.5
 20
642.0
 30
0.0
 11
110.5
 21
642.0
 31
0.0
  0
LINE
  8
L-ZISSEN
 10
147.0
 20
669.0
 30
0.0
 11
110.5
 21
669.0
 31
0.0
  0
LINE
  8
L-ZISSEN
 10
329.5
 20
669.0
 30
0.0
 11
329.5
 21
642.0
 31
0.0
  0
LINE
  8
L-ZISSEN
 10
293.0
 20
669.0
 30
0.0
 11
293.0
 21
659.0
 31
0.0
  0
LINE
  8
L-ZISSEN
 10
299.5
 20
659.0
 30
0.0
 11
299.5
 21
611.0
 31
0.0
  0
LINE
  8
L-ZISSEN
 10
140.5
 20
659.0
 30
0.0
 11
140.5
 21
611.0
 31
0.0
  0
LINE
  8
L-ZISSEN
 10
140.5
 20
659.0
 30
0.0
 11
299.5
 21
659.0
 31
0.0
  0
LINE
  8
L-TYUSIN
 10
227.0
 20
635.0
 30
0.0
 11
267.0
 21
635.0
 31
0.0
  0
LINE
  8
L-ZISSEN
 10
147.0
 20
669.0
 30
0.0
 11
147.0
 21
659.0
 31
0.0
  0
LINE
  8
L-ZISSEN
 10
110.5
 20
669.0
 30
0.0
 11
110.5
 21
642.0
 31
0.0
  0
LINE
  8
L-ZISSEN
 10
329.5
 20
642.0
 30
0.0
 11
299.5
 21
642.0
 31
0.0
  0
LINE
  8
L-ZISSEN
 10
329.5
 20
669.0
 30
0.0
 11
293.0
 21
669.0
 31
0.0
  0
LINE
  8
L-ZISSEN
 10
299.5
 20
611.0
 30
0.0
 11
140.5
 21
611.0
 31
0.0
  0
LINE
  8
L-TYUSIN
 10
213.0
 20
635.0
 30
0.0
 11
173.0
 21
635.0
 31
0.0
  0
LINE
  8
L-TYUSIN
 10
193.0
 20
615.0
 30
0.0
 11
193.0
 21
655.0
 31
0.0
  0
LINE
  8
L-ZISSEN
 10
162.0
 20
555.0
 30
0.0
 11
162.0
 21
567.5
 31
0.0
  0
LINE
  8
L-ZISSEN
 10
178.0
 20
555.0
 30
0.0
 11
162.0
 21
555.0
 31
0.0
  0
LINE
  8
L-ZISSEN
 10
178.0
 20
555.0
 30
0.0
 11
178.0
 21
567.5
 31
0.0
  0
LINE
  8
L-ZISSEN
 10
262.0
 20
555.0
 30
0.0
 11
262.0
 21
567.5
 31
0.0
  0
LINE
  8
L-ZISSEN
 10
278.0
 20
555.0
 30
0.0
 11
278.0
 21
567.5
 31
0.0
  0
LINE
  8
L-ZISSEN
 10
278.0
 20
555.0
 30
0.0
 11
262.0
 21
555.0
 31
0.0
  0
LINE
  8
L-ZISSEN
 10
162.0
 20
558.87537
 30
0.0
 11
156.1
 21
558.87537
 31
0.0
  0
LINE
  8
L-ZISSEN
 10
524.0
 20
109.0
 30
0.0
 11
436.0
 21
109.0
 31
0.0
  0
LINE
  8
L-ZISSEN
 10
421.0
 20
51.0
 30
0.0
 11
539.0
 21
51.0
 31
0.0
  0
LINE
  8
L-ZISSEN
 10
421.0
 20
78.0
 30
0.0
 11
539.0
 21
78.0
 31
0.0
  0
LINE
  8
L-ZISSEN
 10
421.0
 20
51.0
 30
0.0
 11
421.0
 21
78.0
 31
0.0
  0
LINE
  8
L-ZISSEN
 10
539.0
 20
51.0
 30
0.0
 11
539.0
 21
78.0
 31
0.0
  0
LINE
  8
L-ZISSEN
 10
436.0
 20
109.0
 30
0.0
 11
436.0
 21
78.0
 31
0.0
  0
LINE
  8
L-ZISSEN
 10
524.0
 20
109.0
 30
0.0
 11
524.0
 21
78.0
 31
0.0
  0
LINE
  8
L-ZISSEN
 10
498.0
 20
78.0
 30
0.0
 11
498.0
 21
51.0
 31
0.0
  0
LINE
  8
L-ZISSEN
 10
462.0
 20
78.0
 30
0.0
 11
462.0
 21
51.0
 31
0.0
  0
LINE
  8
L-TYUSIN
 10
528.0
 20
83.0
 30
0.0
 11
528.0
 21
46.0
 31
0.0
  0
LINE
  8
L-TYUSIN
 10
432.0
 20
83.0
 30
0.0
 11
432.0
 21
46.0
 31
0.0
  0
LINE
  8
L-ZISSEN
 10
443.0
 20
165.0
 30
0.0
 11
438.0
 21
165.0
 31
0.0
  0
LINE
  8
L-ZISSEN
 10
438.0
 20
165.0
 30
0.0
 11
438.0
 21
152.5
 31
0.0
  0
LINE
  8
L-ZISSEN
 10
522.0
 20
165.0
 30
0.0
 11
522.0
 21
152.5
 31
0.0
  0
LINE
  8
L-ZISSEN
 10
517.0
 20
165.0
 30
0.0
 11
522.0
 21
165.0
 31
0.0
  0
CIRCLE
  8
L-ZISSEN
 10
170.0
 20
394.0
 30
0.0
 40
8.0
  0
CIRCLE
  8
L-ZISSEN
 10
270.0
 20
394.0
 30
0.0
 40
8.0
  0
CIRCLE
  8
L-ZISSEN
 10
245.0
 20
326.0
 30
0.0
 40
8.0
  0
CIRCLE
  8
L-ZISSEN
 10
195.0
 20
326.0
 30
0.0
 40
8.0
  0
LINE
  8
L-ZISSEN
 10
140.5
 20
404.0
 30
0.0
 11
140.5
 21
397.0
 31
0.0
  0
LINE
  8
L-ZISSEN
 10
299.5
 20
404.0
 30
0.0
 11
299.5
 21
397.0
 31
0.0
  0
LINE
  8
L-ZISSEN
 10
163.1
 20
316.0
 30
0.0
 11
140.5
 21
316.0
 31
0.0
  0
LINE
  8
L-ZISSEN
 10
276.9
 20
316.0
 30
0.0
 11
299.5
 21
316.0
 31
0.0
  0
LINE
  8
L-ZISSEN
 10
276.9
 20
404.0
 30
0.0
 11
299.5
 21
404.0
 31
0.0
  0
LINE
  8
L-ZISSEN
 10
163.1
 20
404.0
 30
0.0
 11
140.5
 21
404.0
 31
0.0
  0
LINE
  8
L-ZISSEN
 10
140.5
 20
323.0
 30
0.0
 11
140.5
 21
316.0
 31
0.0
  0
LINE
  8
L-ZISSEN
 10
299.5
 20
323.0
 30
0.0
 11
299.5
 21
316.0
 31
0.0
  0
LINE
  8
L-TYUSIN
 10
121.5
 20
417.0
 30
0.0
 11
121.5
 21
399.0
 31
0.0
  0
LINE
  8
L-TYUSIN
 10
112.5
 20
408.0
 30
0.0
 11
130.5
 21
408.0
 31
0.0
  0
CIRCLE
  8
L-ZISSEN
 10
121.5
 20
408.0
 30
0.0
 40
5.5
  0
LINE
  8
L-ZISSEN
 10
140.5
 20
316.0
 30
0.0
 11
125.5
 21
301.0
 31
0.0
  0
CIRCLE
  8
L-ZISSEN
 10
121.5
 20
312.0
 30
0.0
 40
5.5
  0
LINE
  8
L-TYUSIN
 10
112.5
 20
312.0
 30
0.0
 11
130.5
 21
312.0
 31
0.0
  0
LINE
  8
L-TYUSIN
 10
121.5
 20
303.0
 30
0.0
 11
121.5
 21
321.0
 31
0.0
  0
LINE
  8
L-ZISSEN
 10
115.030345
 20
323.0
 30
0.0
 11
110.5
 21
315.153212
 31
0.0
  0
SOLID
  8
L-ZISSEN
 10
1210.891232
 20
35.178787
 30
0.0
 11
1211.433721
 21
35.566279
 31
0.0
 12
1210.0
 22
37.0
 32
0.0
 13
1210.0
 23
37.0
 33
0.0
  0
LINE
  8
L-ZISSEN
 10
1211.162476
 20
35.372533
 30
0.0
 11
1215.0
 21
30.0
 31
0.0
  0
LINE
  8
L-ZISSEN
 10
1215.0
 20
30.0
 30
0.0
 11
1217.0
 21
30.0
 31
0.0
  0
TEXT
  8
L-ZISSEN
 10
1219.0
 20
27.75
 30
0.0
 40
4.5
  1
P.P
  0
SOLID
  8
L-ZISSEN
 10
1208.80743
 20
103.360217
 30
0.0
 11
1209.403715
 21
103.062074
 31
0.0
 12
1210.0
 22
105.0
 32
0.0
 13
1210.0
 23
105.0
 33
0.0
  0
LINE
  8
L-ZISSEN
 10
1209.105573
 20
103.211146
 30
0.0
 11
1200.0
 21
85.0
 31
0.0
  0
LINE
  8
L-ZISSEN
 10
1200.0
 20
85.0
 30
0.0
 11
1198.0
 21
85.0
 31
0.0
  0
TEXT
  8
L-ZISSEN
 10
1187.0
 20
82.75
 30
0.0
 40
4.5
  1
P.P
  0
SOLID
  8
L-ZISSEN
 10
1295.891232
 20
35.178787
 30
0.0
 11
1296.433721
 21
35.566279
 31
0.0
 12
1295.0
 22
37.0
 32
0.0
 13
1295.0
 23
37.0
 33
0.0
  0
LINE
  8
L-ZISSEN
 10
1296.162476
 20
35.372533
 30
0.0
 11
1300.0
 21
30.0
 31
0.0
  0
LINE
  8
L-ZISSEN
 10
1300.0
 20
30.0
 30
0.0
 11
1302.0
 21
30.0
 31
0.0
  0
TEXT
  8
L-ZISSEN
 10
1304.0
 20
27.75
 30
0.0
 40
4.5
  1
P.P
  0
SOLID
  8
L-ZISSEN
 10
1106.178511
 20
188.350084
 30
0.0
 11
1106.649916
 21
188.821489
 31
0.0
 12
1105.0
 22
190.0
 32
0.0
 13
1105.0
 23
190.0
 33
0.0
  0
LINE
  8
L-ZISSEN
 10
1106.414214
 20
188.585786
 30
0.0
 11
1115.0
 21
180.0
 31
0.0
  0
LINE
  8
L-ZISSEN
 10
1115.0
 20
180.0
 30
0.0
 11
1117.0
 21
180.0
 31
0.0
  0
TEXT
  8
L-ZISSEN
 10
1119.0
 20
177.75
 30
0.0
 40
4.5
  1
P.P
  0
CIRCLE
  8
L-ZISSEN
 10
220.0
 20
85.0
 30
0.0
 40
15.1455
  0
CIRCLE
  8
L-ZISSEN
 10
274.0
 20
85.0
 30
0.0
 40
15.1455
  0
CIRCLE
  8
L-ZISSEN
 10
166.0
 20
85.0
 30
0.0
 40
15.1455
  0
CIRCLE
  8
L-ZISSEN
 10
247.0
 20
635.0
 30
0.0
 40
15.1455
  0
CIRCLE
  8
L-ZISSEN
 10
193.0
 20
635.0
 30
0.0
 40
15.1455
  0
LINE
  8
L-TYUSIN
 10
580.0
 20
445.0
 30
0.0
 11
580.0
 21
10.0
 31
0.0
  0
TEXT
  8
L-ZISSEN
 10
35.0
 20
710.0
 30
0.0
 40
4.5
  1
MODEL No. :
  0
TEXT
  8
L-ZISSEN
 10
80.0
 20
710.0
 30
0.0
 40
4.5
  1
MVD-4 2-  Y
  0
TEXT
  8
L-ZISSEN
 10
600.0
 20
420.0
 30
0.0
 40
4.5
  1
MODEL No. :
  0
TEXT
  8
L-ZISSEN
 10
645.0
 20
420.0
 30
0.0
 40
4.5
  1
MVD-4*2-12JY
  0
LINE
  8
L-ZISSEN
 10
819.5
 20
173.0
 30
0.0
 11
819.5
 21
166.0
 31
0.0
  0
LINE
  8
L-ZISSEN
 10
660.5
 20
173.0
 30
0.0
 11
660.5
 21
166.0
 31
0.0
  0
LINE
  8
L-ZISSEN
 10
683.1
 20
254.0
 30
0.0
 11
660.5
 21
254.0
 31
0.0
  0
LINE
  8
L-ZISSEN
 10
796.9
 20
254.0
 30
0.0
 11
819.5
 21
254.0
 31
0.0
  0
LINE
  8
L-ZISSEN
 10
796.9
 20
166.0
 30
0.0
 11
819.5
 21
166.0
 31
0.0
  0
LINE
  8
L-ZISSEN
 10
683.1
 20
166.0
 30
0.0
 11
660.5
 21
166.0
 31
0.0
  0
LINE
  8
L-ZISSEN
 10
819.5
 20
254.0
 30
0.0
 11
819.5
 21
247.0
 31
0.0
  0
LINE
  8
L-ZISSEN
 10
660.5
 20
254.0
 30
0.0
 11
660.5
 21
247.0
 31
0.0
  0
LINE
  8
L-ZISSEN
 10
994.0
 20
109.0
 30
0.0
 11
994.0
 21
60.0
 31
0.0
  0
LINE
  8
L-ZISSEN
 10
906.0
 20
109.0
 30
0.0
 11
906.0
 21
93.0
 31
0.0
  0
LINE
  8
L-ZISSEN
 10
994.0
 20
109.0
 30
0.0
 11
906.0
 21
109.0
 31
0.0
  0
LINE
  8
L-ZISSEN
 10
819.5
 20
311.0
 30
0.0
 11
660.5
 21
311.0
 31
0.0
  0
LINE
  8
L-TYUSIN
 10
632.5
 20
65.0
 30
0.0
 11
632.5
 21
20.0
 31
0.0
  0
LINE
  8
L-ZISSEN
 10
819.5
 20
37.0
 30
0.0
 11
819.5
 21
44.906469
 31
0.0
  0
LINE
  8
L-ZISSEN
 10
660.5
 20
37.0
 30
0.0
 11
660.5
 21
44.906469
 31
0.0
  0
LINE
  8
L-TYUSIN
 10
715.0
 20
65.0
 30
0.0
 11
765.0
 21
65.0
 31
0.0
  0
LINE
  8
L-ZISSEN
 10
667.0
 20
25.0
 30
0.0
 11
667.0
 21
37.0
 31
0.0
  0
LINE
  8
L-ZISSEN
 10
819.5
 20
109.0
 30
0.0
 11
660.5
 21
109.0
 31
0.0
  0
LINE
  8
L-ZISSEN
 10
667.0
 20
25.0
 30
0.0
 11
621.5
 21
25.0
 31
0.0
  0
LINE
  8
L-ZISSEN
 10
621.5
 20
25.0
 30
0.0
 11
621.5
 21
60.0
 31
0.0
  0
LINE
  8
L-ZISSEN
 10
652.450045
 20
60.0
 30
0.0
 11
621.5
 21
60.0
 31
0.0
  0
LINE
  8
L-ZISSEN
 10
819.5
 20
37.0
 30
0.0
 11
660.5
 21
37.0
 31
0.0
  0
LINE
  8
L-ZISSEN
 10
813.0
 20
25.0
 30
0.0
 11
813.0
 21
37.0
 31
0.0
  0
LINE
  8
L-ZISSEN
 10
813.0
 20
25.0
 30
0.0
 11
858.5
 21
25.0
 31
0.0
  0
LINE
  8
L-TYUSIN
 10
847.5
 20
65.0
 30
0.0
 11
847.5
 21
20.0
 31
0.0
  0
LINE
  8
L-ZISSEN
 10
858.5
 20
25.0
 30
0.0
 11
858.5
 21
60.0
 31
0.0
  0
LINE
  8
L-ZISSEN
 10
827.549955
 20
60.0
 30
0.0
 11
858.5
 21
60.0
 31
0.0
  0
ARC
  8
L-ZISSEN
 10
740.0
 20
65.0
 30
0.0
 40
28.0
 50
221.409622
 51
318.590378
  0
ARC
  8
L-ZISSEN
 10
680.0
 20
65.0
 30
0.0
 40
28.0
 50
41.409622
 51
318.590378
  0
LINE
  8
L-TYUSIN
 10
680.0
 20
90.0
 30
0.0
 11
680.0
 21
40.0
 31
0.0
  0
LINE
  8
L-TYUSIN
 10
655.0
 20
65.0
 30
0.0
 11
705.0
 21
65.0
 31
0.0
  0
CIRCLE
  8
L-ZISSEN
 10
740.0
 20
65.0
 30
0.0
 40
19.476
  0
LINE
  8
L-ZISSEN
 10
660.5
 20
85.093531
 30
0.0
 11
660.5
 21
109.0
 31
0.0
  0
ARC
  8
L-ZISSEN
 10
710.0
 20
91.457513
 30
0.0
 40
12.0
 50
221.409622
 51
318.590378
  0
ARC
  8
L-ZISSEN
 10
710.0
 20
38.542487
 30
0.0
 40
12.0
 50
41.409622
 51
138.590378
  0
CIRCLE
  8
L-ZISSEN
 10
680.0
 20
65.0
 30
0.0
 40
19.476
  0
CIRCLE
  8
L-ZISSEN
 10
800.0
 20
65.0
 30
0.0
 40
19.476
  0
LINE
  8
L-TYUSIN
 10
800.0
 20
90.0
 30
0.0
 11
800.0
 21
40.0
 31
0.0
  0
LINE
  8
L-TYUSIN
 10
825.0
 20
65.0
 30
0.0
 11
775.0
 21
65.0
 31
0.0
  0
ARC
  8
L-ZISSEN
 10
800.0
 20
65.0
 30
0.0
 40
28.0
 50
221.409622
 51
138.590378
  0
LINE
  8
L-ZISSEN
 10
819.5
 20
85.093531
 30
0.0
 11
819.5
 21
109.0
 31
0.0
  0
ARC
  8
L-ZISSEN
 10
740.0
 20
65.0
 30
0.0
 40
28.0
 50
41.409622
 51
138.590378
  0
ARC
  8
L-ZISSEN
 10
770.0
 20
91.457513
 30
0.0
 40
12.0
 50
221.409622
 51
318.590378
  0
ARC
  8
L-ZISSEN
 10
770.0
 20
38.542487
 30
0.0
 40
12.0
 50
41.409622
 51
138.590378
  0
LINE
  8
L-ZISSEN
 10
891.0
 20
60.0
 30
0.0
 11
1009.0
 21
60.0
 31
0.0
  0
LINE
  8
L-ZISSEN
 10
891.0
 20
25.0
 30
0.0
 11
1009.0
 21
25.0
 31
0.0
  0
LINE
  8
L-TYUSIN
 10
431.0
 20
85.0
 30
0.0
 11
441.0
 21
85.0
 31
0.0
  0
LINE
  8
L-TYUSIN
 10
529.0
 20
85.0
 30
0.0
 11
519.0
 21
85.0
 31
0.0
  0
LINE
  8
L-ZISSEN
 10
891.0
 20
25.0
 30
0.0
 11
891.0
 21
60.0
 31
0.0
  0
LINE
  8
L-ZISSEN
 10
937.0
 20
60.0
 30
0.0
 11
937.0
 21
25.0
 31
0.0
  0
LINE
  8
L-ZISSEN
 10
963.0
 20
60.0
 30
0.0
 11
963.0
 21
25.0
 31
0.0
  0
LINE
  8
L-ZISSEN
 10
1009.0
 20
25.0
 30
0.0
 11
1009.0
 21
60.0
 31
0.0
  0
LINE
  8
L-ZISSEN
 10
900.0
 20
93.0
 30
0.0
 11
900.0
 21
60.0
 31
0.0
  0
LINE
  8
L-ZISSEN
 10
900.0
 20
93.0
 30
0.0
 11
929.0
 21
93.0
 31
0.0
  0
LINE
  8
L-ZISSEN
 10
929.0
 20
93.0
 30
0.0
 11
929.0
 21
60.0
 31
0.0
  0
LINE
  8
L-ZISSEN
 10
1000.0
 20
93.0
 30
0.0
 11
994.0
 21
93.0
 31
0.0
  0
LINE
  8
L-ZISSEN
 10
1000.0
 20
93.0
 30
0.0
 11
1000.0
 21
60.0
 31
0.0
  0
LINE
  8
L-TYUSIN
 10
934.0
 20
65.0
 30
0.0
 11
895.0
 21
65.0
 31
0.0
  0
LINE
  8
L-TYUSIN
 10
989.0
 20
65.0
 30
0.0
 11
1005.0
 21
65.0
 31
0.0
  0
LINE
  8
L-ZISSEN
 10
937.5
 20
88.092523
 30
0.0
 11
937.5
 21
60.0
 31
0.0
  0
LINE
  8
L-ZISSEN
 10
929.0
 20
93.0
 30
0.0
 11
937.5
 21
88.092523
 31
0.0
  0
CIRCLE
  8
L-ZISSEN
 10
710.0
 20
355.0
 30
0.0
 40
19.476
  0
LINE
  8
L-TYUSIN
 10
710.0
 20
330.0
 30
0.0
 11
710.0
 21
380.0
 31
0.0
  0
LINE
  8
L-ZISSEN
 10
827.549955
 20
360.0
 30
0.0
 11
858.5
 21
360.0
 31
0.0
  0
LINE
  8
L-ZISSEN
 10
858.5
 20
395.0
 30
0.0
 11
858.5
 21
360.0
 31
0.0
  0
LINE
  8
L-TYUSIN
 10
847.5
 20
355.0
 30
0.0
 11
847.5
 21
400.0
 31
0.0
  0
LINE
  8
L-ZISSEN
 10
813.0
 20
395.0
 30
0.0
 11
858.5
 21
395.0
 31
0.0
  0
LINE
  8
L-ZISSEN
 10
813.0
 20
395.0
 30
0.0
 11
813.0
 21
383.0
 31
0.0
  0
LINE
  8
L-ZISSEN
 10
819.5
 20
383.0
 30
0.0
 11
660.5
 21
383.0
 31
0.0
  0
LINE
  8
L-ZISSEN
 10
652.450045
 20
360.0
 30
0.0
 11
621.5
 21
360.0
 31
0.0
  0
LINE
  8
L-ZISSEN
 10
621.5
 20
395.0
 30
0.0
 11
621.5
 21
360.0
 31
0.0
  0
LINE
  8
L-ZISSEN
 10
667.0
 20
395.0
 30
0.0
 11
621.5
 21
395.0
 31
0.0
  0
LINE
  8
L-ZISSEN
 10
667.0
 20
395.0
 30
0.0
 11
667.0
 21
383.0
 31
0.0
  0
LINE
  8
L-TYUSIN
 10
685.0
 20
355.0
 30
0.0
 11
735.0
 21
355.0
 31
0.0
  0
LINE
  8
L-TYUSIN
 10
632.5
 20
355.0
 30
0.0
 11
632.5
 21
400.0
 31
0.0
  0
LINE
  8
L-ZISSEN
 10
819.5
 20
383.0
 30
0.0
 11
819.5
 21
311.0
 31
0.0
  0
LINE
  8
L-ZISSEN
 10
660.5
 20
383.0
 30
0.0
 11
660.5
 21
311.0
 31
0.0
  0
ARC
  8
L-ZISSEN
 10
800.0
 20
355.0
 30
0.0
 40
28.0
 50
314.141165
 51
45.858835
  0
ARC
  8
L-ZISSEN
 10
680.0
 20
355.0
 30
0.0
 40
28.0
 50
134.141165
 51
225.858835
  0
CIRCLE
  8
L-ZISSEN
 10
770.0
 20
355.0
 30
0.0
 40
19.476
  0
LINE
  8
L-TYUSIN
 10
795.0
 20
355.0
 30
0.0
 11
745.0
 21
355.0
 31
0.0
  0
LINE
  8
L-TYUSIN
 10
770.0
 20
330.0
 30
0.0
 11
770.0
 21
380.0
 31
0.0
  0
ARC
  8
L-ZISSEN
 10
770.0
 20
355.0
 30
0.0
 40
28.0
 50
221.409622
 51
138.590378
  0
ARC
  8
L-ZISSEN
 10
710.0
 20
355.0
 30
0.0
 40
28.0
 50
41.409622
 51
318.590378
  0
ARC
  8
L-ZISSEN
 10
740.0
 20
381.457513
 30
0.0
 40
12.0
 50
221.409622
 51
318.590378
  0
ARC
  8
L-ZISSEN
 10
740.0
 20
328.542487
 30
0.0
 40
12.0
 50
41.409622
 51
138.590378
  0
SOLID
  8
L-ZISSEN
 10
221.2636
 20
107.414306
 30
0.0
 11
221.709577
 21
107.909835
 31
0.0
 12
220.0
 22
109.0
 32
0.0
 13
220.0
 23
109.0
 33
0.0
  0
LINE
  8
L-ZISSEN
 10
221.486588
 20
107.662071
 30
0.0
 11
230.0
 21
100.0
 31
0.0
  0
LINE
  8
L-ZISSEN
 10
230.0
 20
100.0
 30
0.0
 11
232.0
 21
100.0
 31
0.0
  0
TEXT
  8
L-ZISSEN
 10
234.0
 20
97.75
 30
0.0
 40
4.5
  1
P.P
  0
SOLID
  8
L-ZISSEN
 10
481.2636
 20
107.414306
 30
0.0
 11
481.709577
 21
107.909835
 31
0.0
 12
480.0
 22
109.0
 32
0.0
 13
480.0
 23
109.0
 33
0.0
  0
LINE
  8
L-ZISSEN
 10
481.486588
 20
107.662071
 30
0.0
 11
490.0
 21
100.0
 31
0.0
  0
LINE
  8
L-ZISSEN
 10
490.0
 20
100.0
 30
0.0
 11
492.0
 21
100.0
 31
0.0
  0
TEXT
  8
L-ZISSEN
 10
494.0
 20
97.75
 30
0.0
 40
4.5
  1
P.P
  0
SOLID
  8
L-ZISSEN
 10
741.591992
 20
110.255656
 30
0.0
 11
741.098699
 21
110.704104
 31
0.0
 12
740.0
 22
109.0
 32
0.0
 13
740.0
 23
109.0
 33
0.0
  0
LINE
  8
L-ZISSEN
 10
741.345346
 20
110.47988
 30
0.0
 11
750.0
 21
120.0
 31
0.0
  0
LINE
  8
L-ZISSEN
 10
750.0
 20
120.0
 30
0.0
 11
752.0
 21
120.0
 31
0.0
  0
TEXT
  8
L-ZISSEN
 10
754.0
 20
117.75
 30
0.0
 40
4.5
  1
P.P
  0
SOLID
  8
L-ZISSEN
 10
951.591992
 20
110.255656
 30
0.0
 11
951.098699
 21
110.704104
 31
0.0
 12
950.0
 22
109.0
 32
0.0
 13
950.0
 23
109.0
 33
0.0
  0
LINE
  8
L-ZISSEN
 10
951.345346
 20
110.47988
 30
0.0
 11
960.0
 21
120.0
 31
0.0
  0
LINE
  8
L-ZISSEN
 10
960.0
 20
120.0
 30
0.0
 11
962.0
 21
120.0
 31
0.0
  0
TEXT
  8
L-ZISSEN
 10
964.0
 20
117.75
 30
0.0
 40
4.5
  1
P.P
  0
SOLID
  8
L-ZISSEN
 10
741.098699
 20
309.295896
 30
0.0
 11
741.591992
 21
309.744344
 31
0.0
 12
740.0
 22
311.0
 32
0.0
 13
740.0
 23
311.0
 33
0.0
  0
LINE
  8
L-ZISSEN
 10
741.345346
 20
309.52012
 30
0.0
 11
750.0
 21
300.0
 31
0.0
  0
LINE
  8
L-ZISSEN
 10
750.0
 20
300.0
 30
0.0
 11
752.0
 21
300.0
 31
0.0
  0
TEXT
  8
L-ZISSEN
 10
754.0
 20
297.75
 30
0.0
 40
4.5
  1
P.P
  0
LINE
  8
L-ZISSEN
 10
660.5
 20
254.0
 30
0.0
 11
634.519238
 21
269.0
 31
0.0
  0
LINE
  8
L-TYUSIN
 10
632.5
 20
266.0
 30
0.0
 11
632.5
 21
250.0
 31
0.0
  0
LINE
  8
L-TYUSIN
 10
624.5
 20
258.0
 30
0.0
 11
640.5
 21
258.0
 31
0.0
  0
CIRCLE
  8
L-ZISSEN
 10
632.5
 20
258.0
 30
0.0
 40
5.5
  0
LINE
  8
L-ZISSEN
 10
110.5
 20
312.0
 30
0.0
 11
110.5
 21
315.153212
 31
0.0
  0
LINE
  8
L-ZISSEN
 10
125.5
 20
301.0
 30
0.0
 11
121.5
 21
301.0
 31
0.0
  0
ARC
  8
L-ZISSEN
 10
121.5
 20
312.0
 30
0.0
 40
11.0
 50
180.0
 51
270.0
  0
ARC
  8
L-ZISSEN
 10
121.5
 20
408.0
 30
0.0
 40
11.0
 50
90.0
 51
180.0
  0
LINE
  8
L-ZISSEN
 10
125.5
 20
419.0
 30
0.0
 11
121.5
 21
419.0
 31
0.0
  0
LINE
  8
L-ZISSEN
 10
110.5
 20
408.0
 30
0.0
 11
110.5
 21
404.846788
 31
0.0
  0
LINE
  8
L-ZISSEN
 10
140.5
 20
404.0
 30
0.0
 11
125.5
 21
419.0
 31
0.0
  0
LINE
  8
L-ZISSEN
 10
115.030345
 20
397.0
 30
0.0
 11
110.5
 21
404.846788
 31
0.0
  0
LINE
  8
L-ZISSEN
 10
329.5
 20
408.0
 30
0.0
 11
329.5
 21
404.846788
 31
0.0
  0
LINE
  8
L-ZISSEN
 10
314.5
 20
419.0
 30
0.0
 11
318.5
 21
419.0
 31
0.0
  0
ARC
  8
L-ZISSEN
 10
318.5
 20
408.0
 30
0.0
 40
11.0
 50
360.0
 51
90.0
  0
CIRCLE
  8
L-ZISSEN
 10
318.5
 20
408.0
 30
0.0
 40
5.5
  0
LINE
  8
L-TYUSIN
 10
327.5
 20
408.0
 30
0.0
 11
309.5
 21
408.0
 31
0.0
  0
LINE
  8
L-ZISSEN
 10
299.5
 20
404.0
 30
0.0
 11
314.5
 21
419.0
 31
0.0
  0
LINE
  8
L-TYUSIN
 10
318.5
 20
417.0
 30
0.0
 11
318.5
 21
399.0
 31
0.0
  0
LINE
  8
L-ZISSEN
 10
324.969655
 20
397.0
 30
0.0
 11
329.5
 21
404.846788
 31
0.0
  0
LINE
  8
L-ZISSEN
 10
324.969655
 20
323.0
 30
0.0
 11
329.5
 21
315.153212
 31
0.0
  0
LINE
  8
L-TYUSIN
 10
318.5
 20
303.0
 30
0.0
 11
318.5
 21
321.0
 31
0.0
  0
LINE
  8
L-TYUSIN
 10
327.5
 20
312.0
 30
0.0
 11
309.5
 21
312.0
 31
0.0
  0
CIRCLE
  8
L-ZISSEN
 10
318.5
 20
312.0
 30
0.0
 40
5.5
  0
ARC
  8
L-ZISSEN
 10
318.5
 20
312.0
 30
0.0
 40
11.0
 50
270.0
 51
0.0
  0
LINE
  8
L-ZISSEN
 10
314.5
 20
301.0
 30
0.0
 11
318.5
 21
301.0
 31
0.0
  0
LINE
  8
L-ZISSEN
 10
329.5
 20
312.0
 30
0.0
 11
329.5
 21
315.153212
 31
0.0
  0
LINE
  8
L-ZISSEN
 10
299.5
 20
316.0
 30
0.0
 11
314.5
 21
301.0
 31
0.0
  0
LINE
  8
L-ZISSEN
 10
632.5
 20
269.0
 30
0.0
 11
634.519238
 21
269.0
 31
0.0
  0
LINE
  8
L-ZISSEN
 10
621.5
 20
258.0
 30
0.0
 11
621.5
 21
253.0
 31
0.0
  0
ARC
  8
L-ZISSEN
 10
632.5
 20
258.0
 30
0.0
 40
11.0
 50
90.0
 51
180.0
  0
LINE
  8
L-ZISSEN
 10
819.5
 20
254.0
 30
0.0
 11
845.480762
 21
269.0
 31
0.0
  0
ARC
  8
L-ZISSEN
 10
847.5
 20
258.0
 30
0.0
 40
11.0
 50
0.0
 51
90.0
  0
LINE
  8
L-ZISSEN
 10
858.5
 20
258.0
 30
0.0
 11
858.5
 21
253.0
 31
0.0
  0
LINE
  8
L-ZISSEN
 10
847.5
 20
269.0
 30
0.0
 11
845.480762
 21
269.0
 31
0.0
  0
CIRCLE
  8
L-ZISSEN
 10
847.5
 20
258.0
 30
0.0
 40
5.5
  0
LINE
  8
L-TYUSIN
 10
855.5
 20
258.0
 30
0.0
 11
839.5
 21
258.0
 31
0.0
  0
LINE
  8
L-TYUSIN
 10
847.5
 20
266.0
 30
0.0
 11
847.5
 21
250.0
 31
0.0
  0
LINE
  8
L-ZISSEN
 10
852.5
 20
247.0
 30
0.0
 11
858.5
 21
253.0
 31
0.0
  0
LINE
  8
L-ZISSEN
 10
852.5
 20
173.0
 30
0.0
 11
858.5
 21
167.0
 31
0.0
  0
LINE
  8
L-TYUSIN
 10
847.5
 20
154.0
 30
0.0
 11
847.5
 21
170.0
 31
0.0
  0
LINE
  8
L-TYUSIN
 10
855.5
 20
162.0
 30
0.0
 11
839.5
 21
162.0
 31
0.0
  0
CIRCLE
  8
L-ZISSEN
 10
847.5
 20
162.0
 30
0.0
 40
5.5
  0
LINE
  8
L-ZISSEN
 10
847.5
 20
151.0
 30
0.0
 11
845.480762
 21
151.0
 31
0.0
  0
LINE
  8
L-ZISSEN
 10
858.5
 20
162.0
 30
0.0
 11
858.5
 21
167.0
 31
0.0
  0
ARC
  8
L-ZISSEN
 10
847.5
 20
162.0
 30
0.0
 40
11.0
 50
270.0
 51
0.0
  0
LINE
  8
L-ZISSEN
 10
819.5
 20
166.0
 30
0.0
 11
845.480762
 21
151.0
 31
0.0
  0
LINE
  8
L-ZISSEN
 10
660.5
 20
166.0
 30
0.0
 11
634.519238
 21
151.0
 31
0.0
  0
ARC
  8
L-ZISSEN
 10
632.5
 20
162.0
 30
0.0
 40
11.0
 50
180.0
 51
270.0
  0
LINE
  8
L-ZISSEN
 10
621.5
 20
162.0
 30
0.0
 11
621.5
 21
167.0
 31
0.0
  0
LINE
  8
L-ZISSEN
 10
632.5
 20
151.0
 30
0.0
 11
634.519238
 21
151.0
 31
0.0
  0
CIRCLE
  8
L-ZISSEN
 10
632.5
 20
162.0
 30
0.0
 40
5.5
  0
LINE
  8
L-TYUSIN
 10
624.5
 20
162.0
 30
0.0
 11
640.5
 21
162.0
 31
0.0
  0
LINE
  8
L-TYUSIN
 10
632.5
 20
154.0
 30
0.0
 11
632.5
 21
170.0
 31
0.0
  0
SOLID
  8
L-ZISSEN
 10
741.649916
 20
211.178511
 30
0.0
 11
741.178511
 21
211.649916
 31
0.0
 12
740.0
 22
210.0
 32
0.0
 13
740.0
 23
210.0
 33
0.0
  0
LINE
  8
L-ZISSEN
 10
741.414214
 20
211.414214
 30
0.0
 11
755.0
 21
225.0
 31
0.0
  0
LINE
  8
L-ZISSEN
 10
755.0
 20
225.0
 30
0.0
 11
757.0
 21
225.0
 31
0.0
  0
TEXT
  8
L-ZISSEN
 10
759.0
 20
222.75
 30
0.0
 40
4.5
  1
P.P
  0
SOLID
  8
L-ZISSEN
 10
220.893971
 20
361.81987
 30
0.0
 11
220.25542
 21
362.011435
 31
0.0
 12
220.0
 22
360.0
 32
0.0
 13
220.0
 23
360.0
 33
0.0
  0
LINE
  8
L-ZISSEN
 10
220.574696
 20
361.915653
 30
0.0
 11
235.0
 21
410.0
 31
0.0
  0
LINE
  8
L-ZISSEN
 10
235.0
 20
410.0
 30
0.0
 11
237.0
 21
410.0
 31
0.0
  0
TEXT
  8
L-ZISSEN
 10
239.0
 20
407.75
 30
0.0
 40
4.5
  1
P.P
  0
SOLID
  8
L-ZISSEN
 10
291.178652
 20
230.618462
 30
0.0
 11
290.719764
 21
230.134865
 31
0.0
 12
292.4
 22
229.0
 32
0.0
 13
292.4
 23
229.0
 33
0.0
  0
LINE
  8
L-ZISSEN
 10
290.949208
 20
230.376664
 30
0.0
 11
265.0
 21
255.0
 31
0.0
  0
LINE
  8
L-ZISSEN
 10
265.0
 20
255.0
 30
0.0
 11
263.0
 21
255.0
 31
0.0
  0
TEXT
  8
L-ZISSEN
 10
252.0
 20
252.75
 30
0.0
 40
4.5
  1
P.P
  0
SOLID
  8
L-ZISSEN
 10
481.769969
 20
229.9891
 30
0.0
 11
481.353506
 21
230.50968
 31
0.0
 12
480.0
 22
229.0
 32
0.0
 13
480.0
 23
229.0
 33
0.0
  0
LINE
  8
L-ZISSEN
 10
481.561738
 20
230.24939
 30
0.0
 11
500.0
 21
245.0
 31
0.0
  0
LINE
  8
L-ZISSEN
 10
500.0
 20
245.0
 30
0.0
 11
502.0
 21
245.0
 31
0.0
  0
TEXT
  8
L-ZISSEN
 10
504.0
 20
242.75
 30
0.0
 40
4.5
  1
P.P
  0
SOLID
  8
L-ZISSEN
 10
293.624355
 20
358.383811
 30
0.0
 11
294.082343
 21
358.868261
 31
0.0
 12
292.4
 22
360.0
 32
0.0
 13
292.4
 23
360.0
 33
0.0
  0
LINE
  8
L-ZISSEN
 10
293.853349
 20
358.626036
 30
0.0
 11
340.0
 21
315.0
 31
0.0
  0
LINE
  8
L-ZISSEN
 10
340.0
 20
315.0
 30
0.0
 11
342.0
 21
315.0
 31
0.0
  0
TEXT
  8
L-ZISSEN
 10
344.0
 20
312.75
 30
0.0
 40
4.5
  1
P.P
  0
SOLID
  8
L-ZISSEN
 10
259.488695
 20
357.974353
 30
0.0
 11
260.140868
 21
358.112614
 31
0.0
 12
259.4
 22
360.0
 32
0.0
 13
259.4
 23
360.0
 33
0.0
  0
LINE
  8
L-ZISSEN
 10
259.814781
 20
358.043484
 30
0.0
 11
270.0
 21
310.0
 31
0.0
  0
LINE
  8
L-ZISSEN
 10
270.0
 20
310.0
 30
0.0
 11
272.0
 21
310.0
 31
0.0
  0
TEXT
  8
L-ZISSEN
 10
274.0
 20
307.75
 30
0.0
 40
4.5
  1
P.P
  0
SOLID
  8
L-ZISSEN
 10
258.19837
 20
232.633155
 30
0.0
 11
257.733651
 21
232.155158
 31
0.0
 12
259.4
 22
231.0
 32
0.0
 13
259.4
 23
231.0
 33
0.0
  0
LINE
  8
L-ZISSEN
 10
257.96601
 20
232.394157
 30
0.0
 11
245.0
 21
245.0
 31
0.0
  0
LINE
  8
L-ZISSEN
 10
245.0
 20
245.0
 30
0.0
 11
243.0
 21
245.0
 31
0.0
  0
TEXT
  8
L-ZISSEN
 10
232.0
 20
242.75
 30
0.0
 40
4.5
  1
P.P
  0
LINE
  8
L-ZISSEN
 10
190.0
 20
221.8
 30
0.0
 11
194.25
 21
221.8
 31
0.0
  0
LINE
  8
L-ZISSEN
 10
194.25
 20
221.8
 30
0.0
 11
194.25
 21
216.0
 31
0.0
  0
LINE
  8
L-ZISSEN
 10
184.0
 20
178.0
 30
0.0
 11
184.0
 21
216.0
 31
0.0
  0
LINE
  8
L-ZISSEN
 10
166.0
 20
178.0
 30
0.0
 11
166.0
 21
229.0
 31
0.0
  0
LINE
  8
L-ZISSEN
 10
162.85
 20
233.5
 30
0.0
 11
132.35
 21
233.5
 31
0.0
  0
LINE
  8
L-ZISSEN
 10
132.35
 20
233.5
 30
0.0
 11
132.35
 21
229.0
 31
0.0
  0
LINE
  8
L-ZISSEN
 10
162.85
 20
233.5
 30
0.0
 11
162.85
 21
229.0
 31
0.0
  0
LINE
  8
L-ZISSEN
 10
115.45
 20
262.65
 30
0.0
 11
115.45
 21
244.25
 31
0.0
  0
LINE
  8
L-ZISSEN
 10
115.45
 20
244.95
 30
0.0
 11
113.1
 21
244.95
 31
0.0
  0
LINE
  8
L-ZISSEN
 10
115.45
 20
261.95
 30
0.0
 11
113.1
 21
261.95
 31
0.0
  0
LINE
  8
L-ZISSEN
 10
118.35
 20
244.25
 30
0.0
 11
115.45
 21
244.25
 31
0.0
  0
LINE
  8
L-ZISSEN
 10
118.35
 20
262.65
 30
0.0
 11
115.45
 21
262.65
 31
0.0
  0
LINE
  8
L-ZISSEN
 10
113.1
 20
264.419655
 30
0.0
 11
113.1
 21
242.480345
 31
0.0
  0
LINE
  8
L-ZISSEN
 10
107.6
 20
242.480345
 30
0.0
 11
113.1
 21
242.480345
 31
0.0
  0
LINE
  8
L-ZISSEN
 10
107.6
 20
264.419655
 30
0.0
 11
113.1
 21
264.419655
 31
0.0
  0
LINE
  8
L-ZISSEN
 10
107.6
 20
264.419655
 30
0.0
 11
107.6
 21
242.480345
 31
0.0
  0
LINE
  8
L-ZISSEN
 10
133.85
 20
264.7
 30
0.0
 11
133.85
 21
233.5
 31
0.0
  0
LINE
  8
L-ZISSEN
 10
118.35
 20
264.7
 30
0.0
 11
118.35
 21
242.2
 31
0.0
  0
LINE
  8
L-ZISSEN
 10
133.85
 20
242.2
 30
0.0
 11
118.35
 21
242.2
 31
0.0
  0
LINE
  8
L-ZISSEN
 10
161.35
 20
264.7
 30
0.0
 11
118.35
 21
264.7
 31
0.0
  0
LINE
  8
L-ZISSEN
 10
161.35
 20
264.7
 30
0.0
 11
161.35
 21
233.5
 31
0.0
  0
LINE
  8
L-ZISSEN
 10
119.1
 20
214.814955
 30
0.0
 11
119.1
 21
195.185045
 31
0.0
  0
LINE
  8
L-ZISSEN
 10
119.1
 20
195.185045
 30
0.0
 11
122.1
 21
195.185045
 31
0.0
  0
LINE
  8
L-ZISSEN
 10
119.1
 20
214.814955
 30
0.0
 11
122.1
 21
214.814955
 31
0.0
  0
LINE
  8
L-ZISSEN
 10
122.1
 20
229.0
 30
0.0
 11
122.1
 21
186.2
 31
0.0
  0
LINE
  8
L-ZISSEN
 10
122.1
 20
186.2
 30
0.0
 11
166.0
 21
186.2
 31
0.0
  0
LINE
  8
L-ZISSEN
 10
166.0
 20
229.0
 30
0.0
 11
122.1
 21
229.0
 31
0.0
  0
LINE
  8
L-ZISSEN
 10
173.671797
 20
238.1
 30
0.0
 11
173.671797
 21
231.0
 31
0.0
  0
LINE
  8
L-ZISSEN
 10
187.528203
 20
238.1
 30
0.0
 11
187.528203
 21
231.0
 31
0.0
  0
LINE
  8
L-ZISSEN
 10
173.671797
 20
238.1
 30
0.0
 11
187.528203
 21
238.1
 31
0.0
  0
LINE
  8
L-ZISSEN
 10
203.0
 20
178.0
 30
0.0
 11
203.0
 21
186.0
 31
0.0
  0
LINE
  8
L-ZISSEN
 10
166.0
 20
179.0
 30
0.0
 11
203.0
 21
179.0
 31
0.0
  0
LINE
  8
L-ZISSEN
 10
190.0
 20
231.0
 30
0.0
 11
172.0
 21
231.0
 31
0.0
  0
LINE
  8
L-ZISSEN
 10
172.5
 20
229.0
 30
0.0
 11
166.0
 21
229.0
 31
0.0
  0
LINE
  8
L-ZISSEN
 10
172.0
 20
231.0
 30
0.0
 11
172.0
 21
229.0
 31
0.0
  0
LINE
  8
L-ZISSEN
 10
190.0
 20
231.0
 30
0.0
 11
190.0
 21
216.0
 31
0.0
  0
LINE
  8
L-ZISSEN
 10
172.0
 20
178.0
 30
0.0
 11
172.0
 21
216.0
 31
0.0
  0
LINE
  8
L-ZISSEN
 10
196.0
 20
186.0
 30
0.0
 11
196.0
 21
216.0
 31
0.0
  0
LINE
  8
L-ZISSEN
 10
172.5
 20
216.0
 30
0.0
 11
203.0
 21
216.0
 31
0.0
  0
LINE
  8
L-ZISSEN
 10
196.0
 20
194.0
 30
0.0
 11
203.0
 21
194.0
 31
0.0
  0
LINE
  8
L-ZISSEN
 10
172.5
 20
216.0
 30
0.0
 11
172.5
 21
229.0
 31
0.0
  0
LINE
  8
L-ZISSEN
 10
196.0
 20
186.0
 30
0.0
 11
203.0
 21
186.0
 31
0.0
  0
LINE
  8
L-ZISSEN
 10
203.0
 20
194.0
 30
0.0
 11
203.0
 21
216.0
 31
0.0
  0
LINE
  8
L-ZISSEN
 10
173.75
 20
221.8
 30
0.0
 11
182.25
 21
221.8
 31
0.0
  0
LINE
  8
L-ZISSEN
 10
173.75
 20
221.8
 30
0.0
 11
173.75
 21
216.0
 31
0.0
  0
LINE
  8
L-ZISSEN
 10
182.25
 20
221.8
 30
0.0
 11
182.25
 21
216.0
 31
0.0
  0
LINE
  8
L-ZISSEN
 10
196.0
 20
344.0
 30
0.0
 11
196.0
 21
376.0
 31
0.0
  0
CIRCLE
  8
L-ZISSEN
 10
190.0
 20
376.0
 30
0.0
 40
4.25
  0
LINE
  8
L-ZISSEN
 10
166.0
 20
382.0
 30
0.0
 11
190.0
 21
382.0
 31
0.0
  0
LINE
  8
L-ZISSEN
 10
172.5
 20
344.0
 30
0.0
 11
172.5
 21
351.0
 31
0.0
  0
LINE
  8
L-ZISSEN
 10
181.0
 20
351.0
 30
0.0
 11
172.5
 21
351.0
 31
0.0
  0
ARC
  8
L-ZISSEN
 10
181.0
 20
360.0
 30
0.0
 40
9.0
 50
270.0
 51
90.0
  0
LINE
  8
L-ZISSEN
 10
187.528203
 20
360.0
 30
0.0
 11
184.064102
 21
354.0
 31
0.0
  0
LINE
  8
L-ZISSEN
 10
184.064102
 20
366.0
 30
0.0
 11
187.528203
 21
360.0
 31
0.0
  0
LINE
  8
L-ZISSEN
 10
177.135898
 20
366.0
 30
0.0
 11
184.064102
 21
366.0
 31
0.0
  0
LINE
  8
L-ZISSEN
 10
177.135898
 20
366.0
 30
0.0
 11
173.671797
 21
360.0
 31
0.0
  0
LINE
  8
L-ZISSEN
 10
177.135898
 20
354.0
 30
0.0
 11
173.671797
 21
360.0
 31
0.0
  0
LINE
  8
L-ZISSEN
 10
184.064102
 20
354.0
 30
0.0
 11
177.135898
 21
354.0
 31
0.0
  0
LINE
  8
L-ZISSEN
 10
181.0
 20
369.0
 30
0.0
 11
172.5
 21
369.0
 31
0.0
  0
LINE
  8
L-ZISSEN
 10
172.5
 20
369.0
 30
0.0
 11
172.5
 21
376.0
 31
0.0
  0
CIRCLE
  8
L-ZISSEN
 10
178.0
 20
344.0
 30
0.0
 40
4.25
  0
LINE
  8
L-ZISSEN
 10
166.0
 20
344.0
 30
0.0
 11
166.0
 21
382.0
 31
0.0
  0
LINE
  8
L-ZISSEN
 10
161.35
 20
346.25
 30
0.0
 11
161.35
 21
373.75
 31
0.0
  0
LINE
  8
L-ZISSEN
 10
162.35
 20
375.0
 30
0.0
 11
162.35
 21
345.0
 31
0.0
  0
LINE
  8
L-ZISSEN
 10
122.1
 20
375.0
 30
0.0
 11
166.0
 21
375.0
 31
0.0
  0
LINE
  8
L-ZISSEN
 10
161.35
 20
373.75
 30
0.0
 11
133.85
 21
373.75
 31
0.0
  0
LINE
  8
L-ZISSEN
 10
161.35
 20
346.25
 30
0.0
 11
133.85
 21
346.25
 31
0.0
  0
LINE
  8
L-ZISSEN
 10
133.85
 20
348.75
 30
0.0
 11
118.35
 21
348.75
 31
0.0
  0
LINE
  8
L-ZISSEN
 10
133.85
 20
346.25
 30
0.0
 11
133.85
 21
373.75
 31
0.0
  0
LINE
  8
L-ZISSEN
 10
133.85
 20
371.25
 30
0.0
 11
118.35
 21
371.25
 31
0.0
  0
LINE
  8
L-ZISSEN
 10
132.35
 20
375.0
 30
0.0
 11
132.35
 21
371.25
 31
0.0
  0
LINE
  8
L-ZISSEN
 10
122.1
 20
371.25
 30
0.0
 11
122.1
 21
375.0
 31
0.0
  0
LINE
  8
L-ZISSEN
 10
118.35
 20
348.75
 30
0.0
 11
118.35
 21
371.25
 31
0.0
  0
LINE
  8
L-ZISSEN
 10
115.45
 20
350.8
 30
0.0
 11
115.45
 21
369.2
 31
0.0
  0
LINE
  8
L-ZISSEN
 10
107.6
 20
349.030345
 30
0.0
 11
107.6
 21
370.969655
 31
0.0
  0
LINE
  8
L-ZISSEN
 10
107.6
 20
349.030345
 30
0.0
 11
113.1
 21
349.030345
 31
0.0
  0
LINE
  8
L-ZISSEN
 10
107.6
 20
370.969655
 30
0.0
 11
113.1
 21
370.969655
 31
0.0
  0
LINE
  8
L-ZISSEN
 10
113.1
 20
349.030345
 30
0.0
 11
113.1
 21
370.969655
 31
0.0
  0
LINE
  8
L-ZISSEN
 10
118.35
 20
350.8
 30
0.0
 11
115.45
 21
350.8
 31
0.0
  0
LINE
  8
L-ZISSEN
 10
118.35
 20
369.2
 30
0.0
 11
115.45
 21
369.2
 31
0.0
  0
LINE
  8
L-ZISSEN
 10
115.45
 20
351.5
 30
0.0
 11
113.1
 21
351.5
 31
0.0
  0
LINE
  8
L-ZISSEN
 10
115.45
 20
368.5
 30
0.0
 11
113.1
 21
368.5
 31
0.0
  0
LINE
  8
L-ZISSEN
 10
122.1
 20
345.0
 30
0.0
 11
122.1
 21
348.75
 31
0.0
  0
LINE
  8
L-ZISSEN
 10
122.1
 20
345.0
 30
0.0
 11
166.0
 21
345.0
 31
0.0
  0
LINE
  8
L-ZISSEN
 10
132.35
 20
348.75
 30
0.0
 11
132.35
 21
345.0
 31
0.0
  0
LINE
  8
L-ZISSEN
 10
145.1
 20
375.0
 30
0.0
 11
145.1
 21
397.0
 31
0.0
  0
LINE
  8
L-ZISSEN
 10
165.0
 20
345.0
 30
0.0
 11
165.0
 21
344.0
 31
0.0
  0
LINE
  8
L-ZISSEN
 10
627.5
 20
247.0
 30
0.0
 11
621.5
 21
253.0
 31
0.0
  0
LINE
  8
L-ZISSEN
 10
627.5
 20
173.0
 30
0.0
 11
621.5
 21
167.0
 31
0.0
  0
SOLID
  8
L-ZISSEN
 10
210.433289
 20
553.01925
 30
0.0
 11
211.052274
 21
553.266844
 31
0.0
 12
210.0
 22
555.0
 32
0.0
 13
210.0
 23
555.0
 33
0.0
  0
LINE
  8
L-ZISSEN
 10
210.742781
 20
553.143047
 30
0.0
 11
220.0
 21
530.0
 31
0.0
  0
LINE
  8
L-ZISSEN
 10
220.0
 20
530.0
 30
0.0
 11
222.0
 21
530.0
 31
0.0
  0
TEXT
  8
L-ZISSEN
 10
224.0
 20
527.75
 30
0.0
 40
4.5
  1
P.P
  0
LINE
  8
L-ZISSEN
 10
1049.0
 20
39.0
 30
0.0
 11
1050.5
 21
39.0
 31
0.0
  0
LINE
  8
L-ZISSEN
 10
1079.5
 20
39.0
 30
0.0
 11
1081.0
 21
39.0
 31
0.0
  0
LINE
  8
L-ZISSEN
 10
1124.5
 20
118.0
 30
0.0
 11
1124.5
 21
120.0
 31
0.0
  0
LINE
  8
L-ZISSEN
 10
1124.5
 20
90.0
 30
0.0
 11
1124.5
 21
92.0
 31
0.0
  0
LINE
  8
L-ZISSEN
 10
1078.0
 20
43.0
 30
0.0
 11
1079.5
 21
43.0
 31
0.0
  0
LINE
  8
L-ZISSEN
 10
1078.0
 20
50.0
 30
0.0
 11
1078.0
 21
40.5
 31
0.0
  0
LINE
  8
L-ZISSEN
 10
1052.0
 20
50.0
 30
0.0
 11
1052.0
 21
40.5
 31
0.0
  0
CIRCLE
  8
L-ZISSEN
 10
1065.0
 20
50.0
 30
0.0
 40
13.0
  0
LINE
  8
L-ZISSEN
 10
1073.87412
 20
40.5
 30
0.0
 11
1079.5
 21
40.5
 31
0.0
  0
LINE
  8
L-ZISSEN
 10
1053.5
 20
40.5
 30
0.0
 11
1053.5
 21
37.0
 31
0.0
  0
LINE
  8
L-ZISSEN
 10
1076.5
 20
40.5
 30
0.0
 11
1076.5
 21
37.0
 31
0.0
  0
LINE
  8
L-ZISSEN
 10
1050.5
 20
40.5
 30
0.0
 11
1056.12588
 21
40.5
 31
0.0
  0
LINE
  8
L-ZISSEN
 10
1051.5
 20
65.0
 30
0.0
 11
1078.5
 21
65.0
 31
0.0
  0
LINE
  8
L-ZISSEN
 10
1051.5
 20
65.0
 30
0.0
 11
1051.5
 21
43.0
 31
0.0
  0
LINE
  8
L-ZISSEN
 10
1078.5
 20
65.0
 30
0.0
 11
1078.5
 21
43.0
 31
0.0
  0
LINE
  8
L-ZISSEN
 10
1050.5
 20
43.0
 30
0.0
 11
1050.5
 21
37.0
 31
0.0
  0
LINE
  8
L-ZISSEN
 10
1079.5
 20
43.0
 30
0.0
 11
1079.5
 21
37.0
 31
0.0
  0
LINE
  8
L-ZISSEN
 10
1050.5
 20
43.0
 30
0.0
 11
1052.0
 21
43.0
 31
0.0
  0
LINE
  8
L-ZISSEN
 10
1135.5
 20
118.0
 30
0.0
 11
1135.5
 21
119.5
 31
0.0
  0
LINE
  8
L-ZISSEN
 10
1135.5
 20
119.5
 30
0.0
 11
1164.5
 21
119.5
 31
0.0
  0
LINE
  8
L-ZISSEN
 10
1135.5
 20
90.5
 30
0.0
 11
1135.5
 21
92.0
 31
0.0
  0
LINE
  8
L-ZISSEN
 10
1164.5
 20
90.5
 30
0.0
 11
1135.5
 21
90.5
 31
0.0
  0
LINE
  8
L-ZISSEN
 10
1164.5
 20
119.5
 30
0.0
 11
1164.5
 21
90.5
 31
0.0
  0
LINE
  8
L-ZISSEN
 10
1163.5
 20
118.5
 30
0.0
 11
1136.5
 21
118.5
 31
0.0
  0
LINE
  8
L-ZISSEN
 10
1163.5
 20
91.5
 30
0.0
 11
1136.5
 21
91.5
 31
0.0
  0
LINE
  8
L-ZISSEN
 10
1163.5
 20
91.5
 30
0.0
 11
1163.5
 21
118.5
 31
0.0
  0
LINE
  8
L-ZISSEN
 10
1136.5
 20
91.5
 30
0.0
 11
1136.5
 21
118.5
 31
0.0
  0
LINE
  8
L-ZISSEN
 10
1094.5
 20
94.030345
 30
0.0
 11
1094.5
 21
115.969655
 31
0.0
  0
LINE
  8
L-ZISSEN
 10
1094.5
 20
94.030345
 30
0.0
 11
1100.0
 21
94.030345
 31
0.0
  0
LINE
  8
L-ZISSEN
 10
1094.5
 20
115.969655
 30
0.0
 11
1100.0
 21
115.969655
 31
0.0
  0
LINE
  8
L-ZISSEN
 10
1100.0
 20
94.030345
 30
0.0
 11
1100.0
 21
115.969655
 31
0.0
  0
LINE
  8
L-ZISSEN
 10
1109.5
 20
95.8
 30
0.0
 11
1102.35
 21
95.8
 31
0.0
  0
LINE
  8
L-ZISSEN
 10
1109.5
 20
114.2
 30
0.0
 11
1102.35
 21
114.2
 31
0.0
  0
LINE
  8
L-ZISSEN
 10
1102.35
 20
96.5
 30
0.0
 11
1100.0
 21
96.5
 31
0.0
  0
LINE
  8
L-ZISSEN
 10
1102.35
 20
113.5
 30
0.0
 11
1100.0
 21
113.5
 31
0.0
  0
LINE
  8
L-ZISSEN
 10
1102.35
 20
95.8
 30
0.0
 11
1102.35
 21
114.2
 31
0.0
  0
LINE
  8
L-ZISSEN
 10
1109.5
 20
92.0
 30
0.0
 11
1109.5
 21
118.0
 31
0.0
  0
LINE
  8
L-ZISSEN
 10
1109.5
 20
118.0
 30
0.0
 11
1136.5
 21
118.0
 31
0.0
  0
LINE
  8
L-ZISSEN
 10
1136.5
 20
92.0
 30
0.0
 11
1109.5
 21
92.0
 31
0.0
  0
LINE
  8
L-ZISSEN
 10
1164.5
 20
43.0
 30
0.0
 11
1135.5
 21
43.0
 31
0.0
  0
LINE
  8
L-ZISSEN
 10
1119.5
 20
40.5
 30
0.0
 11
1119.5
 21
37.0
 31
0.0
  0
LINE
  8
L-ZISSEN
 10
1135.5
 20
43.0
 30
0.0
 11
1135.5
 21
37.0
 31
0.0
  0
LINE
  8
L-ZISSEN
 10
1164.5
 20
43.0
 30
0.0
 11
1164.5
 21
37.0
 31
0.0
  0
LINE
  8
L-ZISSEN
 10
1135.5
 20
40.5
 30
0.0
 11
1119.5
 21
40.5
 31
0.0
  0
LINE
  8
L-ZISSEN
 10
1136.5
 20
65.0
 30
0.0
 11
1136.5
 21
43.0
 31
0.0
  0
LINE
  8
L-ZISSEN
 10
1163.5
 20
65.0
 30
0.0
 11
1163.5
 21
43.0
 31
0.0
  0
LINE
  8
L-ZISSEN
 10
1109.5
 20
37.0
 30
0.0
 11
1124.5
 21
37.0
 31
0.0
  0
LINE
  8
L-ZISSEN
 10
1163.5
 20
65.0
 30
0.0
 11
1136.5
 21
65.0
 31
0.0
  0
LINE
  8
L-ZISSEN
 10
1136.5
 20
63.0
 30
0.0
 11
1109.5
 21
63.0
 31
0.0
  0
LINE
  8
L-ZISSEN
 10
1109.5
 20
63.0
 30
0.0
 11
1109.5
 21
37.0
 31
0.0
  0
CIRCLE
  8
L-ZISSEN
 10
1065.0
 20
50.0
 30
0.0
 40
11.25
  0
CIRCLE
  8
L-ZISSEN
 10
1065.0
 20
50.0
 30
0.0
 40
6.5
  0
LINE
  8
L-ZISSEN
 10
1102.35
 20
59.2
 30
0.0
 11
1102.35
 21
40.8
 31
0.0
  0
LINE
  8
L-ZISSEN
 10
1102.35
 20
41.5
 30
0.0
 11
1100.0
 21
41.5
 31
0.0
  0
LINE
  8
L-ZISSEN
 10
1102.35
 20
58.5
 30
0.0
 11
1100.0
 21
58.5
 31
0.0
  0
LINE
  8
L-ZISSEN
 10
1109.5
 20
40.8
 30
0.0
 11
1102.35
 21
40.8
 31
0.0
  0
LINE
  8
L-ZISSEN
 10
1109.5
 20
59.2
 30
0.0
 11
1102.35
 21
59.2
 31
0.0
  0
LINE
  8
L-ZISSEN
 10
1100.0
 20
60.969655
 30
0.0
 11
1100.0
 21
39.030345
 31
0.0
  0
LINE
  8
L-ZISSEN
 10
1094.5
 20
39.030345
 30
0.0
 11
1100.0
 21
39.030345
 31
0.0
  0
LINE
  8
L-ZISSEN
 10
1094.5
 20
60.969655
 30
0.0
 11
1100.0
 21
60.969655
 31
0.0
  0
LINE
  8
L-ZISSEN
 10
1094.5
 20
60.969655
 30
0.0
 11
1094.5
 21
39.030345
 31
0.0
  0
SOLID
  8
L-ZISSEN
 10
1065.891232
 20
35.178787
 30
0.0
 11
1066.433721
 21
35.566279
 31
0.0
 12
1065.0
 22
37.0
 32
0.0
 13
1065.0
 23
37.0
 33
0.0
  0
LINE
  8
L-ZISSEN
 10
1066.162476
 20
35.372533
 30
0.0
 11
1070.0
 21
30.0
 31
0.0
  0
LINE
  8
L-ZISSEN
 10
1070.0
 20
30.0
 30
0.0
 11
1072.0
 21
30.0
 31
0.0
  0
TEXT
  8
L-ZISSEN
 10
1074.0
 20
27.75
 30
0.0
 40
4.5
  1
P.P
  0
SOLID
  8
L-ZISSEN
 10
1150.891232
 20
35.178787
 30
0.0
 11
1151.433721
 21
35.566279
 31
0.0
 12
1150.0
 22
37.0
 32
0.0
 13
1150.0
 23
37.0
 33
0.0
  0
LINE
  8
L-ZISSEN
 10
1151.162476
 20
35.372533
 30
0.0
 11
1155.0
 21
30.0
 31
0.0
  0
LINE
  8
L-ZISSEN
 10
1155.0
 20
30.0
 30
0.0
 11
1157.0
 21
30.0
 31
0.0
  0
TEXT
  8
L-ZISSEN
 10
1159.0
 20
27.75
 30
0.0
 40
4.5
  1
P.P
  0
SOLID
  8
L-ZISSEN
 10
1150.596285
 20
103.062074
 30
0.0
 11
1151.19257
 21
103.360217
 31
0.0
 12
1150.0
 22
105.0
 32
0.0
 13
1150.0
 23
105.0
 33
0.0
  0
LINE
  8
L-ZISSEN
 10
1150.894427
 20
103.211146
 30
0.0
 11
1160.0
 21
85.0
 31
0.0
  0
LINE
  8
L-ZISSEN
 10
1160.0
 20
85.0
 30
0.0
 11
1162.0
 21
85.0
 31
0.0
  0
TEXT
  8
L-ZISSEN
 10
1164.0
 20
82.75
 30
0.0
 40
4.5
  1
P.P
  0
SOLID
  8
L-ZISSEN
 10
181.107373
 20
361.96308
 30
0.0
 11
180.443272
 21
362.021521
 31
0.0
 12
180.6
 22
360.0
 32
0.0
 13
180.6
 23
360.0
 33
0.0
  0
LINE
  8
L-ZISSEN
 10
180.775322
 20
361.992301
 30
0.0
 11
185.0
 21
410.0
 31
0.0
  0
LINE
  8
L-ZISSEN
 10
185.0
 20
410.0
 30
0.0
 11
187.0
 21
410.0
 31
0.0
  0
TEXT
  8
L-ZISSEN
 10
189.0
 20
407.75
 30
0.0
 40
4.5
  1
P.P
  0
SOLID
  8
L-ZISSEN
 10
145.917657
 20
358.868261
 30
0.0
 11
146.375645
 21
358.383811
 31
0.0
 12
147.6
 22
360.0
 32
0.0
 13
147.6
 23
360.0
 33
0.0
  0
LINE
  8
L-ZISSEN
 10
146.146651
 20
358.626036
 30
0.0
 11
100.0
 21
315.0
 31
0.0
  0
LINE
  8
L-ZISSEN
 10
100.0
 20
315.0
 30
0.0
 11
98.0
 21
315.0
 31
0.0
  0
TEXT
  8
L-ZISSEN
 10
87.0
 20
312.75
 30
0.0
 40
4.5
  1
P.P
  0
LINE
  8
L-ZISSEN
 10
166.0
 20
542.0
 30
0.0
 11
166.0
 21
491.0
 31
0.0
  0
LINE
  8
L-ZISSEN
 10
162.85
 20
486.5
 30
0.0
 11
132.35
 21
486.5
 31
0.0
  0
LINE
  8
L-ZISSEN
 10
132.35
 20
486.5
 30
0.0
 11
132.35
 21
491.0
 31
0.0
  0
LINE
  8
L-ZISSEN
 10
162.85
 20
486.5
 30
0.0
 11
162.85
 21
491.0
 31
0.0
  0
LINE
  8
L-ZISSEN
 10
115.45
 20
457.35
 30
0.0
 11
115.45
 21
475.75
 31
0.0
  0
LINE
  8
L-ZISSEN
 10
115.45
 20
475.05
 30
0.0
 11
113.1
 21
475.05
 31
0.0
  0
LINE
  8
L-ZISSEN
 10
115.45
 20
458.05
 30
0.0
 11
113.1
 21
458.05
 31
0.0
  0
LINE
  8
L-ZISSEN
 10
118.35
 20
475.75
 30
0.0
 11
115.45
 21
475.75
 31
0.0
  0
LINE
  8
L-ZISSEN
 10
118.35
 20
457.35
 30
0.0
 11
115.45
 21
457.35
 31
0.0
  0
LINE
  8
L-ZISSEN
 10
113.1
 20
455.580345
 30
0.0
 11
113.1
 21
477.519655
 31
0.0
  0
LINE
  8
L-ZISSEN
 10
107.6
 20
477.519655
 30
0.0
 11
113.1
 21
477.519655
 31
0.0
  0
LINE
  8
L-ZISSEN
 10
107.6
 20
455.580345
 30
0.0
 11
113.1
 21
455.580345
 31
0.0
  0
LINE
  8
L-ZISSEN
 10
107.6
 20
455.580345
 30
0.0
 11
107.6
 21
477.519655
 31
0.0
  0
LINE
  8
L-ZISSEN
 10
133.85
 20
455.3
 30
0.0
 11
133.85
 21
486.5
 31
0.0
  0
LINE
  8
L-ZISSEN
 10
118.35
 20
455.3
 30
0.0
 11
118.35
 21
477.8
 31
0.0
  0
LINE
  8
L-ZISSEN
 10
133.85
 20
477.8
 30
0.0
 11
118.35
 21
477.8
 31
0.0
  0
LINE
  8
L-ZISSEN
 10
161.35
 20
455.3
 30
0.0
 11
118.35
 21
455.3
 31
0.0
  0
LINE
  8
L-ZISSEN
 10
161.35
 20
455.3
 30
0.0
 11
161.35
 21
486.5
 31
0.0
  0
LINE
  8
L-ZISSEN
 10
119.1
 20
505.185045
 30
0.0
 11
119.1
 21
524.814955
 31
0.0
  0
LINE
  8
L-ZISSEN
 10
119.1
 20
524.814955
 30
0.0
 11
122.1
 21
524.814955
 31
0.0
  0
LINE
  8
L-ZISSEN
 10
119.1
 20
505.185045
 30
0.0
 11
122.1
 21
505.185045
 31
0.0
  0
LINE
  8
L-ZISSEN
 10
122.1
 20
491.0
 30
0.0
 11
122.1
 21
533.8
 31
0.0
  0
LINE
  8
L-ZISSEN
 10
122.1
 20
533.8
 30
0.0
 11
166.0
 21
533.8
 31
0.0
  0
LINE
  8
L-ZISSEN
 10
166.0
 20
491.0
 30
0.0
 11
122.1
 21
491.0
 31
0.0
  0
LINE
  8
L-ZISSEN
 10
173.671797
 20
481.9
 30
0.0
 11
173.671797
 21
489.0
 31
0.0
  0
LINE
  8
L-ZISSEN
 10
187.528203
 20
481.9
 30
0.0
 11
187.528203
 21
489.0
 31
0.0
  0
LINE
  8
L-ZISSEN
 10
173.671797
 20
481.9
 30
0.0
 11
187.528203
 21
481.9
 31
0.0
  0
LINE
  8
L-ZISSEN
 10
203.0
 20
542.0
 30
0.0
 11
203.0
 21
534.0
 31
0.0
  0
LINE
  8
L-ZISSEN
 10
166.0
 20
541.0
 30
0.0
 11
203.0
 21
541.0
 31
0.0
  0
LINE
  8
L-ZISSEN
 10
190.0
 20
489.0
 30
0.0
 11
172.0
 21
489.0
 31
0.0
  0
LINE
  8
L-ZISSEN
 10
172.5
 20
491.0
 30
0.0
 11
166.0
 21
491.0
 31
0.0
  0
LINE
  8
L-ZISSEN
 10
172.0
 20
489.0
 30
0.0
 11
172.0
 21
491.0
 31
0.0
  0
LINE
  8
L-ZISSEN
 10
190.0
 20
489.0
 30
0.0
 11
190.0
 21
498.2
 31
0.0
  0
ARC
  8
L-ZISSEN
 10
174.0
 20
531.0
 30
0.0
 40
8.0
 50
90.0
 51
270.0
  0
LINE
  8
L-ZISSEN
 10
184.0
 20
542.0
 30
0.0
 11
184.0
 21
504.0
 31
0.0
  0
LINE
  8
L-ZISSEN
 10
196.0
 20
542.0
 30
0.0
 11
196.0
 21
504.0
 31
0.0
  0
LINE
  8
L-ZISSEN
 10
174.0
 20
539.0
 30
0.0
 11
184.0
 21
539.0
 31
0.0
  0
LINE
  8
L-ZISSEN
 10
174.0
 20
523.0
 30
0.0
 11
184.0
 21
523.0
 31
0.0
  0
LINE
  8
L-ZISSEN
 10
172.5
 20
504.0
 30
0.0
 11
203.0
 21
504.0
 31
0.0
  0
LINE
  8
L-ZISSEN
 10
196.0
 20
526.0
 30
0.0
 11
203.0
 21
526.0
 31
0.0
  0
LINE
  8
L-ZISSEN
 10
172.5
 20
504.0
 30
0.0
 11
172.5
 21
491.0
 31
0.0
  0
LINE
  8
L-ZISSEN
 10
196.0
 20
534.0
 30
0.0
 11
203.0
 21
534.0
 31
0.0
  0
LINE
  8
L-ZISSEN
 10
203.0
 20
526.0
 30
0.0
 11
203.0
 21
504.0
 31
0.0
  0
LINE
  8
L-ZISSEN
 10
185.75
 20
498.2
 30
0.0
 11
194.25
 21
498.2
 31
0.0
  0
LINE
  8
L-ZISSEN
 10
185.75
 20
498.2
 30
0.0
 11
185.75
 21
504.0
 31
0.0
  0
LINE
  8
L-ZISSEN
 10
194.25
 20
498.2
 30
0.0
 11
194.25
 21
504.0
 31
0.0
  0
SOLID
  8
L-ZISSEN
 10
182.266349
 20
232.155158
 30
0.0
 11
181.80163
 21
232.633155
 31
0.0
 12
180.6
 22
231.0
 32
0.0
 13
180.6
 23
231.0
 33
0.0
  0
LINE
  8
L-ZISSEN
 10
182.03399
 20
232.394157
 30
0.0
 11
195.0
 21
245.0
 31
0.0
  0
LINE
  8
L-ZISSEN
 10
195.0
 20
245.0
 30
0.0
 11
197.0
 21
245.0
 31
0.0
  0
TEXT
  8
L-ZISSEN
 10
199.0
 20
242.75
 30
0.0
 40
4.5
  1
P.P
  0
SOLID
  8
L-ZISSEN
 10
149.280236
 20
230.134865
 30
0.0
 11
148.821348
 21
230.618462
 31
0.0
 12
147.6
 22
229.0
 32
0.0
 13
147.6
 23
229.0
 33
0.0
  0
LINE
  8
L-ZISSEN
 10
149.050792
 20
230.376664
 30
0.0
 11
175.0
 21
255.0
 31
0.0
  0
LINE
  8
L-ZISSEN
 10
175.0
 20
255.0
 30
0.0
 11
177.0
 21
255.0
 31
0.0
  0
TEXT
  8
L-ZISSEN
 10
179.0
 20
252.75
 30
0.0
 40
4.5
  1
P.P
  0
LINE
  8
L-ZISSEN
 10
368.4
 20
170.0
 30
0.0
 11
368.4
 21
110.0
 31
0.0
  0
LINE
  8
L-ZISSEN
 10
361.9
 20
177.0
 30
0.0
 11
361.9
 21
170.0
 31
0.0
  0
LINE
  8
L-ZISSEN
 10
386.4
 20
159.0
 30
0.0
 11
386.4
 21
146.5
 31
0.0
  0
LINE
  8
L-ZISSEN
 10
378.4
 20
166.0
 30
0.0
 11
378.4
 21
114.0
 31
0.0
  0
LINE
  8
L-ZISSEN
 10
378.4
 20
114.0
 30
0.0
 11
368.4
 21
114.0
 31
0.0
  0
LINE
  8
L-ZISSEN
 10
378.4
 20
166.0
 30
0.0
 11
368.4
 21
166.0
 31
0.0
  0
LINE
  8
L-ZISSEN
 10
386.4
 20
121.0
 30
0.0
 11
378.4
 21
121.0
 31
0.0
  0
LINE
  8
L-ZISSEN
 10
386.4
 20
159.0
 30
0.0
 11
378.4
 21
159.0
 31
0.0
  0
LINE
  8
L-ZISSEN
 10
388.4
 20
146.5
 30
0.0
 11
388.4
 21
133.5
 31
0.0
  0
LINE
  8
L-ZISSEN
 10
388.4
 20
133.5
 30
0.0
 11
378.4
 21
133.5
 31
0.0
  0
LINE
  8
L-ZISSEN
 10
388.4
 20
146.5
 30
0.0
 11
378.4
 21
146.5
 31
0.0
  0
LINE
  8
L-ZISSEN
 10
386.4
 20
133.5
 30
0.0
 11
386.4
 21
121.0
 31
0.0
  0
LINE
  8
L-ZISSEN
 10
53.6
 20
133.5
 30
0.0
 11
53.6
 21
121.0
 31
0.0
  0
LINE
  8
L-ZISSEN
 10
51.6
 20
146.5
 30
0.0
 11
61.6
 21
146.5
 31
0.0
  0
LINE
  8
L-ZISSEN
 10
51.6
 20
133.5
 30
0.0
 11
61.6
 21
133.5
 31
0.0
  0
LINE
  8
L-ZISSEN
 10
51.6
 20
146.5
 30
0.0
 11
51.6
 21
133.5
 31
0.0
  0
LINE
  8
L-ZISSEN
 10
53.6
 20
159.0
 30
0.0
 11
61.6
 21
159.0
 31
0.0
  0
LINE
  8
L-ZISSEN
 10
53.6
 20
121.0
 30
0.0
 11
61.6
 21
121.0
 31
0.0
  0
LINE
  8
L-ZISSEN
 10
61.6
 20
166.0
 30
0.0
 11
71.6
 21
166.0
 31
0.0
  0
LINE
  8
L-ZISSEN
 10
61.6
 20
114.0
 30
0.0
 11
71.6
 21
114.0
 31
0.0
  0
LINE
  8
L-ZISSEN
 10
61.6
 20
166.0
 30
0.0
 11
61.6
 21
114.0
 31
0.0
  0
LINE
  8
L-ZISSEN
 10
53.6
 20
159.0
 30
0.0
 11
53.6
 21
146.5
 31
0.0
  0
LINE
  8
L-ZISSEN
 10
78.1
 20
177.0
 30
0.0
 11
78.1
 21
170.0
 31
0.0
  0
LINE
  8
L-ZISSEN
 10
71.6
 20
170.0
 30
0.0
 11
71.6
 21
110.0
 31
0.0
  0
ARC
  8
L-ZISSEN
 10
480.0
 20
140.0
 30
0.0
 40
26.0
 50
41.87787
 51
138.12213
  0
CIRCLE
  8
L-ZISSEN
 10
480.0
 20
140.0
 30
0.0
 40
19.0
  0
ARC
  8
L-ZISSEN
 10
451.0
 20
140.0
 30
0.0
 40
7.5
 50
138.12213
 51
221.87787
  0
ARC
  8
L-ZISSEN
 10
480.0
 20
140.0
 30
0.0
 40
26.0
 50
221.87787
 51
318.12213
  0
LINE
  8
L-ZISSEN
 10
445.415729
 20
145.006588
 30
0.0
 11
460.641195
 21
157.35617
 31
0.0
  0
LINE
  8
L-ZISSEN
 10
445.415729
 20
134.993412
 30
0.0
 11
460.641195
 21
122.64383
 31
0.0
  0
LINE
  8
L-ZISSEN
 10
514.584271
 20
134.993412
 30
0.0
 11
499.358805
 21
122.64383
 31
0.0
  0
LINE
  8
L-ZISSEN
 10
514.584271
 20
145.006588
 30
0.0
 11
499.358805
 21
157.35617
 31
0.0
  0
ARC
  8
L-ZISSEN
 10
509.0
 20
140.0
 30
0.0
 40
7.5
 50
318.12213
 51
41.87787
  0
CIRCLE
  8
L-ZISSEN
 10
451.0
 20
140.0
 30
0.0
 40
6.5
  0
CIRCLE
  8
L-ZISSEN
 10
509.0
 20
140.0
 30
0.0
 40
6.5
  0
LINE
  8
L-ZISSEN
 10
386.4
 20
586.5
 30
0.0
 11
386.4
 21
599.0
 31
0.0
  0
LINE
  8
L-ZISSEN
 10
388.4
 20
573.5
 30
0.0
 11
378.4
 21
573.5
 31
0.0
  0
LINE
  8
L-ZISSEN
 10
388.4
 20
586.5
 30
0.0
 11
378.4
 21
586.5
 31
0.0
  0
LINE
  8
L-ZISSEN
 10
388.4
 20
573.5
 30
0.0
 11
388.4
 21
586.5
 31
0.0
  0
LINE
  8
L-ZISSEN
 10
386.4
 20
561.0
 30
0.0
 11
378.4
 21
561.0
 31
0.0
  0
LINE
  8
L-ZISSEN
 10
386.4
 20
599.0
 30
0.0
 11
378.4
 21
599.0
 31
0.0
  0
LINE
  8
L-ZISSEN
 10
378.4
 20
554.0
 30
0.0
 11
368.4
 21
554.0
 31
0.0
  0
LINE
  8
L-ZISSEN
 10
378.4
 20
606.0
 30
0.0
 11
368.4
 21
606.0
 31
0.0
  0
LINE
  8
L-ZISSEN
 10
378.4
 20
554.0
 30
0.0
 11
378.4
 21
606.0
 31
0.0
  0
LINE
  8
L-ZISSEN
 10
386.4
 20
561.0
 30
0.0
 11
386.4
 21
573.5
 31
0.0
  0
LINE
  8
L-ZISSEN
 10
361.9
 20
543.0
 30
0.0
 11
361.9
 21
550.0
 31
0.0
  0
LINE
  8
L-ZISSEN
 10
368.4
 20
550.0
 30
0.0
 11
368.4
 21
610.0
 31
0.0
  0
LINE
  8
L-ZISSEN
 10
71.6
 20
550.0
 30
0.0
 11
71.6
 21
610.0
 31
0.0
  0
LINE
  8
L-ZISSEN
 10
78.1
 20
543.0
 30
0.0
 11
78.1
 21
550.0
 31
0.0
  0
LINE
  8
L-ZISSEN
 10
53.6
 20
561.0
 30
0.0
 11
53.6
 21
573.5
 31
0.0
  0
LINE
  8
L-ZISSEN
 10
61.6
 20
554.0
 30
0.0
 11
61.6
 21
606.0
 31
0.0
  0
LINE
  8
L-ZISSEN
 10
61.6
 20
606.0
 30
0.0
 11
71.6
 21
606.0
 31
0.0
  0
LINE
  8
L-ZISSEN
 10
61.6
 20
554.0
 30
0.0
 11
71.6
 21
554.0
 31
0.0
  0
LINE
  8
L-ZISSEN
 10
53.6
 20
599.0
 30
0.0
 11
61.6
 21
599.0
 31
0.0
  0
LINE
  8
L-ZISSEN
 10
53.6
 20
561.0
 30
0.0
 11
61.6
 21
561.0
 31
0.0
  0
LINE
  8
L-ZISSEN
 10
51.6
 20
573.5
 30
0.0
 11
51.6
 21
586.5
 31
0.0
  0
LINE
  8
L-ZISSEN
 10
51.6
 20
586.5
 30
0.0
 11
61.6
 21
586.5
 31
0.0
  0
LINE
  8
L-ZISSEN
 10
51.6
 20
573.5
 30
0.0
 11
61.6
 21
573.5
 31
0.0
  0
LINE
  8
L-ZISSEN
 10
53.6
 20
586.5
 30
0.0
 11
53.6
 21
599.0
 31
0.0
  0
LINE
  8
L-ZISSEN
 10
361.9
 20
344.0
 30
0.0
 11
361.9
 21
376.0
 31
0.0
  0
LINE
  8
L-ZISSEN
 10
368.4
 20
323.0
 30
0.0
 11
368.4
 21
397.0
 31
0.0
  0
LINE
  8
L-ZISSEN
 10
388.4
 20
337.5
 30
0.0
 11
378.4
 21
337.5
 31
0.0
  0
LINE
  8
L-ZISSEN
 10
388.4
 20
324.5
 30
0.0
 11
378.4
 21
324.5
 31
0.0
  0
LINE
  8
L-ZISSEN
 10
388.4
 20
337.5
 30
0.0
 11
388.4
 21
324.5
 31
0.0
  0
LINE
  8
L-ZISSEN
 10
386.4
 20
379.0
 30
0.0
 11
378.4
 21
379.0
 31
0.0
  0
LINE
  8
L-ZISSEN
 10
386.4
 20
341.0
 30
0.0
 11
378.4
 21
341.0
 31
0.0
  0
LINE
  8
L-ZISSEN
 10
378.4
 20
396.5
 30
0.0
 11
378.4
 21
323.5
 31
0.0
  0
LINE
  8
L-ZISSEN
 10
386.4
 20
379.0
 30
0.0
 11
386.4
 21
341.0
 31
0.0
  0
LINE
  8
L-ZISSEN
 10
378.4
 20
323.5
 30
0.0
 11
368.4
 21
323.5
 31
0.0
  0
LINE
  8
L-ZISSEN
 10
378.4
 20
396.5
 30
0.0
 11
368.4
 21
396.5
 31
0.0
  0
LINE
  8
L-ZISSEN
 10
388.4
 20
382.5
 30
0.0
 11
388.4
 21
395.5
 31
0.0
  0
LINE
  8
L-ZISSEN
 10
388.4
 20
395.5
 30
0.0
 11
378.4
 21
395.5
 31
0.0
  0
LINE
  8
L-ZISSEN
 10
388.4
 20
382.5
 30
0.0
 11
378.4
 21
382.5
 31
0.0
  0
LINE
  8
L-ZISSEN
 10
51.6
 20
382.5
 30
0.0
 11
61.6
 21
382.5
 31
0.0
  0
LINE
  8
L-ZISSEN
 10
51.6
 20
395.5
 30
0.0
 11
61.6
 21
395.5
 31
0.0
  0
LINE
  8
L-ZISSEN
 10
51.6
 20
382.5
 30
0.0
 11
51.6
 21
395.5
 31
0.0
  0
LINE
  8
L-ZISSEN
 10
61.6
 20
396.5
 30
0.0
 11
71.6
 21
396.5
 31
0.0
  0
LINE
  8
L-ZISSEN
 10
61.6
 20
323.5
 30
0.0
 11
71.6
 21
323.5
 31
0.0
  0
LINE
  8
L-ZISSEN
 10
53.6
 20
379.0
 30
0.0
 11
53.6
 21
341.0
 31
0.0
  0
LINE
  8
L-ZISSEN
 10
61.6
 20
396.5
 30
0.0
 11
61.6
 21
323.5
 31
0.0
  0
LINE
  8
L-ZISSEN
 10
53.6
 20
341.0
 30
0.0
 11
61.6
 21
341.0
 31
0.0
  0
LINE
  8
L-ZISSEN
 10
53.6
 20
379.0
 30
0.0
 11
61.6
 21
379.0
 31
0.0
  0
LINE
  8
L-ZISSEN
 10
51.6
 20
337.5
 30
0.0
 11
51.6
 21
324.5
 31
0.0
  0
LINE
  8
L-ZISSEN
 10
51.6
 20
324.5
 30
0.0
 11
61.6
 21
324.5
 31
0.0
  0
LINE
  8
L-ZISSEN
 10
51.6
 20
337.5
 30
0.0
 11
61.6
 21
337.5
 31
0.0
  0
LINE
  8
L-ZISSEN
 10
71.6
 20
323.0
 30
0.0
 11
71.6
 21
397.0
 31
0.0
  0
LINE
  8
L-ZISSEN
 10
78.1
 20
344.0
 30
0.0
 11
78.1
 21
376.0
 31
0.0
  0
SOLID
  8
L-ZISSEN
 10
221.262672
 20
612.586434
 30
0.0
 11
220.6799
 21
612.910196
 31
0.0
 12
220.0
 22
611.0
 32
0.0
 13
220.0
 23
611.0
 33
0.0
  0
LINE
  8
L-ZISSEN
 10
220.971286
 20
612.748315
 30
0.0
 11
225.0
 21
620.0
 31
0.0
  0
LINE
  8
L-ZISSEN
 10
225.0
 20
620.0
 30
0.0
 11
227.0
 21
620.0
 31
0.0
  0
TEXT
  8
L-ZISSEN
 10
229.0
 20
617.75
 30
0.0
 40
4.5
  1
P.P
  0
SOLID
  8
L-ZISSEN
 10
218.718308
 20
83.428893
 30
0.0
 11
219.297137
 21
83.098134
 31
0.0
 12
220.0
 22
85.0
 32
0.0
 13
220.0
 23
85.0
 33
0.0
  0
LINE
  8
L-ZISSEN
 10
219.007722
 20
83.263514
 30
0.0
 11
200.0
 21
50.0
 31
0.0
  0
LINE
  8
L-ZISSEN
 10
200.0
 20
50.0
 30
0.0
 11
198.0
 21
50.0
 31
0.0
  0
TEXT
  8
L-ZISSEN
 10
166.0
 20
47.75
 30
0.0
 40
4.5
  1
"1" PORT
  0
TEXT
  8
L-ZISSEN
 10
170.0
 20
40.0
 30
0.0
 40
4.5
  1
Rc 3/4
  0
TEXT
  8
L-ZISSEN
 10
170.0
 20
30.0
 30
0.0
 40
4.5
  1
Rc 1
  0
TEXT
  8
L-ZISSEN
 10
104.0
 20
710.0
 30
0.0
 40
4.5
  1
4
  0
TEXT
  8
L-ZISSEN
 10
104.0
 20
716.0
 30
0.0
 40
4.5
  1
3
  0
TEXT
  8
L-ZISSEN
 10
104.0
 20
703.0
 30
0.0
 40
4.5
  1
5
  0
TEXT
  8
L-ZISSEN
 10
118.0
 20
714.0
 30
0.0
 40
4.5
  1
06
  0
TEXT
  8
L-ZISSEN
 10
118.0
 20
707.0
 30
0.0
 40
4.5
  1
10
  0
LINE
  8
L-TYUSIN
 10
740.0
 20
90.0
 30
0.0
 11
740.0
 21
40.0
 31
0.0
  0
ENDSEC
  0
EOF
