  0
SECTION
  2
HEADER
  9
$ACADVER
  1
AC1006
  9
$INSBASE
 10
0.0
 20
0.0
 30
0.0
  9
$EXTMIN
 10
0.0
 20
0.0
  9
$EXTMAX
 10
1301.999996
 20
703.5
  9
$LIMMIN
 10
0.0
 20
0.0
  9
$LIMMAX
 10
420.0
 20
297.0
  9
$ORTHOMODE
 70
     0
  9
$REGENMODE
 70
     1
  9
$FILLMODE
 70
     1
  9
$QTEXTMODE
 70
     0
  9
$MIRRTEXT
 70
     1
  9
$DRAGMODE
 70
     2
  9
$LTSCALE
 40
1.0
  9
$OSMODE
 70
     0
  9
$ATTMODE
 70
     1
  9
$TEXTSIZE
 40
0.2
  9
$TRACEWID
 40
0.05
  9
$TEXTSTYLE
  7
STANDARD
  9
$CLAYER
  8
L-ZISSEN
  9
$CELTYPE
  6
BYLAYER
  9
$CECOLOR
 62
   256
  9
$DIMSCALE
 40
1.0
  9
$DIMASZ
 40
1.5
  9
$DIMEXO
 40
1.0
  9
$DIMDLI
 40
0.38
  9
$DIMRND
 40
0.0
  9
$DIMDLE
 40
0.0
  9
$DIMEXE
 40
1.0
  9
$DIMTP
 40
0.0
  9
$DIMTM
 40
0.0
  9
$DIMTXT
 40
2.5
  9
$DIMCEN
 40
0.09
  9
$DIMTSZ
 40
0.0
  9
$DIMTOL
 70
     0
  9
$DIMLIM
 70
     0
  9
$DIMTIH
 70
     0
  9
$DIMTOH
 70
     0
  9
$DIMSE1
 70
     0
  9
$DIMSE2
 70
     0
  9
$DIMTAD
 70
     1
  9
$DIMZIN
 70
     0
  9
$DIMBLK
  1

  9
$DIMASO
 70
     1
  9
$DIMSHO
 70
     0
  9
$DIMPOST
  1

  9
$DIMAPOST
  1

  9
$DIMALT
 70
     0
  9
$DIMALTD
 70
     2
  9
$DIMALTF
 40
25.4
  9
$DIMLFAC
 40
1.0
  9
$DIMTOFL
 70
     1
  9
$DIMTVP
 40
0.0
  9
$DIMTIX
 70
     1
  9
$DIMSOXD
 70
     0
  9
$DIMSAH
 70
     0
  9
$DIMBLK1
  1

  9
$DIMBLK2
  1

  9
$LUNITS
 70
     2
  9
$LUPREC
 70
     4
  9
$AXISMODE
 70
     0
  9
$AXISUNIT
 10
0.0
 20
0.0
  9
$SKETCHINC
 40
0.1
  9
$FILLETRAD
 40
0.0
  9
$AUNITS
 70
     0
  9
$AUPREC
 70
     0
  9
$MENU
  1
acad
  9
$ELEVATION
 40
0.0
  9
$THICKNESS
 40
0.0
  9
$LIMCHECK
 70
     0
  9
$BLIPMODE
 70
     1
  9
$CHAMFERA
 40
0.0
  9
$CHAMFERB
 40
0.0
  9
$SKPOLY
 70
     0
  9
$TDCREATE
 40
2449657.7481594905
  9
$TDUPDATE
 40
2449657.7481594905
  9
$TDINDWG
 40
0.0000000000
  9
$TDUSRTIMER
 40
0.0000000000
  9
$USRTIMER
 70
     1
  9
$ANGBASE
 50
0.0
  9
$ANGDIR
 70
     0
  9
$PDMODE
 70
     0
  9
$PDSIZE
 40
0.0
  9
$PLINEWID
 40
0.0
  9
$COORDS
 70
     0
  9
$SPLFRAME
 70
     0
  9
$SPLINETYPE
 70
     6
  9
$SPLINESEGS
 70
     8
  9
$ATTDIA
 70
     0
  9
$ATTREQ
 70
     1
  9
$HANDLING
 70
     0
  9
$HANDSEED
  5
0
  9
$SURFTAB1
 70
     6
  9
$SURFTAB2
 70
     6
  9
$SURFTYPE
 70
     6
  9
$SURFU
 70
     6
  9
$SURFV
 70
     6
  9
$FLATLAND
 70
     0
  9
$UCSNAME
  2

  9
$UCSORG
 10
0.0
 20
0.0
 30
0.0
  9
$UCSXDIR
 10
1.0
 20
0.0
 30
0.0
  9
$UCSYDIR
 10
0.0
 20
1.0
 30
0.0
  9
$USERI1
 70
     0
  9
$USERI2
 70
     0
  9
$USERI3
 70
     0
  9
$USERI4
 70
     0
  9
$USERI5
 70
     0
  9
$USERR1
 40
0.0
  9
$USERR2
 40
0.0
  9
$USERR3
 40
0.0
  9
$USERR4
 40
0.0
  9
$USERR5
 40
0.0
  9
$WORLDVIEW
 70
     1
  0
ENDSEC
  0
SECTION
  2
TABLES
  0
TABLE
  2
VPORT
 70
     2
  0
VPORT
  2
*ACTIVE
 70
     0
 10
0.0
 20
0.0
 11
1.0
 21
1.0
 12
670.574321
 22
383.119726
 13
0.0
 23
0.0
 14
1.0
 24
1.0
 15
0.0
 25
0.0
 16
0.0
 26
0.0
 36
1.0
 17
0.0
 27
0.0
 37
0.0
 40
830.825799
 41
1.5487
 42
50.0
 43
0.0
 44
0.0
 50
0.0
 51
0.0
 71
     0
 72
   100
 73
     1
 74
     0
 75
     0
 76
     0
 77
     0
 78
     0
  0
ENDTAB
  0
TABLE
  2
LTYPE
 70
     2
  0
LTYPE
  2
CONTINUOUS
 70
    64
  3
Solid line
 72
    65
 73
     0
 40
0.0
  0
LTYPE
  2
CENTER
 70
    64
  3
_____ _ ____ _ ____ _ ____
 72
    65
 73
     4
 40
18.0
 49
15.0
 49
-1.0
 49
1.0
 49
-1.0
  0
ENDTAB
  0
TABLE
  2
LAYER
 70
     3
  0
LAYER
  2
0
 70
     0
 62
     7
  6
CONTINUOUS
  0
LAYER
  2
L-ZISSEN
 70
    64
 62
     7
  6
CONTINUOUS
  0
LAYER
  2
L-TYUSIN
 70
    64
 62
     1
  6
CENTER
  0
ENDTAB
  0
TABLE
  2
STYLE
 70
     1
  0
STYLE
  2
STANDARD
 70
    64
 40
0.0
 41
1.0
 50
0.0
 71
     0
 42
0.2
  3
txt
  4

  0
ENDTAB
  0
TABLE
  2
VIEW
 70
     0
  0
ENDTAB
  0
TABLE
  2
UCS
 70
     0
  0
ENDTAB
  0
TABLE
  2
DWGMGR
 70
     0
  0
ENDTAB
  0
ENDSEC
  0
SECTION
  2
BLOCKS
  0
ENDSEC
  0
SECTION
  2
ENTITIES
  0
LINE
  8
L-TYUSIN
 10
1020.0
 20
155.0
 30
0.0
 11
1295.0
 21
155.0
 31
0.0
  0
LINE
  8
L-ZISSEN
 10
1245.5
 20
60.969655
 30
0.0
 11
1245.5
 21
39.030345
 31
0.0
  0
LINE
  8
L-ZISSEN
 10
1245.5
 20
60.969655
 30
0.0
 11
1240.0
 21
60.969655
 31
0.0
  0
LINE
  8
L-ZISSEN
 10
1245.5
 20
39.030345
 30
0.0
 11
1240.0
 21
39.030345
 31
0.0
  0
LINE
  8
L-ZISSEN
 10
1240.0
 20
60.969655
 30
0.0
 11
1240.0
 21
39.030345
 31
0.0
  0
LINE
  8
L-ZISSEN
 10
1230.5
 20
59.2
 30
0.0
 11
1237.65
 21
59.2
 31
0.0
  0
LINE
  8
L-ZISSEN
 10
1230.5
 20
40.8
 30
0.0
 11
1237.65
 21
40.8
 31
0.0
  0
LINE
  8
L-ZISSEN
 10
1237.65
 20
58.5
 30
0.0
 11
1240.0
 21
58.5
 31
0.0
  0
LINE
  8
L-ZISSEN
 10
1237.65
 20
41.5
 30
0.0
 11
1240.0
 21
41.5
 31
0.0
  0
LINE
  8
L-ZISSEN
 10
1237.65
 20
59.2
 30
0.0
 11
1237.65
 21
40.8
 31
0.0
  0
CIRCLE
  8
L-ZISSEN
 10
1275.0
 20
50.0
 30
0.0
 40
6.5
  0
CIRCLE
  8
L-ZISSEN
 10
1275.0
 20
50.0
 30
0.0
 40
11.25
  0
LINE
  8
L-ZISSEN
 10
1230.5
 20
63.0
 30
0.0
 11
1230.5
 21
37.0
 31
0.0
  0
LINE
  8
L-ZISSEN
 10
1203.5
 20
63.0
 30
0.0
 11
1230.5
 21
63.0
 31
0.0
  0
LINE
  8
L-ZISSEN
 10
1176.5
 20
65.0
 30
0.0
 11
1203.5
 21
65.0
 31
0.0
  0
LINE
  8
L-ZISSEN
 10
1230.5
 20
37.0
 30
0.0
 11
1215.5
 21
37.0
 31
0.0
  0
LINE
  8
L-ZISSEN
 10
1176.5
 20
65.0
 30
0.0
 11
1176.5
 21
43.0
 31
0.0
  0
LINE
  8
L-ZISSEN
 10
1203.5
 20
65.0
 30
0.0
 11
1203.5
 21
43.0
 31
0.0
  0
LINE
  8
L-ZISSEN
 10
1204.5
 20
40.5
 30
0.0
 11
1220.5
 21
40.5
 31
0.0
  0
LINE
  8
L-ZISSEN
 10
1175.5
 20
43.0
 30
0.0
 11
1175.5
 21
37.0
 31
0.0
  0
LINE
  8
L-ZISSEN
 10
1204.5
 20
43.0
 30
0.0
 11
1204.5
 21
37.0
 31
0.0
  0
LINE
  8
L-ZISSEN
 10
1220.5
 20
40.5
 30
0.0
 11
1220.5
 21
37.0
 31
0.0
  0
LINE
  8
L-ZISSEN
 10
1175.5
 20
43.0
 30
0.0
 11
1204.5
 21
43.0
 31
0.0
  0
LINE
  8
L-ZISSEN
 10
1203.5
 20
87.0
 30
0.0
 11
1230.5
 21
87.0
 31
0.0
  0
LINE
  8
L-ZISSEN
 10
1230.5
 20
113.0
 30
0.0
 11
1203.5
 21
113.0
 31
0.0
  0
LINE
  8
L-ZISSEN
 10
1230.5
 20
87.0
 30
0.0
 11
1230.5
 21
113.0
 31
0.0
  0
LINE
  8
L-ZISSEN
 10
1237.65
 20
90.8
 30
0.0
 11
1237.65
 21
109.2
 31
0.0
  0
LINE
  8
L-ZISSEN
 10
1237.65
 20
108.5
 30
0.0
 11
1240.0
 21
108.5
 31
0.0
  0
LINE
  8
L-ZISSEN
 10
1237.65
 20
91.5
 30
0.0
 11
1240.0
 21
91.5
 31
0.0
  0
LINE
  8
L-ZISSEN
 10
1230.5
 20
109.2
 30
0.0
 11
1237.65
 21
109.2
 31
0.0
  0
LINE
  8
L-ZISSEN
 10
1230.5
 20
90.8
 30
0.0
 11
1237.65
 21
90.8
 31
0.0
  0
LINE
  8
L-ZISSEN
 10
1240.0
 20
89.030345
 30
0.0
 11
1240.0
 21
110.969655
 31
0.0
  0
LINE
  8
L-ZISSEN
 10
1245.5
 20
110.969655
 30
0.0
 11
1240.0
 21
110.969655
 31
0.0
  0
LINE
  8
L-ZISSEN
 10
1245.5
 20
89.030345
 30
0.0
 11
1240.0
 21
89.030345
 31
0.0
  0
LINE
  8
L-ZISSEN
 10
1245.5
 20
89.030345
 30
0.0
 11
1245.5
 21
110.969655
 31
0.0
  0
LINE
  8
L-ZISSEN
 10
1203.5
 20
86.5
 30
0.0
 11
1203.5
 21
113.5
 31
0.0
  0
LINE
  8
L-ZISSEN
 10
1176.5
 20
86.5
 30
0.0
 11
1176.5
 21
113.5
 31
0.0
  0
LINE
  8
L-ZISSEN
 10
1176.5
 20
86.5
 30
0.0
 11
1203.5
 21
86.5
 31
0.0
  0
LINE
  8
L-ZISSEN
 10
1176.5
 20
113.5
 30
0.0
 11
1203.5
 21
113.5
 31
0.0
  0
LINE
  8
L-ZISSEN
 10
1175.5
 20
114.5
 30
0.0
 11
1175.5
 21
85.5
 31
0.0
  0
LINE
  8
L-ZISSEN
 10
1175.5
 20
85.5
 30
0.0
 11
1204.5
 21
85.5
 31
0.0
  0
LINE
  8
L-ZISSEN
 10
1204.5
 20
85.5
 30
0.0
 11
1204.5
 21
87.0
 31
0.0
  0
LINE
  8
L-ZISSEN
 10
1204.5
 20
114.5
 30
0.0
 11
1175.5
 21
114.5
 31
0.0
  0
LINE
  8
L-ZISSEN
 10
1204.5
 20
113.0
 30
0.0
 11
1204.5
 21
114.5
 31
0.0
  0
LINE
  8
L-ZISSEN
 10
1289.5
 20
43.0
 30
0.0
 11
1288.0
 21
43.0
 31
0.0
  0
LINE
  8
L-ZISSEN
 10
1260.5
 20
43.0
 30
0.0
 11
1260.5
 21
37.0
 31
0.0
  0
LINE
  8
L-ZISSEN
 10
1289.5
 20
43.0
 30
0.0
 11
1289.5
 21
37.0
 31
0.0
  0
LINE
  8
L-ZISSEN
 10
1261.5
 20
65.0
 30
0.0
 11
1261.5
 21
43.0
 31
0.0
  0
LINE
  8
L-ZISSEN
 10
1288.5
 20
65.0
 30
0.0
 11
1288.5
 21
43.0
 31
0.0
  0
LINE
  8
L-ZISSEN
 10
1288.5
 20
65.0
 30
0.0
 11
1261.5
 21
65.0
 31
0.0
  0
LINE
  8
L-ZISSEN
 10
1289.5
 20
40.5
 30
0.0
 11
1283.87412
 21
40.5
 31
0.0
  0
LINE
  8
L-ZISSEN
 10
1263.5
 20
40.5
 30
0.0
 11
1263.5
 21
37.0
 31
0.0
  0
LINE
  8
L-ZISSEN
 10
1286.5
 20
40.5
 30
0.0
 11
1286.5
 21
37.0
 31
0.0
  0
LINE
  8
L-ZISSEN
 10
1266.12588
 20
40.5
 30
0.0
 11
1260.5
 21
40.5
 31
0.0
  0
CIRCLE
  8
L-ZISSEN
 10
1275.0
 20
50.0
 30
0.0
 40
13.0
  0
LINE
  8
L-ZISSEN
 10
1288.0
 20
50.0
 30
0.0
 11
1288.0
 21
40.5
 31
0.0
  0
LINE
  8
L-ZISSEN
 10
1262.0
 20
50.0
 30
0.0
 11
1262.0
 21
40.5
 31
0.0
  0
LINE
  8
L-ZISSEN
 10
1262.0
 20
43.0
 30
0.0
 11
1260.5
 21
43.0
 31
0.0
  0
TEXT
  8
L-ZISSEN
 10
1030.0
 20
140.0
 30
0.0
 40
4.5
  1
ELECTRICAL CONNECTION
  0
TEXT
  8
L-ZISSEN
 10
1030.0
 20
130.0
 30
0.0
 40
4.5
  1
MODEL No. :
  0
TEXT
  8
L-ZISSEN
 10
1075.0
 20
130.0
 30
0.0
 40
4.5
  1
MVD-492-0*YM1
  0
LINE
  8
L-TYUSIN
 10
1020.0
 20
325.0
 30
0.0
 11
1020.0
 21
15.0
 31
0.0
  0
LINE
  8
L-ZISSEN
 10
1215.5
 20
85.0
 30
0.0
 11
1215.5
 21
87.0
 31
0.0
  0
LINE
  8
L-ZISSEN
 10
1215.5
 20
113.0
 30
0.0
 11
1215.5
 21
115.0
 31
0.0
  0
LINE
  8
L-TYUSIN
 10
1020.0
 20
255.0
 30
0.0
 11
1180.0
 21
255.0
 31
0.0
  0
TEXT
  8
L-ZISSEN
 10
1030.0
 20
310.0
 30
0.0
 40
4.5
  1
EXTERNAL PILOT AIR SUPPLY
  0
TEXT
  8
L-ZISSEN
 10
1030.0
 20
300.0
 30
0.0
 40
4.5
  1
MODEL No. :
  0
TEXT
  8
L-ZISSEN
 10
1075.0
 20
300.0
 30
0.0
 40
4.5
  1
MVD-492-0*YP
  0
TEXT
  8
L-ZISSEN
 10
1030.0
 20
240.0
 30
0.0
 40
4.5
  1
LOCK TYPE MANUAL OPERATION BUTTON
  0
TEXT
  8
L-ZISSEN
 10
1030.0
 20
230.0
 30
0.0
 40
4.5
  1
MODEL No. :
  0
TEXT
  8
L-ZISSEN
 10
1075.0
 20
230.0
 30
0.0
 40
4.5
  1
MVD-492-0*YR
  0
LINE
  8
L-ZISSEN
 10
1092.886751
 20
200.0
 30
0.0
 11
1095.773503
 21
205.0
 31
0.0
  0
LINE
  8
L-ZISSEN
 10
1095.773503
 20
205.0
 30
0.0
 11
1092.886751
 21
210.0
 31
0.0
  0
LINE
  8
L-ZISSEN
 10
1092.886751
 20
210.0
 30
0.0
 11
1087.113249
 21
210.0
 31
0.0
  0
LINE
  8
L-ZISSEN
 10
1087.113249
 20
210.0
 30
0.0
 11
1084.226497
 21
205.0
 31
0.0
  0
LINE
  8
L-ZISSEN
 10
1084.226497
 20
205.0
 30
0.0
 11
1087.113249
 21
200.0
 31
0.0
  0
LINE
  8
L-ZISSEN
 10
1087.113249
 20
200.0
 30
0.0
 11
1092.886751
 21
200.0
 31
0.0
  0
LINE
  8
L-ZISSEN
 10
1084.226497
 20
191.6
 30
0.0
 11
1084.226497
 21
180.0
 31
0.0
  0
LINE
  8
L-ZISSEN
 10
1095.773503
 20
191.6
 30
0.0
 11
1095.773503
 21
180.0
 31
0.0
  0
LINE
  8
L-ZISSEN
 10
1084.226497
 20
191.6
 30
0.0
 11
1095.773503
 21
191.6
 31
0.0
  0
LINE
  8
L-ZISSEN
 10
1260.5
 20
39.0
 30
0.0
 11
1259.0
 21
39.0
 31
0.0
  0
LINE
  8
L-ZISSEN
 10
1291.0
 20
39.0
 30
0.0
 11
1289.5
 21
39.0
 31
0.0
  0
SOLID
  8
L-ZISSEN
 10
1088.821489
 20
206.649916
 30
0.0
 11
1088.350084
 21
206.178511
 31
0.0
 12
1090.0
 22
205.0
 32
0.0
 13
1090.0
 23
205.0
 33
0.0
  0
LINE
  8
L-ZISSEN
 10
1088.585786
 20
206.414214
 30
0.0
 11
1080.0
 21
215.0
 31
0.0
  0
LINE
  8
L-ZISSEN
 10
1080.0
 20
215.0
 30
0.0
 11
1078.0
 21
215.0
 31
0.0
  0
TEXT
  8
L-ZISSEN
 10
1067.0
 20
212.75
 30
0.0
 40
4.5
  1
P.P
  0
CIRCLE
  8
L-ZISSEN
 10
1090.0
 20
280.0
 30
0.0
 40
5.7225
  0
SOLID
  8
L-ZISSEN
 10
1091.178511
 20
278.350084
 30
0.0
 11
1091.649916
 21
278.821489
 31
0.0
 12
1090.0
 22
280.0
 32
0.0
 13
1090.0
 23
280.0
 33
0.0
  0
LINE
  8
L-ZISSEN
 10
1091.414214
 20
278.585786
 30
0.0
 11
1100.0
 21
270.0
 31
0.0
  0
LINE
  8
L-ZISSEN
 10
1100.0
 20
270.0
 30
0.0
 11
1102.0
 21
270.0
 31
0.0
  0
TEXT
  8
L-ZISSEN
 10
1104.0
 20
267.75
 30
0.0
 40
4.5
  1
P.P
  0
TEXT
  8
L-ZISSEN
 10
530.0
 20
430.0
 30
0.0
 40
4.5
  1
SUB-BASE CONNECTION
  0
LINE
  8
L-TYUSIN
 10
62.3
 20
360.0
 30
0.0
 11
337.7
 21
360.0
 31
0.0
  0
LINE
  8
L-TYUSIN
 10
200.0
 20
409.0
 30
0.0
 11
200.0
 21
311.0
 31
0.0
  0
LINE
  8
L-ZISSEN
 10
125.1
 20
323.0
 30
0.0
 11
125.1
 21
345.0
 31
0.0
  0
LINE
  8
L-ZISSEN
 10
143.1
 20
404.0
 30
0.0
 11
256.9
 21
404.0
 31
0.0
  0
LINE
  8
L-ZISSEN
 10
274.9
 20
397.0
 30
0.0
 11
274.9
 21
375.0
 31
0.0
  0
LINE
  8
L-ZISSEN
 10
256.9
 20
316.0
 30
0.0
 11
143.1
 21
316.0
 31
0.0
  0
LINE
  8
L-ZISSEN
 10
274.9
 20
177.0
 30
0.0
 11
274.9
 21
109.0
 31
0.0
  0
LINE
  8
L-ZISSEN
 10
125.1
 20
109.0
 30
0.0
 11
125.1
 21
177.0
 31
0.0
  0
LINE
  8
L-TYUSIN
 10
62.3
 20
140.0
 30
0.0
 11
337.7
 21
140.0
 31
0.0
  0
LINE
  8
L-ZISSEN
 10
255.0
 20
178.0
 30
0.0
 11
217.0
 21
178.0
 31
0.0
  0
LINE
  8
L-ZISSEN
 10
332.7
 20
110.0
 30
0.0
 11
67.3
 21
110.0
 31
0.0
  0
LINE
  8
L-TYUSIN
 10
378.0
 20
140.0
 30
0.0
 11
462.0
 21
140.0
 31
0.0
  0
LINE
  8
L-TYUSIN
 10
200.0
 20
183.0
 30
0.0
 11
200.0
 21
56.0
 31
0.0
  0
LINE
  8
L-TYUSIN
 10
420.0
 20
269.7
 30
0.0
 11
420.0
 21
46.0
 31
0.0
  0
LINE
  8
L-ZISSEN
 10
332.7
 20
170.0
 30
0.0
 11
263.9
 21
170.0
 31
0.0
  0
LINE
  8
L-ZISSEN
 10
263.9
 20
170.0
 30
0.0
 11
263.9
 21
120.0
 31
0.0
  0
LINE
  8
L-ZISSEN
 10
263.9
 20
120.0
 30
0.0
 11
136.1
 21
120.0
 31
0.0
  0
LINE
  8
L-ZISSEN
 10
136.1
 20
120.0
 30
0.0
 11
136.1
 21
170.0
 31
0.0
  0
LINE
  8
L-ZISSEN
 10
136.1
 20
170.0
 30
0.0
 11
67.3
 21
170.0
 31
0.0
  0
LINE
  8
L-ZISSEN
 10
332.7
 20
177.0
 30
0.0
 11
236.0
 21
177.0
 31
0.0
  0
LINE
  8
L-ZISSEN
 10
255.0
 20
177.0
 30
0.0
 11
255.0
 21
178.0
 31
0.0
  0
LINE
  8
L-ZISSEN
 10
217.0
 20
177.0
 30
0.0
 11
217.0
 21
178.0
 31
0.0
  0
LINE
  8
L-ZISSEN
 10
183.0
 20
177.0
 30
0.0
 11
183.0
 21
178.0
 31
0.0
  0
LINE
  8
L-ZISSEN
 10
145.0
 20
177.0
 30
0.0
 11
145.0
 21
178.0
 31
0.0
  0
LINE
  8
L-ZISSEN
 10
145.0
 20
178.0
 30
0.0
 11
183.0
 21
178.0
 31
0.0
  0
LINE
  8
L-ZISSEN
 10
236.0
 20
161.12463
 30
0.0
 11
236.0
 21
178.0
 31
0.0
  0
LINE
  8
L-ZISSEN
 10
224.0
 20
165.0
 30
0.0
 11
224.0
 21
178.0
 31
0.0
  0
LINE
  8
L-ZISSEN
 10
224.0
 20
177.0
 30
0.0
 11
164.0
 21
177.0
 31
0.0
  0
LINE
  8
L-ZISSEN
 10
136.1
 20
161.12463
 30
0.0
 11
152.0
 21
161.12463
 31
0.0
  0
LINE
  8
L-ZISSEN
 10
236.0
 20
161.12463
 30
0.0
 11
263.9
 21
161.12463
 31
0.0
  0
LINE
  8
L-ZISSEN
 10
152.0
 20
161.12463
 30
0.0
 11
152.0
 21
178.0
 31
0.0
  0
LINE
  8
L-ZISSEN
 10
164.0
 20
161.12463
 30
0.0
 11
164.0
 21
178.0
 31
0.0
  0
LINE
  8
L-ZISSEN
 10
164.0
 20
161.12463
 30
0.0
 11
167.0
 21
161.12463
 31
0.0
  0
LINE
  8
L-ZISSEN
 10
152.0
 20
177.0
 30
0.0
 11
67.3
 21
177.0
 31
0.0
  0
LINE
  8
L-ZISSEN
 10
235.0
 20
152.5
 30
0.0
 11
215.0
 21
152.5
 31
0.0
  0
LINE
  8
L-ZISSEN
 10
235.0
 20
152.5
 30
0.0
 11
235.0
 21
120.0
 31
0.0
  0
LINE
  8
L-ZISSEN
 10
215.0
 20
152.5
 30
0.0
 11
215.0
 21
120.0
 31
0.0
  0
LINE
  8
L-ZISSEN
 10
165.0
 20
152.5
 30
0.0
 11
165.0
 21
120.0
 31
0.0
  0
LINE
  8
L-ZISSEN
 10
185.0
 20
152.5
 30
0.0
 11
185.0
 21
120.0
 31
0.0
  0
LINE
  8
L-ZISSEN
 10
165.0
 20
152.5
 30
0.0
 11
185.0
 21
152.5
 31
0.0
  0
LINE
  8
L-ZISSEN
 10
464.0
 20
110.0
 30
0.0
 11
376.0
 21
110.0
 31
0.0
  0
LINE
  8
L-ZISSEN
 10
432.5
 20
177.0
 30
0.0
 11
407.5
 21
177.0
 31
0.0
  0
LINE
  8
L-ZISSEN
 10
332.7
 20
376.0
 30
0.0
 11
248.0
 21
376.0
 31
0.0
  0
LINE
  8
L-ZISSEN
 10
332.7
 20
344.0
 30
0.0
 11
236.0
 21
344.0
 31
0.0
  0
LINE
  8
L-ZISSEN
 10
263.9
 20
397.0
 30
0.0
 11
263.9
 21
376.0
 31
0.0
  0
LINE
  8
L-ZISSEN
 10
136.1
 20
323.0
 30
0.0
 11
136.1
 21
344.0
 31
0.0
  0
LINE
  8
L-ZISSEN
 10
67.3
 20
347.5
 30
0.0
 11
102.1
 21
347.5
 31
0.0
  0
LINE
  8
L-ZISSEN
 10
67.3
 20
372.5
 30
0.0
 11
102.1
 21
372.5
 31
0.0
  0
LINE
  8
L-ZISSEN
 10
136.1
 20
376.0
 30
0.0
 11
136.1
 21
397.0
 31
0.0
  0
LINE
  8
L-ZISSEN
 10
263.9
 20
344.0
 30
0.0
 11
263.9
 21
323.0
 31
0.0
  0
LINE
  8
L-ZISSEN
 10
145.0
 20
376.0
 30
0.0
 11
145.0
 21
375.0
 31
0.0
  0
LINE
  8
L-ZISSEN
 10
183.0
 20
344.0
 30
0.0
 11
183.0
 21
376.0
 31
0.0
  0
LINE
  8
L-ZISSEN
 10
217.0
 20
344.0
 30
0.0
 11
217.0
 21
376.0
 31
0.0
  0
LINE
  8
L-ZISSEN
 10
255.0
 20
376.0
 30
0.0
 11
255.0
 21
375.0
 31
0.0
  0
LINE
  8
L-ZISSEN
 10
297.9
 20
372.5
 30
0.0
 11
332.7
 21
372.5
 31
0.0
  0
LINE
  8
L-ZISSEN
 10
297.9
 20
347.5
 30
0.0
 11
332.7
 21
347.5
 31
0.0
  0
LINE
  8
L-ZISSEN
 10
183.0
 20
347.5
 30
0.0
 11
217.0
 21
347.5
 31
0.0
  0
LINE
  8
L-ZISSEN
 10
183.0
 20
372.5
 30
0.0
 11
217.0
 21
372.5
 31
0.0
  0
LINE
  8
L-ZISSEN
 10
332.7
 20
323.0
 30
0.0
 11
263.9
 21
323.0
 31
0.0
  0
LINE
  8
L-ZISSEN
 10
332.7
 20
397.0
 30
0.0
 11
263.9
 21
397.0
 31
0.0
  0
LINE
  8
L-ZISSEN
 10
263.9
 20
397.0
 30
0.0
 11
256.9
 21
404.0
 31
0.0
  0
LINE
  8
L-ZISSEN
 10
136.1
 20
397.0
 30
0.0
 11
67.3
 21
397.0
 31
0.0
  0
LINE
  8
L-ZISSEN
 10
136.1
 20
397.0
 30
0.0
 11
143.1
 21
404.0
 31
0.0
  0
LINE
  8
L-ZISSEN
 10
263.9
 20
323.0
 30
0.0
 11
256.9
 21
316.0
 31
0.0
  0
LINE
  8
L-ZISSEN
 10
136.1
 20
323.0
 30
0.0
 11
143.1
 21
316.0
 31
0.0
  0
LINE
  8
L-ZISSEN
 10
136.1
 20
323.0
 30
0.0
 11
67.3
 21
323.0
 31
0.0
  0
LINE
  8
L-ZISSEN
 10
240.0
 20
567.5
 30
0.0
 11
240.0
 21
600.0
 31
0.0
  0
LINE
  8
L-ZISSEN
 10
260.0
 20
567.5
 30
0.0
 11
260.0
 21
600.0
 31
0.0
  0
LINE
  8
L-ZISSEN
 10
260.0
 20
567.5
 30
0.0
 11
240.0
 21
567.5
 31
0.0
  0
LINE
  8
L-ZISSEN
 10
248.0
 20
543.0
 30
0.0
 11
332.7
 21
543.0
 31
0.0
  0
LINE
  8
L-ZISSEN
 10
236.0
 20
558.87537
 30
0.0
 11
233.357003
 21
558.87537
 31
0.0
  0
LINE
  8
L-ZISSEN
 10
236.0
 20
558.87537
 30
0.0
 11
236.0
 21
542.0
 31
0.0
  0
LINE
  8
L-ZISSEN
 10
248.0
 20
555.0
 30
0.0
 11
248.0
 21
542.0
 31
0.0
  0
LINE
  8
L-ZISSEN
 10
164.0
 20
558.87537
 30
0.0
 11
158.0
 21
558.87537
 31
0.0
  0
LINE
  8
L-ZISSEN
 10
263.9
 20
558.87537
 30
0.0
 11
258.0
 21
558.87537
 31
0.0
  0
LINE
  8
L-ZISSEN
 10
176.0
 20
543.0
 30
0.0
 11
236.0
 21
543.0
 31
0.0
  0
LINE
  8
L-ZISSEN
 10
176.0
 20
558.87537
 30
0.0
 11
176.0
 21
542.0
 31
0.0
  0
LINE
  8
L-ZISSEN
 10
164.0
 20
558.87537
 30
0.0
 11
164.0
 21
542.0
 31
0.0
  0
LINE
  8
L-ZISSEN
 10
255.0
 20
542.0
 30
0.0
 11
217.0
 21
542.0
 31
0.0
  0
LINE
  8
L-ZISSEN
 10
255.0
 20
543.0
 30
0.0
 11
255.0
 21
542.0
 31
0.0
  0
LINE
  8
L-ZISSEN
 10
217.0
 20
543.0
 30
0.0
 11
217.0
 21
542.0
 31
0.0
  0
LINE
  8
L-ZISSEN
 10
183.0
 20
543.0
 30
0.0
 11
183.0
 21
542.0
 31
0.0
  0
LINE
  8
L-ZISSEN
 10
145.0
 20
543.0
 30
0.0
 11
145.0
 21
542.0
 31
0.0
  0
LINE
  8
L-ZISSEN
 10
67.3
 20
543.0
 30
0.0
 11
164.0
 21
543.0
 31
0.0
  0
LINE
  8
L-ZISSEN
 10
136.1
 20
550.0
 30
0.0
 11
67.3
 21
550.0
 31
0.0
  0
LINE
  8
L-ZISSEN
 10
136.1
 20
600.0
 30
0.0
 11
136.1
 21
550.0
 31
0.0
  0
LINE
  8
L-ZISSEN
 10
263.9
 20
600.0
 30
0.0
 11
136.1
 21
600.0
 31
0.0
  0
LINE
  8
L-ZISSEN
 10
263.9
 20
550.0
 30
0.0
 11
263.9
 21
600.0
 31
0.0
  0
LINE
  8
L-ZISSEN
 10
332.7
 20
550.0
 30
0.0
 11
263.9
 21
550.0
 31
0.0
  0
LINE
  8
L-ZISSEN
 10
332.7
 20
610.0
 30
0.0
 11
67.3
 21
610.0
 31
0.0
  0
LINE
  8
L-ZISSEN
 10
145.0
 20
542.0
 30
0.0
 11
183.0
 21
542.0
 31
0.0
  0
LINE
  8
L-TYUSIN
 10
62.3
 20
580.0
 30
0.0
 11
337.7
 21
580.0
 31
0.0
  0
LINE
  8
L-ZISSEN
 10
125.1
 20
611.0
 30
0.0
 11
125.1
 21
543.0
 31
0.0
  0
LINE
  8
L-ZISSEN
 10
274.9
 20
543.0
 30
0.0
 11
274.9
 21
611.0
 31
0.0
  0
LINE
  8
L-TYUSIN
 10
200.0
 20
537.0
 30
0.0
 11
200.0
 21
664.0
 31
0.0
  0
LINE
  8
L-ZISSEN
 10
160.0
 20
567.5
 30
0.0
 11
160.0
 21
600.0
 31
0.0
  0
LINE
  8
L-ZISSEN
 10
140.0
 20
567.5
 30
0.0
 11
160.0
 21
567.5
 31
0.0
  0
LINE
  8
L-ZISSEN
 10
140.0
 20
567.5
 30
0.0
 11
140.0
 21
600.0
 31
0.0
  0
CIRCLE
  8
L-ZISSEN
 10
222.0
 20
555.0
 30
0.0
 40
12.0
  0
CIRCLE
  8
L-ZISSEN
 10
190.0
 20
555.0
 30
0.0
 40
12.0
  0
LINE
  8
L-ZISSEN
 10
178.642997
 20
558.87537
 30
0.0
 11
176.0
 21
558.87537
 31
0.0
  0
LINE
  8
L-ZISSEN
 10
210.642997
 20
558.87537
 30
0.0
 11
201.357003
 21
558.87537
 31
0.0
  0
LINE
  8
L-ZISSEN
 10
178.0
 20
392.0
 30
0.0
 11
178.0
 21
376.0
 31
0.0
  0
LINE
  8
L-ZISSEN
 10
136.1
 20
392.0
 30
0.0
 11
140.0
 21
392.0
 31
0.0
  0
LINE
  8
L-ZISSEN
 10
136.1
 20
328.0
 30
0.0
 11
165.0
 21
328.0
 31
0.0
  0
LINE
  8
L-ZISSEN
 10
202.0
 20
392.0
 30
0.0
 11
202.0
 21
376.0
 31
0.0
  0
LINE
  8
L-ZISSEN
 10
210.0
 20
392.0
 30
0.0
 11
210.0
 21
376.0
 31
0.0
  0
LINE
  8
L-ZISSEN
 10
234.0
 20
392.0
 30
0.0
 11
234.0
 21
376.0
 31
0.0
  0
ARC
  8
L-ZISSEN
 10
250.0
 20
394.0
 30
0.0
 40
10.0
 50
0.0
 51
180.0
  0
LINE
  8
L-ZISSEN
 10
240.0
 20
394.0
 30
0.0
 11
240.0
 21
381.656854
 31
0.0
  0
LINE
  8
L-ZISSEN
 10
260.0
 20
394.0
 30
0.0
 11
260.0
 21
376.0
 31
0.0
  0
LINE
  8
L-ZISSEN
 10
260.0
 20
392.0
 30
0.0
 11
263.9
 21
392.0
 31
0.0
  0
LINE
  8
L-ZISSEN
 10
160.0
 20
394.0
 30
0.0
 11
160.0
 21
382.0
 31
0.0
  0
ARC
  8
L-ZISSEN
 10
150.0
 20
394.0
 30
0.0
 40
10.0
 50
0.0
 51
180.0
  0
LINE
  8
L-ZISSEN
 10
140.0
 20
394.0
 30
0.0
 11
140.0
 21
376.0
 31
0.0
  0
LINE
  8
L-ZISSEN
 10
160.0
 20
392.0
 30
0.0
 11
240.0
 21
392.0
 31
0.0
  0
ARC
  8
L-ZISSEN
 10
170.0
 20
376.0
 30
0.0
 40
6.0
 50
0.0
 51
180.0
  0
ARC
  8
L-ZISSEN
 10
158.0
 20
344.0
 30
0.0
 40
6.0
 50
180.0
 51
0.0
  0
LINE
  8
L-ZISSEN
 10
164.0
 20
376.0
 30
0.0
 11
67.3
 21
376.0
 31
0.0
  0
LINE
  8
L-ZISSEN
 10
152.5
 20
344.0
 30
0.0
 11
67.3
 21
344.0
 31
0.0
  0
ARC
  8
L-ZISSEN
 10
242.0
 20
376.0
 30
0.0
 40
6.0
 50
0.0
 51
180.0
  0
ARC
  8
L-ZISSEN
 10
230.0
 20
344.0
 30
0.0
 40
6.0
 50
180.0
 51
0.0
  0
LINE
  8
L-ZISSEN
 10
236.0
 20
376.0
 30
0.0
 11
217.0
 21
376.0
 31
0.0
  0
LINE
  8
L-ZISSEN
 10
224.0
 20
344.0
 30
0.0
 11
164.0
 21
344.0
 31
0.0
  0
LINE
  8
L-ZISSEN
 10
210.0
 20
376.0
 30
0.0
 11
202.0
 21
376.0
 31
0.0
  0
LINE
  8
L-ZISSEN
 10
183.0
 20
376.0
 30
0.0
 11
176.0
 21
376.0
 31
0.0
  0
LINE
  8
L-ZISSEN
 10
185.0
 20
326.0
 30
0.0
 11
185.0
 21
344.0
 31
0.0
  0
ARC
  8
L-ZISSEN
 10
175.0
 20
326.0
 30
0.0
 40
10.0
 50
180.0
 51
0.0
  0
LINE
  8
L-ZISSEN
 10
165.0
 20
326.0
 30
0.0
 11
165.0
 21
344.0
 31
0.0
  0
ARC
  8
L-ZISSEN
 10
225.0
 20
326.0
 30
0.0
 40
10.0
 50
180.0
 51
0.0
  0
LINE
  8
L-ZISSEN
 10
235.0
 20
326.0
 30
0.0
 11
235.0
 21
338.0
 31
0.0
  0
LINE
  8
L-ZISSEN
 10
215.0
 20
326.0
 30
0.0
 11
215.0
 21
344.0
 31
0.0
  0
LINE
  8
L-ZISSEN
 10
185.0
 20
328.0
 30
0.0
 11
215.0
 21
328.0
 31
0.0
  0
LINE
  8
L-ZISSEN
 10
235.0
 20
328.0
 30
0.0
 11
263.9
 21
328.0
 31
0.0
  0
LINE
  8
L-ZISSEN
 10
383.0
 20
110.0
 30
0.0
 11
383.0
 21
170.0
 31
0.0
  0
LINE
  8
L-ZISSEN
 10
383.0
 20
170.0
 30
0.0
 11
402.5
 21
170.0
 31
0.0
  0
LINE
  8
L-ZISSEN
 10
457.0
 20
170.0
 30
0.0
 11
457.0
 21
110.0
 31
0.0
  0
LINE
  8
L-ZISSEN
 10
407.5
 20
177.0
 30
0.0
 11
402.5
 21
170.0
 31
0.0
  0
LINE
  8
L-ZISSEN
 10
432.5
 20
177.0
 30
0.0
 11
437.5
 21
170.0
 31
0.0
  0
LINE
  8
L-ZISSEN
 10
437.5
 20
170.0
 30
0.0
 11
457.0
 21
170.0
 31
0.0
  0
LINE
  8
L-ZISSEN
 10
398.0
 20
178.0
 30
0.0
 11
442.0
 21
178.0
 31
0.0
  0
LINE
  8
L-ZISSEN
 10
464.0
 20
120.0
 30
0.0
 11
457.0
 21
120.0
 31
0.0
  0
LINE
  8
L-ZISSEN
 10
376.0
 20
109.0
 30
0.0
 11
376.0
 21
152.5
 31
0.0
  0
LINE
  8
L-ZISSEN
 10
376.0
 20
152.5
 30
0.0
 11
383.0
 21
152.5
 31
0.0
  0
LINE
  8
L-ZISSEN
 10
464.0
 20
152.5
 30
0.0
 11
457.0
 21
152.5
 31
0.0
  0
LINE
  8
L-ZISSEN
 10
464.0
 20
109.0
 30
0.0
 11
464.0
 21
152.5
 31
0.0
  0
LINE
  8
L-ZISSEN
 10
383.0
 20
120.0
 30
0.0
 11
376.0
 21
120.0
 31
0.0
  0
LINE
  8
L-ZISSEN
 10
452.0
 20
177.0
 30
0.0
 11
452.0
 21
170.0
 31
0.0
  0
LINE
  8
L-ZISSEN
 10
452.0
 20
177.0
 30
0.0
 11
442.0
 21
177.0
 31
0.0
  0
CIRCLE
  8
L-ZISSEN
 10
242.0
 20
376.0
 30
0.0
 40
4.25
  0
CIRCLE
  8
L-ZISSEN
 10
230.0
 20
344.0
 30
0.0
 40
4.25
  0
LINE
  8
L-ZISSEN
 10
254.0
 20
338.0
 30
0.0
 11
230.0
 21
338.0
 31
0.0
  0
LINE
  8
L-ZISSEN
 10
224.0
 20
344.0
 30
0.0
 11
217.0
 21
344.0
 31
0.0
  0
LINE
  8
L-ZISSEN
 10
217.0
 20
349.0
 30
0.0
 11
224.0
 21
349.0
 31
0.0
  0
LINE
  8
L-ZISSEN
 10
217.0
 20
371.0
 30
0.0
 11
224.0
 21
371.0
 31
0.0
  0
LINE
  8
L-ZISSEN
 10
224.0
 20
376.0
 30
0.0
 11
217.0
 21
376.0
 31
0.0
  0
LINE
  8
L-ZISSEN
 10
247.5
 20
369.0
 30
0.0
 11
247.5
 21
376.0
 31
0.0
  0
LINE
  8
L-ZISSEN
 10
239.0
 20
351.0
 30
0.0
 11
247.5
 21
351.0
 31
0.0
  0
LINE
  8
L-ZISSEN
 10
239.0
 20
369.0
 30
0.0
 11
247.5
 21
369.0
 31
0.0
  0
ARC
  8
L-ZISSEN
 10
239.0
 20
360.0
 30
0.0
 40
9.0
 50
90.0
 51
270.0
  0
LINE
  8
L-ZISSEN
 10
247.5
 20
344.0
 30
0.0
 11
247.5
 21
351.0
 31
0.0
  0
LINE
  8
L-ZISSEN
 10
224.0
 20
344.0
 30
0.0
 11
224.0
 21
376.0
 31
0.0
  0
LINE
  8
L-ZISSEN
 10
217.0
 20
344.0
 30
0.0
 11
217.0
 21
376.0
 31
0.0
  0
LINE
  8
L-ZISSEN
 10
242.864102
 20
366.0
 30
0.0
 11
246.328203
 21
360.0
 31
0.0
  0
LINE
  8
L-ZISSEN
 10
235.935898
 20
354.0
 30
0.0
 11
242.864102
 21
354.0
 31
0.0
  0
LINE
  8
L-ZISSEN
 10
242.864102
 20
366.0
 30
0.0
 11
235.935898
 21
366.0
 31
0.0
  0
LINE
  8
L-ZISSEN
 10
235.935898
 20
366.0
 30
0.0
 11
232.471797
 21
360.0
 31
0.0
  0
LINE
  8
L-ZISSEN
 10
232.471797
 20
360.0
 30
0.0
 11
235.935898
 21
354.0
 31
0.0
  0
LINE
  8
L-ZISSEN
 10
242.864102
 20
354.0
 30
0.0
 11
246.328203
 21
360.0
 31
0.0
  0
LINE
  8
L-ZISSEN
 10
287.65
 20
348.75
 30
0.0
 11
287.65
 21
345.0
 31
0.0
  0
LINE
  8
L-ZISSEN
 10
257.65
 20
375.0
 30
0.0
 11
257.65
 21
345.0
 31
0.0
  0
LINE
  8
L-ZISSEN
 10
287.65
 20
375.0
 30
0.0
 11
287.65
 21
371.25
 31
0.0
  0
LINE
  8
L-ZISSEN
 10
258.65
 20
346.25
 30
0.0
 11
286.15
 21
346.25
 31
0.0
  0
LINE
  8
L-ZISSEN
 10
258.65
 20
373.75
 30
0.0
 11
286.15
 21
373.75
 31
0.0
  0
LINE
  8
L-ZISSEN
 10
286.15
 20
346.25
 30
0.0
 11
286.15
 21
373.75
 31
0.0
  0
LINE
  8
L-ZISSEN
 10
258.65
 20
346.25
 30
0.0
 11
258.65
 21
373.75
 31
0.0
  0
LINE
  8
L-ZISSEN
 10
297.9
 20
371.25
 30
0.0
 11
297.9
 21
375.0
 31
0.0
  0
LINE
  8
L-ZISSEN
 10
286.15
 20
371.25
 30
0.0
 11
301.65
 21
371.25
 31
0.0
  0
LINE
  8
L-ZISSEN
 10
301.65
 20
348.75
 30
0.0
 11
301.65
 21
371.25
 31
0.0
  0
LINE
  8
L-ZISSEN
 10
286.15
 20
348.75
 30
0.0
 11
301.65
 21
348.75
 31
0.0
  0
LINE
  8
L-ZISSEN
 10
304.55
 20
350.8
 30
0.0
 11
304.55
 21
369.2
 31
0.0
  0
LINE
  8
L-ZISSEN
 10
304.55
 20
368.5
 30
0.0
 11
306.9
 21
368.5
 31
0.0
  0
LINE
  8
L-ZISSEN
 10
304.55
 20
351.5
 30
0.0
 11
306.9
 21
351.5
 31
0.0
  0
LINE
  8
L-ZISSEN
 10
301.65
 20
369.2
 30
0.0
 11
304.55
 21
369.2
 31
0.0
  0
LINE
  8
L-ZISSEN
 10
301.65
 20
350.8
 30
0.0
 11
304.55
 21
350.8
 31
0.0
  0
LINE
  8
L-ZISSEN
 10
306.9
 20
349.030345
 30
0.0
 11
306.9
 21
370.969655
 31
0.0
  0
LINE
  8
L-ZISSEN
 10
312.4
 20
370.969655
 30
0.0
 11
306.9
 21
370.969655
 31
0.0
  0
LINE
  8
L-ZISSEN
 10
312.4
 20
349.030345
 30
0.0
 11
306.9
 21
349.030345
 31
0.0
  0
LINE
  8
L-ZISSEN
 10
312.4
 20
349.030345
 30
0.0
 11
312.4
 21
370.969655
 31
0.0
  0
LINE
  8
L-ZISSEN
 10
297.9
 20
345.0
 30
0.0
 11
254.0
 21
345.0
 31
0.0
  0
LINE
  8
L-ZISSEN
 10
297.9
 20
375.0
 30
0.0
 11
254.0
 21
375.0
 31
0.0
  0
LINE
  8
L-ZISSEN
 10
297.9
 20
345.0
 30
0.0
 11
297.9
 21
348.75
 31
0.0
  0
LINE
  8
L-ZISSEN
 10
254.0
 20
376.0
 30
0.0
 11
254.0
 21
338.0
 31
0.0
  0
LINE
  8
L-ZISSEN
 10
274.9
 20
345.0
 30
0.0
 11
274.9
 21
323.0
 31
0.0
  0
LINE
  8
L-ZISSEN
 10
255.0
 20
345.0
 30
0.0
 11
255.0
 21
344.0
 31
0.0
  0
LINE
  8
L-ZISSEN
 10
225.75
 20
221.8
 30
0.0
 11
225.75
 21
216.0
 31
0.0
  0
LINE
  8
L-ZISSEN
 10
234.25
 20
221.8
 30
0.0
 11
234.25
 21
216.0
 31
0.0
  0
LINE
  8
L-ZISSEN
 10
234.25
 20
221.8
 30
0.0
 11
225.75
 21
221.8
 31
0.0
  0
LINE
  8
L-ZISSEN
 10
217.0
 20
194.0
 30
0.0
 11
217.0
 21
216.0
 31
0.0
  0
LINE
  8
L-ZISSEN
 10
224.0
 20
186.0
 30
0.0
 11
217.0
 21
186.0
 31
0.0
  0
LINE
  8
L-ZISSEN
 10
247.5
 20
216.0
 30
0.0
 11
247.5
 21
229.0
 31
0.0
  0
LINE
  8
L-ZISSEN
 10
224.0
 20
194.0
 30
0.0
 11
217.0
 21
194.0
 31
0.0
  0
LINE
  8
L-ZISSEN
 10
247.5
 20
216.0
 30
0.0
 11
217.0
 21
216.0
 31
0.0
  0
LINE
  8
L-ZISSEN
 10
246.0
 20
197.0
 30
0.0
 11
236.0
 21
197.0
 31
0.0
  0
LINE
  8
L-ZISSEN
 10
246.0
 20
181.0
 30
0.0
 11
236.0
 21
181.0
 31
0.0
  0
LINE
  8
L-ZISSEN
 10
224.0
 20
178.0
 30
0.0
 11
224.0
 21
216.0
 31
0.0
  0
LINE
  8
L-ZISSEN
 10
236.0
 20
178.0
 30
0.0
 11
236.0
 21
216.0
 31
0.0
  0
ARC
  8
L-ZISSEN
 10
246.0
 20
189.0
 30
0.0
 40
8.0
 50
270.0
 51
90.0
  0
LINE
  8
L-ZISSEN
 10
230.0
 20
231.0
 30
0.0
 11
230.0
 21
221.8
 31
0.0
  0
LINE
  8
L-ZISSEN
 10
248.0
 20
231.0
 30
0.0
 11
248.0
 21
229.0
 31
0.0
  0
LINE
  8
L-ZISSEN
 10
247.5
 20
229.0
 30
0.0
 11
254.0
 21
229.0
 31
0.0
  0
LINE
  8
L-ZISSEN
 10
230.0
 20
231.0
 30
0.0
 11
248.0
 21
231.0
 31
0.0
  0
LINE
  8
L-ZISSEN
 10
254.0
 20
179.0
 30
0.0
 11
217.0
 21
179.0
 31
0.0
  0
LINE
  8
L-ZISSEN
 10
217.0
 20
178.0
 30
0.0
 11
217.0
 21
186.0
 31
0.0
  0
LINE
  8
L-ZISSEN
 10
246.328203
 20
238.1
 30
0.0
 11
232.471797
 21
238.1
 31
0.0
  0
LINE
  8
L-ZISSEN
 10
232.471797
 20
238.1
 30
0.0
 11
232.471797
 21
231.0
 31
0.0
  0
LINE
  8
L-ZISSEN
 10
246.328203
 20
238.1
 30
0.0
 11
246.328203
 21
231.0
 31
0.0
  0
LINE
  8
L-ZISSEN
 10
254.0
 20
229.0
 30
0.0
 11
297.9
 21
229.0
 31
0.0
  0
LINE
  8
L-ZISSEN
 10
297.9
 20
186.2
 30
0.0
 11
254.0
 21
186.2
 31
0.0
  0
LINE
  8
L-ZISSEN
 10
297.9
 20
229.0
 30
0.0
 11
297.9
 21
186.2
 31
0.0
  0
LINE
  8
L-ZISSEN
 10
300.9
 20
214.814955
 30
0.0
 11
297.9
 21
214.814955
 31
0.0
  0
LINE
  8
L-ZISSEN
 10
300.9
 20
195.185045
 30
0.0
 11
297.9
 21
195.185045
 31
0.0
  0
LINE
  8
L-ZISSEN
 10
300.9
 20
214.814955
 30
0.0
 11
300.9
 21
195.185045
 31
0.0
  0
LINE
  8
L-ZISSEN
 10
258.65
 20
264.7
 30
0.0
 11
258.65
 21
233.5
 31
0.0
  0
LINE
  8
L-ZISSEN
 10
258.65
 20
264.7
 30
0.0
 11
301.65
 21
264.7
 31
0.0
  0
LINE
  8
L-ZISSEN
 10
286.15
 20
242.2
 30
0.0
 11
301.65
 21
242.2
 31
0.0
  0
LINE
  8
L-ZISSEN
 10
301.65
 20
264.7
 30
0.0
 11
301.65
 21
242.2
 31
0.0
  0
LINE
  8
L-ZISSEN
 10
286.15
 20
264.7
 30
0.0
 11
286.15
 21
233.5
 31
0.0
  0
LINE
  8
L-ZISSEN
 10
312.4
 20
264.419655
 30
0.0
 11
312.4
 21
242.480345
 31
0.0
  0
LINE
  8
L-ZISSEN
 10
312.4
 20
264.419655
 30
0.0
 11
306.9
 21
264.419655
 31
0.0
  0
LINE
  8
L-ZISSEN
 10
312.4
 20
242.480345
 30
0.0
 11
306.9
 21
242.480345
 31
0.0
  0
LINE
  8
L-ZISSEN
 10
306.9
 20
264.419655
 30
0.0
 11
306.9
 21
242.480345
 31
0.0
  0
LINE
  8
L-ZISSEN
 10
301.65
 20
262.65
 30
0.0
 11
304.55
 21
262.65
 31
0.0
  0
LINE
  8
L-ZISSEN
 10
301.65
 20
244.25
 30
0.0
 11
304.55
 21
244.25
 31
0.0
  0
LINE
  8
L-ZISSEN
 10
304.55
 20
261.95
 30
0.0
 11
306.9
 21
261.95
 31
0.0
  0
LINE
  8
L-ZISSEN
 10
304.55
 20
244.95
 30
0.0
 11
306.9
 21
244.95
 31
0.0
  0
LINE
  8
L-ZISSEN
 10
304.55
 20
262.65
 30
0.0
 11
304.55
 21
244.25
 31
0.0
  0
LINE
  8
L-ZISSEN
 10
257.15
 20
233.5
 30
0.0
 11
257.15
 21
229.0
 31
0.0
  0
LINE
  8
L-ZISSEN
 10
287.65
 20
233.5
 30
0.0
 11
287.65
 21
229.0
 31
0.0
  0
LINE
  8
L-ZISSEN
 10
257.15
 20
233.5
 30
0.0
 11
287.65
 21
233.5
 31
0.0
  0
LINE
  8
L-ZISSEN
 10
254.0
 20
178.0
 30
0.0
 11
254.0
 21
229.0
 31
0.0
  0
LINE
  8
L-ZISSEN
 10
440.25
 20
221.8
 30
0.0
 11
440.25
 21
216.0
 31
0.0
  0
LINE
  8
L-ZISSEN
 10
436.0
 20
221.8
 30
0.0
 11
440.25
 21
221.8
 31
0.0
  0
LINE
  8
L-ZISSEN
 10
404.0
 20
221.8
 30
0.0
 11
399.75
 21
221.8
 31
0.0
  0
LINE
  8
L-ZISSEN
 10
399.75
 20
221.8
 30
0.0
 11
399.75
 21
216.0
 31
0.0
  0
LINE
  8
L-ZISSEN
 10
436.0
 20
216.0
 30
0.0
 11
442.0
 21
216.0
 31
0.0
  0
LINE
  8
L-ZISSEN
 10
442.0
 20
216.0
 30
0.0
 11
442.0
 21
170.0
 31
0.0
  0
LINE
  8
L-ZISSEN
 10
398.0
 20
216.0
 30
0.0
 11
404.0
 21
216.0
 31
0.0
  0
LINE
  8
L-ZISSEN
 10
398.0
 20
179.0
 30
0.0
 11
442.0
 21
179.0
 31
0.0
  0
LINE
  8
L-ZISSEN
 10
436.0
 20
179.0
 30
0.0
 11
436.0
 21
229.0
 31
0.0
  0
LINE
  8
L-ZISSEN
 10
404.0
 20
179.0
 30
0.0
 11
404.0
 21
229.0
 31
0.0
  0
LINE
  8
L-ZISSEN
 10
398.0
 20
170.0
 30
0.0
 11
398.0
 21
216.0
 31
0.0
  0
LINE
  8
L-ZISSEN
 10
404.0
 20
181.0
 30
0.0
 11
398.0
 21
181.0
 31
0.0
  0
LINE
  8
L-ZISSEN
 10
404.0
 20
197.0
 30
0.0
 11
398.0
 21
197.0
 31
0.0
  0
LINE
  8
L-ZISSEN
 10
405.0
 20
187.0
 30
0.0
 11
435.0
 21
187.0
 31
0.0
  0
LINE
  8
L-ZISSEN
 10
411.5
 20
209.907477
 30
0.0
 11
411.5
 21
200.092523
 31
0.0
  0
LINE
  8
L-ZISSEN
 10
420.0
 20
214.814955
 30
0.0
 11
411.5
 21
209.907477
 31
0.0
  0
LINE
  8
L-ZISSEN
 10
428.5
 20
209.907477
 30
0.0
 11
420.0
 21
214.814955
 31
0.0
  0
LINE
  8
L-ZISSEN
 10
428.5
 20
200.092523
 30
0.0
 11
428.5
 21
209.907477
 31
0.0
  0
LINE
  8
L-ZISSEN
 10
420.0
 20
195.185045
 30
0.0
 11
428.5
 21
200.092523
 31
0.0
  0
LINE
  8
L-ZISSEN
 10
411.5
 20
200.092523
 30
0.0
 11
420.0
 21
195.185045
 31
0.0
  0
LINE
  8
L-ZISSEN
 10
404.0
 20
229.0
 30
0.0
 11
436.0
 21
229.0
 31
0.0
  0
LINE
  8
L-ZISSEN
 10
404.75
 20
233.5
 30
0.0
 11
435.25
 21
233.5
 31
0.0
  0
LINE
  8
L-ZISSEN
 10
435.25
 20
233.5
 30
0.0
 11
435.25
 21
229.0
 31
0.0
  0
LINE
  8
L-ZISSEN
 10
404.75
 20
233.5
 30
0.0
 11
404.75
 21
229.0
 31
0.0
  0
CIRCLE
  8
L-ZISSEN
 10
420.0
 20
253.45
 30
0.0
 40
6.5
  0
LINE
  8
L-ZISSEN
 10
406.25
 20
264.7
 30
0.0
 11
406.25
 21
233.5
 31
0.0
  0
LINE
  8
L-ZISSEN
 10
433.75
 20
264.7
 30
0.0
 11
433.75
 21
233.5
 31
0.0
  0
CIRCLE
  8
L-ZISSEN
 10
420.0
 20
253.45
 30
0.0
 40
11.25
  0
LINE
  8
L-ZISSEN
 10
406.25
 20
264.7
 30
0.0
 11
433.75
 21
264.7
 31
0.0
  0
CIRCLE
  8
L-ZISSEN
 10
420.0
 20
205.0
 30
0.0
 40
2.067
  0
LINE
  8
L-ZISSEN
 10
405.0
 20
187.0
 30
0.0
 11
405.0
 21
229.0
 31
0.0
  0
LINE
  8
L-ZISSEN
 10
435.0
 20
187.0
 30
0.0
 11
435.0
 21
229.0
 31
0.0
  0
LINE
  8
L-ZISSEN
 10
437.5
 20
170.0
 30
0.0
 11
437.5
 21
178.0
 31
0.0
  0
LINE
  8
L-ZISSEN
 10
402.5
 20
170.0
 30
0.0
 11
402.5
 21
178.0
 31
0.0
  0
LINE
  8
L-ZISSEN
 10
237.75
 20
498.2
 30
0.0
 11
237.75
 21
504.0
 31
0.0
  0
LINE
  8
L-ZISSEN
 10
246.25
 20
498.2
 30
0.0
 11
246.25
 21
504.0
 31
0.0
  0
LINE
  8
L-ZISSEN
 10
246.25
 20
498.2
 30
0.0
 11
237.75
 21
498.2
 31
0.0
  0
LINE
  8
L-ZISSEN
 10
217.0
 20
526.0
 30
0.0
 11
217.0
 21
504.0
 31
0.0
  0
LINE
  8
L-ZISSEN
 10
224.0
 20
534.0
 30
0.0
 11
217.0
 21
534.0
 31
0.0
  0
LINE
  8
L-ZISSEN
 10
247.5
 20
504.0
 30
0.0
 11
247.5
 21
491.0
 31
0.0
  0
LINE
  8
L-ZISSEN
 10
224.0
 20
526.0
 30
0.0
 11
217.0
 21
526.0
 31
0.0
  0
LINE
  8
L-ZISSEN
 10
247.5
 20
504.0
 30
0.0
 11
217.0
 21
504.0
 31
0.0
  0
LINE
  8
L-ZISSEN
 10
224.0
 20
534.0
 30
0.0
 11
224.0
 21
504.0
 31
0.0
  0
LINE
  8
L-ZISSEN
 10
248.0
 20
542.0
 30
0.0
 11
248.0
 21
504.0
 31
0.0
  0
LINE
  8
L-ZISSEN
 10
230.0
 20
489.0
 30
0.0
 11
230.0
 21
504.0
 31
0.0
  0
LINE
  8
L-ZISSEN
 10
248.0
 20
489.0
 30
0.0
 11
248.0
 21
491.0
 31
0.0
  0
LINE
  8
L-ZISSEN
 10
247.5
 20
491.0
 30
0.0
 11
254.0
 21
491.0
 31
0.0
  0
LINE
  8
L-ZISSEN
 10
230.0
 20
489.0
 30
0.0
 11
248.0
 21
489.0
 31
0.0
  0
LINE
  8
L-ZISSEN
 10
254.0
 20
541.0
 30
0.0
 11
217.0
 21
541.0
 31
0.0
  0
LINE
  8
L-ZISSEN
 10
217.0
 20
542.0
 30
0.0
 11
217.0
 21
534.0
 31
0.0
  0
LINE
  8
L-ZISSEN
 10
246.328203
 20
481.9
 30
0.0
 11
232.471797
 21
481.9
 31
0.0
  0
LINE
  8
L-ZISSEN
 10
232.471797
 20
481.9
 30
0.0
 11
232.471797
 21
489.0
 31
0.0
  0
LINE
  8
L-ZISSEN
 10
246.328203
 20
481.9
 30
0.0
 11
246.328203
 21
489.0
 31
0.0
  0
LINE
  8
L-ZISSEN
 10
254.0
 20
491.0
 30
0.0
 11
297.9
 21
491.0
 31
0.0
  0
LINE
  8
L-ZISSEN
 10
297.9
 20
533.8
 30
0.0
 11
254.0
 21
533.8
 31
0.0
  0
LINE
  8
L-ZISSEN
 10
297.9
 20
491.0
 30
0.0
 11
297.9
 21
533.8
 31
0.0
  0
LINE
  8
L-ZISSEN
 10
300.9
 20
505.185045
 30
0.0
 11
297.9
 21
505.185045
 31
0.0
  0
LINE
  8
L-ZISSEN
 10
300.9
 20
524.814955
 30
0.0
 11
297.9
 21
524.814955
 31
0.0
  0
LINE
  8
L-ZISSEN
 10
300.9
 20
505.185045
 30
0.0
 11
300.9
 21
524.814955
 31
0.0
  0
LINE
  8
L-ZISSEN
 10
258.65
 20
455.3
 30
0.0
 11
258.65
 21
486.5
 31
0.0
  0
LINE
  8
L-ZISSEN
 10
258.65
 20
455.3
 30
0.0
 11
301.65
 21
455.3
 31
0.0
  0
LINE
  8
L-ZISSEN
 10
286.15
 20
477.8
 30
0.0
 11
301.65
 21
477.8
 31
0.0
  0
LINE
  8
L-ZISSEN
 10
301.65
 20
455.3
 30
0.0
 11
301.65
 21
477.8
 31
0.0
  0
LINE
  8
L-ZISSEN
 10
286.15
 20
455.3
 30
0.0
 11
286.15
 21
486.5
 31
0.0
  0
LINE
  8
L-ZISSEN
 10
312.4
 20
455.580345
 30
0.0
 11
312.4
 21
477.519655
 31
0.0
  0
LINE
  8
L-ZISSEN
 10
312.4
 20
455.580345
 30
0.0
 11
306.9
 21
455.580345
 31
0.0
  0
LINE
  8
L-ZISSEN
 10
312.4
 20
477.519655
 30
0.0
 11
306.9
 21
477.519655
 31
0.0
  0
LINE
  8
L-ZISSEN
 10
306.9
 20
455.580345
 30
0.0
 11
306.9
 21
477.519655
 31
0.0
  0
LINE
  8
L-ZISSEN
 10
301.65
 20
457.35
 30
0.0
 11
304.55
 21
457.35
 31
0.0
  0
LINE
  8
L-ZISSEN
 10
301.65
 20
475.75
 30
0.0
 11
304.55
 21
475.75
 31
0.0
  0
LINE
  8
L-ZISSEN
 10
304.55
 20
458.05
 30
0.0
 11
306.9
 21
458.05
 31
0.0
  0
LINE
  8
L-ZISSEN
 10
304.55
 20
475.05
 30
0.0
 11
306.9
 21
475.05
 31
0.0
  0
LINE
  8
L-ZISSEN
 10
304.55
 20
457.35
 30
0.0
 11
304.55
 21
475.75
 31
0.0
  0
LINE
  8
L-ZISSEN
 10
257.15
 20
486.5
 30
0.0
 11
257.15
 21
491.0
 31
0.0
  0
LINE
  8
L-ZISSEN
 10
287.65
 20
486.5
 30
0.0
 11
287.65
 21
491.0
 31
0.0
  0
LINE
  8
L-ZISSEN
 10
257.15
 20
486.5
 30
0.0
 11
287.65
 21
486.5
 31
0.0
  0
LINE
  8
L-ZISSEN
 10
254.0
 20
542.0
 30
0.0
 11
254.0
 21
491.0
 31
0.0
  0
LINE
  8
L-ZISSEN
 10
236.0
 20
542.0
 30
0.0
 11
236.0
 21
504.0
 31
0.0
  0
LINE
  8
L-ZISSEN
 10
225.75
 20
498.2
 30
0.0
 11
225.75
 21
504.0
 31
0.0
  0
LINE
  8
L-ZISSEN
 10
230.0
 20
498.2
 30
0.0
 11
225.75
 21
498.2
 31
0.0
  0
LINE
  8
L-ZISSEN
 10
279.5
 20
109.0
 30
0.0
 11
120.5
 21
109.0
 31
0.0
  0
LINE
  8
L-ZISSEN
 10
309.5
 20
51.0
 30
0.0
 11
273.0
 21
51.0
 31
0.0
  0
LINE
  8
L-ZISSEN
 10
309.5
 20
78.0
 30
0.0
 11
279.5
 21
78.0
 31
0.0
  0
LINE
  8
L-ZISSEN
 10
90.5
 20
51.0
 30
0.0
 11
90.5
 21
78.0
 31
0.0
  0
LINE
  8
L-ZISSEN
 10
127.0
 20
51.0
 30
0.0
 11
127.0
 21
61.0
 31
0.0
  0
LINE
  8
L-TYUSIN
 10
180.0
 20
85.0
 30
0.0
 11
220.0
 21
85.0
 31
0.0
  0
LINE
  8
L-ZISSEN
 10
120.5
 20
61.0
 30
0.0
 11
279.5
 21
61.0
 31
0.0
  0
LINE
  8
L-ZISSEN
 10
120.5
 20
61.0
 30
0.0
 11
120.5
 21
109.0
 31
0.0
  0
LINE
  8
L-ZISSEN
 10
279.5
 20
61.0
 30
0.0
 11
279.5
 21
109.0
 31
0.0
  0
LINE
  8
L-ZISSEN
 10
273.0
 20
51.0
 30
0.0
 11
273.0
 21
61.0
 31
0.0
  0
LINE
  8
L-ZISSEN
 10
309.5
 20
51.0
 30
0.0
 11
309.5
 21
78.0
 31
0.0
  0
LINE
  8
L-ZISSEN
 10
127.0
 20
51.0
 30
0.0
 11
90.5
 21
51.0
 31
0.0
  0
LINE
  8
L-ZISSEN
 10
120.5
 20
78.0
 30
0.0
 11
90.5
 21
78.0
 31
0.0
  0
LINE
  8
L-TYUSIN
 10
254.0
 20
105.0
 30
0.0
 11
254.0
 21
65.0
 31
0.0
  0
LINE
  8
L-TYUSIN
 10
234.0
 20
85.0
 30
0.0
 11
274.0
 21
85.0
 31
0.0
  0
LINE
  8
L-TYUSIN
 10
146.0
 20
105.0
 30
0.0
 11
146.0
 21
65.0
 31
0.0
  0
LINE
  8
L-TYUSIN
 10
166.0
 20
85.0
 30
0.0
 11
126.0
 21
85.0
 31
0.0
  0
LINE
  8
L-TYUSIN
 10
298.5
 20
83.0
 30
0.0
 11
298.5
 21
46.0
 31
0.0
  0
LINE
  8
L-TYUSIN
 10
101.5
 20
83.0
 30
0.0
 11
101.5
 21
46.0
 31
0.0
  0
LINE
  8
L-ZISSEN
 10
233.0
 20
165.0
 30
0.0
 11
217.0
 21
165.0
 31
0.0
  0
LINE
  8
L-ZISSEN
 10
217.0
 20
165.0
 30
0.0
 11
217.0
 21
152.5
 31
0.0
  0
LINE
  8
L-ZISSEN
 10
233.0
 20
165.0
 30
0.0
 11
233.0
 21
152.5
 31
0.0
  0
LINE
  8
L-ZISSEN
 10
183.0
 20
165.0
 30
0.0
 11
167.0
 21
165.0
 31
0.0
  0
LINE
  8
L-ZISSEN
 10
167.0
 20
165.0
 30
0.0
 11
167.0
 21
152.5
 31
0.0
  0
LINE
  8
L-ZISSEN
 10
183.0
 20
165.0
 30
0.0
 11
183.0
 21
152.5
 31
0.0
  0
LINE
  8
L-ZISSEN
 10
183.0
 20
161.12463
 30
0.0
 11
217.0
 21
161.12463
 31
0.0
  0
LINE
  8
L-TYUSIN
 10
101.5
 20
637.0
 30
0.0
 11
101.5
 21
674.0
 31
0.0
  0
LINE
  8
L-TYUSIN
 10
298.5
 20
637.0
 30
0.0
 11
298.5
 21
674.0
 31
0.0
  0
LINE
  8
L-TYUSIN
 10
227.0
 20
615.0
 30
0.0
 11
227.0
 21
655.0
 31
0.0
  0
LINE
  8
L-ZISSEN
 10
120.5
 20
642.0
 30
0.0
 11
90.5
 21
642.0
 31
0.0
  0
LINE
  8
L-ZISSEN
 10
127.0
 20
669.0
 30
0.0
 11
90.5
 21
669.0
 31
0.0
  0
LINE
  8
L-ZISSEN
 10
309.5
 20
669.0
 30
0.0
 11
309.5
 21
642.0
 31
0.0
  0
LINE
  8
L-ZISSEN
 10
273.0
 20
669.0
 30
0.0
 11
273.0
 21
659.0
 31
0.0
  0
LINE
  8
L-ZISSEN
 10
279.5
 20
659.0
 30
0.0
 11
279.5
 21
611.0
 31
0.0
  0
LINE
  8
L-ZISSEN
 10
120.5
 20
659.0
 30
0.0
 11
120.5
 21
611.0
 31
0.0
  0
LINE
  8
L-ZISSEN
 10
120.5
 20
659.0
 30
0.0
 11
279.5
 21
659.0
 31
0.0
  0
LINE
  8
L-TYUSIN
 10
207.0
 20
635.0
 30
0.0
 11
247.0
 21
635.0
 31
0.0
  0
LINE
  8
L-ZISSEN
 10
127.0
 20
669.0
 30
0.0
 11
127.0
 21
659.0
 31
0.0
  0
LINE
  8
L-ZISSEN
 10
90.5
 20
669.0
 30
0.0
 11
90.5
 21
642.0
 31
0.0
  0
LINE
  8
L-ZISSEN
 10
309.5
 20
642.0
 30
0.0
 11
279.5
 21
642.0
 31
0.0
  0
LINE
  8
L-ZISSEN
 10
309.5
 20
669.0
 30
0.0
 11
273.0
 21
669.0
 31
0.0
  0
LINE
  8
L-ZISSEN
 10
279.5
 20
611.0
 30
0.0
 11
120.5
 21
611.0
 31
0.0
  0
LINE
  8
L-TYUSIN
 10
193.0
 20
635.0
 30
0.0
 11
153.0
 21
635.0
 31
0.0
  0
LINE
  8
L-TYUSIN
 10
173.0
 20
615.0
 30
0.0
 11
173.0
 21
655.0
 31
0.0
  0
LINE
  8
L-ZISSEN
 10
142.0
 20
555.0
 30
0.0
 11
142.0
 21
567.5
 31
0.0
  0
LINE
  8
L-ZISSEN
 10
158.0
 20
555.0
 30
0.0
 11
142.0
 21
555.0
 31
0.0
  0
LINE
  8
L-ZISSEN
 10
158.0
 20
555.0
 30
0.0
 11
158.0
 21
567.5
 31
0.0
  0
LINE
  8
L-ZISSEN
 10
242.0
 20
555.0
 30
0.0
 11
242.0
 21
567.5
 31
0.0
  0
LINE
  8
L-ZISSEN
 10
258.0
 20
555.0
 30
0.0
 11
258.0
 21
567.5
 31
0.0
  0
LINE
  8
L-ZISSEN
 10
258.0
 20
555.0
 30
0.0
 11
242.0
 21
555.0
 31
0.0
  0
LINE
  8
L-ZISSEN
 10
142.0
 20
558.87537
 30
0.0
 11
136.1
 21
558.87537
 31
0.0
  0
LINE
  8
L-ZISSEN
 10
464.0
 20
109.0
 30
0.0
 11
376.0
 21
109.0
 31
0.0
  0
LINE
  8
L-ZISSEN
 10
361.0
 20
51.0
 30
0.0
 11
479.0
 21
51.0
 31
0.0
  0
LINE
  8
L-ZISSEN
 10
361.0
 20
78.0
 30
0.0
 11
479.0
 21
78.0
 31
0.0
  0
LINE
  8
L-ZISSEN
 10
361.0
 20
51.0
 30
0.0
 11
361.0
 21
78.0
 31
0.0
  0
LINE
  8
L-ZISSEN
 10
479.0
 20
51.0
 30
0.0
 11
479.0
 21
78.0
 31
0.0
  0
LINE
  8
L-ZISSEN
 10
376.0
 20
109.0
 30
0.0
 11
376.0
 21
78.0
 31
0.0
  0
LINE
  8
L-ZISSEN
 10
464.0
 20
109.0
 30
0.0
 11
464.0
 21
78.0
 31
0.0
  0
LINE
  8
L-ZISSEN
 10
438.0
 20
78.0
 30
0.0
 11
438.0
 21
51.0
 31
0.0
  0
LINE
  8
L-ZISSEN
 10
402.0
 20
78.0
 30
0.0
 11
402.0
 21
51.0
 31
0.0
  0
LINE
  8
L-TYUSIN
 10
468.0
 20
83.0
 30
0.0
 11
468.0
 21
46.0
 31
0.0
  0
LINE
  8
L-TYUSIN
 10
372.0
 20
83.0
 30
0.0
 11
372.0
 21
46.0
 31
0.0
  0
LINE
  8
L-ZISSEN
 10
383.0
 20
165.0
 30
0.0
 11
378.0
 21
165.0
 31
0.0
  0
LINE
  8
L-ZISSEN
 10
378.0
 20
165.0
 30
0.0
 11
378.0
 21
152.5
 31
0.0
  0
LINE
  8
L-ZISSEN
 10
462.0
 20
165.0
 30
0.0
 11
462.0
 21
152.5
 31
0.0
  0
LINE
  8
L-ZISSEN
 10
457.0
 20
165.0
 30
0.0
 11
462.0
 21
165.0
 31
0.0
  0
CIRCLE
  8
L-ZISSEN
 10
150.0
 20
394.0
 30
0.0
 40
8.0
  0
CIRCLE
  8
L-ZISSEN
 10
250.0
 20
394.0
 30
0.0
 40
8.0
  0
CIRCLE
  8
L-ZISSEN
 10
225.0
 20
326.0
 30
0.0
 40
8.0
  0
CIRCLE
  8
L-ZISSEN
 10
175.0
 20
326.0
 30
0.0
 40
8.0
  0
LINE
  8
L-ZISSEN
 10
120.5
 20
404.0
 30
0.0
 11
120.5
 21
397.0
 31
0.0
  0
LINE
  8
L-ZISSEN
 10
279.5
 20
404.0
 30
0.0
 11
279.5
 21
397.0
 31
0.0
  0
LINE
  8
L-ZISSEN
 10
143.1
 20
316.0
 30
0.0
 11
120.5
 21
316.0
 31
0.0
  0
LINE
  8
L-ZISSEN
 10
256.9
 20
316.0
 30
0.0
 11
279.5
 21
316.0
 31
0.0
  0
LINE
  8
L-ZISSEN
 10
256.9
 20
404.0
 30
0.0
 11
279.5
 21
404.0
 31
0.0
  0
LINE
  8
L-ZISSEN
 10
143.1
 20
404.0
 30
0.0
 11
120.5
 21
404.0
 31
0.0
  0
LINE
  8
L-ZISSEN
 10
120.5
 20
323.0
 30
0.0
 11
120.5
 21
316.0
 31
0.0
  0
LINE
  8
L-ZISSEN
 10
279.5
 20
323.0
 30
0.0
 11
279.5
 21
316.0
 31
0.0
  0
LINE
  8
L-TYUSIN
 10
101.5
 20
417.0
 30
0.0
 11
101.5
 21
399.0
 31
0.0
  0
LINE
  8
L-TYUSIN
 10
92.5
 20
408.0
 30
0.0
 11
110.5
 21
408.0
 31
0.0
  0
CIRCLE
  8
L-ZISSEN
 10
101.5
 20
408.0
 30
0.0
 40
5.5
  0
LINE
  8
L-ZISSEN
 10
120.5
 20
316.0
 30
0.0
 11
105.5
 21
301.0
 31
0.0
  0
CIRCLE
  8
L-ZISSEN
 10
101.5
 20
312.0
 30
0.0
 40
5.5
  0
LINE
  8
L-TYUSIN
 10
92.5
 20
312.0
 30
0.0
 11
110.5
 21
312.0
 31
0.0
  0
LINE
  8
L-TYUSIN
 10
101.5
 20
303.0
 30
0.0
 11
101.5
 21
321.0
 31
0.0
  0
LINE
  8
L-ZISSEN
 10
95.030345
 20
323.0
 30
0.0
 11
90.5
 21
315.153212
 31
0.0
  0
SOLID
  8
L-ZISSEN
 10
1190.891232
 20
35.178787
 30
0.0
 11
1191.433721
 21
35.566279
 31
0.0
 12
1190.0
 22
37.0
 32
0.0
 13
1190.0
 23
37.0
 33
0.0
  0
LINE
  8
L-ZISSEN
 10
1191.162476
 20
35.372533
 30
0.0
 11
1195.0
 21
30.0
 31
0.0
  0
LINE
  8
L-ZISSEN
 10
1195.0
 20
30.0
 30
0.0
 11
1197.0
 21
30.0
 31
0.0
  0
TEXT
  8
L-ZISSEN
 10
1199.0
 20
27.75
 30
0.0
 40
4.5
  1
P.P
  0
SOLID
  8
L-ZISSEN
 10
1188.80743
 20
98.360217
 30
0.0
 11
1189.403715
 21
98.062074
 31
0.0
 12
1190.0
 22
100.0
 32
0.0
 13
1190.0
 23
100.0
 33
0.0
  0
LINE
  8
L-ZISSEN
 10
1189.105573
 20
98.211146
 30
0.0
 11
1180.0
 21
80.0
 31
0.0
  0
LINE
  8
L-ZISSEN
 10
1180.0
 20
80.0
 30
0.0
 11
1178.0
 21
80.0
 31
0.0
  0
TEXT
  8
L-ZISSEN
 10
1167.0
 20
77.75
 30
0.0
 40
4.5
  1
P.P
  0
SOLID
  8
L-ZISSEN
 10
1275.891232
 20
35.178787
 30
0.0
 11
1276.433721
 21
35.566279
 31
0.0
 12
1275.0
 22
37.0
 32
0.0
 13
1275.0
 23
37.0
 33
0.0
  0
LINE
  8
L-ZISSEN
 10
1276.162476
 20
35.372533
 30
0.0
 11
1280.0
 21
30.0
 31
0.0
  0
LINE
  8
L-ZISSEN
 10
1280.0
 20
30.0
 30
0.0
 11
1282.0
 21
30.0
 31
0.0
  0
TEXT
  8
L-ZISSEN
 10
1284.0
 20
27.75
 30
0.0
 40
4.5
  1
P.P
  0
SOLID
  8
L-ZISSEN
 10
1091.178511
 20
178.350084
 30
0.0
 11
1091.649916
 21
178.821489
 31
0.0
 12
1090.0
 22
180.0
 32
0.0
 13
1090.0
 23
180.0
 33
0.0
  0
LINE
  8
L-ZISSEN
 10
1091.414214
 20
178.585786
 30
0.0
 11
1100.0
 21
170.0
 31
0.0
  0
LINE
  8
L-ZISSEN
 10
1100.0
 20
170.0
 30
0.0
 11
1102.0
 21
170.0
 31
0.0
  0
TEXT
  8
L-ZISSEN
 10
1104.0
 20
167.75
 30
0.0
 40
4.5
  1
P.P
  0
CIRCLE
  8
L-ZISSEN
 10
200.0
 20
85.0
 30
0.0
 40
15.1455
  0
CIRCLE
  8
L-ZISSEN
 10
254.0
 20
85.0
 30
0.0
 40
15.1455
  0
CIRCLE
  8
L-ZISSEN
 10
146.0
 20
85.0
 30
0.0
 40
15.1455
  0
CIRCLE
  8
L-ZISSEN
 10
227.0
 20
635.0
 30
0.0
 40
15.1455
  0
CIRCLE
  8
L-ZISSEN
 10
173.0
 20
635.0
 30
0.0
 40
15.1455
  0
LINE
  8
L-TYUSIN
 10
520.0
 20
445.0
 30
0.0
 11
520.0
 21
10.0
 31
0.0
  0
TEXT
  8
L-ZISSEN
 10
55.0
 20
695.0
 30
0.0
 40
4.5
  1
MODEL No. :
  0
TEXT
  8
L-ZISSEN
 10
100.0
 20
695.0
 30
0.0
 40
4.5
  1
MVD-492-  Y
  0
TEXT
  8
L-ZISSEN
 10
530.0
 20
420.0
 30
0.0
 40
4.5
  1
MODEL No. :
  0
TEXT
  8
L-ZISSEN
 10
575.0
 20
420.0
 30
0.0
 40
4.5
  1
MVD-492-12JY
  0
LINE
  8
L-ZISSEN
 10
759.5
 20
173.0
 30
0.0
 11
759.5
 21
166.0
 31
0.0
  0
LINE
  8
L-ZISSEN
 10
600.5
 20
173.0
 30
0.0
 11
600.5
 21
166.0
 31
0.0
  0
LINE
  8
L-ZISSEN
 10
623.1
 20
254.0
 30
0.0
 11
600.5
 21
254.0
 31
0.0
  0
LINE
  8
L-ZISSEN
 10
736.9
 20
254.0
 30
0.0
 11
759.5
 21
254.0
 31
0.0
  0
LINE
  8
L-ZISSEN
 10
736.9
 20
166.0
 30
0.0
 11
759.5
 21
166.0
 31
0.0
  0
LINE
  8
L-ZISSEN
 10
623.1
 20
166.0
 30
0.0
 11
600.5
 21
166.0
 31
0.0
  0
LINE
  8
L-ZISSEN
 10
759.5
 20
254.0
 30
0.0
 11
759.5
 21
247.0
 31
0.0
  0
LINE
  8
L-ZISSEN
 10
600.5
 20
254.0
 30
0.0
 11
600.5
 21
247.0
 31
0.0
  0
LINE
  8
L-ZISSEN
 10
964.0
 20
109.0
 30
0.0
 11
964.0
 21
60.0
 31
0.0
  0
LINE
  8
L-ZISSEN
 10
876.0
 20
109.0
 30
0.0
 11
876.0
 21
93.0
 31
0.0
  0
LINE
  8
L-ZISSEN
 10
964.0
 20
109.0
 30
0.0
 11
876.0
 21
109.0
 31
0.0
  0
LINE
  8
L-ZISSEN
 10
759.5
 20
311.0
 30
0.0
 11
600.5
 21
311.0
 31
0.0
  0
LINE
  8
L-TYUSIN
 10
572.5
 20
65.0
 30
0.0
 11
572.5
 21
20.0
 31
0.0
  0
LINE
  8
L-ZISSEN
 10
759.5
 20
37.0
 30
0.0
 11
759.5
 21
44.906469
 31
0.0
  0
LINE
  8
L-ZISSEN
 10
600.5
 20
37.0
 30
0.0
 11
600.5
 21
44.906469
 31
0.0
  0
LINE
  8
L-TYUSIN
 10
655.0
 20
65.0
 30
0.0
 11
705.0
 21
65.0
 31
0.0
  0
LINE
  8
L-ZISSEN
 10
607.0
 20
25.0
 30
0.0
 11
607.0
 21
37.0
 31
0.0
  0
LINE
  8
L-ZISSEN
 10
759.5
 20
109.0
 30
0.0
 11
600.5
 21
109.0
 31
0.0
  0
LINE
  8
L-ZISSEN
 10
607.0
 20
25.0
 30
0.0
 11
561.5
 21
25.0
 31
0.0
  0
LINE
  8
L-ZISSEN
 10
561.5
 20
25.0
 30
0.0
 11
561.5
 21
60.0
 31
0.0
  0
LINE
  8
L-ZISSEN
 10
592.450045
 20
60.0
 30
0.0
 11
561.5
 21
60.0
 31
0.0
  0
LINE
  8
L-ZISSEN
 10
759.5
 20
37.0
 30
0.0
 11
600.5
 21
37.0
 31
0.0
  0
LINE
  8
L-ZISSEN
 10
753.0
 20
25.0
 30
0.0
 11
753.0
 21
37.0
 31
0.0
  0
LINE
  8
L-ZISSEN
 10
753.0
 20
25.0
 30
0.0
 11
798.5
 21
25.0
 31
0.0
  0
LINE
  8
L-TYUSIN
 10
787.5
 20
65.0
 30
0.0
 11
787.5
 21
20.0
 31
0.0
  0
LINE
  8
L-ZISSEN
 10
798.5
 20
25.0
 30
0.0
 11
798.5
 21
60.0
 31
0.0
  0
LINE
  8
L-ZISSEN
 10
767.549955
 20
60.0
 30
0.0
 11
798.5
 21
60.0
 31
0.0
  0
ARC
  8
L-ZISSEN
 10
680.0
 20
65.0
 30
0.0
 40
28.0
 50
221.409622
 51
318.590378
  0
ARC
  8
L-ZISSEN
 10
620.0
 20
65.0
 30
0.0
 40
28.0
 50
41.409622
 51
318.590378
  0
LINE
  8
L-TYUSIN
 10
620.0
 20
90.0
 30
0.0
 11
620.0
 21
40.0
 31
0.0
  0
LINE
  8
L-TYUSIN
 10
595.0
 20
65.0
 30
0.0
 11
645.0
 21
65.0
 31
0.0
  0
CIRCLE
  8
L-ZISSEN
 10
680.0
 20
65.0
 30
0.0
 40
19.476
  0
LINE
  8
L-ZISSEN
 10
600.5
 20
85.093531
 30
0.0
 11
600.5
 21
109.0
 31
0.0
  0
ARC
  8
L-ZISSEN
 10
650.0
 20
91.457513
 30
0.0
 40
12.0
 50
221.409622
 51
318.590378
  0
ARC
  8
L-ZISSEN
 10
650.0
 20
38.542487
 30
0.0
 40
12.0
 50
41.409622
 51
138.590378
  0
CIRCLE
  8
L-ZISSEN
 10
620.0
 20
65.0
 30
0.0
 40
19.476
  0
CIRCLE
  8
L-ZISSEN
 10
740.0
 20
65.0
 30
0.0
 40
19.476
  0
LINE
  8
L-TYUSIN
 10
740.0
 20
90.0
 30
0.0
 11
740.0
 21
40.0
 31
0.0
  0
LINE
  8
L-TYUSIN
 10
765.0
 20
65.0
 30
0.0
 11
715.0
 21
65.0
 31
0.0
  0
ARC
  8
L-ZISSEN
 10
740.0
 20
65.0
 30
0.0
 40
28.0
 50
221.409622
 51
138.590378
  0
LINE
  8
L-ZISSEN
 10
759.5
 20
85.093531
 30
0.0
 11
759.5
 21
109.0
 31
0.0
  0
ARC
  8
L-ZISSEN
 10
680.0
 20
65.0
 30
0.0
 40
28.0
 50
41.409622
 51
138.590378
  0
ARC
  8
L-ZISSEN
 10
710.0
 20
91.457513
 30
0.0
 40
12.0
 50
221.409622
 51
318.590378
  0
ARC
  8
L-ZISSEN
 10
710.0
 20
38.542487
 30
0.0
 40
12.0
 50
41.409622
 51
138.590378
  0
LINE
  8
L-ZISSEN
 10
861.0
 20
60.0
 30
0.0
 11
979.0
 21
60.0
 31
0.0
  0
LINE
  8
L-ZISSEN
 10
861.0
 20
25.0
 30
0.0
 11
979.0
 21
25.0
 31
0.0
  0
LINE
  8
L-TYUSIN
 10
371.0
 20
85.0
 30
0.0
 11
381.0
 21
85.0
 31
0.0
  0
LINE
  8
L-TYUSIN
 10
469.0
 20
85.0
 30
0.0
 11
459.0
 21
85.0
 31
0.0
  0
LINE
  8
L-ZISSEN
 10
861.0
 20
25.0
 30
0.0
 11
861.0
 21
60.0
 31
0.0
  0
LINE
  8
L-ZISSEN
 10
907.0
 20
60.0
 30
0.0
 11
907.0
 21
25.0
 31
0.0
  0
LINE
  8
L-ZISSEN
 10
933.0
 20
60.0
 30
0.0
 11
933.0
 21
25.0
 31
0.0
  0
LINE
  8
L-ZISSEN
 10
979.0
 20
25.0
 30
0.0
 11
979.0
 21
60.0
 31
0.0
  0
LINE
  8
L-ZISSEN
 10
870.0
 20
93.0
 30
0.0
 11
870.0
 21
60.0
 31
0.0
  0
LINE
  8
L-ZISSEN
 10
870.0
 20
93.0
 30
0.0
 11
899.0
 21
93.0
 31
0.0
  0
LINE
  8
L-ZISSEN
 10
899.0
 20
93.0
 30
0.0
 11
899.0
 21
60.0
 31
0.0
  0
LINE
  8
L-ZISSEN
 10
970.0
 20
93.0
 30
0.0
 11
964.0
 21
93.0
 31
0.0
  0
LINE
  8
L-ZISSEN
 10
970.0
 20
93.0
 30
0.0
 11
970.0
 21
60.0
 31
0.0
  0
LINE
  8
L-TYUSIN
 10
904.0
 20
65.0
 30
0.0
 11
865.0
 21
65.0
 31
0.0
  0
LINE
  8
L-TYUSIN
 10
959.0
 20
65.0
 30
0.0
 11
975.0
 21
65.0
 31
0.0
  0
LINE
  8
L-ZISSEN
 10
907.5
 20
88.092523
 30
0.0
 11
907.5
 21
60.0
 31
0.0
  0
LINE
  8
L-ZISSEN
 10
899.0
 20
93.0
 30
0.0
 11
907.5
 21
88.092523
 31
0.0
  0
CIRCLE
  8
L-ZISSEN
 10
650.0
 20
355.0
 30
0.0
 40
19.476
  0
LINE
  8
L-TYUSIN
 10
650.0
 20
330.0
 30
0.0
 11
650.0
 21
380.0
 31
0.0
  0
LINE
  8
L-ZISSEN
 10
767.549955
 20
360.0
 30
0.0
 11
798.5
 21
360.0
 31
0.0
  0
LINE
  8
L-ZISSEN
 10
798.5
 20
395.0
 30
0.0
 11
798.5
 21
360.0
 31
0.0
  0
LINE
  8
L-TYUSIN
 10
787.5
 20
355.0
 30
0.0
 11
787.5
 21
400.0
 31
0.0
  0
LINE
  8
L-ZISSEN
 10
753.0
 20
395.0
 30
0.0
 11
798.5
 21
395.0
 31
0.0
  0
LINE
  8
L-ZISSEN
 10
753.0
 20
395.0
 30
0.0
 11
753.0
 21
383.0
 31
0.0
  0
LINE
  8
L-ZISSEN
 10
759.5
 20
383.0
 30
0.0
 11
600.5
 21
383.0
 31
0.0
  0
LINE
  8
L-ZISSEN
 10
592.450045
 20
360.0
 30
0.0
 11
561.5
 21
360.0
 31
0.0
  0
LINE
  8
L-ZISSEN
 10
561.5
 20
395.0
 30
0.0
 11
561.5
 21
360.0
 31
0.0
  0
LINE
  8
L-ZISSEN
 10
607.0
 20
395.0
 30
0.0
 11
561.5
 21
395.0
 31
0.0
  0
LINE
  8
L-ZISSEN
 10
607.0
 20
395.0
 30
0.0
 11
607.0
 21
383.0
 31
0.0
  0
LINE
  8
L-TYUSIN
 10
625.0
 20
355.0
 30
0.0
 11
675.0
 21
355.0
 31
0.0
  0
LINE
  8
L-TYUSIN
 10
572.5
 20
355.0
 30
0.0
 11
572.5
 21
400.0
 31
0.0
  0
LINE
  8
L-ZISSEN
 10
759.5
 20
383.0
 30
0.0
 11
759.5
 21
311.0
 31
0.0
  0
LINE
  8
L-ZISSEN
 10
600.5
 20
383.0
 30
0.0
 11
600.5
 21
311.0
 31
0.0
  0
ARC
  8
L-ZISSEN
 10
740.0
 20
355.0
 30
0.0
 40
28.0
 50
314.141165
 51
45.858835
  0
ARC
  8
L-ZISSEN
 10
620.0
 20
355.0
 30
0.0
 40
28.0
 50
134.141165
 51
225.858835
  0
CIRCLE
  8
L-ZISSEN
 10
710.0
 20
355.0
 30
0.0
 40
19.476
  0
LINE
  8
L-TYUSIN
 10
735.0
 20
355.0
 30
0.0
 11
685.0
 21
355.0
 31
0.0
  0
LINE
  8
L-TYUSIN
 10
710.0
 20
330.0
 30
0.0
 11
710.0
 21
380.0
 31
0.0
  0
ARC
  8
L-ZISSEN
 10
710.0
 20
355.0
 30
0.0
 40
28.0
 50
221.409622
 51
138.590378
  0
ARC
  8
L-ZISSEN
 10
650.0
 20
355.0
 30
0.0
 40
28.0
 50
41.409622
 51
318.590378
  0
ARC
  8
L-ZISSEN
 10
680.0
 20
381.457513
 30
0.0
 40
12.0
 50
221.409622
 51
318.590378
  0
ARC
  8
L-ZISSEN
 10
680.0
 20
328.542487
 30
0.0
 40
12.0
 50
41.409622
 51
138.590378
  0
SOLID
  8
L-ZISSEN
 10
201.2636
 20
107.414306
 30
0.0
 11
201.709577
 21
107.909835
 31
0.0
 12
200.0
 22
109.0
 32
0.0
 13
200.0
 23
109.0
 33
0.0
  0
LINE
  8
L-ZISSEN
 10
201.486588
 20
107.662071
 30
0.0
 11
210.0
 21
100.0
 31
0.0
  0
LINE
  8
L-ZISSEN
 10
210.0
 20
100.0
 30
0.0
 11
212.0
 21
100.0
 31
0.0
  0
TEXT
  8
L-ZISSEN
 10
214.0
 20
97.75
 30
0.0
 40
4.5
  1
P.P
  0
SOLID
  8
L-ZISSEN
 10
421.2636
 20
107.414306
 30
0.0
 11
421.709577
 21
107.909835
 31
0.0
 12
420.0
 22
109.0
 32
0.0
 13
420.0
 23
109.0
 33
0.0
  0
LINE
  8
L-ZISSEN
 10
421.486588
 20
107.662071
 30
0.0
 11
430.0
 21
100.0
 31
0.0
  0
LINE
  8
L-ZISSEN
 10
430.0
 20
100.0
 30
0.0
 11
432.0
 21
100.0
 31
0.0
  0
TEXT
  8
L-ZISSEN
 10
434.0
 20
97.75
 30
0.0
 40
4.5
  1
P.P
  0
SOLID
  8
L-ZISSEN
 10
681.591992
 20
110.255656
 30
0.0
 11
681.098699
 21
110.704104
 31
0.0
 12
680.0
 22
109.0
 32
0.0
 13
680.0
 23
109.0
 33
0.0
  0
LINE
  8
L-ZISSEN
 10
681.345346
 20
110.47988
 30
0.0
 11
690.0
 21
120.0
 31
0.0
  0
LINE
  8
L-ZISSEN
 10
690.0
 20
120.0
 30
0.0
 11
692.0
 21
120.0
 31
0.0
  0
TEXT
  8
L-ZISSEN
 10
694.0
 20
117.75
 30
0.0
 40
4.5
  1
P.P
  0
SOLID
  8
L-ZISSEN
 10
921.591992
 20
110.255656
 30
0.0
 11
921.098699
 21
110.704104
 31
0.0
 12
920.0
 22
109.0
 32
0.0
 13
920.0
 23
109.0
 33
0.0
  0
LINE
  8
L-ZISSEN
 10
921.345346
 20
110.47988
 30
0.0
 11
930.0
 21
120.0
 31
0.0
  0
LINE
  8
L-ZISSEN
 10
930.0
 20
120.0
 30
0.0
 11
932.0
 21
120.0
 31
0.0
  0
TEXT
  8
L-ZISSEN
 10
934.0
 20
117.75
 30
0.0
 40
4.5
  1
P.P
  0
SOLID
  8
L-ZISSEN
 10
681.098699
 20
309.295896
 30
0.0
 11
681.591992
 21
309.744344
 31
0.0
 12
680.0
 22
311.0
 32
0.0
 13
680.0
 23
311.0
 33
0.0
  0
LINE
  8
L-ZISSEN
 10
681.345346
 20
309.52012
 30
0.0
 11
690.0
 21
300.0
 31
0.0
  0
LINE
  8
L-ZISSEN
 10
690.0
 20
300.0
 30
0.0
 11
692.0
 21
300.0
 31
0.0
  0
TEXT
  8
L-ZISSEN
 10
694.0
 20
297.75
 30
0.0
 40
4.5
  1
P.P
  0
LINE
  8
L-ZISSEN
 10
600.5
 20
254.0
 30
0.0
 11
574.519238
 21
269.0
 31
0.0
  0
LINE
  8
L-TYUSIN
 10
572.5
 20
266.0
 30
0.0
 11
572.5
 21
250.0
 31
0.0
  0
LINE
  8
L-TYUSIN
 10
564.5
 20
258.0
 30
0.0
 11
580.5
 21
258.0
 31
0.0
  0
CIRCLE
  8
L-ZISSEN
 10
572.5
 20
258.0
 30
0.0
 40
5.5
  0
LINE
  8
L-ZISSEN
 10
90.5
 20
312.0
 30
0.0
 11
90.5
 21
315.153212
 31
0.0
  0
LINE
  8
L-ZISSEN
 10
105.5
 20
301.0
 30
0.0
 11
101.5
 21
301.0
 31
0.0
  0
ARC
  8
L-ZISSEN
 10
101.5
 20
312.0
 30
0.0
 40
11.0
 50
180.0
 51
270.0
  0
ARC
  8
L-ZISSEN
 10
101.5
 20
408.0
 30
0.0
 40
11.0
 50
90.0
 51
180.0
  0
LINE
  8
L-ZISSEN
 10
105.5
 20
419.0
 30
0.0
 11
101.5
 21
419.0
 31
0.0
  0
LINE
  8
L-ZISSEN
 10
90.5
 20
408.0
 30
0.0
 11
90.5
 21
404.846788
 31
0.0
  0
LINE
  8
L-ZISSEN
 10
120.5
 20
404.0
 30
0.0
 11
105.5
 21
419.0
 31
0.0
  0
LINE
  8
L-ZISSEN
 10
95.030345
 20
397.0
 30
0.0
 11
90.5
 21
404.846788
 31
0.0
  0
LINE
  8
L-ZISSEN
 10
309.5
 20
408.0
 30
0.0
 11
309.5
 21
404.846788
 31
0.0
  0
LINE
  8
L-ZISSEN
 10
294.5
 20
419.0
 30
0.0
 11
298.5
 21
419.0
 31
0.0
  0
ARC
  8
L-ZISSEN
 10
298.5
 20
408.0
 30
0.0
 40
11.0
 50
360.0
 51
90.0
  0
CIRCLE
  8
L-ZISSEN
 10
298.5
 20
408.0
 30
0.0
 40
5.5
  0
LINE
  8
L-TYUSIN
 10
307.5
 20
408.0
 30
0.0
 11
289.5
 21
408.0
 31
0.0
  0
LINE
  8
L-ZISSEN
 10
279.5
 20
404.0
 30
0.0
 11
294.5
 21
419.0
 31
0.0
  0
LINE
  8
L-TYUSIN
 10
298.5
 20
417.0
 30
0.0
 11
298.5
 21
399.0
 31
0.0
  0
LINE
  8
L-ZISSEN
 10
304.969655
 20
397.0
 30
0.0
 11
309.5
 21
404.846788
 31
0.0
  0
LINE
  8
L-ZISSEN
 10
304.969655
 20
323.0
 30
0.0
 11
309.5
 21
315.153212
 31
0.0
  0
LINE
  8
L-TYUSIN
 10
298.5
 20
303.0
 30
0.0
 11
298.5
 21
321.0
 31
0.0
  0
LINE
  8
L-TYUSIN
 10
307.5
 20
312.0
 30
0.0
 11
289.5
 21
312.0
 31
0.0
  0
CIRCLE
  8
L-ZISSEN
 10
298.5
 20
312.0
 30
0.0
 40
5.5
  0
ARC
  8
L-ZISSEN
 10
298.5
 20
312.0
 30
0.0
 40
11.0
 50
270.0
 51
0.0
  0
LINE
  8
L-ZISSEN
 10
294.5
 20
301.0
 30
0.0
 11
298.5
 21
301.0
 31
0.0
  0
LINE
  8
L-ZISSEN
 10
309.5
 20
312.0
 30
0.0
 11
309.5
 21
315.153212
 31
0.0
  0
LINE
  8
L-ZISSEN
 10
279.5
 20
316.0
 30
0.0
 11
294.5
 21
301.0
 31
0.0
  0
LINE
  8
L-ZISSEN
 10
572.5
 20
269.0
 30
0.0
 11
574.519238
 21
269.0
 31
0.0
  0
LINE
  8
L-ZISSEN
 10
561.5
 20
258.0
 30
0.0
 11
561.5
 21
253.0
 31
0.0
  0
ARC
  8
L-ZISSEN
 10
572.5
 20
258.0
 30
0.0
 40
11.0
 50
90.0
 51
180.0
  0
LINE
  8
L-ZISSEN
 10
759.5
 20
254.0
 30
0.0
 11
785.480762
 21
269.0
 31
0.0
  0
ARC
  8
L-ZISSEN
 10
787.5
 20
258.0
 30
0.0
 40
11.0
 50
0.0
 51
90.0
  0
LINE
  8
L-ZISSEN
 10
798.5
 20
258.0
 30
0.0
 11
798.5
 21
253.0
 31
0.0
  0
LINE
  8
L-ZISSEN
 10
787.5
 20
269.0
 30
0.0
 11
785.480762
 21
269.0
 31
0.0
  0
CIRCLE
  8
L-ZISSEN
 10
787.5
 20
258.0
 30
0.0
 40
5.5
  0
LINE
  8
L-TYUSIN
 10
795.5
 20
258.0
 30
0.0
 11
779.5
 21
258.0
 31
0.0
  0
LINE
  8
L-TYUSIN
 10
787.5
 20
266.0
 30
0.0
 11
787.5
 21
250.0
 31
0.0
  0
LINE
  8
L-ZISSEN
 10
792.5
 20
247.0
 30
0.0
 11
798.5
 21
253.0
 31
0.0
  0
LINE
  8
L-ZISSEN
 10
792.5
 20
173.0
 30
0.0
 11
798.5
 21
167.0
 31
0.0
  0
LINE
  8
L-TYUSIN
 10
787.5
 20
154.0
 30
0.0
 11
787.5
 21
170.0
 31
0.0
  0
LINE
  8
L-TYUSIN
 10
795.5
 20
162.0
 30
0.0
 11
779.5
 21
162.0
 31
0.0
  0
CIRCLE
  8
L-ZISSEN
 10
787.5
 20
162.0
 30
0.0
 40
5.5
  0
LINE
  8
L-ZISSEN
 10
787.5
 20
151.0
 30
0.0
 11
785.480762
 21
151.0
 31
0.0
  0
LINE
  8
L-ZISSEN
 10
798.5
 20
162.0
 30
0.0
 11
798.5
 21
167.0
 31
0.0
  0
ARC
  8
L-ZISSEN
 10
787.5
 20
162.0
 30
0.0
 40
11.0
 50
270.0
 51
0.0
  0
LINE
  8
L-ZISSEN
 10
759.5
 20
166.0
 30
0.0
 11
785.480762
 21
151.0
 31
0.0
  0
LINE
  8
L-ZISSEN
 10
600.5
 20
166.0
 30
0.0
 11
574.519238
 21
151.0
 31
0.0
  0
ARC
  8
L-ZISSEN
 10
572.5
 20
162.0
 30
0.0
 40
11.0
 50
180.0
 51
270.0
  0
LINE
  8
L-ZISSEN
 10
561.5
 20
162.0
 30
0.0
 11
561.5
 21
167.0
 31
0.0
  0
LINE
  8
L-ZISSEN
 10
572.5
 20
151.0
 30
0.0
 11
574.519238
 21
151.0
 31
0.0
  0
CIRCLE
  8
L-ZISSEN
 10
572.5
 20
162.0
 30
0.0
 40
5.5
  0
LINE
  8
L-TYUSIN
 10
564.5
 20
162.0
 30
0.0
 11
580.5
 21
162.0
 31
0.0
  0
LINE
  8
L-TYUSIN
 10
572.5
 20
154.0
 30
0.0
 11
572.5
 21
170.0
 31
0.0
  0
SOLID
  8
L-ZISSEN
 10
681.649916
 20
211.178511
 30
0.0
 11
681.178511
 21
211.649916
 31
0.0
 12
680.0
 22
210.0
 32
0.0
 13
680.0
 23
210.0
 33
0.0
  0
LINE
  8
L-ZISSEN
 10
681.414214
 20
211.414214
 30
0.0
 11
695.0
 21
225.0
 31
0.0
  0
LINE
  8
L-ZISSEN
 10
695.0
 20
225.0
 30
0.0
 11
697.0
 21
225.0
 31
0.0
  0
TEXT
  8
L-ZISSEN
 10
699.0
 20
222.75
 30
0.0
 40
4.5
  1
P.P
  0
SOLID
  8
L-ZISSEN
 10
200.893971
 20
361.81987
 30
0.0
 11
200.25542
 21
362.011435
 31
0.0
 12
200.0
 22
360.0
 32
0.0
 13
200.0
 23
360.0
 33
0.0
  0
LINE
  8
L-ZISSEN
 10
200.574696
 20
361.915653
 30
0.0
 11
215.0
 21
410.0
 31
0.0
  0
LINE
  8
L-ZISSEN
 10
215.0
 20
410.0
 30
0.0
 11
217.0
 21
410.0
 31
0.0
  0
TEXT
  8
L-ZISSEN
 10
219.0
 20
407.75
 30
0.0
 40
4.5
  1
P.P
  0
SOLID
  8
L-ZISSEN
 10
271.178652
 20
230.618462
 30
0.0
 11
270.719764
 21
230.134865
 31
0.0
 12
272.4
 22
229.0
 32
0.0
 13
272.4
 23
229.0
 33
0.0
  0
LINE
  8
L-ZISSEN
 10
270.949208
 20
230.376664
 30
0.0
 11
245.0
 21
255.0
 31
0.0
  0
LINE
  8
L-ZISSEN
 10
245.0
 20
255.0
 30
0.0
 11
243.0
 21
255.0
 31
0.0
  0
TEXT
  8
L-ZISSEN
 10
232.0
 20
252.75
 30
0.0
 40
4.5
  1
P.P
  0
SOLID
  8
L-ZISSEN
 10
421.769969
 20
229.9891
 30
0.0
 11
421.353506
 21
230.50968
 31
0.0
 12
420.0
 22
229.0
 32
0.0
 13
420.0
 23
229.0
 33
0.0
  0
LINE
  8
L-ZISSEN
 10
421.561738
 20
230.24939
 30
0.0
 11
440.0
 21
245.0
 31
0.0
  0
LINE
  8
L-ZISSEN
 10
440.0
 20
245.0
 30
0.0
 11
442.0
 21
245.0
 31
0.0
  0
TEXT
  8
L-ZISSEN
 10
444.0
 20
242.75
 30
0.0
 40
4.5
  1
P.P
  0
SOLID
  8
L-ZISSEN
 10
273.624355
 20
358.383811
 30
0.0
 11
274.082343
 21
358.868261
 31
0.0
 12
272.4
 22
360.0
 32
0.0
 13
272.4
 23
360.0
 33
0.0
  0
LINE
  8
L-ZISSEN
 10
273.853349
 20
358.626036
 30
0.0
 11
320.0
 21
315.0
 31
0.0
  0
LINE
  8
L-ZISSEN
 10
320.0
 20
315.0
 30
0.0
 11
322.0
 21
315.0
 31
0.0
  0
TEXT
  8
L-ZISSEN
 10
324.0
 20
312.75
 30
0.0
 40
4.5
  1
P.P
  0
SOLID
  8
L-ZISSEN
 10
239.488695
 20
357.974353
 30
0.0
 11
240.140868
 21
358.112614
 31
0.0
 12
239.4
 22
360.0
 32
0.0
 13
239.4
 23
360.0
 33
0.0
  0
LINE
  8
L-ZISSEN
 10
239.814781
 20
358.043484
 30
0.0
 11
250.0
 21
310.0
 31
0.0
  0
LINE
  8
L-ZISSEN
 10
250.0
 20
310.0
 30
0.0
 11
252.0
 21
310.0
 31
0.0
  0
TEXT
  8
L-ZISSEN
 10
254.0
 20
307.75
 30
0.0
 40
4.5
  1
P.P
  0
SOLID
  8
L-ZISSEN
 10
238.19837
 20
232.633155
 30
0.0
 11
237.733651
 21
232.155158
 31
0.0
 12
239.4
 22
231.0
 32
0.0
 13
239.4
 23
231.0
 33
0.0
  0
LINE
  8
L-ZISSEN
 10
237.96601
 20
232.394157
 30
0.0
 11
225.0
 21
245.0
 31
0.0
  0
LINE
  8
L-ZISSEN
 10
225.0
 20
245.0
 30
0.0
 11
223.0
 21
245.0
 31
0.0
  0
TEXT
  8
L-ZISSEN
 10
212.0
 20
242.75
 30
0.0
 40
4.5
  1
P.P
  0
LINE
  8
L-ZISSEN
 10
332.7
 20
177.0
 30
0.0
 11
332.7
 21
110.0
 31
0.0
  0
LINE
  8
L-ZISSEN
 10
67.3
 20
177.0
 30
0.0
 11
67.3
 21
110.0
 31
0.0
  0
LINE
  8
L-ZISSEN
 10
170.0
 20
221.8
 30
0.0
 11
174.25
 21
221.8
 31
0.0
  0
LINE
  8
L-ZISSEN
 10
174.25
 20
221.8
 30
0.0
 11
174.25
 21
216.0
 31
0.0
  0
LINE
  8
L-ZISSEN
 10
164.0
 20
178.0
 30
0.0
 11
164.0
 21
216.0
 31
0.0
  0
LINE
  8
L-ZISSEN
 10
146.0
 20
178.0
 30
0.0
 11
146.0
 21
229.0
 31
0.0
  0
LINE
  8
L-ZISSEN
 10
142.85
 20
233.5
 30
0.0
 11
112.35
 21
233.5
 31
0.0
  0
LINE
  8
L-ZISSEN
 10
112.35
 20
233.5
 30
0.0
 11
112.35
 21
229.0
 31
0.0
  0
LINE
  8
L-ZISSEN
 10
142.85
 20
233.5
 30
0.0
 11
142.85
 21
229.0
 31
0.0
  0
LINE
  8
L-ZISSEN
 10
95.45
 20
262.65
 30
0.0
 11
95.45
 21
244.25
 31
0.0
  0
LINE
  8
L-ZISSEN
 10
95.45
 20
244.95
 30
0.0
 11
93.1
 21
244.95
 31
0.0
  0
LINE
  8
L-ZISSEN
 10
95.45
 20
261.95
 30
0.0
 11
93.1
 21
261.95
 31
0.0
  0
LINE
  8
L-ZISSEN
 10
98.35
 20
244.25
 30
0.0
 11
95.45
 21
244.25
 31
0.0
  0
LINE
  8
L-ZISSEN
 10
98.35
 20
262.65
 30
0.0
 11
95.45
 21
262.65
 31
0.0
  0
LINE
  8
L-ZISSEN
 10
93.1
 20
264.419655
 30
0.0
 11
93.1
 21
242.480345
 31
0.0
  0
LINE
  8
L-ZISSEN
 10
87.6
 20
242.480345
 30
0.0
 11
93.1
 21
242.480345
 31
0.0
  0
LINE
  8
L-ZISSEN
 10
87.6
 20
264.419655
 30
0.0
 11
93.1
 21
264.419655
 31
0.0
  0
LINE
  8
L-ZISSEN
 10
87.6
 20
264.419655
 30
0.0
 11
87.6
 21
242.480345
 31
0.0
  0
LINE
  8
L-ZISSEN
 10
113.85
 20
264.7
 30
0.0
 11
113.85
 21
233.5
 31
0.0
  0
LINE
  8
L-ZISSEN
 10
98.35
 20
264.7
 30
0.0
 11
98.35
 21
242.2
 31
0.0
  0
LINE
  8
L-ZISSEN
 10
113.85
 20
242.2
 30
0.0
 11
98.35
 21
242.2
 31
0.0
  0
LINE
  8
L-ZISSEN
 10
141.35
 20
264.7
 30
0.0
 11
98.35
 21
264.7
 31
0.0
  0
LINE
  8
L-ZISSEN
 10
141.35
 20
264.7
 30
0.0
 11
141.35
 21
233.5
 31
0.0
  0
LINE
  8
L-ZISSEN
 10
99.1
 20
214.814955
 30
0.0
 11
99.1
 21
195.185045
 31
0.0
  0
LINE
  8
L-ZISSEN
 10
99.1
 20
195.185045
 30
0.0
 11
102.1
 21
195.185045
 31
0.0
  0
LINE
  8
L-ZISSEN
 10
99.1
 20
214.814955
 30
0.0
 11
102.1
 21
214.814955
 31
0.0
  0
LINE
  8
L-ZISSEN
 10
102.1
 20
229.0
 30
0.0
 11
102.1
 21
186.2
 31
0.0
  0
LINE
  8
L-ZISSEN
 10
102.1
 20
186.2
 30
0.0
 11
146.0
 21
186.2
 31
0.0
  0
LINE
  8
L-ZISSEN
 10
146.0
 20
229.0
 30
0.0
 11
102.1
 21
229.0
 31
0.0
  0
LINE
  8
L-ZISSEN
 10
153.671797
 20
238.1
 30
0.0
 11
153.671797
 21
231.0
 31
0.0
  0
LINE
  8
L-ZISSEN
 10
167.528203
 20
238.1
 30
0.0
 11
167.528203
 21
231.0
 31
0.0
  0
LINE
  8
L-ZISSEN
 10
153.671797
 20
238.1
 30
0.0
 11
167.528203
 21
238.1
 31
0.0
  0
LINE
  8
L-ZISSEN
 10
183.0
 20
178.0
 30
0.0
 11
183.0
 21
186.0
 31
0.0
  0
LINE
  8
L-ZISSEN
 10
146.0
 20
179.0
 30
0.0
 11
183.0
 21
179.0
 31
0.0
  0
LINE
  8
L-ZISSEN
 10
170.0
 20
231.0
 30
0.0
 11
152.0
 21
231.0
 31
0.0
  0
LINE
  8
L-ZISSEN
 10
152.5
 20
229.0
 30
0.0
 11
146.0
 21
229.0
 31
0.0
  0
LINE
  8
L-ZISSEN
 10
152.0
 20
231.0
 30
0.0
 11
152.0
 21
229.0
 31
0.0
  0
LINE
  8
L-ZISSEN
 10
170.0
 20
231.0
 30
0.0
 11
170.0
 21
216.0
 31
0.0
  0
LINE
  8
L-ZISSEN
 10
152.0
 20
178.0
 30
0.0
 11
152.0
 21
216.0
 31
0.0
  0
LINE
  8
L-ZISSEN
 10
176.0
 20
186.0
 30
0.0
 11
176.0
 21
216.0
 31
0.0
  0
LINE
  8
L-ZISSEN
 10
152.5
 20
216.0
 30
0.0
 11
183.0
 21
216.0
 31
0.0
  0
LINE
  8
L-ZISSEN
 10
176.0
 20
194.0
 30
0.0
 11
183.0
 21
194.0
 31
0.0
  0
LINE
  8
L-ZISSEN
 10
152.5
 20
216.0
 30
0.0
 11
152.5
 21
229.0
 31
0.0
  0
LINE
  8
L-ZISSEN
 10
176.0
 20
186.0
 30
0.0
 11
183.0
 21
186.0
 31
0.0
  0
LINE
  8
L-ZISSEN
 10
183.0
 20
194.0
 30
0.0
 11
183.0
 21
216.0
 31
0.0
  0
LINE
  8
L-ZISSEN
 10
153.75
 20
221.8
 30
0.0
 11
162.25
 21
221.8
 31
0.0
  0
LINE
  8
L-ZISSEN
 10
153.75
 20
221.8
 30
0.0
 11
153.75
 21
216.0
 31
0.0
  0
LINE
  8
L-ZISSEN
 10
162.25
 20
221.8
 30
0.0
 11
162.25
 21
216.0
 31
0.0
  0
LINE
  8
L-ZISSEN
 10
332.7
 20
323.0
 30
0.0
 11
332.7
 21
397.0
 31
0.0
  0
LINE
  8
L-ZISSEN
 10
67.3
 20
323.0
 30
0.0
 11
67.3
 21
397.0
 31
0.0
  0
LINE
  8
L-ZISSEN
 10
176.0
 20
344.0
 30
0.0
 11
176.0
 21
376.0
 31
0.0
  0
CIRCLE
  8
L-ZISSEN
 10
170.0
 20
376.0
 30
0.0
 40
4.25
  0
LINE
  8
L-ZISSEN
 10
146.0
 20
382.0
 30
0.0
 11
170.0
 21
382.0
 31
0.0
  0
LINE
  8
L-ZISSEN
 10
152.5
 20
344.0
 30
0.0
 11
152.5
 21
351.0
 31
0.0
  0
LINE
  8
L-ZISSEN
 10
161.0
 20
351.0
 30
0.0
 11
152.5
 21
351.0
 31
0.0
  0
ARC
  8
L-ZISSEN
 10
161.0
 20
360.0
 30
0.0
 40
9.0
 50
270.0
 51
90.0
  0
LINE
  8
L-ZISSEN
 10
167.528203
 20
360.0
 30
0.0
 11
164.064102
 21
354.0
 31
0.0
  0
LINE
  8
L-ZISSEN
 10
164.064102
 20
366.0
 30
0.0
 11
167.528203
 21
360.0
 31
0.0
  0
LINE
  8
L-ZISSEN
 10
157.135898
 20
366.0
 30
0.0
 11
164.064102
 21
366.0
 31
0.0
  0
LINE
  8
L-ZISSEN
 10
157.135898
 20
366.0
 30
0.0
 11
153.671797
 21
360.0
 31
0.0
  0
LINE
  8
L-ZISSEN
 10
157.135898
 20
354.0
 30
0.0
 11
153.671797
 21
360.0
 31
0.0
  0
LINE
  8
L-ZISSEN
 10
164.064102
 20
354.0
 30
0.0
 11
157.135898
 21
354.0
 31
0.0
  0
LINE
  8
L-ZISSEN
 10
161.0
 20
369.0
 30
0.0
 11
152.5
 21
369.0
 31
0.0
  0
LINE
  8
L-ZISSEN
 10
152.5
 20
369.0
 30
0.0
 11
152.5
 21
376.0
 31
0.0
  0
CIRCLE
  8
L-ZISSEN
 10
158.0
 20
344.0
 30
0.0
 40
4.25
  0
LINE
  8
L-ZISSEN
 10
146.0
 20
344.0
 30
0.0
 11
146.0
 21
382.0
 31
0.0
  0
LINE
  8
L-ZISSEN
 10
141.35
 20
346.25
 30
0.0
 11
141.35
 21
373.75
 31
0.0
  0
LINE
  8
L-ZISSEN
 10
142.35
 20
375.0
 30
0.0
 11
142.35
 21
345.0
 31
0.0
  0
LINE
  8
L-ZISSEN
 10
102.1
 20
375.0
 30
0.0
 11
146.0
 21
375.0
 31
0.0
  0
LINE
  8
L-ZISSEN
 10
141.35
 20
373.75
 30
0.0
 11
113.85
 21
373.75
 31
0.0
  0
LINE
  8
L-ZISSEN
 10
141.35
 20
346.25
 30
0.0
 11
113.85
 21
346.25
 31
0.0
  0
LINE
  8
L-ZISSEN
 10
113.85
 20
348.75
 30
0.0
 11
98.35
 21
348.75
 31
0.0
  0
LINE
  8
L-ZISSEN
 10
113.85
 20
346.25
 30
0.0
 11
113.85
 21
373.75
 31
0.0
  0
LINE
  8
L-ZISSEN
 10
113.85
 20
371.25
 30
0.0
 11
98.35
 21
371.25
 31
0.0
  0
LINE
  8
L-ZISSEN
 10
112.35
 20
375.0
 30
0.0
 11
112.35
 21
371.25
 31
0.0
  0
LINE
  8
L-ZISSEN
 10
102.1
 20
371.25
 30
0.0
 11
102.1
 21
375.0
 31
0.0
  0
LINE
  8
L-ZISSEN
 10
98.35
 20
348.75
 30
0.0
 11
98.35
 21
371.25
 31
0.0
  0
LINE
  8
L-ZISSEN
 10
95.45
 20
350.8
 30
0.0
 11
95.45
 21
369.2
 31
0.0
  0
LINE
  8
L-ZISSEN
 10
87.6
 20
349.030345
 30
0.0
 11
87.6
 21
370.969655
 31
0.0
  0
LINE
  8
L-ZISSEN
 10
87.6
 20
349.030345
 30
0.0
 11
93.1
 21
349.030345
 31
0.0
  0
LINE
  8
L-ZISSEN
 10
87.6
 20
370.969655
 30
0.0
 11
93.1
 21
370.969655
 31
0.0
  0
LINE
  8
L-ZISSEN
 10
93.1
 20
349.030345
 30
0.0
 11
93.1
 21
370.969655
 31
0.0
  0
LINE
  8
L-ZISSEN
 10
98.35
 20
350.8
 30
0.0
 11
95.45
 21
350.8
 31
0.0
  0
LINE
  8
L-ZISSEN
 10
98.35
 20
369.2
 30
0.0
 11
95.45
 21
369.2
 31
0.0
  0
LINE
  8
L-ZISSEN
 10
95.45
 20
351.5
 30
0.0
 11
93.1
 21
351.5
 31
0.0
  0
LINE
  8
L-ZISSEN
 10
95.45
 20
368.5
 30
0.0
 11
93.1
 21
368.5
 31
0.0
  0
LINE
  8
L-ZISSEN
 10
102.1
 20
345.0
 30
0.0
 11
102.1
 21
348.75
 31
0.0
  0
LINE
  8
L-ZISSEN
 10
102.1
 20
345.0
 30
0.0
 11
146.0
 21
345.0
 31
0.0
  0
LINE
  8
L-ZISSEN
 10
112.35
 20
348.75
 30
0.0
 11
112.35
 21
345.0
 31
0.0
  0
LINE
  8
L-ZISSEN
 10
125.1
 20
375.0
 30
0.0
 11
125.1
 21
397.0
 31
0.0
  0
LINE
  8
L-ZISSEN
 10
145.0
 20
345.0
 30
0.0
 11
145.0
 21
344.0
 31
0.0
  0
LINE
  8
L-ZISSEN
 10
567.5
 20
247.0
 30
0.0
 11
561.5
 21
253.0
 31
0.0
  0
LINE
  8
L-ZISSEN
 10
567.5
 20
173.0
 30
0.0
 11
561.5
 21
167.0
 31
0.0
  0
LINE
  8
L-ZISSEN
 10
332.7
 20
543.0
 30
0.0
 11
332.7
 21
610.0
 31
0.0
  0
LINE
  8
L-ZISSEN
 10
67.3
 20
543.0
 30
0.0
 11
67.3
 21
610.0
 31
0.0
  0
SOLID
  8
L-ZISSEN
 10
190.433289
 20
553.01925
 30
0.0
 11
191.052274
 21
553.266844
 31
0.0
 12
190.0
 22
555.0
 32
0.0
 13
190.0
 23
555.0
 33
0.0
  0
LINE
  8
L-ZISSEN
 10
190.742781
 20
553.143047
 30
0.0
 11
200.0
 21
530.0
 31
0.0
  0
LINE
  8
L-ZISSEN
 10
200.0
 20
530.0
 30
0.0
 11
202.0
 21
530.0
 31
0.0
  0
TEXT
  8
L-ZISSEN
 10
204.0
 20
527.75
 30
0.0
 40
4.5
  1
P.P
  0
LINE
  8
L-ZISSEN
 10
1029.0
 20
39.0
 30
0.0
 11
1030.5
 21
39.0
 31
0.0
  0
LINE
  8
L-ZISSEN
 10
1059.5
 20
39.0
 30
0.0
 11
1061.0
 21
39.0
 31
0.0
  0
LINE
  8
L-ZISSEN
 10
1104.5
 20
113.0
 30
0.0
 11
1104.5
 21
115.0
 31
0.0
  0
LINE
  8
L-ZISSEN
 10
1104.5
 20
85.0
 30
0.0
 11
1104.5
 21
87.0
 31
0.0
  0
LINE
  8
L-ZISSEN
 10
1058.0
 20
43.0
 30
0.0
 11
1059.5
 21
43.0
 31
0.0
  0
LINE
  8
L-ZISSEN
 10
1058.0
 20
50.0
 30
0.0
 11
1058.0
 21
40.5
 31
0.0
  0
LINE
  8
L-ZISSEN
 10
1032.0
 20
50.0
 30
0.0
 11
1032.0
 21
40.5
 31
0.0
  0
CIRCLE
  8
L-ZISSEN
 10
1045.0
 20
50.0
 30
0.0
 40
13.0
  0
LINE
  8
L-ZISSEN
 10
1053.87412
 20
40.5
 30
0.0
 11
1059.5
 21
40.5
 31
0.0
  0
LINE
  8
L-ZISSEN
 10
1033.5
 20
40.5
 30
0.0
 11
1033.5
 21
37.0
 31
0.0
  0
LINE
  8
L-ZISSEN
 10
1056.5
 20
40.5
 30
0.0
 11
1056.5
 21
37.0
 31
0.0
  0
LINE
  8
L-ZISSEN
 10
1030.5
 20
40.5
 30
0.0
 11
1036.12588
 21
40.5
 31
0.0
  0
LINE
  8
L-ZISSEN
 10
1031.5
 20
65.0
 30
0.0
 11
1058.5
 21
65.0
 31
0.0
  0
LINE
  8
L-ZISSEN
 10
1031.5
 20
65.0
 30
0.0
 11
1031.5
 21
43.0
 31
0.0
  0
LINE
  8
L-ZISSEN
 10
1058.5
 20
65.0
 30
0.0
 11
1058.5
 21
43.0
 31
0.0
  0
LINE
  8
L-ZISSEN
 10
1030.5
 20
43.0
 30
0.0
 11
1030.5
 21
37.0
 31
0.0
  0
LINE
  8
L-ZISSEN
 10
1059.5
 20
43.0
 30
0.0
 11
1059.5
 21
37.0
 31
0.0
  0
LINE
  8
L-ZISSEN
 10
1030.5
 20
43.0
 30
0.0
 11
1032.0
 21
43.0
 31
0.0
  0
LINE
  8
L-ZISSEN
 10
1115.5
 20
113.0
 30
0.0
 11
1115.5
 21
114.5
 31
0.0
  0
LINE
  8
L-ZISSEN
 10
1115.5
 20
114.5
 30
0.0
 11
1144.5
 21
114.5
 31
0.0
  0
LINE
  8
L-ZISSEN
 10
1115.5
 20
85.5
 30
0.0
 11
1115.5
 21
87.0
 31
0.0
  0
LINE
  8
L-ZISSEN
 10
1144.5
 20
85.5
 30
0.0
 11
1115.5
 21
85.5
 31
0.0
  0
LINE
  8
L-ZISSEN
 10
1144.5
 20
114.5
 30
0.0
 11
1144.5
 21
85.5
 31
0.0
  0
LINE
  8
L-ZISSEN
 10
1143.5
 20
113.5
 30
0.0
 11
1116.5
 21
113.5
 31
0.0
  0
LINE
  8
L-ZISSEN
 10
1143.5
 20
86.5
 30
0.0
 11
1116.5
 21
86.5
 31
0.0
  0
LINE
  8
L-ZISSEN
 10
1143.5
 20
86.5
 30
0.0
 11
1143.5
 21
113.5
 31
0.0
  0
LINE
  8
L-ZISSEN
 10
1116.5
 20
86.5
 30
0.0
 11
1116.5
 21
113.5
 31
0.0
  0
LINE
  8
L-ZISSEN
 10
1074.5
 20
89.030345
 30
0.0
 11
1074.5
 21
110.969655
 31
0.0
  0
LINE
  8
L-ZISSEN
 10
1074.5
 20
89.030345
 30
0.0
 11
1080.0
 21
89.030345
 31
0.0
  0
LINE
  8
L-ZISSEN
 10
1074.5
 20
110.969655
 30
0.0
 11
1080.0
 21
110.969655
 31
0.0
  0
LINE
  8
L-ZISSEN
 10
1080.0
 20
89.030345
 30
0.0
 11
1080.0
 21
110.969655
 31
0.0
  0
LINE
  8
L-ZISSEN
 10
1089.5
 20
90.8
 30
0.0
 11
1082.35
 21
90.8
 31
0.0
  0
LINE
  8
L-ZISSEN
 10
1089.5
 20
109.2
 30
0.0
 11
1082.35
 21
109.2
 31
0.0
  0
LINE
  8
L-ZISSEN
 10
1082.35
 20
91.5
 30
0.0
 11
1080.0
 21
91.5
 31
0.0
  0
LINE
  8
L-ZISSEN
 10
1082.35
 20
108.5
 30
0.0
 11
1080.0
 21
108.5
 31
0.0
  0
LINE
  8
L-ZISSEN
 10
1082.35
 20
90.8
 30
0.0
 11
1082.35
 21
109.2
 31
0.0
  0
LINE
  8
L-ZISSEN
 10
1089.5
 20
87.0
 30
0.0
 11
1089.5
 21
113.0
 31
0.0
  0
LINE
  8
L-ZISSEN
 10
1089.5
 20
113.0
 30
0.0
 11
1116.5
 21
113.0
 31
0.0
  0
LINE
  8
L-ZISSEN
 10
1116.5
 20
87.0
 30
0.0
 11
1089.5
 21
87.0
 31
0.0
  0
LINE
  8
L-ZISSEN
 10
1144.5
 20
43.0
 30
0.0
 11
1115.5
 21
43.0
 31
0.0
  0
LINE
  8
L-ZISSEN
 10
1099.5
 20
40.5
 30
0.0
 11
1099.5
 21
37.0
 31
0.0
  0
LINE
  8
L-ZISSEN
 10
1115.5
 20
43.0
 30
0.0
 11
1115.5
 21
37.0
 31
0.0
  0
LINE
  8
L-ZISSEN
 10
1144.5
 20
43.0
 30
0.0
 11
1144.5
 21
37.0
 31
0.0
  0
LINE
  8
L-ZISSEN
 10
1115.5
 20
40.5
 30
0.0
 11
1099.5
 21
40.5
 31
0.0
  0
LINE
  8
L-ZISSEN
 10
1116.5
 20
65.0
 30
0.0
 11
1116.5
 21
43.0
 31
0.0
  0
LINE
  8
L-ZISSEN
 10
1143.5
 20
65.0
 30
0.0
 11
1143.5
 21
43.0
 31
0.0
  0
LINE
  8
L-ZISSEN
 10
1089.5
 20
37.0
 30
0.0
 11
1104.5
 21
37.0
 31
0.0
  0
LINE
  8
L-ZISSEN
 10
1143.5
 20
65.0
 30
0.0
 11
1116.5
 21
65.0
 31
0.0
  0
LINE
  8
L-ZISSEN
 10
1116.5
 20
63.0
 30
0.0
 11
1089.5
 21
63.0
 31
0.0
  0
LINE
  8
L-ZISSEN
 10
1089.5
 20
63.0
 30
0.0
 11
1089.5
 21
37.0
 31
0.0
  0
CIRCLE
  8
L-ZISSEN
 10
1045.0
 20
50.0
 30
0.0
 40
11.25
  0
CIRCLE
  8
L-ZISSEN
 10
1045.0
 20
50.0
 30
0.0
 40
6.5
  0
LINE
  8
L-ZISSEN
 10
1082.35
 20
59.2
 30
0.0
 11
1082.35
 21
40.8
 31
0.0
  0
LINE
  8
L-ZISSEN
 10
1082.35
 20
41.5
 30
0.0
 11
1080.0
 21
41.5
 31
0.0
  0
LINE
  8
L-ZISSEN
 10
1082.35
 20
58.5
 30
0.0
 11
1080.0
 21
58.5
 31
0.0
  0
LINE
  8
L-ZISSEN
 10
1089.5
 20
40.8
 30
0.0
 11
1082.35
 21
40.8
 31
0.0
  0
LINE
  8
L-ZISSEN
 10
1089.5
 20
59.2
 30
0.0
 11
1082.35
 21
59.2
 31
0.0
  0
LINE
  8
L-ZISSEN
 10
1080.0
 20
60.969655
 30
0.0
 11
1080.0
 21
39.030345
 31
0.0
  0
LINE
  8
L-ZISSEN
 10
1074.5
 20
39.030345
 30
0.0
 11
1080.0
 21
39.030345
 31
0.0
  0
LINE
  8
L-ZISSEN
 10
1074.5
 20
60.969655
 30
0.0
 11
1080.0
 21
60.969655
 31
0.0
  0
LINE
  8
L-ZISSEN
 10
1074.5
 20
60.969655
 30
0.0
 11
1074.5
 21
39.030345
 31
0.0
  0
SOLID
  8
L-ZISSEN
 10
1045.891232
 20
35.178787
 30
0.0
 11
1046.433721
 21
35.566279
 31
0.0
 12
1045.0
 22
37.0
 32
0.0
 13
1045.0
 23
37.0
 33
0.0
  0
LINE
  8
L-ZISSEN
 10
1046.162476
 20
35.372533
 30
0.0
 11
1050.0
 21
30.0
 31
0.0
  0
LINE
  8
L-ZISSEN
 10
1050.0
 20
30.0
 30
0.0
 11
1052.0
 21
30.0
 31
0.0
  0
TEXT
  8
L-ZISSEN
 10
1054.0
 20
27.75
 30
0.0
 40
4.5
  1
P.P
  0
SOLID
  8
L-ZISSEN
 10
1130.891232
 20
35.178787
 30
0.0
 11
1131.433721
 21
35.566279
 31
0.0
 12
1130.0
 22
37.0
 32
0.0
 13
1130.0
 23
37.0
 33
0.0
  0
LINE
  8
L-ZISSEN
 10
1131.162476
 20
35.372533
 30
0.0
 11
1135.0
 21
30.0
 31
0.0
  0
LINE
  8
L-ZISSEN
 10
1135.0
 20
30.0
 30
0.0
 11
1137.0
 21
30.0
 31
0.0
  0
TEXT
  8
L-ZISSEN
 10
1139.0
 20
27.75
 30
0.0
 40
4.5
  1
P.P
  0
SOLID
  8
L-ZISSEN
 10
1130.596285
 20
98.062074
 30
0.0
 11
1131.19257
 21
98.360217
 31
0.0
 12
1130.0
 22
100.0
 32
0.0
 13
1130.0
 23
100.0
 33
0.0
  0
LINE
  8
L-ZISSEN
 10
1130.894427
 20
98.211146
 30
0.0
 11
1140.0
 21
80.0
 31
0.0
  0
LINE
  8
L-ZISSEN
 10
1140.0
 20
80.0
 30
0.0
 11
1142.0
 21
80.0
 31
0.0
  0
TEXT
  8
L-ZISSEN
 10
1144.0
 20
77.75
 30
0.0
 40
4.5
  1
P.P
  0
SOLID
  8
L-ZISSEN
 10
161.107373
 20
361.96308
 30
0.0
 11
160.443272
 21
362.021521
 31
0.0
 12
160.6
 22
360.0
 32
0.0
 13
160.6
 23
360.0
 33
0.0
  0
LINE
  8
L-ZISSEN
 10
160.775322
 20
361.992301
 30
0.0
 11
165.0
 21
410.0
 31
0.0
  0
LINE
  8
L-ZISSEN
 10
165.0
 20
410.0
 30
0.0
 11
167.0
 21
410.0
 31
0.0
  0
TEXT
  8
L-ZISSEN
 10
169.0
 20
407.75
 30
0.0
 40
4.5
  1
P.P
  0
SOLID
  8
L-ZISSEN
 10
125.917657
 20
358.868261
 30
0.0
 11
126.375645
 21
358.383811
 31
0.0
 12
127.6
 22
360.0
 32
0.0
 13
127.6
 23
360.0
 33
0.0
  0
LINE
  8
L-ZISSEN
 10
126.146651
 20
358.626036
 30
0.0
 11
80.0
 21
315.0
 31
0.0
  0
LINE
  8
L-ZISSEN
 10
80.0
 20
315.0
 30
0.0
 11
78.0
 21
315.0
 31
0.0
  0
TEXT
  8
L-ZISSEN
 10
67.0
 20
312.75
 30
0.0
 40
4.5
  1
P.P
  0
LINE
  8
L-ZISSEN
 10
146.0
 20
542.0
 30
0.0
 11
146.0
 21
491.0
 31
0.0
  0
LINE
  8
L-ZISSEN
 10
142.85
 20
486.5
 30
0.0
 11
112.35
 21
486.5
 31
0.0
  0
LINE
  8
L-ZISSEN
 10
112.35
 20
486.5
 30
0.0
 11
112.35
 21
491.0
 31
0.0
  0
LINE
  8
L-ZISSEN
 10
142.85
 20
486.5
 30
0.0
 11
142.85
 21
491.0
 31
0.0
  0
LINE
  8
L-ZISSEN
 10
95.45
 20
457.35
 30
0.0
 11
95.45
 21
475.75
 31
0.0
  0
LINE
  8
L-ZISSEN
 10
95.45
 20
475.05
 30
0.0
 11
93.1
 21
475.05
 31
0.0
  0
LINE
  8
L-ZISSEN
 10
95.45
 20
458.05
 30
0.0
 11
93.1
 21
458.05
 31
0.0
  0
LINE
  8
L-ZISSEN
 10
98.35
 20
475.75
 30
0.0
 11
95.45
 21
475.75
 31
0.0
  0
LINE
  8
L-ZISSEN
 10
98.35
 20
457.35
 30
0.0
 11
95.45
 21
457.35
 31
0.0
  0
LINE
  8
L-ZISSEN
 10
93.1
 20
455.580345
 30
0.0
 11
93.1
 21
477.519655
 31
0.0
  0
LINE
  8
L-ZISSEN
 10
87.6
 20
477.519655
 30
0.0
 11
93.1
 21
477.519655
 31
0.0
  0
LINE
  8
L-ZISSEN
 10
87.6
 20
455.580345
 30
0.0
 11
93.1
 21
455.580345
 31
0.0
  0
LINE
  8
L-ZISSEN
 10
87.6
 20
455.580345
 30
0.0
 11
87.6
 21
477.519655
 31
0.0
  0
LINE
  8
L-ZISSEN
 10
113.85
 20
455.3
 30
0.0
 11
113.85
 21
486.5
 31
0.0
  0
LINE
  8
L-ZISSEN
 10
98.35
 20
455.3
 30
0.0
 11
98.35
 21
477.8
 31
0.0
  0
LINE
  8
L-ZISSEN
 10
113.85
 20
477.8
 30
0.0
 11
98.35
 21
477.8
 31
0.0
  0
LINE
  8
L-ZISSEN
 10
141.35
 20
455.3
 30
0.0
 11
98.35
 21
455.3
 31
0.0
  0
LINE
  8
L-ZISSEN
 10
141.35
 20
455.3
 30
0.0
 11
141.35
 21
486.5
 31
0.0
  0
LINE
  8
L-ZISSEN
 10
99.1
 20
505.185045
 30
0.0
 11
99.1
 21
524.814955
 31
0.0
  0
LINE
  8
L-ZISSEN
 10
99.1
 20
524.814955
 30
0.0
 11
102.1
 21
524.814955
 31
0.0
  0
LINE
  8
L-ZISSEN
 10
99.1
 20
505.185045
 30
0.0
 11
102.1
 21
505.185045
 31
0.0
  0
LINE
  8
L-ZISSEN
 10
102.1
 20
491.0
 30
0.0
 11
102.1
 21
533.8
 31
0.0
  0
LINE
  8
L-ZISSEN
 10
102.1
 20
533.8
 30
0.0
 11
146.0
 21
533.8
 31
0.0
  0
LINE
  8
L-ZISSEN
 10
146.0
 20
491.0
 30
0.0
 11
102.1
 21
491.0
 31
0.0
  0
LINE
  8
L-ZISSEN
 10
153.671797
 20
481.9
 30
0.0
 11
153.671797
 21
489.0
 31
0.0
  0
LINE
  8
L-ZISSEN
 10
167.528203
 20
481.9
 30
0.0
 11
167.528203
 21
489.0
 31
0.0
  0
LINE
  8
L-ZISSEN
 10
153.671797
 20
481.9
 30
0.0
 11
167.528203
 21
481.9
 31
0.0
  0
LINE
  8
L-ZISSEN
 10
183.0
 20
542.0
 30
0.0
 11
183.0
 21
534.0
 31
0.0
  0
LINE
  8
L-ZISSEN
 10
146.0
 20
541.0
 30
0.0
 11
183.0
 21
541.0
 31
0.0
  0
LINE
  8
L-ZISSEN
 10
170.0
 20
489.0
 30
0.0
 11
152.0
 21
489.0
 31
0.0
  0
LINE
  8
L-ZISSEN
 10
152.5
 20
491.0
 30
0.0
 11
146.0
 21
491.0
 31
0.0
  0
LINE
  8
L-ZISSEN
 10
152.0
 20
489.0
 30
0.0
 11
152.0
 21
491.0
 31
0.0
  0
LINE
  8
L-ZISSEN
 10
170.0
 20
489.0
 30
0.0
 11
170.0
 21
498.2
 31
0.0
  0
ARC
  8
L-ZISSEN
 10
154.0
 20
531.0
 30
0.0
 40
8.0
 50
90.0
 51
270.0
  0
LINE
  8
L-ZISSEN
 10
164.0
 20
542.0
 30
0.0
 11
164.0
 21
504.0
 31
0.0
  0
LINE
  8
L-ZISSEN
 10
176.0
 20
542.0
 30
0.0
 11
176.0
 21
504.0
 31
0.0
  0
LINE
  8
L-ZISSEN
 10
154.0
 20
539.0
 30
0.0
 11
164.0
 21
539.0
 31
0.0
  0
LINE
  8
L-ZISSEN
 10
154.0
 20
523.0
 30
0.0
 11
164.0
 21
523.0
 31
0.0
  0
LINE
  8
L-ZISSEN
 10
152.5
 20
504.0
 30
0.0
 11
183.0
 21
504.0
 31
0.0
  0
LINE
  8
L-ZISSEN
 10
176.0
 20
526.0
 30
0.0
 11
183.0
 21
526.0
 31
0.0
  0
LINE
  8
L-ZISSEN
 10
152.5
 20
504.0
 30
0.0
 11
152.5
 21
491.0
 31
0.0
  0
LINE
  8
L-ZISSEN
 10
176.0
 20
534.0
 30
0.0
 11
183.0
 21
534.0
 31
0.0
  0
LINE
  8
L-ZISSEN
 10
183.0
 20
526.0
 30
0.0
 11
183.0
 21
504.0
 31
0.0
  0
LINE
  8
L-ZISSEN
 10
165.75
 20
498.2
 30
0.0
 11
174.25
 21
498.2
 31
0.0
  0
LINE
  8
L-ZISSEN
 10
165.75
 20
498.2
 30
0.0
 11
165.75
 21
504.0
 31
0.0
  0
LINE
  8
L-ZISSEN
 10
174.25
 20
498.2
 30
0.0
 11
174.25
 21
504.0
 31
0.0
  0
SOLID
  8
L-ZISSEN
 10
162.266349
 20
232.155158
 30
0.0
 11
161.80163
 21
232.633155
 31
0.0
 12
160.6
 22
231.0
 32
0.0
 13
160.6
 23
231.0
 33
0.0
  0
LINE
  8
L-ZISSEN
 10
162.03399
 20
232.394157
 30
0.0
 11
175.0
 21
245.0
 31
0.0
  0
LINE
  8
L-ZISSEN
 10
175.0
 20
245.0
 30
0.0
 11
177.0
 21
245.0
 31
0.0
  0
TEXT
  8
L-ZISSEN
 10
179.0
 20
242.75
 30
0.0
 40
4.5
  1
P.P
  0
SOLID
  8
L-ZISSEN
 10
129.280236
 20
230.134865
 30
0.0
 11
128.821348
 21
230.618462
 31
0.0
 12
127.6
 22
229.0
 32
0.0
 13
127.6
 23
229.0
 33
0.0
  0
LINE
  8
L-ZISSEN
 10
129.050792
 20
230.376664
 30
0.0
 11
155.0
 21
255.0
 31
0.0
  0
LINE
  8
L-ZISSEN
 10
155.0
 20
255.0
 30
0.0
 11
157.0
 21
255.0
 31
0.0
  0
TEXT
  8
L-ZISSEN
 10
159.0
 20
252.75
 30
0.0
 40
4.5
  1
P.P
  0
SOLID
  8
L-ZISSEN
 10
201.262672
 20
612.586434
 30
0.0
 11
200.6799
 21
612.910196
 31
0.0
 12
200.0
 22
611.0
 32
0.0
 13
200.0
 23
611.0
 33
0.0
  0
LINE
  8
L-ZISSEN
 10
200.971286
 20
612.748315
 30
0.0
 11
205.0
 21
620.0
 31
0.0
  0
LINE
  8
L-ZISSEN
 10
205.0
 20
620.0
 30
0.0
 11
207.0
 21
620.0
 31
0.0
  0
TEXT
  8
L-ZISSEN
 10
209.0
 20
617.75
 30
0.0
 40
4.5
  1
P.P
  0
SOLID
  8
L-ZISSEN
 10
198.80743
 20
83.360217
 30
0.0
 11
199.403715
 21
83.062074
 31
0.0
 12
200.0
 22
85.0
 32
0.0
 13
200.0
 23
85.0
 33
0.0
  0
LINE
  8
L-ZISSEN
 10
199.105573
 20
83.211146
 30
0.0
 11
180.0
 21
45.0
 31
0.0
  0
LINE
  8
L-ZISSEN
 10
180.0
 20
45.0
 30
0.0
 11
178.0
 21
45.0
 31
0.0
  0
TEXT
  8
L-ZISSEN
 10
146.0
 20
42.75
 30
0.0
 40
4.5
  1
"1" PORT
  0
TEXT
  8
L-ZISSEN
 10
150.0
 20
35.0
 30
0.0
 40
4.5
  1
Rc 3/4
  0
TEXT
  8
L-ZISSEN
 10
150.0
 20
25.0
 30
0.0
 40
4.5
  1
Rc 1
  0
TEXT
  8
L-ZISSEN
 10
138.0
 20
699.0
 30
0.0
 40
4.5
  1
06
  0
TEXT
  8
L-ZISSEN
 10
138.0
 20
692.0
 30
0.0
 40
4.5
  1
10
  0
LINE
  8
L-TYUSIN
 10
680.0
 20
90.0
 30
0.0
 11
680.0
 21
40.0
 31
0.0
  0
ENDSEC
  0
EOF
