  0
SECTION
  2
HEADER
  9
$ACADVER
  1
AC1012
  9
$DWGCODEPAGE
  3
dos932
  9
$INSBASE
 10
0.0
 20
0.0
 30
0.0
  9
$EXTMIN
 10
82.59995174007462
 20
79.9999994168984
 30
0.0
  9
$EXTMAX
 10
758.7975748039678
 20
445.6953468608509
 30
0.0000000232876899
  9
$LIMMIN
 10
0.0
 20
0.0
  9
$LIMMAX
 10
594.0
 20
420.0
  9
$ORTHOMODE
 70
     0
  9
$REGENMODE
 70
     1
  9
$FILLMODE
 70
     1
  9
$QTEXTMODE
 70
     0
  9
$MIRRTEXT
 70
     0
  9
$DRAGMODE
 70
     2
  9
$LTSCALE
 40
1.0
  9
$OSMODE
 70
    37
  9
$ATTMODE
 70
     1
  9
$TEXTSIZE
 40
4.036377117225811
  9
$TRACEWID
 40
0.05
  9
$TEXTSTYLE
  7
STANDARD
  9
$CLAYER
  8
L-ZISSEN
  9
$CELTYPE
  6
BYLAYER
  9
$CECOLOR
 62
   256
  9
$CELTSCALE
 40
1.0
  9
$DELOBJ
 70
     1
  9
$DISPSILH
 70
     0
  9
$DIMSCALE
 40
2.0
  9
$DIMASZ
 40
2.0
  9
$DIMEXO
 40
1.0
  9
$DIMDLI
 40
8.0
  9
$DIMRND
 40
0.0
  9
$DIMDLE
 40
0.0
  9
$DIMEXE
 40
1.0
  9
$DIMTP
 40
0.0
  9
$DIMTM
 40
0.0
  9
$DIMTXT
 40
2.799999999999999
  9
$DIMCEN
 40
0.8
  9
$DIMTSZ
 40
0.0
  9
$DIMTOL
 70
     0
  9
$DIMLIM
 70
     0
  9
$DIMTIH
 70
     0
  9
$DIMTOH
 70
     0
  9
$DIMSE1
 70
     0
  9
$DIMSE2
 70
     0
  9
$DIMTAD
 70
     1
  9
$DIMZIN
 70
     8
  9
$DIMBLK
  1

  9
$DIMASO
 70
     1
  9
$DIMSHO
 70
     0
  9
$DIMPOST
  1

  9
$DIMAPOST
  1

  9
$DIMALT
 70
     0
  9
$DIMALTD
 70
     2
  9
$DIMALTF
 40
25.4
  9
$DIMLFAC
 40
1.0
  9
$DIMTOFL
 70
     1
  9
$DIMTVP
 40
1.0
  9
$DIMTIX
 70
     1
  9
$DIMSOXD
 70
     0
  9
$DIMSAH
 70
     0
  9
$DIMBLK1
  1

  9
$DIMBLK2
  1

  9
$DIMSTYLE
  2
STANDARD
  9
$DIMCLRD
 70
     0
  9
$DIMCLRE
 70
     0
  9
$DIMCLRT
 70
     0
  9
$DIMTFAC
 40
1.0
  9
$DIMGAP
 40
1.0
  9
$DIMJUST
 70
     0
  9
$DIMSD1
 70
     0
  9
$DIMSD2
 70
     0
  9
$DIMTOLJ
 70
     1
  9
$DIMTZIN
 70
     8
  9
$DIMALTZ
 70
     0
  9
$DIMALTTZ
 70
     0
  9
$DIMFIT
 70
     3
  9
$DIMUPT
 70
     0
  9
$DIMUNIT
 70
     2
  9
$DIMDEC
 70
     3
  9
$DIMTDEC
 70
     4
  9
$DIMALTU
 70
     2
  9
$DIMALTTD
 70
     2
  9
$DIMTXSTY
  7
STANDARD
  9
$DIMAUNIT
 70
     0
  9
$LUNITS
 70
     2
  9
$LUPREC
 70
     4
  9
$SKETCHINC
 40
0.1
  9
$FILLETRAD
 40
0.0
  9
$AUNITS
 70
     0
  9
$AUPREC
 70
     0
  9
$MENU
  1
acad
  9
$ELEVATION
 40
0.0
  9
$PELEVATION
 40
0.0
  9
$THICKNESS
 40
0.0
  9
$LIMCHECK
 70
     0
  9
$BLIPMODE
 70
     0
  9
$CHAMFERA
 40
0.0
  9
$CHAMFERB
 40
0.0
  9
$CHAMFERC
 40
0.0
  9
$CHAMFERD
 40
0.0
  9
$SKPOLY
 70
     0
  9
$TDCREATE
 40
2449002.565639698
  9
$TDUPDATE
 40
2453237.394347801
  9
$TDINDWG
 40
1.2746273148
  9
$TDUSRTIMER
 40
1.2746273148
  9
$USRTIMER
 70
     1
  9
$ANGBASE
 50
0.0
  9
$ANGDIR
 70
     0
  9
$PDMODE
 70
     0
  9
$PDSIZE
 40
0.0
  9
$PLINEWID
 40
0.0
  9
$COORDS
 70
     0
  9
$SPLFRAME
 70
     0
  9
$SPLINETYPE
 70
     6
  9
$SPLINESEGS
 70
     8
  9
$ATTDIA
 70
     0
  9
$ATTREQ
 70
     1
  9
$HANDLING
 70
-16383
  9
$HANDSEED
  5
1BB
  9
$SURFTAB1
 70
     6
  9
$SURFTAB2
 70
     6
  9
$SURFTYPE
 70
     6
  9
$SURFU
 70
     6
  9
$SURFV
 70
     6
  9
$UCSNAME
  2

  9
$UCSORG
 10
0.0
 20
0.0
 30
0.0
  9
$UCSXDIR
 10
1.0
 20
0.0
 30
0.0
  9
$UCSYDIR
 10
0.0
 20
1.0
 30
0.0
  9
$PUCSNAME
  2

  9
$PUCSORG
 10
0.0
 20
0.0
 30
0.0
  9
$PUCSXDIR
 10
1.0
 20
0.0
 30
0.0
  9
$PUCSYDIR
 10
0.0
 20
1.0
 30
0.0
  9
$USERI1
 70
     0
  9
$USERI2
 70
     0
  9
$USERI3
 70
     0
  9
$USERI4
 70
     0
  9
$USERI5
 70
     0
  9
$USERR1
 40
0.0
  9
$USERR2
 40
0.0
  9
$USERR3
 40
0.0
  9
$USERR4
 40
0.0
  9
$USERR5
 40
0.0
  9
$WORLDVIEW
 70
     1
  9
$SHADEDGE
 70
     3
  9
$SHADEDIF
 70
    70
  9
$TILEMODE
 70
     1
  9
$MAXACTVP
 70
    48
  9
$PINSBASE
 10
0.0
 20
0.0
 30
0.0
  9
$PLIMCHECK
 70
     0
  9
$PEXTMIN
 10
1.000000000000000E+20
 20
1.000000000000000E+20
 30
1.000000000000000E+20
  9
$PEXTMAX
 10
-1.000000000000000E+20
 20
-1.000000000000000E+20
 30
-1.000000000000000E+20
  9
$PLIMMIN
 10
0.0
 20
0.0
  9
$PLIMMAX
 10
12.0
 20
9.0
  9
$UNITMODE
 70
     0
  9
$VISRETAIN
 70
     0
  9
$PLINEGEN
 70
     0
  9
$PSLTSCALE
 70
     0
  9
$TREEDEPTH
 70
  3020
  9
$PICKSTYLE
 70
     1
  9
$CMLSTYLE
  2
STANDARD
  9
$CMLJUST
 70
     0
  9
$CMLSCALE
 40
1.0
  9
$SAVEIMAGES
 70
     1
  0
ENDSEC
  0
SECTION
  2
CLASSES
  0
CLASS
  1
DICTIONARYVAR
  2
AcDbDictionaryVar
  3
AutoCAD 2000
 90
    32768
280
     0
281
     0
  0
CLASS
  1
OLE2FRAME
  2
AcDbOle2Frame
  3
AutoCAD 2000
 90
    32768
280
     0
281
     1
  0
CLASS
  1
LWPOLYLINE
  2
AcDbPolyline
  3
AutoCAD 2000
 90
    32768
280
     0
281
     1
  0
CLASS
  1
HATCH
  2
AcDbHatch
  3
AutoCAD 2000
 90
    32768
280
     0
281
     1
  0
CLASS
  1
ACDBDICTIONARYWDFLT
  2
AcDbDictionaryWithDefault
  3
AutoCAD 2000
 90
    32768
280
     0
281
     0
  0
CLASS
  1
ACDBPLACEHOLDER
  2
AcDbPlaceHolder
  3
AutoCAD 2000
 90
    32768
280
     0
281
     0
  0
CLASS
  1
LAYOUT
  2
AcDbLayout
  3
AutoCAD 2000
 90
    32768
280
     0
281
     0
  0
CLASS
  1
LONG_TRANSACTION
  2
AcDbLongTransaction
  3
AutoCAD 2000
 90
    32768
280
     0
281
     0
  0
CLASS
  1
LWPOLYLINE
  2
AcDbPolyline
  3
AutoCAD 2000
 90
    32768
280
     0
281
     1
  0
CLASS
  1
HATCH
  2
AcDbHatch
  3
AutoCAD 2000
 90
    32768
280
     0
281
     1
  0
CLASS
  1
XRECORD
  2
AcDbXrecord
  3
AutoCAD 2000
 90
    32768
280
     0
281
     0
  0
CLASS
  1
LONG_TRANSACTION
  2
AcDbLongTransaction
  3
AutoCAD 2000
 90
    32768
280
     0
281
     0
  0
CLASS
  1
LWPOLYLINE
  2
AcDbPolyline
  3
AutoCAD 2000
 90
    32768
280
     0
281
     1
  0
CLASS
  1
HATCH
  2
AcDbHatch
  3
AutoCAD 2000
 90
    32768
280
     0
281
     1
  0
CLASS
  1
XRECORD
  2
AcDbXrecord
  3
AutoCAD 2000
 90
    32768
280
     0
281
     0
  0
CLASS
  1
LONG_TRANSACTION
  2
AcDbLongTransaction
  3
AutoCAD 2000
 90
    32768
280
     0
281
     0
  0
CLASS
  1
LWPOLYLINE
  2
AcDbPolyline
  3
AutoCAD 2000
 90
    32768
280
     0
281
     1
  0
CLASS
  1
HATCH
  2
AcDbHatch
  3
AutoCAD 2000
 90
    32768
280
     0
281
     1
  0
CLASS
  1
XRECORD
  2
AcDbXrecord
  3
AutoCAD 2000
 90
    32768
280
     0
281
     0
  0
CLASS
  1
LONG_TRANSACTION
  2
AcDbLongTransaction
  3
AutoCAD 2000
 90
    32768
280
     0
281
     0
  0
CLASS
  1
LWPOLYLINE
  2
AcDbPolyline
  3
AutoCAD 2000
 90
    32768
280
     0
281
     1
  0
CLASS
  1
HATCH
  2
AcDbHatch
  3
AutoCAD 2000
 90
    32768
280
     0
281
     1
  0
CLASS
  1
XRECORD
  2
AcDbXrecord
  3
AutoCAD 2000
 90
    32768
280
     0
281
     0
  0
ENDSEC
  0
SECTION
  2
TABLES
  0
TABLE
  2
VPORT
  5
1E
330
0
100
AcDbSymbolTable
 70
     2
  0
VPORT
  5
1B8
330
1E
100
AcDbSymbolTableRecord
100
AcDbViewportTableRecord
  2
*ACTIVE
 70
     0
 10
0.0
 20
0.0
 11
1.0
 21
1.0
 12
203.2777294368539
 22
-91.17667115516951
 13
0.0
 23
0.0
 14
5.0
 24
5.0
 15
0.0
 25
0.0
 16
0.0
 26
0.0
 36
1.0
 17
166.8045712797615
 27
373.5631784892733
 37
0.0000000232876899
 40
414.8609537327927
 41
1.84990253411306
 42
50.0
 43
-0.0000000232876899
 44
-0.0000000232876899
 50
0.0
 51
0.0
 71
     0
 72
   100
 73
     1
 74
     0
 75
     0
 76
     0
 77
     0
 78
     0
  0
ENDTAB
  0
TABLE
  2
LTYPE
  5
19
330
0
100
AcDbSymbolTable
 70
     2
  0
LTYPE
  5
1A
330
19
100
AcDbSymbolTableRecord
100
AcDbLinetypeTableRecord
  2
BYBLOCK
 70
     0
  3

 72
    65
 73
     0
 40
0.0
  0
LTYPE
  5
1B
330
19
100
AcDbSymbolTableRecord
100
AcDbLinetypeTableRecord
  2
BYLAYER
 70
     0
  3

 72
    65
 73
     0
 40
0.0
  0
LTYPE
  5
B
330
19
100
AcDbSymbolTableRecord
100
AcDbLinetypeTableRecord
  2
CONTINUOUS
 70
     0
  3
Solid line
 72
    65
 73
     0
 40
0.0
  0
LTYPE
  5
2B
330
19
100
AcDbSymbolTableRecord
100
AcDbLinetypeTableRecord
  2
CENTER
 70
     0
  3
____ _ ____ _ ____ _ ____ _ 
 72
    65
 73
     4
 40
60.0
 49
45.0
 74
     0
 49
-5.0
 74
     0
 49
5.0
 74
     0
 49
-5.0
 74
     0
  0
ENDTAB
  0
TABLE
  2
LAYER
  5
15
330
0
100
AcDbSymbolTable
 70
     3
  0
LAYER
  5
6
330
15
100
AcDbSymbolTableRecord
100
AcDbLayerTableRecord
  2
0
 70
     0
 62
     7
  6
CONTINUOUS
  0
LAYER
  5
26
330
15
100
AcDbSymbolTableRecord
100
AcDbLayerTableRecord
  2
L-ZISSEN
 70
     0
 62
     7
  6
CONTINUOUS
  0
LAYER
  5
2A
330
15
100
AcDbSymbolTableRecord
100
AcDbLayerTableRecord
  2
L-TYUSIN
 70
     0
 62
     1
  6
CENTER
  0
ENDTAB
  0
TABLE
  2
STYLE
  5
16
330
0
100
AcDbSymbolTable
 70
     1
  0
STYLE
  5
17
330
16
100
AcDbSymbolTableRecord
100
AcDbTextStyleTableRecord
  2
STANDARD
 70
     0
 40
0.0
 41
1.0
 50
0.0
 71
     0
 42
4.036377117225811
  3
txt.shx
  4
bigfont.shx
  0
ENDTAB
  0
TABLE
  2
VIEW
  5
1C
330
0
100
AcDbSymbolTable
 70
     0
  0
ENDTAB
  0
TABLE
  2
UCS
  5
1D
330
0
100
AcDbSymbolTable
 70
     0
  0
ENDTAB
  0
TABLE
  2
APPID
  5
20
330
0
100
AcDbSymbolTable
 70
     1
  0
APPID
  5
A
330
20
100
AcDbSymbolTableRecord
100
AcDbRegAppTableRecord
  2
ACAD
 70
     0
  0
ENDTAB
  0
TABLE
  2
DIMSTYLE
  5
21
330
0
100
AcDbSymbolTable
 70
     1
  0
DIMSTYLE
105
28
330
21
100
AcDbSymbolTableRecord
100
AcDbDimStyleTableRecord
  2
STANDARD
 70
     0
  3

  4

  5

  6

  7

 40
1.0
 41
0.18
 42
0.0625
 43
0.38
 44
0.18
 45
0.0
 46
0.0
 47
0.0
 48
0.0
140
0.18
141
0.09
142
0.0
143
25.4
144
1.0
145
0.0
146
1.0
147
0.09
 71
     0
 72
     0
 73
     1
 74
     1
 75
     0
 76
     0
 77
     0
 78
     0
170
     0
171
     2
172
     0
173
     0
174
     0
175
     0
176
     0
177
     0
178
     0
270
     2
271
     4
272
     4
273
     2
274
     2
340
17
275
     0
280
     0
281
     0
282
     0
283
     1
284
     0
285
     0
286
     0
287
     3
288
     0
  0
ENDTAB
  0
TABLE
  2
BLOCK_RECORD
  5
1
330
0
100
AcDbSymbolTable
 70
     0
  0
BLOCK_RECORD
  5
2
102
{ACAD_XDICTIONARY
360
3
102
}
330
1
100
AcDbSymbolTableRecord
100
AcDbBlockTableRecord
  2
*MODEL_SPACE
  0
BLOCK_RECORD
  5
F
102
{ACAD_XDICTIONARY
360
10
102
}
330
1
100
AcDbSymbolTableRecord
100
AcDbBlockTableRecord
  2
*PAPER_SPACE
  0
ENDTAB
  0
ENDSEC
  0
SECTION
  2
BLOCKS
  0
BLOCK
  5
5
330
2
100
AcDbEntity
  8
0
100
AcDbBlockBegin
  2
*MODEL_SPACE
 70
     0
 10
0.0
 20
0.0
 30
0.0
  3
*MODEL_SPACE
  1

  0
ENDBLK
  5
C
330
2
100
AcDbEntity
  8
0
100
AcDbBlockEnd
  0
BLOCK
  5
12
330
F
100
AcDbEntity
 67
     1
  8
0
100
AcDbBlockBegin
  2
*PAPER_SPACE
 70
     0
 10
0.0
 20
0.0
 30
0.0
  3
*PAPER_SPACE
  1

  0
ENDBLK
  5
13
330
F
100
AcDbEntity
 67
     1
  8
0
100
AcDbBlockEnd
  0
ENDSEC
  0
SECTION
  2
ENTITIES
  0
LINE
  5
29
330
2
100
AcDbEntity
  8
L-TYUSIN
 48
0.4
100
AcDbLine
 10
82.59995174007462
 20
99.99999941689843
 30
0.0
 11
403.3999517400793
 21
99.99999941689837
 31
0.0
  0
LINE
  5
2C
330
2
100
AcDbEntity
  8
L-TYUSIN
 48
0.4
100
AcDbLine
 10
86.19995174007447
 20
339.4571281578771
 30
0.0
 11
399.7999517400795
 21
339.457128157877
 31
0.0
  0
LINE
  5
2D
330
2
100
AcDbEntity
  8
L-ZISSEN
100
AcDbLine
 10
386.2499517400793
 20
350.6571281578773
 30
0.0
 11
371.9999517400792
 21
350.6571281578773
 31
0.0
  0
LINE
  5
2E
330
2
100
AcDbEntity
  8
L-ZISSEN
100
AcDbLine
 10
386.2499517400793
 20
328.2571281578773
 30
0.0
 11
371.9999517400791
 21
328.2571281578772
 31
0.0
  0
LINE
  5
2F
330
2
100
AcDbEntity
  8
L-ZISSEN
100
AcDbLine
 10
370.2962316362712
 20
266.6876620682755
 30
0.0
 11
385.796231636271
 21
266.6876620682755
 31
0.0
  0
LINE
  5
30
330
2
100
AcDbEntity
  8
L-ZISSEN
100
AcDbLine
 10
385.796231636271
 20
244.2876620682754
 30
0.0
 11
370.2962316362712
 21
244.2876620682754
 31
0.0
  0
LINE
  5
31
330
2
100
AcDbEntity
  8
L-TYUSIN
 48
0.4
100
AcDbLine
 10
400.8462316362712
 20
255.6876620682754
 30
0.0
 11
356.546231636271
 21
255.6876620682754
 31
0.0
  0
LINE
  5
32
330
2
100
AcDbEntity
  8
L-ZISSEN
100
AcDbLine
 10
386.2499517400792
 20
111.1999994168982
 30
0.0
 11
374.4999517400789
 21
111.1999994168982
 31
0.0
  0
LINE
  5
33
330
2
100
AcDbEntity
  8
L-ZISSEN
100
AcDbLine
 10
386.2499517400792
 20
88.79999941689836
 30
0.0
 11
374.4999517400789
 21
88.79999941689836
 31
0.0
  0
LINE
  5
34
330
2
100
AcDbEntity
  8
L-ZISSEN
100
AcDbLine
 10
367.5462316362711
 20
190.9876620682751
 30
0.0
 11
367.5462316362711
 21
226.1876620682752
 31
0.0
  0
LINE
  5
35
330
2
100
AcDbEntity
  8
L-TYUSIN
100
AcDbLine
 10
335.5462316362713
 20
219.8876620682753
 30
0.0
 11
335.5462316362713
 21
224.3876620682751
 31
0.0
  0
SOLID
  5
36
330
2
100
AcDbEntity
  8
L-ZISSEN
100
AcDbTrace
 10
335.251779218784
 20
224.3937550085318
 30
0.0
 11
334.6170708282947
 21
224.1898194709546
 31
0.0
 12
335.5462316362713
 22
222.3876620682753
 32
0.0
 13
335.5462316362713
 23
222.3876620682753
 33
0.0
  0
LINE
  5
37
330
2
100
AcDbEntity
  8
L-ZISSEN
100
AcDbLine
 10
341.3462316362712
 20
190.9876620682751
 30
0.0
 11
341.3462316362712
 21
235.6876620682753
 31
0.0
  0
LINE
  5
38
330
2
100
AcDbEntity
  8
L-ZISSEN
100
AcDbLine
 10
330.3462316362713
 20
232.6876620682752
 30
0.0
 11
330.3462316362713
 21
180.6876620682752
 31
0.0
  0
LINE
  5
39
330
2
100
AcDbEntity
  8
L-ZISSEN
100
AcDbLine
 10
288.3462316362713
 20
180.6876620682752
 30
0.0
 11
288.3462316362713
 21
232.6876620682752
 31
0.0
  0
LINE
  5
3A
330
2
100
AcDbEntity
  8
L-ZISSEN
100
AcDbLine
 10
288.3462316362713
 20
180.8876620682752
 30
0.0
 11
288.3462316362713
 21
232.4876620682752
 31
0.0
  0
LINE
  5
3B
330
2
100
AcDbEntity
  8
L-TYUSIN
 48
0.4
100
AcDbLine
 10
356.5462316362711
 20
269.3876620682748
 30
0.0
 11
356.5462316362711
 21
219.9876620682754
 31
0.0
  0
SOLID
  5
3C
330
2
100
AcDbEntity
  8
L-ZISSEN
100
AcDbTrace
 10
149.8406840537584
 20
224.3937550085318
 30
0.0
 11
150.4753924442478
 21
224.1898194709546
 31
0.0
 12
149.5462316362712
 22
222.3876620682753
 32
0.0
 13
149.5462316362712
 23
222.3876620682753
 33
0.0
  0
LINE
  5
3D
330
2
100
AcDbEntity
  8
L-TYUSIN
100
AcDbLine
 10
149.5552422335081
 20
219.8876620682758
 30
0.0
 11
149.5552422335081
 21
224.3876620682756
 31
0.0
  0
LINE
  5
3E
330
2
100
AcDbEntity
  8
L-ZISSEN
100
AcDbLine
 10
143.7462316362713
 20
190.9876620682751
 30
0.0
 11
143.7462316362713
 21
235.6876620682753
 31
0.0
  0
LINE
  5
3F
330
2
100
AcDbEntity
  8
L-ZISSEN
100
AcDbLine
 10
196.7462316362713
 20
232.6876620682752
 30
0.0
 11
196.7462316362713
 21
180.6876620682752
 31
0.0
  0
LINE
  5
40
330
2
100
AcDbEntity
  8
L-ZISSEN
100
AcDbLine
 10
154.7462316362712
 20
180.6876620682752
 30
0.0
 11
154.7462316362713
 21
232.6876620682753
 31
0.0
  0
LINE
  5
41
330
2
100
AcDbEntity
  8
L-ZISSEN
100
AcDbLine
 10
196.7462316362712
 20
180.8876620682752
 30
0.0
 11
196.7462316362712
 21
232.4876620682752
 31
0.0
  0
LINE
  5
42
330
2
100
AcDbEntity
  8
L-TYUSIN
 48
0.4
100
AcDbLine
 10
242.5462316362712
 20
237.6876620682753
 30
0.0
 11
242.5462316362712
 21
175.6876620682752
 31
0.0
  0
LINE
  5
43
330
2
100
AcDbEntity
  8
L-ZISSEN
100
AcDbLine
 10
117.5462316362714
 20
190.9876620682751
 30
0.0
 11
117.5462316362714
 21
226.1876620682752
 31
0.0
  0
LINE
  5
44
330
2
100
AcDbEntity
  8
L-TYUSIN
 48
0.4
100
AcDbLine
 10
128.5462316362715
 20
269.3876620682748
 30
0.0
 11
128.5462316362715
 21
219.9876620682754
 31
0.0
  0
LINE
  5
45
330
2
100
AcDbEntity
  8
L-ZISSEN
100
AcDbLine
 10
111.499951740075
 20
88.5999994168983
 30
0.0
 11
154.5999517400771
 21
88.59999941689832
 31
0.0
  0
LINE
  5
46
330
2
100
AcDbEntity
  8
L-ZISSEN
100
AcDbLine
 10
113.9999517400749
 20
84.99999941689841
 30
0.0
 11
143.5999517400749
 21
84.99999941689841
 31
0.0
  0
LINE
  5
47
330
2
100
AcDbEntity
  8
L-ZISSEN
100
AcDbLine
 10
113.9999517400749
 20
84.99999941689841
 30
0.0
 11
143.5999517400749
 21
84.99999941689841
 31
0.0
  0
LINE
  5
48
330
2
100
AcDbEntity
  8
L-ZISSEN
100
AcDbLine
 10
113.999951740075
 20
114.9999994168984
 30
0.0
 11
143.5999517400749
 21
114.9999994168986
 31
0.0
  0
LINE
  5
49
330
2
100
AcDbEntity
  8
L-ZISSEN
100
AcDbLine
 10
113.999951740075
 20
114.9999994168984
 30
0.0
 11
143.5999517400749
 21
114.9999994168986
 31
0.0
  0
LINE
  5
4A
330
2
100
AcDbEntity
  8
L-ZISSEN
100
AcDbLine
 10
111.499951740075
 20
111.3999994168984
 30
0.0
 11
154.5999517400771
 21
111.3999994168984
 31
0.0
  0
LINE
  5
4B
330
2
100
AcDbEntity
  8
L-ZISSEN
100
AcDbLine
 10
111.5462316362712
 20
222.3876620682752
 30
0.0
 11
143.5462316362713
 21
222.3876620682752
 31
0.0
  0
LINE
  5
4C
330
2
100
AcDbEntity
  8
L-ZISSEN
100
AcDbLine
 10
111.5462316362712
 20
190.9876620682751
 30
0.0
 11
143.5462316362713
 21
190.9876620682751
 31
0.0
  0
LINE
  5
4D
330
2
100
AcDbEntity
  8
L-TYUSIN
 48
0.5
100
AcDbLine
 10
106.2462316362712
 20
206.6876620682752
 30
0.0
 11
378.8462316362714
 21
206.6876620682752
 31
0.0
  0
LINE
  5
4E
330
2
100
AcDbEntity
  8
L-TYUSIN
 48
0.4
100
AcDbLine
 10
128.999951740075
 20
117.4999994168984
 30
0.0
 11
128.9999517400749
 21
82.49999941689841
 31
0.0
  0
LINE
  5
4F
330
2
100
AcDbEntity
  8
L-ZISSEN
100
AcDbLine
 10
112.4999517400748
 20
109.7499994168984
 30
0.0
 11
113.499951740075
 21
109.7499994168984
 31
0.0
  0
LINE
  5
50
330
2
100
AcDbEntity
  8
L-ZISSEN
100
AcDbLine
 10
111.499951740075
 20
109.7499994168984
 30
0.0
 11
113.499951740075
 21
109.7499994168984
 31
0.0
  0
LINE
  5
51
330
2
100
AcDbEntity
  8
L-ZISSEN
100
AcDbLine
 10
111.499951740075
 20
103.4999994168984
 30
0.0
 11
113.499951740075
 21
103.4999994168984
 31
0.0
  0
LINE
  5
52
330
2
100
AcDbEntity
  8
L-ZISSEN
100
AcDbLine
 10
111.499951740075
 20
104.2499994168984
 30
0.0
 11
113.499951740075
 21
104.2499994168984
 31
0.0
  0
LINE
  5
53
330
2
100
AcDbEntity
  8
L-ZISSEN
100
AcDbLine
 10
111.499951740075
 20
88.5999994168983
 30
0.0
 11
111.499951740075
 21
111.3999994168984
 31
0.0
  0
LINE
  5
54
330
2
100
AcDbEntity
  8
L-ZISSEN
100
AcDbLine
 10
99.74995174007485
 20
88.79999941689836
 30
0.0
 11
99.74995174007485
 21
111.1999994168982
 31
0.0
  0
LINE
  5
55
330
2
100
AcDbEntity
  8
L-ZISSEN
100
AcDbLine
 10
94.99995174007462
 20
90.4999994168984
 30
0.0
 11
94.99995174007485
 21
109.4999994168981
 31
0.0
  0
LINE
  5
56
330
2
100
AcDbEntity
  8
L-ZISSEN
100
AcDbLine
 10
89.99995174007462
 20
90.4999994168984
 30
0.0
 11
89.99995174007462
 21
109.4999994168981
 31
0.0
  0
LINE
  5
57
330
2
100
AcDbEntity
  8
L-ZISSEN
100
AcDbLine
 10
94.99995174007462
 20
90.84999941689831
 30
0.0
 11
99.74995174007485
 21
90.84999941689831
 31
0.0
  0
LINE
  5
58
330
2
100
AcDbEntity
  8
L-ZISSEN
100
AcDbLine
 10
89.99995174007462
 20
90.4999994168984
 30
0.0
 11
94.99995174007485
 21
90.4999994168984
 31
0.0
  0
LINE
  5
59
330
2
100
AcDbEntity
  8
L-ZISSEN
100
AcDbLine
 10
99.74995174007485
 20
88.79999941689836
 30
0.0
 11
111.499951740075
 21
88.79999941689836
 31
0.0
  0
LINE
  5
5A
330
2
100
AcDbEntity
  8
L-ZISSEN
100
AcDbLine
 10
94.99995174007485
 20
109.1499994168982
 30
0.0
 11
99.74995174007485
 21
109.1499994168982
 31
0.0
  0
LINE
  5
5B
330
2
100
AcDbEntity
  8
L-ZISSEN
100
AcDbLine
 10
89.99995174007462
 20
109.4999994168981
 30
0.0
 11
94.99995174007485
 21
109.4999994168981
 31
0.0
  0
LINE
  5
5C
330
2
100
AcDbEntity
  8
L-ZISSEN
100
AcDbLine
 10
111.499951740075
 20
104.2499994168984
 30
0.0
 11
111.499951740075
 21
109.7499994168984
 31
0.0
  0
LINE
  5
5D
330
2
100
AcDbEntity
  8
L-ZISSEN
100
AcDbLine
 10
99.74995174007485
 20
111.1999994168982
 30
0.0
 11
111.499951740075
 21
111.1999994168982
 31
0.0
  0
LINE
  5
5E
330
2
100
AcDbEntity
  8
L-ZISSEN
100
AcDbLine
 10
113.499951740075
 20
88.59999941689832
 30
0.0
 11
113.499951740075
 21
111.3999994168984
 31
0.0
  0
LINE
  5
5F
330
2
100
AcDbEntity
  8
L-ZISSEN
100
AcDbLine
 10
113.999951740075
 20
88.59999941689832
 30
0.0
 11
113.9999517400749
 21
84.99999941689841
 31
0.0
  0
LINE
  5
60
330
2
100
AcDbEntity
  8
L-ZISSEN
100
AcDbLine
 10
113.999951740075
 20
88.59999941689832
 30
0.0
 11
113.9999517400749
 21
84.99999941689841
 31
0.0
  0
LINE
  5
61
330
2
100
AcDbEntity
  8
L-ZISSEN
100
AcDbLine
 10
113.999951740075
 20
114.9999994168984
 30
0.0
 11
113.9999517400754
 21
111.3999994168987
 31
0.0
  0
LINE
  5
62
330
2
100
AcDbEntity
  8
L-ZISSEN
100
AcDbLine
 10
113.999951740075
 20
114.9999994168984
 30
0.0
 11
113.999951740075
 21
111.3999994168987
 31
0.0
  0
LINE
  5
63
330
2
100
AcDbEntity
  8
L-ZISSEN
100
AcDbLine
 10
111.5462316362712
 20
192.9376620682751
 30
0.0
 11
113.5462316362713
 21
192.9376620682751
 31
0.0
  0
LINE
  5
64
330
2
100
AcDbEntity
  8
L-ZISSEN
100
AcDbLine
 10
111.5462316362712
 20
199.1876620682751
 30
0.0
 11
113.5462316362713
 21
199.1876620682751
 31
0.0
  0
LINE
  5
65
330
2
100
AcDbEntity
  8
L-ZISSEN
100
AcDbLine
 10
111.5462316362712
 20
198.4376620682751
 30
0.0
 11
113.5462316362713
 21
198.4376620682751
 31
0.0
  0
LINE
  5
66
330
2
100
AcDbEntity
  8
L-ZISSEN
100
AcDbLine
 10
111.5462316362712
 20
222.3876620682752
 30
0.0
 11
111.5462316362712
 21
190.9876620682751
 31
0.0
  0
LINE
  5
67
330
2
100
AcDbEntity
  8
L-ZISSEN
100
AcDbLine
 10
113.5462316362712
 20
190.9876620682751
 30
0.0
 11
113.5462316362713
 21
222.3876620682752
 31
0.0
  0
LINE
  5
68
330
2
100
AcDbEntity
  8
L-TYUSIN
 48
0.4
100
AcDbLine
 10
356.9999517400789
 20
117.4999994168984
 30
0.0
 11
356.9999517400791
 21
82.49999941689841
 31
0.0
  0
LINE
  5
69
330
2
100
AcDbEntity
  8
L-TYUSIN
 48
0.4
100
AcDbLine
 10
242.9999517400769
 20
119.9999994168984
 30
0.0
 11
242.9999517400769
 21
79.9999994168984
 31
0.0
  0
LINE
  5
6A
330
2
100
AcDbEntity
  8
L-ZISSEN
100
AcDbLine
 10
154.7462316362712
 20
180.6876620682752
 30
0.0
 11
330.3462316362713
 21
180.6876620682752
 31
0.0
  0
LINE
  5
6B
330
2
100
AcDbEntity
  8
L-TYUSIN
 48
0.4
100
AcDbLine
 10
254.5462316362713
 20
185.6876620682752
 30
0.0
 11
268.5462316362713
 21
185.6876620682752
 31
0.0
  0
CIRCLE
  5
6C
330
2
100
AcDbEntity
  8
L-ZISSEN
100
AcDbCircle
 10
261.5462316362713
 20
185.6876620682752
 30
0.0
 40
2.75
  0
LINE
  5
6D
330
2
100
AcDbEntity
  8
L-ZISSEN
100
AcDbLine
 10
331.3999517400768
 20
83.99999941689797
 30
0.0
 11
154.5999517400771
 21
83.9999994168979
 31
0.0
  0
LINE
  5
6E
330
2
100
AcDbEntity
  8
L-ZISSEN
100
AcDbLine
 10
331.3999517400768
 20
115.9999994168988
 30
0.0
 11
154.5999517400771
 21
115.9999994168988
 31
0.0
  0
LINE
  5
6F
330
2
100
AcDbEntity
  8
L-ZISSEN
100
AcDbLine
 10
154.5999517400771
 20
83.9999994168979
 30
0.0
 11
154.5999517400771
 21
115.9999994168988
 31
0.0
  0
LINE
  5
70
330
2
100
AcDbEntity
  8
L-TYUSIN
 48
0.4
100
AcDbLine
 10
163.999951740077
 20
94.49999941689842
 30
0.0
 11
163.999951740077
 21
105.4999994168984
 31
0.0
  0
CIRCLE
  5
71
330
2
100
AcDbEntity
  8
L-ZISSEN
100
AcDbCircle
 10
163.999951740077
 20
99.99999941689843
 30
0.0
 40
2.149999999999999
  0
CIRCLE
  5
72
330
2
100
AcDbEntity
  8
L-ZISSEN
100
AcDbCircle
 10
163.999951740077
 20
99.99999941689843
 30
0.0
 40
2.5
  0
LINE
  5
73
330
2
100
AcDbEntity
  8
L-ZISSEN
100
AcDbLine
 10
143.5999517400749
 20
114.9999994168986
 30
0.0
 11
143.5999517400749
 21
84.99999941689841
 31
0.0
  0
LINE
  5
74
330
2
100
AcDbEntity
  8
L-ZISSEN
100
AcDbLine
 10
143.5999517400749
 20
114.9999994168986
 30
0.0
 11
143.5999517400749
 21
84.99999941689841
 31
0.0
  0
LINE
  5
75
330
2
100
AcDbEntity
  8
L-TYUSIN
 48
0.4
100
AcDbLine
 10
169.699951740077
 20
99.99999941689843
 30
0.0
 11
158.699951740077
 21
99.99999941689843
 31
0.0
  0
LINE
  5
76
330
2
100
AcDbEntity
  8
L-ZISSEN
100
AcDbLine
 10
197.199951740077
 20
115.9999994168988
 30
0.0
 11
197.199951740077
 21
83.99999941689801
 31
0.0
  0
TEXT
  5
77
330
2
100
AcDbEntity
  8
L-ZISSEN
100
AcDbText
 10
179.5496227613744
 20
147.0392158944713
 30
0.0
 40
4.5
  1
Rc3/8
100
AcDbText
  0
LINE
  5
78
330
2
100
AcDbEntity
  8
L-TYUSIN
 48
0.4
100
AcDbLine
 10
210.999951740077
 20
109.9999994168983
 30
0.0
 11
210.999951740077
 21
89.99999941689841
 31
0.0
  0
CIRCLE
  5
79
330
2
100
AcDbEntity
  8
L-ZISSEN
100
AcDbCircle
 10
210.999951740077
 20
99.99999941689841
 30
0.0
 40
5.7225
  0
CIRCLE
  5
7A
330
2
100
AcDbEntity
  8
L-ZISSEN
100
AcDbCircle
 10
242.9999517400769
 20
99.99999941689841
 30
0.0
 40
5.7225
  0
TEXT
  5
7B
330
2
100
AcDbEntity
  8
L-ZISSEN
100
AcDbText
 10
179.5496227613744
 20
159.6348411662462
 30
0.0
 40
4.5
  1
"1"PORT
100
AcDbText
  0
TEXT
  5
7C
330
2
100
AcDbEntity
  8
L-ZISSEN
100
AcDbText
 10
179.5496227613744
 20
153.4178154624808
 30
0.0
 40
4.5
  1
Rc1/4
100
AcDbText
  0
LINE
  5
7D
330
2
100
AcDbEntity
  8
L-ZISSEN
100
AcDbLine
 10
143.7462316362713
 20
190.9876620682751
 30
0.0
 11
154.7462316362712
 21
190.9876620682751
 31
0.0
  0
LINE
  5
7E
330
2
100
AcDbEntity
  8
L-ZISSEN
100
AcDbLine
 10
143.5462316362713
 20
190.9876620682751
 30
0.0
 11
143.7462316362713
 21
190.9876620682751
 31
0.0
  0
LINE
  5
7F
330
2
100
AcDbEntity
  8
L-ZISSEN
100
AcDbLine
 10
146.9552422335082
 20
222.6876620682755
 30
0.0
 11
152.155242233508
 21
222.6876620682755
 31
0.0
  0
LINE
  5
80
330
2
100
AcDbEntity
  8
L-ZISSEN
100
AcDbLine
 10
143.7552422335083
 20
222.3876620682752
 30
0.0
 11
154.7552422335099
 21
222.3876620682742
 31
0.0
  0
LINE
  5
81
330
2
100
AcDbEntity
  8
L-ZISSEN
100
AcDbLine
 10
146.9552422335082
 20
222.6876620682755
 30
0.0
 11
146.9552422335082
 21
222.3876620682758
 31
0.0
  0
LINE
  5
82
330
2
100
AcDbEntity
  8
L-ZISSEN
100
AcDbLine
 10
143.5462316362713
 20
222.3876620682752
 30
0.0
 11
143.7462316362713
 21
222.3876620682752
 31
0.0
  0
LINE
  5
83
330
2
100
AcDbEntity
  8
L-ZISSEN
100
AcDbLine
 10
152.1552422335082
 20
222.6876620682755
 30
0.0
 11
152.1552422335082
 21
222.3876620682758
 31
0.0
  0
CIRCLE
  5
84
330
2
100
AcDbEntity
  8
L-ZISSEN
100
AcDbCircle
 10
223.5462316362713
 20
185.6876620682752
 30
0.0
 40
2.75
  0
LINE
  5
85
330
2
100
AcDbEntity
  8
L-TYUSIN
 48
0.4
100
AcDbLine
 10
223.5462316362713
 20
192.6876620682754
 30
0.0
 11
223.5462316362713
 21
178.6876620682748
 31
0.0
  0
LEADER
  5
86
330
2
100
AcDbEntity
  8
L-ZISSEN
100
AcDbLeader
  3
STANDARD
 76
     3
 10
242.5462316362712
 20
180.6876620682752
 30
0.0
 10
221.5186065457376
 20
161.4758881735133
 30
0.0
 10
207.3912859251211
 20
161.4758881735133
 30
0.0
1001
ACAD
1000
DSTYLE
1002
{
1070
     5
1000

1070
    40
1040
2.0
1070
    41
1040
2.0
1070
    42
1040
1.0
1070
    43
1040
8.0
1070
    44
1040
1.0
1070
    73
1070
     0
1070
    74
1070
     0
1070
    77
1070
     1
1070
    78
1070
     8
1070
   140
1040
2.799999999999999
1070
   141
1040
0.8
1070
   145
1040
1.0
1070
   147
1040
1.0
1070
   172
1070
     1
1070
   174
1070
     1
1070
   271
1070
     3
1070
   284
1070
     8
1070
   342
1005
0
1002
}
1000
LEANOF
1010
0.0
1020
0.0
1030
0.0
  0
LINE
  5
87
330
2
100
AcDbEntity
  8
L-TYUSIN
 48
0.4
100
AcDbLine
 10
210.5462316362713
 20
185.6876620682755
 30
0.0
 11
210.5462316362713
 21
175.6876620682749
 31
0.0
  0
LINE
  5
88
330
2
100
AcDbEntity
  8
L-TYUSIN
 48
0.4
100
AcDbLine
 10
230.5462316362713
 20
185.6876620682752
 30
0.0
 11
216.5462316362713
 21
185.6876620682752
 31
0.0
  0
CIRCLE
  5
89
330
2
100
AcDbEntity
  8
L-ZISSEN
100
AcDbCircle
 10
321.9999517400769
 20
99.99999941689843
 30
0.0
 40
2.5
  0
CIRCLE
  5
8A
330
2
100
AcDbEntity
  8
L-ZISSEN
100
AcDbCircle
 10
321.9999517400769
 20
99.99999941689843
 30
0.0
 40
2.149999999999999
  0
LINE
  5
8B
330
2
100
AcDbEntity
  8
L-ZISSEN
100
AcDbLine
 10
288.7999517400769
 20
83.99999941689801
 30
0.0
 11
288.7999517400769
 21
115.9999994168988
 31
0.0
  0
LINE
  5
8C
330
2
100
AcDbEntity
  8
L-TYUSIN
 48
0.4
100
AcDbLine
 10
274.999951740077
 20
109.9999994168983
 30
0.0
 11
274.999951740077
 21
89.99999941689841
 31
0.0
  0
CIRCLE
  5
8D
330
2
100
AcDbEntity
  8
L-ZISSEN
100
AcDbCircle
 10
274.999951740077
 20
99.99999941689841
 30
0.0
 40
5.7225
  0
LINE
  5
8E
330
2
100
AcDbEntity
  8
L-ZISSEN
100
AcDbLine
 10
374.4999517400789
 20
88.5999994168983
 30
0.0
 11
331.3999517400768
 21
88.59999941689832
 31
0.0
  0
LINE
  5
8F
330
2
100
AcDbEntity
  8
L-ZISSEN
100
AcDbLine
 10
374.4999517400789
 20
111.3999994168984
 30
0.0
 11
331.3999517400768
 21
111.3999994168984
 31
0.0
  0
LINE
  5
90
330
2
100
AcDbEntity
  8
L-ZISSEN
100
AcDbLine
 10
371.9999517400791
 20
84.99999941689841
 30
0.0
 11
342.399951740079
 21
84.99999941689841
 31
0.0
  0
LINE
  5
91
330
2
100
AcDbEntity
  8
L-ZISSEN
100
AcDbLine
 10
371.9999517400791
 20
84.99999941689841
 30
0.0
 11
342.399951740079
 21
84.99999941689841
 31
0.0
  0
LINE
  5
92
330
2
100
AcDbEntity
  8
L-ZISSEN
100
AcDbLine
 10
371.9999517400789
 20
114.9999994168984
 30
0.0
 11
342.399951740079
 21
114.9999994168986
 31
0.0
  0
LINE
  5
93
330
2
100
AcDbEntity
  8
L-ZISSEN
100
AcDbLine
 10
371.9999517400789
 20
114.9999994168984
 30
0.0
 11
342.399951740079
 21
114.9999994168986
 31
0.0
  0
LINE
  5
94
330
2
100
AcDbEntity
  8
L-ZISSEN
100
AcDbLine
 10
342.399951740079
 20
114.9999994168986
 30
0.0
 11
342.399951740079
 21
84.99999941689841
 31
0.0
  0
LINE
  5
95
330
2
100
AcDbEntity
  8
L-ZISSEN
100
AcDbLine
 10
342.399951740079
 20
114.9999994168986
 30
0.0
 11
342.399951740079
 21
84.99999941689841
 31
0.0
  0
LINE
  5
96
330
2
100
AcDbEntity
  8
L-ZISSEN
100
AcDbLine
 10
331.3999517400768
 20
83.99999941689797
 30
0.0
 11
331.3999517400768
 21
115.9999994168988
 31
0.0
  0
LINE
  5
97
330
2
100
AcDbEntity
  8
L-TYUSIN
 48
0.4
100
AcDbLine
 10
321.9999517400769
 20
94.49999941689842
 30
0.0
 11
321.9999517400769
 21
105.4999994168984
 31
0.0
  0
LINE
  5
98
330
2
100
AcDbEntity
  8
L-ZISSEN
100
AcDbLine
 10
372.4999517400789
 20
88.59999941689832
 30
0.0
 11
372.4999517400789
 21
111.3999994168984
 31
0.0
  0
LINE
  5
99
330
2
100
AcDbEntity
  8
L-ZISSEN
100
AcDbLine
 10
374.4999517400789
 20
111.1999994168982
 30
0.0
 11
374.4999517400789
 21
88.5999994168983
 31
0.0
  0
LINE
  5
9A
330
2
100
AcDbEntity
  8
L-ZISSEN
100
AcDbLine
 10
374.499951740079
 20
90.24999941689841
 30
0.0
 11
374.4999517400789
 21
88.5999994168983
 31
0.0
  0
LINE
  5
9B
330
2
100
AcDbEntity
  8
L-ZISSEN
100
AcDbLine
 10
373.4999517400789
 20
90.2499994168984
 30
0.0
 11
372.4999517400789
 21
90.2499994168984
 31
0.0
  0
LINE
  5
9C
330
2
100
AcDbEntity
  8
L-ZISSEN
100
AcDbLine
 10
374.499951740079
 20
90.24999941689841
 30
0.0
 11
372.4999517400789
 21
90.2499994168984
 31
0.0
  0
LINE
  5
9D
330
2
100
AcDbEntity
  8
L-ZISSEN
100
AcDbLine
 10
371.9999517400789
 20
88.59999941689832
 30
0.0
 11
371.9999517400791
 21
84.99999941689841
 31
0.0
  0
LINE
  5
9E
330
2
100
AcDbEntity
  8
L-ZISSEN
100
AcDbLine
 10
371.9999517400789
 20
88.59999941689832
 30
0.0
 11
371.9999517400791
 21
84.99999941689841
 31
0.0
  0
LINE
  5
9F
330
2
100
AcDbEntity
  8
L-ZISSEN
100
AcDbLine
 10
374.4999517400789
 20
96.49999941689841
 30
0.0
 11
372.4999517400789
 21
96.49999941689841
 31
0.0
  0
LINE
  5
A0
330
2
100
AcDbEntity
  8
L-ZISSEN
100
AcDbLine
 10
374.4999517400789
 20
95.74999941689842
 30
0.0
 11
372.4999517400789
 21
95.7499994168984
 31
0.0
  0
LINE
  5
A1
330
2
100
AcDbEntity
  8
L-ZISSEN
100
AcDbLine
 10
371.9999517400789
 20
114.9999994168984
 30
0.0
 11
371.9999517400789
 21
111.3999994168987
 31
0.0
  0
LINE
  5
A2
330
2
100
AcDbEntity
  8
L-ZISSEN
100
AcDbLine
 10
371.9999517400789
 20
114.9999994168984
 30
0.0
 11
371.9999517400786
 21
111.3999994168987
 31
0.0
  0
LINE
  5
A3
330
2
100
AcDbEntity
  8
L-TYUSIN
 48
0.4
100
AcDbLine
 10
261.5462316362713
 20
192.6876620682754
 30
0.0
 11
261.5462316362713
 21
178.6876620682748
 31
0.0
  0
LINE
  5
A4
330
2
100
AcDbEntity
  8
L-TYUSIN
 48
0.4
100
AcDbLine
 10
274.5462316362713
 20
185.6876620682755
 30
0.0
 11
274.5462316362713
 21
175.6876620682749
 31
0.0
  0
LINE
  5
A5
330
2
100
AcDbEntity
  8
L-ZISSEN
100
AcDbLine
 10
373.5462316362713
 20
190.9876620682751
 30
0.0
 11
341.5462316362712
 21
190.9876620682751
 31
0.0
  0
LINE
  5
A6
330
2
100
AcDbEntity
  8
L-ZISSEN
100
AcDbLine
 10
373.5462316362713
 20
222.3876620682752
 30
0.0
 11
341.5462316362712
 21
222.3876620682752
 31
0.0
  0
LINE
  5
A7
330
2
100
AcDbEntity
  8
L-ZISSEN
100
AcDbLine
 10
341.3462316362712
 20
190.9876620682751
 30
0.0
 11
330.3462316362713
 21
190.9876620682751
 31
0.0
  0
LINE
  5
A8
330
2
100
AcDbEntity
  8
L-ZISSEN
100
AcDbLine
 10
341.5462316362712
 20
190.9876620682751
 30
0.0
 11
341.3462316362712
 21
190.9876620682751
 31
0.0
  0
LINE
  5
A9
330
2
100
AcDbEntity
  8
L-ZISSEN
100
AcDbLine
 10
338.1462316362712
 20
222.687662068275
 30
0.0
 11
332.9462316362714
 21
222.687662068275
 31
0.0
  0
LINE
  5
AA
330
2
100
AcDbEntity
  8
L-ZISSEN
100
AcDbLine
 10
338.1462316362713
 20
222.687662068275
 30
0.0
 11
332.9462316362714
 21
222.687662068275
 31
0.0
  0
LINE
  5
AB
330
2
100
AcDbEntity
  8
L-ZISSEN
100
AcDbLine
 10
341.3462316362712
 20
222.3876620682753
 30
0.0
 11
330.3462316362713
 21
222.3876620682752
 31
0.0
  0
LINE
  5
AC
330
2
100
AcDbEntity
  8
L-ZISSEN
100
AcDbLine
 10
332.9462316362714
 20
222.687662068275
 30
0.0
 11
332.9462316362714
 21
222.3876620682753
 31
0.0
  0
LINE
  5
AD
330
2
100
AcDbEntity
  8
L-ZISSEN
100
AcDbLine
 10
338.1462316362713
 20
222.687662068275
 30
0.0
 11
338.1462316362713
 21
222.3876620682753
 31
0.0
  0
LINE
  5
AE
330
2
100
AcDbEntity
  8
L-ZISSEN
100
AcDbLine
 10
341.5462316362712
 20
222.3876620682752
 30
0.0
 11
341.3462316362712
 21
222.3876620682753
 31
0.0
  0
LINE
  5
AF
330
2
100
AcDbEntity
  8
L-ZISSEN
100
AcDbLine
 10
371.5462316362713
 20
190.9876620682751
 30
0.0
 11
371.5462316362712
 21
222.3876620682752
 31
0.0
  0
LINE
  5
B0
330
2
100
AcDbEntity
  8
L-ZISSEN
100
AcDbLine
 10
373.5462316362713
 20
222.3876620682752
 30
0.0
 11
373.5462316362713
 21
190.9876620682751
 31
0.0
  0
LINE
  5
B1
330
2
100
AcDbEntity
  8
L-ZISSEN
100
AcDbLine
 10
373.5462316362713
 20
214.1876620682754
 30
0.0
 11
371.5462316362712
 21
214.1876620682754
 31
0.0
  0
LINE
  5
B2
330
2
100
AcDbEntity
  8
L-ZISSEN
100
AcDbLine
 10
373.5462316362713
 20
214.9376620682754
 30
0.0
 11
371.5462316362712
 21
214.9376620682754
 31
0.0
  0
LINE
  5
B3
330
2
100
AcDbEntity
  8
L-ZISSEN
100
AcDbLine
 10
373.5462316362713
 20
220.4376620682754
 30
0.0
 11
371.5462316362712
 21
220.4376620682754
 31
0.0
  0
LINE
  5
B4
330
2
100
AcDbEntity
  8
L-ZISSEN
100
AcDbLine
 10
373.5462316362713
 20
214.9376620682754
 30
0.0
 11
373.5462316362713
 21
220.4376620682754
 31
0.0
  0
LINE
  5
B5
330
2
100
AcDbEntity
  8
L-ZISSEN
100
AcDbLine
 10
114.1999517400748
 20
354.4571281578771
 30
0.0
 11
144.1999517400748
 21
354.4571281578771
 31
0.0
  0
LINE
  5
B6
330
2
100
AcDbEntity
  8
L-ZISSEN
100
AcDbLine
 10
113.9999517400748
 20
354.4571281578771
 30
0.0
 11
143.9999517400748
 21
354.4571281578771
 31
0.0
  0
TEXT
  5
B7
330
2
100
AcDbEntity
  8
L-ZISSEN
100
AcDbText
 10
116.7901995541292
 20
441.1953468608508
 30
0.0
 40
4.5
  1
MODEL No. 
100
AcDbText
  0
TEXT
  5
B8
330
2
100
AcDbEntity
  8
L-ZISSEN
100
AcDbText
 10
116.7901995541292
 20
431.8744425175135
 30
0.0
 40
4.5
  1
MVD-495-02Y
100
AcDbText
  0
LINE
  5
B9
330
2
100
AcDbEntity
  8
L-ZISSEN
100
AcDbLine
 10
113.5462316362714
 20
226.1876620682753
 30
0.0
 11
143.5462316362713
 21
226.1876620682745
 31
0.0
  0
LINE
  5
BA
330
2
100
AcDbEntity
  8
L-ZISSEN
100
AcDbLine
 10
143.5462316362713
 20
231.1876620682752
 30
0.0
 11
113.5462316362714
 21
231.1876620682753
 31
0.0
  0
LINE
  5
BB
330
2
100
AcDbEntity
  8
L-ZISSEN
100
AcDbLine
 10
114.7962316362713
 20
266.6876620682755
 30
0.0
 11
142.2962316362715
 21
266.6876620682755
 31
0.0
  0
LINE
  5
BC
330
2
100
AcDbEntity
  8
L-ZISSEN
100
AcDbLine
 10
143.5462316362713
 20
235.6876620682753
 30
0.0
 11
113.5462316362714
 21
235.6876620682754
 31
0.0
  0
LINE
  5
BD
330
2
100
AcDbEntity
  8
L-ZISSEN
100
AcDbLine
 10
114.1999517400749
 20
324.4571281578771
 30
0.0
 11
144.1999517400748
 21
324.4571281578769
 31
0.0
  0
LINE
  5
BE
330
2
100
AcDbEntity
  8
L-ZISSEN
100
AcDbLine
 10
113.9999517400749
 20
324.4571281578771
 30
0.0
 11
143.9999517400748
 21
324.4571281578769
 31
0.0
  0
LINE
  5
BF
330
2
100
AcDbEntity
  8
L-ZISSEN
100
AcDbLine
 10
89.54623163627147
 20
266.6573171828782
 30
0.0
 11
89.54623163627147
 21
244.7180069536726
 31
0.0
  0
LINE
  5
C0
330
2
100
AcDbEntity
  8
L-ZISSEN
100
AcDbLine
 10
94.54623163627147
 20
266.6573171828782
 30
0.0
 11
94.54623163627147
 21
244.7180069536726
 31
0.0
  0
LINE
  5
C1
330
2
100
AcDbEntity
  8
L-ZISSEN
100
AcDbLine
 10
99.29623163627159
 20
266.6876620682755
 30
0.0
 11
99.29623163627159
 21
244.2876620682754
 31
0.0
  0
LINE
  5
C2
330
2
100
AcDbEntity
  8
L-ZISSEN
100
AcDbLine
 10
114.7962316362713
 20
266.6876620682755
 30
0.0
 11
114.7962316362712
 21
235.4876620682754
 31
0.0
  0
LINE
  5
C3
330
2
100
AcDbEntity
  8
L-ZISSEN
100
AcDbLine
 10
99.29623163627159
 20
244.2876620682754
 30
0.0
 11
114.7962316362713
 21
244.2876620682754
 31
0.0
  0
LINE
  5
C4
330
2
100
AcDbEntity
  8
L-TYUSIN
 48
0.4
100
AcDbLine
 10
84.2462316362714
 20
255.6876620682754
 30
0.0
 11
128.5462316362716
 21
255.6876620682754
 31
0.0
  0
LINE
  5
C5
330
2
100
AcDbEntity
  8
L-ZISSEN
100
AcDbLine
 10
94.54623163627147
 20
246.5376620682756
 30
0.0
 11
99.29623163627159
 21
246.5376620682756
 31
0.0
  0
LINE
  5
C6
330
2
100
AcDbEntity
  8
L-ZISSEN
100
AcDbLine
 10
89.54623163627147
 20
244.7180069536726
 30
0.0
 11
94.54623163627147
 21
244.7180069536726
 31
0.0
  0
LINE
  5
C7
330
2
100
AcDbEntity
  8
L-ZISSEN
100
AcDbLine
 10
113.5462316362714
 20
226.1876620682752
 30
0.0
 11
113.5462316362714
 21
235.6876620682754
 31
0.0
  0
LINE
  5
C8
330
2
100
AcDbEntity
  8
L-ZISSEN
100
AcDbLine
 10
118.6462316362715
 20
231.1876620682752
 30
0.0
 11
118.0462316362714
 21
231.1876620682753
 31
0.0
  0
LINE
  5
C9
330
2
100
AcDbEntity
  8
L-ZISSEN
100
AcDbLine
 10
99.29623163627159
 20
266.6876620682755
 30
0.0
 11
114.7962316362713
 21
266.6876620682754
 31
0.0
  0
LINE
  5
CA
330
2
100
AcDbEntity
  8
L-ZISSEN
100
AcDbLine
 10
94.54623163627147
 20
264.6376620682753
 30
0.0
 11
99.29623163627159
 21
264.6376620682753
 31
0.0
  0
LINE
  5
CB
330
2
100
AcDbEntity
  8
L-ZISSEN
100
AcDbLine
 10
89.54623163627147
 20
266.6876171828783
 30
0.0
 11
94.54623163627147
 21
266.6876171828783
 31
0.0
  0
LINE
  5
CC
330
2
100
AcDbEntity
  8
L-ZISSEN
100
AcDbLine
 10
89.54623163627147
 20
266.6573171828782
 30
0.0
 11
89.54623163627147
 21
266.6876171828783
 31
0.0
  0
LINE
  5
CD
330
2
100
AcDbEntity
  8
L-ZISSEN
100
AcDbLine
 10
94.54623163627147
 20
266.6573171828782
 30
0.0
 11
94.54623163627147
 21
266.6876171828783
 31
0.0
  0
LINE
  5
CE
330
2
100
AcDbEntity
  8
L-TYUSIN
 48
0.4
100
AcDbLine
 10
128.9999517400749
 20
321.9571281578771
 30
0.0
 11
128.9999517400748
 21
356.9571281578771
 31
0.0
  0
LINE
  5
CF
330
2
100
AcDbEntity
  8
L-ZISSEN
100
AcDbLine
 10
113.9999517400748
 20
354.4571281578771
 30
0.0
 11
113.9999517400749
 21
324.4571281578771
 31
0.0
  0
LINE
  5
D0
330
2
100
AcDbEntity
  8
L-ZISSEN
100
AcDbLine
 10
99.74995174007469
 20
350.6571281578773
 30
0.0
 11
113.9999517400748
 21
350.6571281578773
 31
0.0
  0
LINE
  5
D1
330
2
100
AcDbEntity
  8
L-ZISSEN
100
AcDbLine
 10
99.74995174007469
 20
328.2571281578773
 30
0.0
 11
113.9999517400749
 21
328.2571281578772
 31
0.0
  0
LINE
  5
D2
330
2
100
AcDbEntity
  8
L-ZISSEN
100
AcDbLine
 10
89.54623163627145
 20
348.9571281578772
 30
0.0
 11
89.54623163627145
 21
329.9571281578772
 31
0.0
  0
LINE
  5
D3
330
2
100
AcDbEntity
  8
L-ZISSEN
100
AcDbLine
 10
94.54623163627145
 20
348.9571281578772
 30
0.0
 11
94.54623163627166
 21
329.9571281578773
 31
0.0
  0
LINE
  5
D4
330
2
100
AcDbEntity
  8
L-ZISSEN
100
AcDbLine
 10
99.74995174007469
 20
350.6571281578773
 30
0.0
 11
99.74995174007469
 21
328.2571281578773
 31
0.0
  0
LINE
  5
D5
330
2
100
AcDbEntity
  8
L-ZISSEN
100
AcDbLine
 10
94.54623163627166
 20
330.3071281578771
 30
0.0
 11
99.74995174007469
 21
330.3071281578771
 31
0.0
  0
LINE
  5
D6
330
2
100
AcDbEntity
  8
L-ZISSEN
100
AcDbLine
 10
89.54623163627145
 20
329.9571281578772
 30
0.0
 11
94.54623163627166
 21
329.9571281578773
 31
0.0
  0
LINE
  5
D7
330
2
100
AcDbEntity
  8
L-ZISSEN
100
AcDbLine
 10
90.14098643170502
 20
339.4571281578759
 30
0.0
 11
94.54623163627145
 21
339.4571281578773
 31
0.0
  0
LINE
  5
D8
330
2
100
AcDbEntity
  8
L-ZISSEN
100
AcDbLine
 10
94.54623163627145
 20
348.6071281578771
 30
0.0
 11
99.74995174007469
 21
348.6071281578772
 31
0.0
  0
LINE
  5
D9
330
2
100
AcDbEntity
  8
L-ZISSEN
100
AcDbLine
 10
89.54623163627145
 20
348.9571281578772
 30
0.0
 11
94.54623163627166
 21
348.9571281578772
 31
0.0
  0
LINE
  5
DA
330
2
100
AcDbEntity
  8
L-TYUSIN
 48
0.4
100
AcDbLine
 10
127.4089614824037
 20
341.0481184155481
 30
0.0
 11
130.5909419977442
 21
337.8661379002075
 31
0.0
  0
LINE
  5
DB
330
2
100
AcDbEntity
  8
L-TYUSIN
 48
0.4
100
AcDbLine
 10
130.5909419977458
 20
341.0481184155481
 30
0.0
 11
127.4089614824065
 21
337.8661379002087
 31
0.0
  0
CIRCLE
  5
DC
330
2
100
AcDbEntity
  8
L-ZISSEN
100
AcDbCircle
 10
128.9999517400747
 20
339.4571281578772
 30
0.0
 40
3.25
  0
LEADER
  5
DD
330
2
100
AcDbEntity
  8
L-ZISSEN
100
AcDbLeader
  3
STANDARD
 73
     0
 74
     0
 40
5.599999999999999
 41
9.599999999999997
 76
     3
 10
321.9999517400769
 20
339.457128157877
 30
0.0
 10
333.3187950307249
 20
374.9206622712282
 30
0.0
 10
342.54243242488
 20
374.9206622712282
 30
0.0
1001
ACAD
1000
DSTYLE
1002
{
1070
     5
1000

1070
    40
1040
2.0
1070
    41
1040
2.0
1070
    42
1040
1.0
1070
    43
1040
8.0
1070
    44
1040
1.0
1070
    73
1070
     0
1070
    74
1070
     0
1070
    77
1070
     1
1070
    78
1070
     8
1070
   140
1040
2.799999999999999
1070
   141
1040
0.8
1070
   145
1040
1.0
1070
   147
1040
1.0
1070
   172
1070
     1
1070
   174
1070
     1
1070
   271
1070
     3
1070
   284
1070
     8
1070
   342
1005
0
1002
}
1000
LEANOF
1010
0.0
1020
0.0
1030
0.0
  0
LINE
  5
DE
330
2
100
AcDbEntity
  8
L-ZISSEN
100
AcDbLine
 10
330.7999517400769
 20
355.4571281578775
 30
0.0
 11
155.199951740077
 21
355.4571281578775
 31
0.0
  0
CIRCLE
  5
DF
330
2
100
AcDbEntity
  8
L-ZISSEN
100
AcDbCircle
 10
258.999951740077
 20
339.4571281578771
 30
0.0
 40
5.7225
  0
LINE
  5
E0
330
2
100
AcDbEntity
  8
L-ZISSEN
100
AcDbLine
 10
330.3462316362713
 20
232.6876620682752
 30
0.0
 11
154.7462316362713
 21
232.6876620682752
 31
0.0
  0
LINE
  5
E1
330
2
100
AcDbEntity
  8
L-ZISSEN
100
AcDbLine
 10
330.7999517400769
 20
323.4571281578766
 30
0.0
 11
155.199951740077
 21
323.4571281578766
 31
0.0
  0
LINE
  5
E2
330
2
100
AcDbEntity
  8
L-ZISSEN
100
AcDbLine
 10
142.4962316362715
 20
266.6876620682755
 30
0.0
 11
142.4962316362714
 21
235.4876620682753
 31
0.0
  0
LINE
  5
E3
330
2
100
AcDbEntity
  8
L-ZISSEN
100
AcDbLine
 10
150.158038249003
 20
224.291787239743
 30
0.0
 11
157.7856783844615
 21
248.0312847845186
 31
0.0
  0
LINE
  5
E4
330
2
100
AcDbEntity
  8
L-ZISSEN
100
AcDbLine
 10
143.5462316362713
 20
231.1876620682752
 30
0.0
 11
143.7462316362713
 21
231.1876620682752
 31
0.0
  0
LINE
  5
E5
330
2
100
AcDbEntity
  8
L-ZISSEN
100
AcDbLine
 10
143.5462316362713
 20
226.1876620682745
 30
0.0
 11
143.7462316362713
 21
226.1876620682745
 31
0.0
  0
LINE
  5
E6
330
2
100
AcDbEntity
  8
L-ZISSEN
100
AcDbLine
 10
143.5462316362713
 20
235.6876620682753
 30
0.0
 11
143.7462316362713
 21
235.6876620682753
 31
0.0
  0
LINE
  5
E7
330
2
100
AcDbEntity
  8
L-ZISSEN
100
AcDbLine
 10
157.7856783844615
 20
248.0312847845186
 30
0.0
 11
159.7856783844615
 21
248.0312847845186
 31
0.0
  0
LINE
  5
E8
330
2
100
AcDbEntity
  8
L-ZISSEN
100
AcDbLine
 10
142.2962316362715
 20
266.6876620682755
 30
0.0
 11
142.4962316362715
 21
266.6876620682755
 31
0.0
  0
LINE
  5
E9
330
2
100
AcDbEntity
  8
L-TYUSIN
 48
0.4
100
AcDbLine
 10
226.5462316362713
 20
237.6876620682749
 30
0.0
 11
226.5462316362713
 21
227.6876620682755
 31
0.0
  0
LINE
  5
EA
330
2
100
AcDbEntity
  8
L-TYUSIN
 48
0.4
100
AcDbLine
 10
235.5462316362713
 20
227.6876620682752
 30
0.0
 11
249.5462316362713
 21
227.6876620682752
 31
0.0
  0
CIRCLE
  5
EB
330
2
100
AcDbEntity
  8
L-ZISSEN
100
AcDbCircle
 10
242.5462316362712
 20
227.6876620682752
 30
0.0
 40
2.75
  0
LINE
  5
EC
330
2
100
AcDbEntity
  8
L-TYUSIN
 48
0.4
100
AcDbLine
 10
258.5462316362713
 20
237.6876620682749
 30
0.0
 11
258.5462316362713
 21
227.6876620682755
 31
0.0
  0
LINE
  5
ED
330
2
100
AcDbEntity
  8
L-ZISSEN
100
AcDbLine
 10
197.199951740077
 20
355.0571281578771
 30
0.0
 11
197.1999517400769
 21
323.8571281578771
 31
0.0
  0
LINE
  5
EE
330
2
100
AcDbEntity
  8
L-ZISSEN
100
AcDbLine
 10
197.199951740077
 20
355.4571281578775
 30
0.0
 11
197.199951740077
 21
323.4571281578766
 31
0.0
  0
LINE
  5
EF
330
2
100
AcDbEntity
  8
L-ZISSEN
100
AcDbLine
 10
155.199951740077
 20
323.4571281578766
 30
0.0
 11
155.199951740077
 21
355.4571281578775
 31
0.0
  0
LINE
  5
F0
330
2
100
AcDbEntity
  8
L-ZISSEN
100
AcDbLine
 10
144.1999517400748
 20
324.4571281578769
 30
0.0
 11
144.1999517400748
 21
354.4571281578771
 31
0.0
  0
LINE
  5
F1
330
2
100
AcDbEntity
  8
L-ZISSEN
100
AcDbLine
 10
144.1999517400748
 20
324.4571281578769
 30
0.0
 11
144.1999517400748
 21
354.4571281578771
 31
0.0
  0
LINE
  5
F2
330
2
100
AcDbEntity
  8
L-TYUSIN
 48
0.4
100
AcDbLine
 10
149.9999517400748
 20
334.3571281578772
 30
0.0
 11
149.9999517400748
 21
344.5571281578768
 31
0.0
  0
LINE
  5
F3
330
2
100
AcDbEntity
  8
L-ZISSEN
100
AcDbLine
 10
144.1999517400748
 20
328.057128157877
 30
0.0
 11
155.1999517400771
 21
328.057128157877
 31
0.0
  0
LINE
  5
F4
330
2
100
AcDbEntity
  8
L-ZISSEN
100
AcDbLine
 10
144.1999517400748
 20
328.057128157877
 30
0.0
 11
155.1999517400771
 21
328.057128157877
 31
0.0
  0
CIRCLE
  5
F5
330
2
100
AcDbEntity
  8
L-ZISSEN
100
AcDbCircle
 10
149.9999517400748
 20
339.4571281578771
 30
0.0
 40
2.600000000000008
  0
CIRCLE
  5
F6
330
2
100
AcDbEntity
  8
L-ZISSEN
100
AcDbCircle
 10
149.9999517400748
 20
339.4571281578771
 30
0.0
 40
1.500000000000099
  0
LINE
  5
F7
330
2
100
AcDbEntity
  8
L-ZISSEN
100
AcDbLine
 10
144.1999517400747
 20
350.8571281578772
 30
0.0
 11
155.1999517400769
 21
350.8571281578772
 31
0.0
  0
LINE
  5
F8
330
2
100
AcDbEntity
  8
L-ZISSEN
100
AcDbLine
 10
144.1999517400747
 20
350.8571281578772
 30
0.0
 11
155.1999517400769
 21
350.8571281578772
 31
0.0
  0
LINE
  5
F9
330
2
100
AcDbEntity
  8
L-TYUSIN
 48
0.4
100
AcDbLine
 10
242.9999517400769
 20
359.4571281578771
 30
0.0
 11
242.9999517400769
 21
319.4571281578771
 31
0.0
  0
CIRCLE
  5
FA
330
2
100
AcDbEntity
  8
L-ZISSEN
100
AcDbCircle
 10
226.999951740077
 20
339.4571281578771
 30
0.0
 40
5.7225
  0
LINE
  5
FB
330
2
100
AcDbEntity
  8
L-TYUSIN
 48
0.4
100
AcDbLine
 10
226.999951740077
 20
349.4571281578771
 30
0.0
 11
226.999951740077
 21
329.4571281578771
 31
0.0
  0
LINE
  5
FC
330
2
100
AcDbEntity
  8
L-TYUSIN
 48
0.4
100
AcDbLine
 10
258.999951740077
 20
349.4571281578771
 30
0.0
 11
258.999951740077
 21
329.4571281578771
 31
0.0
  0
LINE
  5
FD
330
2
100
AcDbEntity
  8
L-ZISSEN
100
AcDbLine
 10
342.5962316362709
 20
266.6876620682755
 30
0.0
 11
342.5962316362711
 21
235.4876620682753
 31
0.0
  0
LINE
  5
FE
330
2
100
AcDbEntity
  8
L-ZISSEN
100
AcDbLine
 10
370.2962316362712
 20
266.6876620682755
 30
0.0
 11
370.2962316362714
 21
235.4876620682754
 31
0.0
  0
LINE
  5
FF
330
2
100
AcDbEntity
  8
L-ZISSEN
100
AcDbLine
 10
371.5462316362711
 20
226.1876620682753
 30
0.0
 11
341.5462316362712
 21
226.1876620682745
 31
0.0
  0
LINE
  5
100
330
2
100
AcDbEntity
  8
L-ZISSEN
100
AcDbLine
 10
341.5462316362712
 20
231.1876620682752
 30
0.0
 11
371.5462316362711
 21
231.1876620682753
 31
0.0
  0
LINE
  5
101
330
2
100
AcDbEntity
  8
L-ZISSEN
100
AcDbLine
 10
341.5462316362712
 20
235.6876620682753
 30
0.0
 11
371.5462316362711
 21
235.6876620682754
 31
0.0
  0
LINE
  5
102
330
2
100
AcDbEntity
  8
L-ZISSEN
100
AcDbLine
 10
334.9344250235394
 20
224.291787239743
 30
0.0
 11
327.3067848880809
 21
248.0312847845186
 31
0.0
  0
LINE
  5
103
330
2
100
AcDbEntity
  8
L-ZISSEN
100
AcDbLine
 10
341.5462316362712
 20
231.1876620682752
 30
0.0
 11
341.3462316362712
 21
231.1876620682752
 31
0.0
  0
LINE
  5
104
330
2
100
AcDbEntity
  8
L-ZISSEN
100
AcDbLine
 10
341.5462316362712
 20
226.1876620682745
 30
0.0
 11
341.3462316362712
 21
226.1876620682745
 31
0.0
  0
LINE
  5
105
330
2
100
AcDbEntity
  8
L-ZISSEN
100
AcDbLine
 10
341.5462316362712
 20
235.6876620682753
 30
0.0
 11
341.3462316362712
 21
235.6876620682753
 31
0.0
  0
LINE
  5
106
330
2
100
AcDbEntity
  8
L-ZISSEN
100
AcDbLine
 10
327.3067848880809
 20
248.0312847845186
 30
0.0
 11
325.3067848880809
 21
248.0312847845186
 31
0.0
  0
LINE
  5
107
330
2
100
AcDbEntity
  8
L-ZISSEN
100
AcDbLine
 10
371.5462316362711
 20
226.1876620682752
 30
0.0
 11
371.5462316362711
 21
235.6876620682754
 31
0.0
  0
LINE
  5
108
330
2
100
AcDbEntity
  8
L-ZISSEN
100
AcDbLine
 10
366.4462316362711
 20
231.1876620682752
 30
0.0
 11
367.0462316362711
 21
231.1876620682753
 31
0.0
  0
LINE
  5
109
330
2
100
AcDbEntity
  8
L-ZISSEN
100
AcDbLine
 10
370.2962316362712
 20
266.6876620682755
 30
0.0
 11
342.7962316362709
 21
266.6876620682755
 31
0.0
  0
LINE
  5
10A
330
2
100
AcDbEntity
  8
L-ZISSEN
100
AcDbLine
 10
288.7999517400769
 20
355.0571281578771
 30
0.0
 11
288.7999517400769
 21
323.8571281578771
 31
0.0
  0
LINE
  5
10B
330
2
100
AcDbEntity
  8
L-ZISSEN
100
AcDbLine
 10
288.7999517400769
 20
323.4571281578766
 30
0.0
 11
288.7999517400769
 21
355.4571281578775
 31
0.0
  0
LINE
  5
10C
330
2
100
AcDbEntity
  8
L-ZISSEN
100
AcDbLine
 10
341.7999517400792
 20
324.4571281578769
 30
0.0
 11
341.7999517400792
 21
354.4571281578771
 31
0.0
  0
LINE
  5
10D
330
2
100
AcDbEntity
  8
L-ZISSEN
100
AcDbLine
 10
341.7999517400792
 20
324.4571281578769
 30
0.0
 11
341.7999517400792
 21
354.4571281578771
 31
0.0
  0
LINE
  5
10E
330
2
100
AcDbEntity
  8
L-TYUSIN
 48
0.4
100
AcDbLine
 10
356.9999517400791
 20
321.9571281578771
 30
0.0
 11
356.9999517400792
 21
356.9571281578771
 31
0.0
  0
LINE
  5
10F
330
2
100
AcDbEntity
  8
L-ZISSEN
100
AcDbLine
 10
371.9999517400792
 20
354.4571281578771
 30
0.0
 11
371.9999517400791
 21
324.4571281578771
 31
0.0
  0
LINE
  5
110
330
2
100
AcDbEntity
  8
L-ZISSEN
100
AcDbLine
 10
330.7999517400769
 20
323.4571281578766
 30
0.0
 11
330.799951740077
 21
355.4571281578775
 31
0.0
  0
LINE
  5
111
330
2
100
AcDbEntity
  8
L-ZISSEN
100
AcDbLine
 10
371.7999517400791
 20
324.4571281578771
 30
0.0
 11
341.7999517400792
 21
324.4571281578769
 31
0.0
  0
LINE
  5
112
330
2
100
AcDbEntity
  8
L-ZISSEN
100
AcDbLine
 10
371.9999517400791
 20
324.4571281578771
 30
0.0
 11
341.9999517400792
 21
324.4571281578769
 31
0.0
  0
LINE
  5
113
330
2
100
AcDbEntity
  8
L-ZISSEN
100
AcDbLine
 10
371.7999517400792
 20
354.4571281578771
 30
0.0
 11
341.7999517400792
 21
354.4571281578771
 31
0.0
  0
LINE
  5
114
330
2
100
AcDbEntity
  8
L-ZISSEN
100
AcDbLine
 10
371.9999517400792
 20
354.4571281578771
 30
0.0
 11
341.9999517400792
 21
354.4571281578771
 31
0.0
  0
LINE
  5
115
330
2
100
AcDbEntity
  8
L-ZISSEN
100
AcDbLine
 10
341.7999517400792
 20
328.057128157877
 30
0.0
 11
330.7999517400769
 21
328.057128157877
 31
0.0
  0
CIRCLE
  5
116
330
2
100
AcDbEntity
  8
L-ZISSEN
100
AcDbCircle
 10
335.9999517400791
 20
339.4571281578771
 30
0.0
 40
1.500000000000099
  0
LINE
  5
117
330
2
100
AcDbEntity
  8
L-ZISSEN
100
AcDbLine
 10
341.7999517400792
 20
328.057128157877
 30
0.0
 11
330.7999517400769
 21
328.057128157877
 31
0.0
  0
CIRCLE
  5
118
330
2
100
AcDbEntity
  8
L-ZISSEN
100
AcDbCircle
 10
335.9999517400791
 20
339.4571281578771
 30
0.0
 40
2.600000000000008
  0
LINE
  5
119
330
2
100
AcDbEntity
  8
L-TYUSIN
 48
0.4
100
AcDbLine
 10
335.9999517400791
 20
334.3571281578772
 30
0.0
 11
335.9999517400791
 21
344.5571281578768
 31
0.0
  0
LINE
  5
11A
330
2
100
AcDbEntity
  8
L-ZISSEN
100
AcDbLine
 10
341.7999517400793
 20
350.8571281578772
 30
0.0
 11
330.799951740077
 21
350.8571281578772
 31
0.0
  0
LINE
  5
11B
330
2
100
AcDbEntity
  8
L-ZISSEN
100
AcDbLine
 10
341.7999517400793
 20
350.8571281578772
 30
0.0
 11
330.799951740077
 21
350.8571281578772
 31
0.0
  0
CIRCLE
  5
11C
330
2
100
AcDbEntity
  8
L-ZISSEN
100
AcDbCircle
 10
356.9999517400793
 20
339.4571281578772
 30
0.0
 40
3.25
  0
LINE
  5
11D
330
2
100
AcDbEntity
  8
L-TYUSIN
 48
0.4
100
AcDbLine
 10
355.4089614824082
 20
341.0481184155481
 30
0.0
 11
358.5909419977475
 21
337.8661379002087
 31
0.0
  0
LINE
  5
11E
330
2
100
AcDbEntity
  8
L-TYUSIN
 48
0.4
100
AcDbLine
 10
358.5909419977502
 20
341.0481184155481
 30
0.0
 11
355.4089614824097
 21
337.8661379002075
 31
0.0
  0
TEXT
  5
11F
330
2
100
AcDbEntity
  8
L-ZISSEN
100
AcDbText
 10
116.7901995541292
 20
422.5535381741762
 30
0.0
 40
4.5
  1
             03JY
100
AcDbText
  0
MTEXT
  5
120
330
2
100
AcDbEntity
  8
L-ZISSEN
100
AcDbMText
 10
344.54243242488
 20
376.9206622712282
 30
0.0
 40
4.5
 41
0.0
 71
     7
 72
     1
  1
P.P
1001
ACAD
1000
MTEXTBEGIN
1070
    73
1070
     1
1070
    44
1040
1.0
1070
    74
1070
     0
1000
MTEXTEND
1000
MTEXTBEGIN
1070
    73
1070
     1
1070
    44
1040
1.0
1070
    74
1070
     0
1000
MTEXTEND
1000
MTEXTBEGIN
1070
    73
1070
     1
1070
    44
1040
1.0
1070
    74
1070
     0
1000
MTEXTEND
1000
MTEXTBEGIN
1070
    73
1070
     1
1070
    44
1040
1.0
1070
    74
1070
     0
1000
MTEXTEND
  0
LINE
  5
121
330
2
100
AcDbEntity
  8
L-ZISSEN
100
AcDbLine
 10
149.3881451273429
 20
337.5530029864094
 30
0.0000000232876899
 11
141.7605049918844
 21
313.8135054416338
 31
0.0000000232876899
  0
TEXT
  5
122
330
2
100
AcDbEntity
  8
L-ZISSEN
100
AcDbText
 10
128.9446939659185
 20
311.399958991483
 30
0.0000000232876899
 40
4.5
  1
P.P
100
AcDbText
  0
LINE
  5
123
330
2
100
AcDbEntity
  8
L-ZISSEN
100
AcDbLine
 10
141.7605049918844
 20
313.8135054416338
 30
0.0000000232876899
 11
139.7605049918844
 21
313.8135054416338
 31
0.0000000232876899
  0
TEXT
  5
124
330
2
100
AcDbEntity
  8
L-ZISSEN
100
AcDbText
 10
161.6502943761427
 20
245.6249461559939
 30
0.0000000232876899
 40
4.5
  1
P.P
100
AcDbText
  0
SOLID
  5
125
330
2
100
AcDbEntity
  8
L-ZISSEN
100
AcDbTrace
 10
149.7054993225875
 20
337.4510352176206
 30
0.0000000232876899
 11
149.0707909320982
 21
337.6549707551978
 31
0.0000000232876899
 12
149.9999517400748
 22
339.4571281578771
 32
0.0000000232876899
 13
149.9999517400748
 23
339.4571281578771
 33
0.0000000232876899
  0
LINE
  5
126
330
2
100
AcDbEntity
  8
L-TYUSIN
100
AcDbLine
 10
151.5999517400749
 20
339.4571281578771
 30
0.0000000232876899
 11
148.3999517400748
 21
339.4571281578771
 31
0.0000000232876899
  0
LINE
  5
127
330
2
100
AcDbEntity
  8
L-TYUSIN
100
AcDbLine
 10
149.9999517400748
 20
337.8571281578771
 30
0.0000000232876899
 11
149.9999517400748
 21
341.0571281578771
 31
0.0000000232876899
  0
TEXT
  5
128
330
2
100
AcDbEntity
  8
L-ZISSEN
100
AcDbText
 10
314.4421688963998
 20
245.6249461559939
 30
0.0000000232876899
 40
4.5
  1
P.P
100
AcDbText
  0
LINE
  5
129
330
2
100
AcDbEntity
  8
L-ZISSEN
100
AcDbLine
 10
336.611758352811
 20
337.5530029864094
 30
0.0000000232876899
 11
344.2393984882694
 21
313.8135054416338
 31
0.0000000232876899
  0
TEXT
  5
12A
330
2
100
AcDbEntity
  8
L-ZISSEN
100
AcDbText
 10
348.0552095142353
 20
311.399958991483
 30
0.0000000232876899
 40
4.5
  1
P.P
100
AcDbText
  0
LINE
  5
12B
330
2
100
AcDbEntity
  8
L-ZISSEN
100
AcDbLine
 10
344.2393984882694
 20
313.8135054416338
 30
0.0000000232876899
 11
346.2393984882695
 21
313.8135054416338
 31
0.0000000232876899
  0
LINE
  5
12C
330
2
100
AcDbEntity
  8
L-TYUSIN
100
AcDbLine
 10
334.3999517400791
 20
339.4571281578771
 30
0.0000000232876899
 11
337.5999517400791
 21
339.4571281578771
 31
0.0000000232876899
  0
SOLID
  5
12D
330
2
100
AcDbEntity
  8
L-ZISSEN
100
AcDbTrace
 10
336.2944041575664
 20
337.4510352176206
 30
0.0000000232876899
 11
336.9291125480557
 21
337.6549707551978
 31
0.0000000232876899
 12
335.9999517400791
 22
339.4571281578771
 32
0.0000000232876899
 13
335.9999517400791
 23
339.4571281578771
 33
0.0000000232876899
  0
LINE
  5
12E
330
2
100
AcDbEntity
  8
L-TYUSIN
100
AcDbLine
 10
335.9999517400791
 20
337.8571281578771
 30
0.0000000232876899
 11
335.9999517400791
 21
341.0571281578771
 31
0.0000000232876899
  0
LEADER
  5
12F
330
2
100
AcDbEntity
  8
L-ZISSEN
100
AcDbLeader
  3
STANDARD
 73
     0
 74
     0
 40
5.599999999999999
 41
9.599999999999997
 76
     3
 10
634.8391965463483
 20
233.0936615076541
 30
0.0
 10
643.0398649846251
 20
210.1049636665834
 30
0.0
 10
645.3669103228508
 20
210.1049636665834
 30
0.0
1001
ACAD
1000
DSTYLE
1002
{
1070
     5
1000

1070
    40
1040
2.0
1070
    41
1040
2.0
1070
    42
1040
2.0
1070
    44
1040
2.0
1070
    46
1040
1.0
1070
    73
1070
     0
1070
    74
1070
     0
1070
    77
1070
     1
1070
   140
1040
2.799999999999999
1070
   147
1040
1.0
1070
   172
1070
     1
1070
   174
1070
     1
1070
   271
1070
     1
1070
   287
1070
     5
1070
   342
1005
0
1002
}
1000
LEANOF
1010
0.0
1020
0.0
1030
0.0
  0
LINE
  5
130
330
2
100
AcDbEntity
  8
L-ZISSEN
100
AcDbLine
 10
484.1462213233642
 20
225.9620810457201
 30
0.0
 11
480.5462213233638
 21
222.16208104572
 31
0.0
  0
LINE
  5
131
330
2
100
AcDbEntity
  8
L-ZISSEN
100
AcDbLine
 10
454.1462213233639
 20
225.9620810457202
 30
0.0
 11
457.7462213233641
 21
222.16208104572
 31
0.0
  0
LINE
  5
132
330
2
100
AcDbEntity
  8
L-ZISSEN
100
AcDbLine
 10
453.5462213233639
 20
180.6620810457194
 30
0.0
 11
453.5462213233639
 21
232.2620810457193
 31
0.0
  0
LINE
  5
133
330
2
100
AcDbEntity
  8
L-ZISSEN
100
AcDbLine
 10
484.7462213233639
 20
232.2620810457193
 30
0.0
 11
484.7462213233639
 21
180.6620810457194
 31
0.0
  0
LINE
  5
134
330
2
100
AcDbEntity
  8
L-TYUSIN
 48
0.4
100
AcDbLine
 10
469.1462213233639
 20
193.1620810457194
 30
0.0
 11
469.1462213233639
 21
274.0620810457189
 31
0.0
  0
LINE
  5
135
330
2
100
AcDbEntity
  8
L-TYUSIN
100
AcDbLine
 10
541.2533274691347
 20
424.1053794099424
 30
0.0
 11
541.2533274691347
 21
198.0900542994314
 31
0.0
  0
LINE
  5
136
330
2
100
AcDbEntity
  8
L-ZISSEN
100
AcDbLine
 10
390.9999517400794
 20
90.4999994168984
 30
0.0
 11
390.9999517400791
 21
109.4999994168981
 31
0.0
  0
LINE
  5
137
330
2
100
AcDbEntity
  8
L-ZISSEN
100
AcDbLine
 10
395.9999517400794
 20
90.4999994168984
 30
0.0
 11
395.9999517400794
 21
109.4999994168981
 31
0.0
  0
LINE
  5
138
330
2
100
AcDbEntity
  8
L-ZISSEN
100
AcDbLine
 10
386.2499517400792
 20
88.79999941689836
 30
0.0
 11
386.2499517400792
 21
111.1999994168982
 31
0.0
  0
LINE
  5
139
330
2
100
AcDbEntity
  8
L-ZISSEN
100
AcDbLine
 10
395.9999517400794
 20
90.4999994168984
 30
0.0
 11
390.9999517400791
 21
90.4999994168984
 31
0.0
  0
LINE
  5
13A
330
2
100
AcDbEntity
  8
L-ZISSEN
100
AcDbLine
 10
390.9999517400794
 20
90.84999941689831
 30
0.0
 11
386.2499517400792
 21
90.84999941689831
 31
0.0
  0
LINE
  5
13B
330
2
100
AcDbEntity
  8
L-ZISSEN
100
AcDbLine
 10
392.4051969446458
 20
99.99999941689955
 30
0.0
 11
387.9999517400794
 21
99.99999941689818
 31
0.0
  0
LINE
  5
13C
330
2
100
AcDbEntity
  8
L-ZISSEN
100
AcDbLine
 10
395.9999517400794
 20
109.4999994168981
 30
0.0
 11
390.9999517400791
 21
109.4999994168981
 31
0.0
  0
LINE
  5
13D
330
2
100
AcDbEntity
  8
L-ZISSEN
100
AcDbLine
 10
390.9999517400791
 20
109.1499994168982
 30
0.0
 11
386.2499517400792
 21
109.1499994168982
 31
0.0
  0
LINE
  5
13E
330
2
100
AcDbEntity
  8
L-ZISSEN
100
AcDbLine
 10
484.7462213233639
 20
180.6620810457194
 30
0.0
 11
453.5462213233639
 21
180.6620810457194
 31
0.0
  0
LINE
  5
13F
330
2
100
AcDbEntity
  8
L-ZISSEN
100
AcDbLine
 10
453.5462213233639
 20
189.6620810457193
 30
0.0
 11
484.7462213233639
 21
189.6620810457193
 31
0.0
  0
LINE
  5
140
330
2
100
AcDbEntity
  8
L-ZISSEN
100
AcDbLine
 10
480.5462213233638
 20
190.7620810457202
 30
0.0
 11
457.7462213233641
 21
190.7620810457202
 31
0.0
  0
LINE
  5
141
330
2
100
AcDbEntity
  8
L-TYUSIN
 48
0.4
100
AcDbLine
 10
456.8962213233637
 20
206.46208104572
 30
0.0
 11
481.3962213233642
 21
206.46208104572
 31
0.0
  0
LINE
  5
142
330
2
100
AcDbEntity
  8
L-ZISSEN
100
AcDbLine
 10
480.5462213233638
 20
222.16208104572
 30
0.0
 11
457.7462213233641
 21
222.16208104572
 31
0.0
  0
LINE
  5
143
330
2
100
AcDbEntity
  8
L-ZISSEN
100
AcDbLine
 10
457.7462213233641
 20
190.7620810457202
 30
0.0
 11
457.7462213233641
 21
222.16208104572
 31
0.0
  0
LINE
  5
144
330
2
100
AcDbEntity
  8
L-ZISSEN
100
AcDbLine
 10
465.1462213233637
 20
213.40208104572
 30
0.0
 11
465.1462213233637
 21
222.16208104572
 31
0.0
  0
LINE
  5
145
330
2
100
AcDbEntity
  8
L-ZISSEN
100
AcDbLine
 10
457.7462213233641
 20
213.40208104572
 30
0.0
 11
465.1462213233637
 21
213.40208104572
 31
0.0
  0
CIRCLE
  5
146
330
2
100
AcDbEntity
  8
L-ZISSEN
100
AcDbCircle
 10
462.1462213233638
 20
216.9020810457201
 30
0.0
 40
2.75
  0
LINE
  5
147
330
2
100
AcDbEntity
  8
L-TYUSIN
 48
0.4
100
AcDbLine
 10
463.8962213233638
 20
216.9020810457201
 30
0.0
 11
460.3962213233637
 21
216.9020810457201
 31
0.0
  0
LINE
  5
148
330
2
100
AcDbEntity
  8
L-TYUSIN
 48
0.4
100
AcDbLine
 10
462.1462213233638
 20
218.65208104572
 30
0.0
 11
462.1462213233638
 21
215.1520810457201
 31
0.0
  0
LINE
  5
149
330
2
100
AcDbEntity
  8
L-ZISSEN
100
AcDbLine
 10
480.5462213233638
 20
190.7620810457202
 30
0.0
 11
480.5462213233638
 21
222.16208104572
 31
0.0
  0
LINE
  5
14A
330
2
100
AcDbEntity
  8
L-ZISSEN
100
AcDbLine
 10
473.1462213233641
 20
199.46208104572
 30
0.0
 11
473.1462213233641
 21
190.7620810457202
 31
0.0
  0
CIRCLE
  5
14B
330
2
100
AcDbEntity
  8
L-ZISSEN
100
AcDbCircle
 10
476.1462213233642
 20
195.96208104572
 30
0.0
 40
2.75
  0
LINE
  5
14C
330
2
100
AcDbEntity
  8
L-TYUSIN
 48
0.4
100
AcDbLine
 10
476.1462213233642
 20
197.71208104572
 30
0.0
 11
476.1462213233642
 21
194.21208104572
 31
0.0
  0
LINE
  5
14D
330
2
100
AcDbEntity
  8
L-TYUSIN
 48
0.4
100
AcDbLine
 10
477.8962213233642
 20
195.96208104572
 30
0.0
 11
474.3962213233642
 21
195.96208104572
 31
0.0
  0
LINE
  5
14E
330
2
100
AcDbEntity
  8
L-ZISSEN
100
AcDbLine
 10
480.5462213233638
 20
199.46208104572
 30
0.0
 11
473.1462213233641
 21
199.46208104572
 31
0.0
  0
MTEXT
  5
14F
330
2
100
AcDbEntity
  8
L-ZISSEN
100
AcDbMText
 10
647.3963333138124
 20
212.1049636665834
 30
0.0
 40
4.5
 41
0.0
 71
     7
 72
     1
  1
P.P
1001
ACAD
1000
MTEXTBEGIN
1070
    73
1070
     1
1070
    44
1040
1.0
1070
    74
1070
     0
1000
MTEXTEND
1000
MTEXTBEGIN
1070
    73
1070
     1
1070
    44
1040
1.0
1070
    74
1070
     0
1000
MTEXTEND
1000
MTEXTBEGIN
1070
    73
1070
     1
1070
    44
1040
1.0
1070
    74
1070
     0
1000
MTEXTEND
1000
MTEXTBEGIN
1070
    73
1070
     1
1070
    44
1040
1.0
1070
    74
1070
     0
1000
MTEXTEND
1000
MTEXTBEGIN
1070
    73
1070
     1
1070
    44
1040
1.0
1070
    74
1070
     0
1000
MTEXTEND
  0
CIRCLE
  5
150
330
2
100
AcDbEntity
  8
L-ZISSEN
100
AcDbCircle
 10
619.2413788043177
 20
374.449163042202
 30
0.0
 40
4.283
  0
TEXT
  5
151
330
2
100
AcDbEntity
  8
L-ZISSEN
100
AcDbText
 10
554.0592771231452
 20
414.0282634283115
 30
0.0
 40
4.5
  1
EXTERNAL PILOT AIR SUPPLY
100
AcDbText
  0
TEXT
  5
152
330
2
100
AcDbEntity
  8
L-ZISSEN
100
AcDbText
 10
554.0250374475342
 20
405.0380752962945
 30
0.0
 40
4.5
  1
MODEL No. :  MVD-495-0*Y**P**
100
AcDbText
  0
LINE
  5
153
330
2
100
AcDbEntity
  8
L-TYUSIN
100
AcDbLine
 10
541.2533274691347
 20
340.5962811339565
 30
0.0
 11
758.7975748039678
 21
340.5962811339565
 31
0.0
  0
TEXT
  5
154
330
2
100
AcDbEntity
  8
L-ZISSEN
100
AcDbText
 10
551.2533274691348
 20
315.5962811339565
 30
0.0
 40
4.5
  1
MODEL No. :  MVD-495-0*Y****R*
100
AcDbText
  0
TEXT
  5
155
330
2
100
AcDbEntity
  8
L-ZISSEN
100
AcDbText
 10
551.2533274691348
 20
325.5962811339565
 30
0.0
 40
4.5
  1
LOCK TYPE MANUAL OPERATION BUTTON
100
AcDbText
  0
LINE
  5
156
330
2
100
AcDbEntity
  8
L-ZISSEN
100
AcDbLine
 10
395.5462316362712
 20
266.6573171828782
 30
0.0
 11
395.546231636271
 21
244.7180069536726
 31
0.0
  0
LINE
  5
157
330
2
100
AcDbEntity
  8
L-ZISSEN
100
AcDbLine
 10
390.5462316362711
 20
266.6573171828782
 30
0.0
 11
390.5462316362711
 21
244.7180069536726
 31
0.0
  0
LINE
  5
158
330
2
100
AcDbEntity
  8
L-ZISSEN
100
AcDbLine
 10
385.796231636271
 20
266.6876620682755
 30
0.0
 11
385.796231636271
 21
244.2876620682754
 31
0.0
  0
LINE
  5
159
330
2
100
AcDbEntity
  8
L-ZISSEN
100
AcDbLine
 10
395.546231636271
 20
244.7180069536726
 30
0.0
 11
390.5462316362711
 21
244.7180069536726
 31
0.0
  0
LINE
  5
15A
330
2
100
AcDbEntity
  8
L-ZISSEN
100
AcDbLine
 10
390.5462316362711
 20
246.5376620682756
 30
0.0
 11
385.796231636271
 21
246.5376620682756
 31
0.0
  0
LINE
  5
15B
330
2
100
AcDbEntity
  8
L-ZISSEN
100
AcDbLine
 10
395.5462316362712
 20
266.6876171828783
 30
0.0
 11
390.5462316362711
 21
266.6876171828783
 31
0.0
  0
LINE
  5
15C
330
2
100
AcDbEntity
  8
L-ZISSEN
100
AcDbLine
 10
390.5462316362711
 20
264.6376620682753
 30
0.0
 11
385.796231636271
 21
264.6376620682753
 31
0.0
  0
LINE
  5
15D
330
2
100
AcDbEntity
  8
L-ZISSEN
100
AcDbLine
 10
390.5462316362711
 20
266.6876171828783
 30
0.0
 11
390.5462316362711
 21
266.6573171828782
 31
0.0
  0
LINE
  5
15E
330
2
100
AcDbEntity
  8
L-ZISSEN
100
AcDbLine
 10
395.5462316362712
 20
266.6876171828783
 30
0.0
 11
395.5462316362712
 21
266.6573171828782
 31
0.0
  0
CIRCLE
  5
15F
330
2
100
AcDbEntity
  8
L-ZISSEN
100
AcDbCircle
 10
469.1462213233637
 20
255.4620810457196
 30
0.0
 40
6.5
  0
CIRCLE
  5
160
330
2
100
AcDbEntity
  8
L-ZISSEN
100
AcDbCircle
 10
469.1462213233637
 20
255.4620810457196
 30
0.0
 40
11.19999999999999
  0
LINE
  5
161
330
2
100
AcDbEntity
  8
L-ZISSEN
100
AcDbLine
 10
455.3962213233638
 20
266.6620810457197
 30
0.0
 11
455.3962213233638
 21
235.4620810457203
 31
0.0
  0
LINE
  5
162
330
2
100
AcDbEntity
  8
L-ZISSEN
100
AcDbLine
 10
482.8962213233637
 20
266.6620810457197
 30
0.0
 11
482.896221323364
 21
235.4620810457203
 31
0.0
  0
LINE
  5
163
330
2
100
AcDbEntity
  8
L-TYUSIN
 48
0.4
100
AcDbLine
 10
485.3962213233637
 20
255.4620810457196
 30
0.0
 11
452.8962213233637
 21
255.4620810457196
 31
0.0
  0
LINE
  5
164
330
2
100
AcDbEntity
  8
L-ZISSEN
100
AcDbLine
 10
484.1462213233642
 20
225.9620810457201
 30
0.0
 11
454.1462213233639
 21
225.9620810457202
 31
0.0
  0
LINE
  5
165
330
2
100
AcDbEntity
  8
L-ZISSEN
100
AcDbLine
 10
484.1462213233639
 20
230.96208104572
 30
0.0
 11
454.1462213233639
 21
230.9620810457201
 31
0.0
  0
LINE
  5
166
330
2
100
AcDbEntity
  8
L-ZISSEN
100
AcDbLine
 10
484.1462213233639
 20
235.4620810457203
 30
0.0
 11
454.1462213233639
 21
235.4620810457203
 31
0.0
  0
LINE
  5
167
330
2
100
AcDbEntity
  8
L-ZISSEN
100
AcDbLine
 10
454.1462213233639
 20
235.4620810457203
 30
0.0
 11
454.1462213233639
 21
225.9620810457202
 31
0.0
  0
LINE
  5
168
330
2
100
AcDbEntity
  8
L-ZISSEN
100
AcDbLine
 10
453.5462213233639
 20
232.2620810457193
 30
0.0
 11
454.1462213233639
 21
232.2620810457194
 31
0.0
  0
LINE
  5
169
330
2
100
AcDbEntity
  8
L-ZISSEN
100
AcDbLine
 10
484.1462213233639
 20
235.4620810457203
 30
0.0
 11
484.1462213233642
 21
225.9620810457201
 31
0.0
  0
LINE
  5
16A
330
2
100
AcDbEntity
  8
L-ZISSEN
100
AcDbLine
 10
484.1462213233642
 20
232.2620810457194
 30
0.0
 11
484.7462213233639
 21
232.2620810457193
 31
0.0
  0
LINE
  5
16B
330
2
100
AcDbEntity
  8
L-ZISSEN
100
AcDbLine
 10
455.3962213233638
 20
266.6620810457197
 30
0.0
 11
482.8962213233637
 21
266.6620810457197
 31
0.0
  0
LINE
  5
16C
330
2
100
AcDbEntity
  8
L-ZISSEN
100
AcDbLine
 10
390.5462316362711
 20
348.9571281578771
 30
0.0
 11
390.5462316362709
 21
329.9571281578772
 31
0.0
  0
LINE
  5
16D
330
2
100
AcDbEntity
  8
L-ZISSEN
100
AcDbLine
 10
395.5462316362711
 20
348.9571281578771
 30
0.0
 11
395.5462316362711
 21
329.9571281578772
 31
0.0
  0
LINE
  5
16E
330
2
100
AcDbEntity
  8
L-ZISSEN
100
AcDbLine
 10
386.2499517400793
 20
350.6571281578773
 30
0.0
 11
386.2499517400793
 21
328.2571281578773
 31
0.0
  0
LINE
  5
16F
330
2
100
AcDbEntity
  8
L-ZISSEN
100
AcDbLine
 10
395.5462316362711
 20
329.9571281578772
 30
0.0
 11
390.5462316362709
 21
329.9571281578772
 31
0.0
  0
LINE
  5
170
330
2
100
AcDbEntity
  8
L-ZISSEN
100
AcDbLine
 10
390.5462316362709
 20
330.3071281578771
 30
0.0
 11
386.2499517400793
 21
330.3071281578771
 31
0.0
  0
LINE
  5
171
330
2
100
AcDbEntity
  8
L-ZISSEN
100
AcDbLine
 10
395.5462316362711
 20
348.9571281578771
 30
0.0
 11
390.5462316362709
 21
348.9571281578771
 31
0.0
  0
LINE
  5
172
330
2
100
AcDbEntity
  8
L-ZISSEN
100
AcDbLine
 10
390.5462316362711
 20
348.6071281578771
 30
0.0
 11
386.2499517400793
 21
348.6071281578772
 31
0.0
  0
TEXT
  5
173
330
2
100
AcDbEntity
  8
L-ZISSEN
100
AcDbText
 10
551.2533274691348
 20
315.5962811339565
 30
0.0
 40
4.5
  1
MODEL No. :
100
AcDbText
  0
LINE
  5
174
330
2
100
AcDbEntity
  8
L-TYUSIN
100
AcDbLine
 10
634.8391965463483
 20
272.3355858361752
 30
0.0
 11
634.8391965463483
 21
256.3355858361742
 31
0.0
  0
LINE
  5
175
330
2
100
AcDbEntity
  8
L-ZISSEN
100
AcDbLine
 10
637.8391965463483
 20
246.393661507654
 30
0.0
 11
637.8391965463483
 21
233.0936615076541
 31
0.0
  0
LINE
  5
176
330
2
100
AcDbEntity
  8
L-TYUSIN
100
AcDbLine
 10
634.8391965463483
 20
228.0936615076541
 30
0.0
 11
634.8391965463483
 21
251.393661507654
 31
0.0
  0
LINE
  5
177
330
2
100
AcDbEntity
  8
L-ZISSEN
100
AcDbLine
 10
631.8391965463483
 20
246.393661507654
 30
0.0
 11
631.8391965463483
 21
233.0936615076541
 31
0.0
  0
LINE
  5
178
330
2
100
AcDbEntity
  8
L-ZISSEN
100
AcDbLine
 10
631.8391965463483
 20
246.393661507654
 30
0.0
 11
634.4391965463484
 21
246.393661507654
 31
0.0
  0
LINE
  5
179
330
2
100
AcDbEntity
  8
L-ZISSEN
100
AcDbLine
 10
635.2391965463483
 20
246.393661507654
 30
0.0
 11
635.2391965463483
 21
244.3936615076541
 31
0.0
  0
LINE
  5
17A
330
2
100
AcDbEntity
  8
L-ZISSEN
100
AcDbLine
 10
635.2391965463483
 20
244.3936615076541
 30
0.0
 11
634.4391965463484
 21
244.3936615076541
 31
0.0
  0
LINE
  5
17B
330
2
100
AcDbEntity
  8
L-ZISSEN
100
AcDbLine
 10
634.4391965463484
 20
244.3936615076541
 30
0.0
 11
634.4391965463484
 21
246.393661507654
 31
0.0
  0
LINE
  5
17C
330
2
100
AcDbEntity
  8
L-ZISSEN
100
AcDbLine
 10
635.2391965463483
 20
246.393661507654
 30
0.0
 11
637.8391965463483
 21
246.393661507654
 31
0.0
  0
LEADER
  5
17D
330
2
100
AcDbEntity
  8
L-ZISSEN
100
AcDbLeader
  3
STANDARD
 73
     0
 74
     0
 40
5.599999999999999
 41
9.599999999999997
 76
     3
 10
634.8391965463483
 20
264.3355858361744
 30
0.0
 10
643.0398649846251
 20
291.4499790226569
 30
0.0
 10
645.3669103228508
 20
291.4499790226569
 30
0.0
210
0.0
220
0.0
230
-1.0
1001
ACAD
1000
DSTYLE
1002
{
1070
     5
1000

1070
    40
1040
2.0
1070
    41
1040
2.0
1070
    42
1040
2.0
1070
    44
1040
2.0
1070
    46
1040
1.0
1070
    73
1070
     0
1070
    74
1070
     0
1070
    77
1070
     1
1070
   140
1040
2.799999999999999
1070
   147
1040
1.0
1070
   172
1070
     1
1070
   174
1070
     1
1070
   271
1070
     1
1070
   287
1070
     5
1070
   342
1005
0
1002
}
1000
LEANOF
1010
0.0
1020
0.0
1030
0.0
  0
LINE
  5
17E
330
2
100
AcDbEntity
  8
L-ZISSEN
100
AcDbLine
 10
634.4391965463485
 20
261.3623720867106
 30
0.0
 11
634.4391965463484
 21
267.3087995856382
 31
0.0
  0
LINE
  5
17F
330
2
100
AcDbEntity
  8
L-ZISSEN
100
AcDbLine
 10
635.2391965463483
 20
267.3087995856382
 30
0.0
 11
635.2391965463483
 21
261.3623720867106
 31
0.0
  0
CIRCLE
  5
180
330
2
100
AcDbEntity
  8
L-ZISSEN
100
AcDbCircle
 10
634.8391965463483
 20
264.3355858361744
 30
0.0
 40
3.0
  0
MTEXT
  5
181
330
2
100
AcDbEntity
  8
L-ZISSEN
100
AcDbMText
 10
647.672338697371
 20
292.8201105971591
 30
0.0
 40
4.5
 41
0.0
 71
     7
 72
     1
  1
P.P
1001
ACAD
1000
MTEXTBEGIN
1070
    73
1070
     1
1070
    44
1040
1.0
1070
    74
1070
     0
1000
MTEXTEND
1000
MTEXTBEGIN
1070
    73
1070
     1
1070
    44
1040
1.0
1070
    74
1070
     0
1000
MTEXTEND
1000
MTEXTBEGIN
1070
    73
1070
     1
1070
    44
1040
1.0
1070
    74
1070
     0
1000
MTEXTEND
1000
MTEXTBEGIN
1070
    73
1070
     1
1070
    44
1040
1.0
1070
    74
1070
     0
1000
MTEXTEND
1000
MTEXTBEGIN
1070
    73
1070
     1
1070
    44
1040
1.0
1070
    74
1070
     0
1000
MTEXTEND
  0
TEXT
  5
182
330
2
100
AcDbEntity
  8
L-ZISSEN
100
AcDbText
 10
638.2413788043177
 20
362.199163042202
 30
0.0
 40
4.5
  1
P.P
100
AcDbText
  0
LINE
  5
183
330
2
100
AcDbEntity
  8
L-TYUSIN
100
AcDbLine
 10
619.2413788043177
 20
382.4491630422028
 30
0.0
 11
619.2413788043177
 21
366.4491630422018
 31
0.0
  0
LINE
  5
184
330
2
100
AcDbEntity
  8
L-ZISSEN
100
AcDbLine
 10
620.9054793929933
 20
373.3397626497516
 30
0.0
 11
634.2413788043177
 21
364.449163042202
 31
0.0
  0
SOLID
  5
185
330
2
100
AcDbEntity
  8
L-ZISSEN
100
AcDbTrace
 10
620.720579327585
 20
373.0624125516389
 30
0.0
 11
621.0903794584019
 21
373.6171127478641
 31
0.0
 12
619.2413788043177
 22
374.449163042202
 32
0.0
 13
619.2413788043177
 23
374.449163042202
 33
0.0
  0
LINE
  5
186
330
2
100
AcDbEntity
  8
L-ZISSEN
100
AcDbLine
 10
634.2413788043177
 20
364.4491630422019
 30
0.0
 11
636.2413788043177
 21
364.4491630422019
 31
0.0
  0
ENDSEC
  0
SECTION
  2
OBJECTS
  0
DICTIONARY
  5
9
330
0
100
AcDbDictionary
  3
ACAD_GROUP
350
23
  3
ACAD_LAYOUT
350
E
  3
ACAD_MLINESTYLE
350
24
  3
ACAD_PLOTSETTINGS
350
25
1001
ACAD
1000
TREAT_AS_HARD
1070
     0
  0
DICTIONARY
  5
3
330
2
100
AcDbDictionary
  3
ACAD_LAYOUTSELFREF
350
1B9
1001
ACAD
1000
TREAT_AS_HARD
1070
     1
  0
DICTIONARY
  5
10
330
F
100
AcDbDictionary
  3
ACAD_LAYOUTSELFREF
350
1BA
1001
ACAD
1000
TREAT_AS_HARD
1070
     1
  0
DICTIONARY
  5
23
102
{ACAD_REACTORS
330
9
102
}
330
9
100
AcDbDictionary
1001
ACAD
1000
TREAT_AS_HARD
1070
     0
  0
DICTIONARY
  5
E
102
{ACAD_REACTORS
330
9
102
}
330
9
100
AcDbDictionary
1001
ACAD
1000
TREAT_AS_HARD
1070
     0
  0
DICTIONARY
  5
24
102
{ACAD_REACTORS
330
9
102
}
330
9
100
AcDbDictionary
  3
STANDARD
350
27
1001
ACAD
1000
TREAT_AS_HARD
1070
     0
  0
DICTIONARY
  5
25
102
{ACAD_REACTORS
330
9
102
}
330
9
100
AcDbDictionary
1001
ACAD
1000
TREAT_AS_HARD
1070
     0
  0
XRECORD
  5
1B9
102
{ACAD_REACTORS
330
3
102
}
330
3
100
AcDbXrecord
340
2
  0
XRECORD
  5
1BA
102
{ACAD_REACTORS
330
10
102
}
330
10
100
AcDbXrecord
340
F
  0
MLINESTYLE
  5
27
102
{ACAD_REACTORS
330
24
102
}
330
24
100
AcDbMlineStyle
  2
STANDARD
 70
     0
  3

 62
   256
 51
90.0
 52
90.0
 71
     2
 49
0.5
 62
   256
  6
BYLAYER
 49
-0.5
 62
   256
  6
BYLAYER
  0
ENDSEC
  0
EOF
