  0
SECTION
  2
HEADER
  9
$ACADVER
  1
AC1012
  9
$DWGCODEPAGE
  3
dos932
  9
$INSBASE
 10
0.0
 20
0.0
 30
0.0
  9
$EXTMIN
 10
62.55090454658875
 20
80.00001683830781
 30
0.0
  9
$EXTMAX
 10
725.124427710594
 20
431.4496447264215
 30
0.0000000232876899
  9
$LIMMIN
 10
0.0
 20
0.0
  9
$LIMMAX
 10
594.0
 20
420.0
  9
$ORTHOMODE
 70
     1
  9
$REGENMODE
 70
     1
  9
$FILLMODE
 70
     1
  9
$QTEXTMODE
 70
     0
  9
$MIRRTEXT
 70
     0
  9
$DRAGMODE
 70
     2
  9
$LTSCALE
 40
1.0
  9
$OSMODE
 70
    37
  9
$ATTMODE
 70
     1
  9
$TEXTSIZE
 40
3.64505160674571
  9
$TRACEWID
 40
0.05
  9
$TEXTSTYLE
  7
STANDARD
  9
$CLAYER
  8
L-ZISSEN
  9
$CELTYPE
  6
CONTINUOUS
  9
$CECOLOR
 62
   256
  9
$CELTSCALE
 40
1.0
  9
$DELOBJ
 70
     1
  9
$DISPSILH
 70
     0
  9
$DIMSCALE
 40
2.0
  9
$DIMASZ
 40
2.0
  9
$DIMEXO
 40
1.0
  9
$DIMDLI
 40
8.0
  9
$DIMRND
 40
0.0
  9
$DIMDLE
 40
0.0
  9
$DIMEXE
 40
1.0
  9
$DIMTP
 40
0.0
  9
$DIMTM
 40
0.0
  9
$DIMTXT
 40
2.799999999999999
  9
$DIMCEN
 40
0.8
  9
$DIMTSZ
 40
0.0
  9
$DIMTOL
 70
     0
  9
$DIMLIM
 70
     0
  9
$DIMTIH
 70
     0
  9
$DIMTOH
 70
     0
  9
$DIMSE1
 70
     0
  9
$DIMSE2
 70
     0
  9
$DIMTAD
 70
     1
  9
$DIMZIN
 70
     8
  9
$DIMBLK
  1

  9
$DIMASO
 70
     1
  9
$DIMSHO
 70
     0
  9
$DIMPOST
  1

  9
$DIMAPOST
  1

  9
$DIMALT
 70
     0
  9
$DIMALTD
 70
     2
  9
$DIMALTF
 40
25.4
  9
$DIMLFAC
 40
1.0
  9
$DIMTOFL
 70
     1
  9
$DIMTVP
 40
1.0
  9
$DIMTIX
 70
     1
  9
$DIMSOXD
 70
     0
  9
$DIMSAH
 70
     0
  9
$DIMBLK1
  1

  9
$DIMBLK2
  1

  9
$DIMSTYLE
  2
STANDARD
  9
$DIMCLRD
 70
     0
  9
$DIMCLRE
 70
     0
  9
$DIMCLRT
 70
     0
  9
$DIMTFAC
 40
1.0
  9
$DIMGAP
 40
1.0
  9
$DIMJUST
 70
     0
  9
$DIMSD1
 70
     0
  9
$DIMSD2
 70
     0
  9
$DIMTOLJ
 70
     1
  9
$DIMTZIN
 70
     8
  9
$DIMALTZ
 70
     0
  9
$DIMALTTZ
 70
     0
  9
$DIMFIT
 70
     3
  9
$DIMUPT
 70
     0
  9
$DIMUNIT
 70
     2
  9
$DIMDEC
 70
     3
  9
$DIMTDEC
 70
     4
  9
$DIMALTU
 70
     2
  9
$DIMALTTD
 70
     2
  9
$DIMTXSTY
  7
STANDARD
  9
$DIMAUNIT
 70
     0
  9
$LUNITS
 70
     2
  9
$LUPREC
 70
     4
  9
$SKETCHINC
 40
0.1
  9
$FILLETRAD
 40
0.0
  9
$AUNITS
 70
     0
  9
$AUPREC
 70
     0
  9
$MENU
  1
acad
  9
$ELEVATION
 40
0.0
  9
$PELEVATION
 40
0.0
  9
$THICKNESS
 40
0.0
  9
$LIMCHECK
 70
     0
  9
$BLIPMODE
 70
     0
  9
$CHAMFERA
 40
0.0
  9
$CHAMFERB
 40
0.0
  9
$CHAMFERC
 40
0.0
  9
$CHAMFERD
 40
0.0
  9
$SKPOLY
 70
     0
  9
$TDCREATE
 40
2449002.565639698
  9
$TDUPDATE
 40
2453237.381322685
  9
$TDINDWG
 40
1.2518785880
  9
$TDUSRTIMER
 40
1.2518785880
  9
$USRTIMER
 70
     1
  9
$ANGBASE
 50
0.0
  9
$ANGDIR
 70
     0
  9
$PDMODE
 70
     0
  9
$PDSIZE
 40
0.0
  9
$PLINEWID
 40
0.0
  9
$COORDS
 70
     0
  9
$SPLFRAME
 70
     0
  9
$SPLINETYPE
 70
     6
  9
$SPLINESEGS
 70
     8
  9
$ATTDIA
 70
     0
  9
$ATTREQ
 70
     1
  9
$HANDLING
 70
-16383
  9
$HANDSEED
  5
18B
  9
$SURFTAB1
 70
     6
  9
$SURFTAB2
 70
     6
  9
$SURFTYPE
 70
     6
  9
$SURFU
 70
     6
  9
$SURFV
 70
     6
  9
$UCSNAME
  2

  9
$UCSORG
 10
0.0
 20
0.0
 30
0.0
  9
$UCSXDIR
 10
1.0
 20
0.0
 30
0.0
  9
$UCSYDIR
 10
0.0
 20
1.0
 30
0.0
  9
$PUCSNAME
  2

  9
$PUCSORG
 10
0.0
 20
0.0
 30
0.0
  9
$PUCSXDIR
 10
1.0
 20
0.0
 30
0.0
  9
$PUCSYDIR
 10
0.0
 20
1.0
 30
0.0
  9
$USERI1
 70
     0
  9
$USERI2
 70
     0
  9
$USERI3
 70
     0
  9
$USERI4
 70
     0
  9
$USERI5
 70
     0
  9
$USERR1
 40
0.0
  9
$USERR2
 40
0.0
  9
$USERR3
 40
0.0
  9
$USERR4
 40
0.0
  9
$USERR5
 40
0.0
  9
$WORLDVIEW
 70
     1
  9
$SHADEDGE
 70
     3
  9
$SHADEDIF
 70
    70
  9
$TILEMODE
 70
     1
  9
$MAXACTVP
 70
    48
  9
$PINSBASE
 10
0.0
 20
0.0
 30
0.0
  9
$PLIMCHECK
 70
     0
  9
$PEXTMIN
 10
1.000000000000000E+20
 20
1.000000000000000E+20
 30
1.000000000000000E+20
  9
$PEXTMAX
 10
-1.000000000000000E+20
 20
-1.000000000000000E+20
 30
-1.000000000000000E+20
  9
$PLIMMIN
 10
0.0
 20
0.0
  9
$PLIMMAX
 10
12.0
 20
9.0
  9
$UNITMODE
 70
     0
  9
$VISRETAIN
 70
     0
  9
$PLINEGEN
 70
     0
  9
$PSLTSCALE
 70
     0
  9
$TREEDEPTH
 70
  3020
  9
$PICKSTYLE
 70
     1
  9
$CMLSTYLE
  2
STANDARD
  9
$CMLJUST
 70
     0
  9
$CMLSCALE
 40
1.0
  9
$SAVEIMAGES
 70
     1
  0
ENDSEC
  0
SECTION
  2
CLASSES
  0
CLASS
  1
DICTIONARYVAR
  2
AcDbDictionaryVar
  3
AutoCAD 2000
 90
    32768
280
     0
281
     0
  0
CLASS
  1
OLE2FRAME
  2
AcDbOle2Frame
  3
AutoCAD 2000
 90
    32768
280
     0
281
     1
  0
CLASS
  1
LWPOLYLINE
  2
AcDbPolyline
  3
AutoCAD 2000
 90
    32768
280
     0
281
     1
  0
CLASS
  1
HATCH
  2
AcDbHatch
  3
AutoCAD 2000
 90
    32768
280
     0
281
     1
  0
CLASS
  1
ACDBDICTIONARYWDFLT
  2
AcDbDictionaryWithDefault
  3
AutoCAD 2000
 90
    32768
280
     0
281
     0
  0
CLASS
  1
ACDBPLACEHOLDER
  2
AcDbPlaceHolder
  3
AutoCAD 2000
 90
    32768
280
     0
281
     0
  0
CLASS
  1
LAYOUT
  2
AcDbLayout
  3
AutoCAD 2000
 90
    32768
280
     0
281
     0
  0
CLASS
  1
LONG_TRANSACTION
  2
AcDbLongTransaction
  3
AutoCAD 2000
 90
    32768
280
     0
281
     0
  0
CLASS
  1
LWPOLYLINE
  2
AcDbPolyline
  3
AutoCAD 2000
 90
    32768
280
     0
281
     1
  0
CLASS
  1
HATCH
  2
AcDbHatch
  3
AutoCAD 2000
 90
    32768
280
     0
281
     1
  0
CLASS
  1
XRECORD
  2
AcDbXrecord
  3
AutoCAD 2000
 90
    32768
280
     0
281
     0
  0
CLASS
  1
LONG_TRANSACTION
  2
AcDbLongTransaction
  3
AutoCAD 2000
 90
    32768
280
     0
281
     0
  0
CLASS
  1
LWPOLYLINE
  2
AcDbPolyline
  3
AutoCAD 2000
 90
    32768
280
     0
281
     1
  0
CLASS
  1
HATCH
  2
AcDbHatch
  3
AutoCAD 2000
 90
    32768
280
     0
281
     1
  0
CLASS
  1
XRECORD
  2
AcDbXrecord
  3
AutoCAD 2000
 90
    32768
280
     0
281
     0
  0
ENDSEC
  0
SECTION
  2
TABLES
  0
TABLE
  2
VPORT
  5
1E
330
0
100
AcDbSymbolTable
 70
     3
  0
VPORT
  5
188
330
1E
100
AcDbSymbolTableRecord
100
AcDbViewportTableRecord
  2
*ACTIVE
 70
     0
 10
0.0
 20
0.0
 11
1.0
 21
1.0
 12
212.9662681873419
 22
-117.7186822083819
 13
0.0
 23
0.0
 14
5.0
 24
5.0
 15
0.0
 25
0.0
 16
0.0
 26
0.0
 36
1.0
 17
166.8045712797615
 27
373.5631784892733
 37
0.0000000232876899
 40
504.012501242597
 41
1.84990253411306
 42
50.0
 43
-0.0000000232876899
 44
-0.0000000232876899
 50
0.0
 51
0.0
 71
     0
 72
   100
 73
     1
 74
     0
 75
     0
 76
     0
 77
     0
 78
     0
  0
ENDTAB
  0
TABLE
  2
LTYPE
  5
19
330
0
100
AcDbSymbolTable
 70
     2
  0
LTYPE
  5
1A
330
19
100
AcDbSymbolTableRecord
100
AcDbLinetypeTableRecord
  2
BYBLOCK
 70
     0
  3

 72
    65
 73
     0
 40
0.0
  0
LTYPE
  5
1B
330
19
100
AcDbSymbolTableRecord
100
AcDbLinetypeTableRecord
  2
BYLAYER
 70
     0
  3

 72
    65
 73
     0
 40
0.0
  0
LTYPE
  5
B
330
19
100
AcDbSymbolTableRecord
100
AcDbLinetypeTableRecord
  2
CONTINUOUS
 70
     0
  3
Solid line
 72
    65
 73
     0
 40
0.0
  0
LTYPE
  5
2B
330
19
100
AcDbSymbolTableRecord
100
AcDbLinetypeTableRecord
  2
CENTER
 70
     0
  3
____ _ ____ _ ____ _ ____ _ 
 72
    65
 73
     4
 40
60.0
 49
45.0
 74
     0
 49
-5.0
 74
     0
 49
5.0
 74
     0
 49
-5.0
 74
     0
  0
ENDTAB
  0
TABLE
  2
LAYER
  5
15
330
0
100
AcDbSymbolTable
 70
     3
  0
LAYER
  5
6
330
15
100
AcDbSymbolTableRecord
100
AcDbLayerTableRecord
  2
0
 70
     0
 62
     7
  6
CONTINUOUS
  0
LAYER
  5
26
330
15
100
AcDbSymbolTableRecord
100
AcDbLayerTableRecord
  2
L-ZISSEN
 70
     0
 62
     7
  6
CONTINUOUS
  0
LAYER
  5
2A
330
15
100
AcDbSymbolTableRecord
100
AcDbLayerTableRecord
  2
L-TYUSIN
 70
     0
 62
     1
  6
CENTER
  0
ENDTAB
  0
TABLE
  2
STYLE
  5
16
330
0
100
AcDbSymbolTable
 70
     1
  0
STYLE
  5
17
330
16
100
AcDbSymbolTableRecord
100
AcDbTextStyleTableRecord
  2
STANDARD
 70
     0
 40
0.0
 41
1.0
 50
0.0
 71
     0
 42
3.64505160674571
  3
txt.shx
  4
bigfont.shx
  0
ENDTAB
  0
TABLE
  2
VIEW
  5
1C
330
0
100
AcDbSymbolTable
 70
     0
  0
ENDTAB
  0
TABLE
  2
UCS
  5
1D
330
0
100
AcDbSymbolTable
 70
     0
  0
ENDTAB
  0
TABLE
  2
APPID
  5
20
330
0
100
AcDbSymbolTable
 70
     1
  0
APPID
  5
A
330
20
100
AcDbSymbolTableRecord
100
AcDbRegAppTableRecord
  2
ACAD
 70
     0
  0
ENDTAB
  0
TABLE
  2
DIMSTYLE
  5
21
330
0
100
AcDbSymbolTable
 70
     1
  0
DIMSTYLE
105
28
330
21
100
AcDbSymbolTableRecord
100
AcDbDimStyleTableRecord
  2
STANDARD
 70
     0
  3

  4

  5

  6

  7

 40
1.0
 41
0.18
 42
0.0625
 43
0.38
 44
0.18
 45
0.0
 46
0.0
 47
0.0
 48
0.0
140
0.18
141
0.09
142
0.0
143
25.4
144
1.0
145
0.0
146
1.0
147
0.09
 71
     0
 72
     0
 73
     1
 74
     1
 75
     0
 76
     0
 77
     0
 78
     0
170
     0
171
     2
172
     0
173
     0
174
     0
175
     0
176
     0
177
     0
178
     0
270
     2
271
     4
272
     4
273
     2
274
     2
340
17
275
     0
280
     0
281
     0
282
     0
283
     1
284
     0
285
     0
286
     0
287
     3
288
     0
  0
ENDTAB
  0
TABLE
  2
BLOCK_RECORD
  5
1
330
0
100
AcDbSymbolTable
 70
     0
  0
BLOCK_RECORD
  5
2
102
{ACAD_XDICTIONARY
360
3
102
}
330
1
100
AcDbSymbolTableRecord
100
AcDbBlockTableRecord
  2
*MODEL_SPACE
  0
BLOCK_RECORD
  5
F
102
{ACAD_XDICTIONARY
360
10
102
}
330
1
100
AcDbSymbolTableRecord
100
AcDbBlockTableRecord
  2
*PAPER_SPACE
  0
ENDTAB
  0
ENDSEC
  0
SECTION
  2
BLOCKS
  0
BLOCK
  5
5
330
2
100
AcDbEntity
  8
0
100
AcDbBlockBegin
  2
*MODEL_SPACE
 70
     0
 10
0.0
 20
0.0
 30
0.0
  3
*MODEL_SPACE
  1

  0
ENDBLK
  5
C
330
2
100
AcDbEntity
  8
0
100
AcDbBlockEnd
  0
BLOCK
  5
12
330
F
100
AcDbEntity
 67
     1
  8
0
100
AcDbBlockBegin
  2
*PAPER_SPACE
 70
     0
 10
0.0
 20
0.0
 30
0.0
  3
*PAPER_SPACE
  1

  0
ENDBLK
  5
13
330
F
100
AcDbEntity
 67
     1
  8
0
100
AcDbBlockEnd
  0
ENDSEC
  0
SECTION
  2
ENTITIES
  0
LINE
  5
29
330
2
100
AcDbEntity
  8
L-TYUSIN
 48
0.4
100
AcDbLine
 10
144.9000480894414
 20
100.0000168383078
 30
0.0
 11
386.9000480894415
 21
100.0000168383078
 31
0.0
  0
LINE
  5
2C
330
2
100
AcDbEntity
  8
L-ZISSEN
100
AcDbLine
 10
309.1000480894408
 20
84.00001683830735
 30
0.0
 11
166.9000480894414
 21
84.00001683830735
 31
0.0
  0
LINE
  5
2D
330
2
100
AcDbEntity
  8
L-TYUSIN
 48
0.4
100
AcDbLine
 10
305.0000480894413
 20
100.0000168383082
 30
0.0
 11
294.0000480894413
 21
100.0000168383082
 31
0.0
  0
LINE
  5
2E
330
2
100
AcDbEntity
  8
L-ZISSEN
100
AcDbLine
 10
309.1000480894413
 20
116.0000168383082
 30
0.0
 11
166.9000480894414
 21
116.0000168383082
 31
0.0
  0
LINE
  5
2F
330
2
100
AcDbEntity
  8
L-ZISSEN
100
AcDbLine
 10
166.9000480894414
 20
180.0413346197394
 30
0.0
 11
308.5000480894413
 21
180.0413346197394
 31
0.0
  0
LINE
  5
30
330
2
100
AcDbEntity
  8
L-TYUSIN
 48
0.4
100
AcDbLine
 10
144.9000480894414
 20
206.0413346197394
 30
0.0
 11
357.0000480894414
 21
206.0413346197394
 31
0.0
  0
LINE
  5
31
330
2
100
AcDbEntity
  8
L-ZISSEN
100
AcDbLine
 10
308.5000480894413
 20
232.0413346197394
 30
0.0
 11
166.9000480894414
 21
232.0413346197394
 31
0.0
  0
LINE
  5
32
330
2
100
AcDbEntity
  8
L-TYUSIN
 48
0.4
100
AcDbLine
 10
144.9000480894414
 20
342.7243718644727
 30
0.0
 11
375.5000480894437
 21
342.7243718644727
 31
0.0
  0
LINE
  5
33
330
2
100
AcDbEntity
  8
L-ZISSEN
100
AcDbLine
 10
308.5000480894411
 20
326.724371864472
 30
0.0
 11
166.9000480894414
 21
326.724371864472
 31
0.0
  0
LINE
  5
34
330
2
100
AcDbEntity
  8
L-ZISSEN
100
AcDbLine
 10
308.5000480894411
 20
358.7243718644727
 30
0.0
 11
166.9000480894414
 21
358.7243718644726
 31
0.0
  0
TEXT
  5
35
330
2
100
AcDbEntity
  8
L-ZISSEN
100
AcDbText
 10
292.5959853495698
 20
244.9786187074581
 30
0.0000000232876899
 40
4.5
  1
P.P
100
AcDbText
  0
CIRCLE
  5
36
330
2
100
AcDbEntity
  8
L-ZISSEN
100
AcDbCircle
 10
90.70004808944137
 20
206.0413346197394
 30
0.0
 40
11.0
  0
CIRCLE
  5
37
330
2
100
AcDbEntity
  8
L-ZISSEN
100
AcDbCircle
 10
90.70004808944137
 20
206.0413346197394
 30
0.0
 40
14.0
  0
LINE
  5
38
330
2
100
AcDbEntity
  8
L-TYUSIN
 48
0.4
100
AcDbLine
 10
90.70004808944137
 20
270.7413346197395
 30
0.0
 11
90.70004808944137
 21
175.0413346197394
 31
0.0
  0
LINE
  5
39
330
2
100
AcDbEntity
  8
L-ZISSEN
100
AcDbLine
 10
74.70004808944136
 20
232.0413346197394
 30
0.0
 11
74.70004808944136
 21
180.0413346197394
 31
0.0
  0
LINE
  5
3A
330
2
100
AcDbEntity
  8
L-ZISSEN
100
AcDbLine
 10
266.5000480894412
 20
180.2413346197395
 30
0.0
 11
266.5000480894412
 21
231.8413346197394
 31
0.0
  0
LINE
  5
3B
330
2
100
AcDbEntity
  8
L-TYUSIN
 48
0.4
100
AcDbLine
 10
220.7000480894413
 20
237.0413346197394
 30
0.0
 11
220.7000480894413
 21
175.0413346197394
 31
0.0
  0
LINE
  5
3C
330
2
100
AcDbEntity
  8
L-ZISSEN
100
AcDbLine
 10
266.5000480894412
 20
180.0413346197394
 30
0.0
 11
266.5000480894412
 21
232.0413346197394
 31
0.0
  0
LINE
  5
3D
330
2
100
AcDbEntity
  8
L-ZISSEN
100
AcDbLine
 10
174.9000480894414
 20
232.0413346197394
 30
0.0
 11
174.9000480894414
 21
180.0413346197394
 31
0.0
  0
LINE
  5
3E
330
2
100
AcDbEntity
  8
L-ZISSEN
100
AcDbLine
 10
149.7000480894414
 20
217.0413346197394
 30
0.0
 11
149.7000480894414
 21
195.0413346197397
 31
0.0
  0
LINE
  5
3F
330
2
100
AcDbEntity
  8
L-ZISSEN
100
AcDbLine
 10
166.9000480894414
 20
232.0413346197394
 30
0.0
 11
166.9000480894414
 21
180.0413346197394
 31
0.0
  0
LINE
  5
40
330
2
100
AcDbEntity
  8
L-ZISSEN
100
AcDbLine
 10
156.8000480894414
 20
221.5071723576602
 30
0.0
 11
156.8000480894414
 21
192.0413346197397
 31
0.0
  0
LINE
  5
41
330
2
100
AcDbEntity
  8
L-ZISSEN
100
AcDbLine
 10
106.7000480894411
 20
232.0413346197394
 30
0.0
 11
106.7000480894413
 21
180.0413346197394
 31
0.0
  0
ARC
  5
42
330
2
100
AcDbEntity
  8
L-ZISSEN
100
AcDbCircle
 10
99.12545841356987
 20
217.2222317604014
 30
0.0
 40
4.28494059725952
100
AcDbArc
 50
323.0000000000003
 51
142.9999999999997
  0
LINE
  5
43
330
2
100
AcDbEntity
  8
L-TYUSIN
 48
0.4
100
AcDbLine
 10
69.70004808944136
 20
206.0413346197394
 30
0.0
 11
111.7000480894411
 21
206.0413346197394
 31
0.0
  0
CIRCLE
  5
44
330
2
100
AcDbEntity
  8
L-ZISSEN
100
AcDbCircle
 10
79.70004808944136
 20
185.0413346197394
 30
0.0
 40
3.5
  0
CIRCLE
  5
45
330
2
100
AcDbEntity
  8
L-ZISSEN
100
AcDbCircle
 10
101.7000480894413
 20
185.0413346197394
 30
0.0
 40
3.5
  0
LINE
  5
46
330
2
100
AcDbEntity
  8
L-ZISSEN
100
AcDbLine
 10
74.70004808944136
 20
180.0413346197394
 30
0.0
 11
106.7000480894413
 21
180.0413346197394
 31
0.0
  0
LINE
  5
47
330
2
100
AcDbEntity
  8
L-ZISSEN
100
AcDbLine
 10
102.5475641329846
 20
214.6434901356565
 30
0.0
 11
102.1432279740003
 21
214.1069179296823
 31
0.0
  0
LINE
  5
48
330
2
100
AcDbEntity
  8
L-TYUSIN
 48
0.4
100
AcDbLine
 10
220.7000480894413
 20
120.0000168383078
 30
0.0
 11
220.7000480894413
 21
80.00001683830781
 31
0.0
  0
LINE
  5
49
330
2
100
AcDbEntity
  8
L-TYUSIN
 48
0.4
100
AcDbLine
 10
208.7000480894413
 20
185.0413346197394
 30
0.0
 11
194.7000480894413
 21
185.0413346197394
 31
0.0
  0
CIRCLE
  5
4A
330
2
100
AcDbEntity
  8
L-ZISSEN
100
AcDbCircle
 10
201.7000480894413
 20
185.0413346197394
 30
0.0
 40
2.75
  0
LEADER
  5
4B
330
2
100
AcDbEntity
  8
L-ZISSEN
100
AcDbLeader
  3
STANDARD
 73
     0
 40
5.599999999999999
 76
     3
 10
220.7000480894413
 20
180.0413346197394
 30
0.0
 10
211.9300300475922
 20
166.9796567152931
 30
0.0
 10
205.4210110468302
 20
166.7194884586536
 30
0.0
1001
ACAD
1000
DSTYLE
1002
{
1070
     5
1000

1070
    40
1040
2.0
1070
    41
1040
2.0
1070
    42
1040
1.0
1070
    43
1040
8.0
1070
    44
1040
1.0
1070
    73
1070
     0
1070
    74
1070
     0
1070
    77
1070
     1
1070
    78
1070
     8
1070
   140
1040
2.799999999999999
1070
   141
1040
0.8
1070
   145
1040
1.0
1070
   147
1040
1.0
1070
   172
1070
     1
1070
   174
1070
     1
1070
   271
1070
     3
1070
   284
1070
     8
1070
   342
1005
0
1002
}
1000
LEANOF
1010
0.0
1020
0.0
1030
0.0
  0
LINE
  5
4C
330
2
100
AcDbEntity
  8
L-ZISSEN
100
AcDbLine
 10
156.9000480894414
 20
86.00001683830804
 30
0.0
 11
163.3000480894412
 21
86.00001683830804
 31
0.0
  0
LINE
  5
4D
330
2
100
AcDbEntity
  8
L-ZISSEN
100
AcDbLine
 10
156.9000480894414
 20
114.0000168383075
 30
0.0
 11
163.3000480894412
 21
114.0000168383075
 31
0.0
  0
LINE
  5
4E
330
2
100
AcDbEntity
  8
L-ZISSEN
100
AcDbLine
 10
150.0000480894414
 20
111.0000168383078
 30
0.0
 11
150.0000480894414
 21
89.00001683830804
 31
0.0
  0
LINE
  5
4F
330
2
100
AcDbEntity
  8
L-ZISSEN
100
AcDbLine
 10
156.9000480894414
 20
114.0000168383075
 30
0.0
 11
156.9000480894414
 21
86.00001683830804
 31
0.0
  0
LINE
  5
50
330
2
100
AcDbEntity
  8
L-ZISSEN
100
AcDbLine
 10
150.0000480894414
 20
89.00001683830804
 30
0.0
 11
157.0000480894414
 21
89.00001683830804
 31
0.0
  0
LINE
  5
51
330
2
100
AcDbEntity
  8
L-ZISSEN
100
AcDbLine
 10
150.0000480894414
 20
111.0000168383075
 30
0.0
 11
157.0000480894414
 21
111.0000168383075
 31
0.0
  0
LINE
  5
52
330
2
100
AcDbEntity
  8
L-ZISSEN
100
AcDbLine
 10
174.9000480894414
 20
116.0000168383082
 30
0.0
 11
174.9000480894414
 21
84.00001683830735
 31
0.0
  0
LINE
  5
53
330
2
100
AcDbEntity
  8
L-ZISSEN
100
AcDbLine
 10
166.9000480894414
 20
116.0000168383082
 30
0.0
 11
166.9000480894414
 21
84.00001683830735
 31
0.0
  0
LINE
  5
54
330
2
100
AcDbEntity
  8
L-ZISSEN
100
AcDbLine
 10
163.3000480894412
 20
92.50001683830781
 30
0.0
 11
163.3000480894412
 21
85.50001683830782
 31
0.0
  0
LINE
  5
55
330
2
100
AcDbEntity
  8
L-ZISSEN
100
AcDbLine
 10
163.3000480894412
 20
85.50001683830782
 30
0.0
 11
166.9000480894414
 21
85.50001683830782
 31
0.0
  0
LINE
  5
56
330
2
100
AcDbEntity
  8
L-ZISSEN
100
AcDbLine
 10
163.3000480894412
 20
92.50001683830781
 30
0.0
 11
166.9000480894414
 21
92.50001683830781
 31
0.0
  0
LINE
  5
57
330
2
100
AcDbEntity
  8
L-ZISSEN
100
AcDbLine
 10
163.3000480894412
 20
114.5000168383078
 30
0.0
 11
166.9000480894414
 21
114.5000168383078
 31
0.0
  0
LINE
  5
58
330
2
100
AcDbEntity
  8
L-ZISSEN
100
AcDbLine
 10
163.3000480894412
 20
107.5000168383078
 30
0.0
 11
166.9000480894414
 21
107.5000168383078
 31
0.0
  0
LINE
  5
59
330
2
100
AcDbEntity
  8
L-ZISSEN
100
AcDbLine
 10
163.3000480894412
 20
107.5000168383078
 30
0.0
 11
163.3000480894412
 21
114.5000168383078
 31
0.0
  0
CIRCLE
  5
5A
330
2
100
AcDbEntity
  8
L-ZISSEN
100
AcDbCircle
 10
188.7000480894413
 20
100.0000168383078
 30
0.0
 40
5.7225
  0
LINE
  5
5B
330
2
100
AcDbEntity
  8
L-TYUSIN
 48
0.4
100
AcDbLine
 10
188.7000480894413
 20
110.0000168383078
 30
0.0
 11
188.7000480894413
 21
90.00001683830781
 31
0.0
  0
LINE
  5
5C
330
2
100
AcDbEntity
  8
L-ZISSEN
100
AcDbLine
 10
156.8000480894414
 20
192.0413346197397
 30
0.0
 11
166.8000480894414
 21
192.0413346197397
 31
0.0
  0
LINE
  5
5D
330
2
100
AcDbEntity
  8
L-ZISSEN
100
AcDbLine
 10
156.8000480894414
 20
214.1069179296823
 30
0.0
 11
166.8000480894414
 21
214.1069179296823
 31
0.0
  0
LINE
  5
5E
330
2
100
AcDbEntity
  8
L-ZISSEN
100
AcDbLine
 10
149.7000480894414
 20
195.0413346197397
 30
0.0
 11
156.7000480894414
 21
195.0413346197397
 31
0.0
  0
LINE
  5
5F
330
2
100
AcDbEntity
  8
L-ZISSEN
100
AcDbLine
 10
156.7000480894414
 20
195.0413346197397
 30
0.0
 11
156.8000480894414
 21
195.0413346197397
 31
0.0
  0
LINE
  5
60
330
2
100
AcDbEntity
  8
L-TYUSIN
 48
0.4
100
AcDbLine
 10
201.7000480894413
 20
192.0413346197397
 30
0.0
 11
201.7000480894413
 21
178.041334619739
 31
0.0
  0
LINE
  5
61
330
2
100
AcDbEntity
  8
L-ZISSEN
100
AcDbLine
 10
163.3000480894412
 20
181.5413346197394
 30
0.0
 11
163.3000480894412
 21
188.5413346197394
 31
0.0
  0
LINE
  5
62
330
2
100
AcDbEntity
  8
L-TYUSIN
 48
0.4
100
AcDbLine
 10
188.7000480894413
 20
185.0413346197397
 30
0.0
 11
188.7000480894413
 21
175.0413346197392
 31
0.0
  0
TEXT
  5
63
330
2
100
AcDbEntity
  8
L-ZISSEN
100
AcDbText
 10
176.2606008471532
 20
165.1584730898356
 30
0.0
 40
4.5
  1
"1"PORT
100
AcDbText
  0
TEXT
  5
64
330
2
100
AcDbEntity
  8
L-ZISSEN
100
AcDbText
 10
176.2606008471532
 20
158.4428894377638
 30
0.0
 40
4.5
  1
 Rc1/4
100
AcDbText
  0
TEXT
  5
65
330
2
100
AcDbEntity
  8
L-ZISSEN
100
AcDbText
 10
176.2606008471532
 20
150.946800180931
 30
0.0
 40
4.5
  1
 Rc3/8
100
AcDbText
  0
LINE
  5
66
330
2
100
AcDbEntity
  8
L-ZISSEN
100
AcDbLine
 10
163.3000480894412
 20
181.5413346197394
 30
0.0
 11
166.9000480894414
 21
181.5413346197394
 31
0.0
  0
LINE
  5
67
330
2
100
AcDbEntity
  8
L-ZISSEN
100
AcDbLine
 10
163.3000480894412
 20
188.5413346197394
 30
0.0
 11
166.9000480894414
 21
188.5413346197394
 31
0.0
  0
LINE
  5
68
330
2
100
AcDbEntity
  8
L-ZISSEN
100
AcDbLine
 10
166.8000480894414
 20
192.0413346197397
 30
0.0
 11
166.9000480894414
 21
192.0413346197397
 31
0.0
  0
LINE
  5
69
330
2
100
AcDbEntity
  8
L-ZISSEN
100
AcDbLine
 10
166.8000480894414
 20
214.1069179296823
 30
0.0
 11
166.9000480894414
 21
214.1069179296823
 31
0.0
  0
CIRCLE
  5
6A
330
2
100
AcDbEntity
  8
L-ZISSEN
100
AcDbCircle
 10
252.7000480894413
 20
100.0000168383078
 30
0.0
 40
5.7225
  0
CIRCLE
  5
6B
330
2
100
AcDbEntity
  8
L-ZISSEN
100
AcDbCircle
 10
220.7000480894413
 20
100.0000168383078
 30
0.0
 40
5.7225
  0
LINE
  5
6C
330
2
100
AcDbEntity
  8
L-ZISSEN
100
AcDbLine
 10
266.5000480894412
 20
84.00001683830735
 30
0.0
 11
266.5000480894412
 21
116.0000168383082
 31
0.0
  0
LINE
  5
6D
330
2
100
AcDbEntity
  8
L-TYUSIN
 48
0.4
100
AcDbLine
 10
252.7000480894413
 20
110.0000168383078
 30
0.0
 11
252.7000480894413
 21
90.00001683830781
 31
0.0
  0
LINE
  5
6E
330
2
100
AcDbEntity
  8
L-TYUSIN
 48
0.4
100
AcDbLine
 10
239.7000480894413
 20
192.0413346197397
 30
0.0
 11
239.7000480894413
 21
178.041334619739
 31
0.0
  0
CIRCLE
  5
6F
330
2
100
AcDbEntity
  8
L-ZISSEN
100
AcDbCircle
 10
239.7000480894413
 20
185.0413346197394
 30
0.0
 40
2.75
  0
LINE
  5
70
330
2
100
AcDbEntity
  8
L-TYUSIN
 48
0.4
100
AcDbLine
 10
232.7000480894413
 20
185.0413346197394
 30
0.0
 11
246.7000480894413
 21
185.0413346197394
 31
0.0
  0
LINE
  5
71
330
2
100
AcDbEntity
  8
L-TYUSIN
 48
0.4
100
AcDbLine
 10
252.7000480894413
 20
185.0413346197397
 30
0.0
 11
252.7000480894413
 21
175.0413346197391
 31
0.0
  0
LINE
  5
72
330
2
100
AcDbEntity
  8
L-TYUSIN
 48
0.4
100
AcDbLine
 10
252.7000480894413
 20
185.0413346197397
 30
0.0
 11
252.7000480894413
 21
175.0413346197392
 31
0.0
  0
TEXT
  5
73
330
2
100
AcDbEntity
  8
L-ZISSEN
100
AcDbText
 10
62.55090454658875
 20
412.1703776369941
 30
0.0
 40
4.5
  1
             03JY
100
AcDbText
  0
LINE
  5
74
330
2
100
AcDbEntity
  8
L-TYUSIN
 48
0.4
100
AcDbLine
 10
90.70004808944137
 20
232.0413346197394
 30
0.0
 11
90.70004808944137
 21
273.4413346197384
 31
0.0
  0
LINE
  5
75
330
2
100
AcDbEntity
  8
L-ZISSEN
100
AcDbLine
 10
76.95004808944119
 20
266.0413346197391
 30
0.0
 11
76.95004808944119
 21
234.8413346197398
 31
0.0
  0
LINE
  5
76
330
2
100
AcDbEntity
  8
L-ZISSEN
100
AcDbLine
 10
104.4500480894412
 20
266.0413346197391
 30
0.0
 11
104.4500480894414
 21
234.8413346197398
 31
0.0
  0
LINE
  5
77
330
2
100
AcDbEntity
  8
L-ZISSEN
100
AcDbLine
 10
74.70004808944136
 20
232.0413346197394
 30
0.0
 11
106.7000480894413
 21
232.0413346197394
 31
0.0
  0
LINE
  5
78
330
2
100
AcDbEntity
  8
L-ZISSEN
100
AcDbLine
 10
105.7000480894414
 20
234.8413346197398
 30
0.0
 11
75.70004808944142
 21
234.8413346197398
 31
0.0
  0
LINE
  5
79
330
2
100
AcDbEntity
  8
L-ZISSEN
100
AcDbLine
 10
75.70004808944142
 20
234.8413346197398
 30
0.0
 11
75.70004808944142
 21
232.0413346197394
 31
0.0
  0
CIRCLE
  5
7A
330
2
100
AcDbEntity
  8
L-ZISSEN
100
AcDbCircle
 10
79.70004808944136
 20
227.0413346197394
 30
0.0
 40
3.5
  0
LINE
  5
7B
330
2
100
AcDbEntity
  8
L-ZISSEN
100
AcDbLine
 10
105.7000480894414
 20
234.8413346197398
 30
0.0
 11
105.7000480894414
 21
232.0413346197394
 31
0.0
  0
CIRCLE
  5
7C
330
2
100
AcDbEntity
  8
L-ZISSEN
100
AcDbCircle
 10
101.7000480894413
 20
227.0413346197394
 30
0.0
 40
3.5
  0
LINE
  5
7D
330
2
100
AcDbEntity
  8
L-ZISSEN
100
AcDbLine
 10
95.70335269415513
 20
219.8009733851463
 30
0.0
 11
95.29901653517041
 21
219.2644011791717
 31
0.0
  0
LINE
  5
7E
330
2
100
AcDbEntity
  8
L-TYUSIN
 48
0.4
100
AcDbLine
 10
106.9500480894411
 20
254.8413346197391
 30
0.0
 11
74.45004808944119
 21
254.8413346197391
 31
0.0
  0
LINE
  5
7F
330
2
100
AcDbEntity
  8
L-ZISSEN
100
AcDbLine
 10
76.95004808944119
 20
266.0413346197391
 30
0.0
 11
104.4500480894412
 21
266.0413346197391
 31
0.0
  0
TEXT
  5
80
330
2
100
AcDbEntity
  8
L-ZISSEN
100
AcDbText
 10
62.55090454658875
 20
426.9496447264215
 30
0.0
 40
4.5
  1
MODEL No.
100
AcDbText
  0
TEXT
  5
81
330
2
100
AcDbEntity
  8
L-ZISSEN
100
AcDbText
 10
62.55090454658875
 20
419.5600111817078
 30
0.0
 40
4.5
  1
MVS-495-02Y
100
AcDbText
  0
LINE
  5
82
330
2
100
AcDbEntity
  8
L-ZISSEN
100
AcDbLine
 10
266.5000480894412
 20
358.3243718644725
 30
0.0
 11
266.5000480894412
 21
327.1243718644723
 31
0.0
  0
LINE
  5
83
330
2
100
AcDbEntity
  8
L-ZISSEN
100
AcDbLine
 10
156.8000480894414
 20
356.7243718644722
 30
0.0
 11
156.8000480894414
 21
328.7243718644726
 31
0.0
  0
LINE
  5
84
330
2
100
AcDbEntity
  8
L-ZISSEN
100
AcDbLine
 10
166.9000480894414
 20
358.7243718644726
 30
0.0
 11
166.9000480894414
 21
326.724371864472
 31
0.0
  0
LINE
  5
85
330
2
100
AcDbEntity
  8
L-ZISSEN
100
AcDbLine
 10
149.7000480894414
 20
353.7243718644726
 30
0.0
 11
149.7000480894414
 21
331.7243718644726
 31
0.0
  0
LINE
  5
86
330
2
100
AcDbEntity
  8
L-ZISSEN
100
AcDbLine
 10
174.9000480894414
 20
358.7243718644726
 30
0.0
 11
174.9000480894414
 21
326.724371864472
 31
0.0
  0
LINE
  5
87
330
2
100
AcDbEntity
  8
L-ZISSEN
100
AcDbLine
 10
266.5000480894412
 20
326.724371864472
 30
0.0
 11
266.5000480894412
 21
358.7243718644726
 31
0.0
  0
LINE
  5
88
330
2
100
AcDbEntity
  8
L-TYUSIN
 48
0.4
100
AcDbLine
 10
220.7000480894413
 20
362.7243718644726
 30
0.0
 11
220.7000480894413
 21
322.7243718644724
 31
0.0
  0
LINE
  5
89
330
2
100
AcDbEntity
  8
L-TYUSIN
 48
0.4
100
AcDbLine
 10
236.7000480894413
 20
352.7243718644726
 30
0.0
 11
236.7000480894413
 21
332.7243718644727
 31
0.0
  0
LINE
  5
8A
330
2
100
AcDbEntity
  8
L-TYUSIN
 48
0.4
100
AcDbLine
 10
204.7000480894413
 20
352.7243718644726
 30
0.0
 11
204.7000480894413
 21
332.7243718644727
 31
0.0
  0
LINE
  5
8B
330
2
100
AcDbEntity
  8
L-ZISSEN
100
AcDbLine
 10
163.2000480894412
 20
350.2243718644726
 30
0.0
 11
163.2000480894412
 21
357.2243718644727
 31
0.0
  0
CIRCLE
  5
8C
330
2
100
AcDbEntity
  8
L-ZISSEN
100
AcDbCircle
 10
204.7000480894413
 20
342.7243718644727
 30
0.0
 40
5.7225
  0
LINE
  5
8D
330
2
100
AcDbEntity
  8
L-ZISSEN
100
AcDbLine
 10
156.8000480894414
 20
221.5071723576602
 30
0.0
 11
166.8000480894414
 21
221.5071723576602
 31
0.0
  0
LINE
  5
8E
330
2
100
AcDbEntity
  8
L-ZISSEN
100
AcDbLine
 10
149.7000480894414
 20
217.0413346197392
 30
0.0
 11
156.7000480894414
 21
217.0413346197392
 31
0.0
  0
LINE
  5
8F
330
2
100
AcDbEntity
  8
L-ZISSEN
100
AcDbLine
 10
156.7000480894414
 20
217.0413346197392
 30
0.0
 11
156.8000480894414
 21
217.0413346197392
 31
0.0
  0
LINE
  5
90
330
2
100
AcDbEntity
  8
L-ZISSEN
100
AcDbLine
 10
163.3000480894412
 20
230.5413346197394
 30
0.0
 11
163.3000480894412
 21
223.5413346197394
 31
0.0
  0
LINE
  5
91
330
2
100
AcDbEntity
  8
L-ZISSEN
100
AcDbLine
 10
163.3000480894412
 20
223.5413346197394
 30
0.0
 11
166.9000480894414
 21
223.5413346197394
 31
0.0
  0
LINE
  5
92
330
2
100
AcDbEntity
  8
L-ZISSEN
100
AcDbLine
 10
166.8000480894414
 20
221.5071723576602
 30
0.0
 11
166.9000480894414
 21
221.5071723576602
 31
0.0
  0
LINE
  5
93
330
2
100
AcDbEntity
  8
L-ZISSEN
100
AcDbLine
 10
163.3000480894412
 20
230.5413346197394
 30
0.0
 11
166.9000480894414
 21
230.5413346197394
 31
0.0
  0
LINE
  5
94
330
2
100
AcDbEntity
  8
L-ZISSEN
100
AcDbLine
 10
156.8000480894414
 20
328.7243718644726
 30
0.0
 11
163.2000480894412
 21
328.7243718644726
 31
0.0
  0
LINE
  5
95
330
2
100
AcDbEntity
  8
L-ZISSEN
100
AcDbLine
 10
156.8000480894414
 20
330.014020943086
 30
0.0
 11
163.2000480894412
 21
330.014020943086
 31
0.0
  0
LINE
  5
96
330
2
100
AcDbEntity
  8
L-ZISSEN
100
AcDbLine
 10
156.8000480894414
 20
338.1254034187431
 30
0.0
 11
166.8000480894414
 21
338.1254034187431
 31
0.0
  0
LINE
  5
97
330
2
100
AcDbEntity
  8
L-ZISSEN
100
AcDbLine
 10
149.7000480894414
 20
331.7243718644726
 30
0.0
 11
156.7000480894414
 21
331.7243718644726
 31
0.0
  0
LINE
  5
98
330
2
100
AcDbEntity
  8
L-ZISSEN
100
AcDbLine
 10
156.7000480894414
 20
331.7243718644726
 30
0.0
 11
156.8000480894414
 21
331.7243718644727
 31
0.0
  0
LINE
  5
99
330
2
100
AcDbEntity
  8
L-ZISSEN
100
AcDbLine
 10
163.2000480894412
 20
335.2243718644726
 30
0.0
 11
163.2000480894412
 21
328.2243718644727
 31
0.0
  0
LINE
  5
9A
330
2
100
AcDbEntity
  8
L-ZISSEN
100
AcDbLine
 10
163.2000480894412
 20
328.2243718644727
 30
0.0
 11
166.8000480894414
 21
328.2243718644727
 31
0.0
  0
LINE
  5
9B
330
2
100
AcDbEntity
  8
L-ZISSEN
100
AcDbLine
 10
166.8000480894414
 20
328.2243718644727
 30
0.0
 11
166.9000480894414
 21
328.2243718644727
 31
0.0
  0
LINE
  5
9C
330
2
100
AcDbEntity
  8
L-ZISSEN
100
AcDbLine
 10
163.2000480894412
 20
335.2243718644726
 30
0.0
 11
166.8000480894414
 21
335.2243718644726
 31
0.0
  0
LINE
  5
9D
330
2
100
AcDbEntity
  8
L-ZISSEN
100
AcDbLine
 10
166.8000480894414
 20
338.1254034187431
 30
0.0
 11
166.9000480894414
 21
338.1254034187431
 31
0.0
  0
LINE
  5
9E
330
2
100
AcDbEntity
  8
L-ZISSEN
100
AcDbLine
 10
166.8000480894414
 20
335.2243718644726
 30
0.0
 11
166.9000480894414
 21
335.2243718644726
 31
0.0
  0
LINE
  5
9F
330
2
100
AcDbEntity
  8
L-ZISSEN
100
AcDbLine
 10
163.2000480894412
 20
350.2243718644726
 30
0.0
 11
166.8000480894414
 21
350.2243718644726
 31
0.0
  0
LINE
  5
A0
330
2
100
AcDbEntity
  8
L-ZISSEN
100
AcDbLine
 10
166.8000480894414
 20
350.2243718644726
 30
0.0
 11
166.9000480894414
 21
350.2243718644726
 31
0.0
  0
LINE
  5
A1
330
2
100
AcDbEntity
  8
L-TYUSIN
 48
0.4
100
AcDbLine
 10
213.7000480894413
 20
227.0413346197394
 30
0.0
 11
227.7000480894413
 21
227.0413346197394
 31
0.0
  0
LINE
  5
A2
330
2
100
AcDbEntity
  8
L-TYUSIN
 48
0.4
100
AcDbLine
 10
204.7000480894413
 20
237.0413346197392
 30
0.0
 11
204.7000480894413
 21
227.0413346197396
 31
0.0
  0
CIRCLE
  5
A3
330
2
100
AcDbEntity
  8
L-ZISSEN
100
AcDbCircle
 10
220.7000480894413
 20
227.0413346197394
 30
0.0
 40
2.75
  0
LINE
  5
A4
330
2
100
AcDbEntity
  8
L-TYUSIN
 48
0.4
100
AcDbLine
 10
236.7000480894413
 20
237.0413346197392
 30
0.0
 11
236.7000480894413
 21
227.0413346197396
 31
0.0
  0
CIRCLE
  5
A5
330
2
100
AcDbEntity
  8
L-ZISSEN
100
AcDbCircle
 10
236.7000480894413
 20
342.7243718644727
 30
0.0
 40
5.7225
  0
LINE
  5
A6
330
2
100
AcDbEntity
  8
L-ZISSEN
100
AcDbLine
 10
156.8000480894414
 20
356.7243718644722
 30
0.0
 11
163.2000480894412
 21
356.7243718644722
 31
0.0
  0
LINE
  5
A7
330
2
100
AcDbEntity
  8
L-ZISSEN
100
AcDbLine
 10
149.7000480894414
 20
353.7243718644722
 30
0.0
 11
156.7000480894414
 21
353.7243718644722
 31
0.0
  0
LINE
  5
A8
330
2
100
AcDbEntity
  8
L-ZISSEN
100
AcDbLine
 10
156.7000480894414
 20
353.7243718644722
 30
0.0
 11
156.8000480894414
 21
353.7243718644722
 31
0.0
  0
LINE
  5
A9
330
2
100
AcDbEntity
  8
L-ZISSEN
100
AcDbLine
 10
163.2000480894412
 20
357.2243718644727
 30
0.0
 11
166.8000480894414
 21
357.2243718644727
 31
0.0
  0
LINE
  5
AA
330
2
100
AcDbEntity
  8
L-ZISSEN
100
AcDbLine
 10
166.8000480894414
 20
357.2243718644727
 30
0.0
 11
166.9000480894414
 21
357.2243718644727
 31
0.0
  0
LINE
  5
AB
330
2
100
AcDbEntity
  8
L-ZISSEN
100
AcDbLine
 10
431.4000480894413
 20
190.3413346197396
 30
0.0
 11
431.4000480894413
 21
221.7413346197395
 31
0.0
  0
LINE
  5
AC
330
2
100
AcDbEntity
  8
L-TYUSIN
 48
0.4
100
AcDbLine
 10
413.0000480894412
 20
218.2313346197395
 30
0.0
 11
413.0000480894412
 21
214.7313346197395
 31
0.0
  0
CIRCLE
  5
AD
330
2
100
AcDbEntity
  8
L-ZISSEN
100
AcDbCircle
 10
413.0000480894412
 20
216.4813346197395
 30
0.0
 40
2.75
  0
LINE
  5
AE
330
2
100
AcDbEntity
  8
L-ZISSEN
100
AcDbLine
 10
416.0000480894412
 20
212.9813346197395
 30
0.0
 11
416.0000480894412
 21
221.7413346197395
 31
0.0
  0
LINE
  5
AF
330
2
100
AcDbEntity
  8
L-ZISSEN
100
AcDbLine
 10
408.6000480894416
 20
190.3413346197396
 30
0.0
 11
408.6000480894416
 21
221.7413346197395
 31
0.0
  0
LINE
  5
B0
330
2
100
AcDbEntity
  8
L-TYUSIN
 48
0.4
100
AcDbLine
 10
420.0000480894414
 20
192.7413346197388
 30
0.0
 11
420.0000480894414
 21
273.6413346197384
 31
0.0
  0
LINE
  5
B1
330
2
100
AcDbEntity
  8
L-ZISSEN
100
AcDbLine
 10
435.6000480894414
 20
231.8413346197388
 30
0.0
 11
435.6000480894414
 21
180.2413346197388
 31
0.0
  0
LINE
  5
B2
330
2
100
AcDbEntity
  8
L-ZISSEN
100
AcDbLine
 10
404.4000480894413
 20
180.2413346197388
 30
0.0
 11
404.4000480894413
 21
231.8413346197388
 31
0.0
  0
LINE
  5
B3
330
2
100
AcDbEntity
  8
L-ZISSEN
100
AcDbLine
 10
604.1660494529747
 20
218.3801964954387
 30
0.0
 11
604.1660494529747
 21
205.0801964954388
 31
0.0
  0
LINE
  5
B4
330
2
100
AcDbEntity
  8
L-TYUSIN
100
AcDbLine
 10
601.1660494529746
 20
200.0801964954388
 30
0.0
 11
601.1660494529746
 21
223.3801964954387
 31
0.0
  0
LINE
  5
B5
330
2
100
AcDbEntity
  8
L-ZISSEN
100
AcDbLine
 10
598.1660494529746
 20
218.3801964954387
 30
0.0
 11
598.1660494529746
 21
205.0801964954388
 31
0.0
  0
LINE
  5
B6
330
2
100
AcDbEntity
  8
L-TYUSIN
100
AcDbLine
 10
507.580180375761
 20
396.0919143977271
 30
0.0
 11
507.580180375761
 21
170.0765892872161
 31
0.0
  0
LINE
  5
B7
330
2
100
AcDbEntity
  8
L-ZISSEN
100
AcDbLine
 10
308.5000480894411
 20
232.0413346197394
 30
0.0
 11
308.5000480894411
 21
180.0413346197394
 31
0.0
  0
LINE
  5
B8
330
2
100
AcDbEntity
  8
L-ZISSEN
100
AcDbLine
 10
345.1000480894411
 20
190.3413346197395
 30
0.0
 11
345.1000480894411
 21
225.5413346197395
 31
0.0
  0
LINE
  5
B9
330
2
100
AcDbEntity
  8
L-ZISSEN
100
AcDbLine
 10
319.5000480894413
 20
190.3413346197395
 30
0.0
 11
319.5000480894413
 21
235.0413346197397
 31
0.0
  0
LINE
  5
BA
330
2
100
AcDbEntity
  8
L-ZISSEN
100
AcDbLine
 10
349.7000480894414
 20
190.3413346197394
 30
0.0
 11
349.7000480894413
 21
221.7413346197395
 31
0.0
  0
LINE
  5
BB
330
2
100
AcDbEntity
  8
L-ZISSEN
100
AcDbLine
 10
351.7000480894414
 20
214.2913346197397
 30
0.0
 11
351.7000480894414
 21
219.7913346197397
 31
0.0
  0
LINE
  5
BC
330
2
100
AcDbEntity
  8
L-ZISSEN
100
AcDbLine
 10
308.5000480894413
 20
195.2413346197392
 30
0.0
 11
308.5000480894413
 21
226.6413346197393
 31
0.0
  0
LINE
  5
BD
330
2
100
AcDbEntity
  8
L-ZISSEN
100
AcDbLine
 10
351.7000480894414
 20
221.7413346197394
 30
0.0
 11
351.7000480894414
 21
190.3413346197394
 31
0.0
  0
LINE
  5
BE
330
2
100
AcDbEntity
  8
L-ZISSEN
100
AcDbLine
 10
352.6000480894432
 20
88.60001683830766
 30
0.0
 11
309.1000480894412
 21
88.60001683830766
 31
0.0
  0
LINE
  5
BF
330
2
100
AcDbEntity
  8
L-ZISSEN
100
AcDbLine
 10
350.1000480894433
 20
85.00001683830776
 30
0.0
 11
320.1000480894433
 21
85.00001683830776
 31
0.0
  0
LINE
  5
C0
330
2
100
AcDbEntity
  8
L-ZISSEN
100
AcDbLine
 10
350.1000480894433
 20
85.00001683830776
 30
0.0
 11
320.1000480894433
 21
85.00001683830776
 31
0.0
  0
LINE
  5
C1
330
2
100
AcDbEntity
  8
L-TYUSIN
 48
0.4
100
AcDbLine
 10
366.8000480894409
 20
100.000016838308
 30
0.0
 11
301.6000480894412
 21
100.0000168383078
 31
0.0
  0
LINE
  5
C2
330
2
100
AcDbEntity
  8
L-ZISSEN
100
AcDbLine
 10
352.6000480894432
 20
111.4000168383078
 30
0.0
 11
309.1000480894412
 21
111.4000168383078
 31
0.0
  0
LINE
  5
C3
330
2
100
AcDbEntity
  8
L-ZISSEN
100
AcDbLine
 10
350.1000480894432
 20
115.0000168383077
 30
0.0
 11
320.1000480894433
 21
115.0000168383079
 31
0.0
  0
LINE
  5
C4
330
2
100
AcDbEntity
  8
L-ZISSEN
100
AcDbLine
 10
350.1000480894432
 20
115.0000168383077
 30
0.0
 11
320.1000480894433
 21
115.0000168383079
 31
0.0
  0
LINE
  5
C5
330
2
100
AcDbEntity
  8
L-ZISSEN
100
AcDbLine
 10
309.1000480894409
 20
84.00001683830735
 30
0.0
 11
309.1000480894413
 21
116.0000168383082
 31
0.0
  0
LINE
  5
C6
330
2
100
AcDbEntity
  8
L-TYUSIN
 48
0.4
100
AcDbLine
 10
335.1000480894432
 20
117.5000168383077
 30
0.0
 11
335.1000480894433
 21
82.50001683830776
 31
0.0
  0
LINE
  5
C7
330
2
100
AcDbEntity
  8
L-ZISSEN
100
AcDbLine
 10
320.1000480894433
 20
115.0000168383079
 30
0.0
 11
320.1000480894433
 21
85.00001683830776
 31
0.0
  0
LINE
  5
C8
330
2
100
AcDbEntity
  8
L-ZISSEN
100
AcDbLine
 10
320.1000480894433
 20
115.0000168383079
 30
0.0
 11
320.1000480894433
 21
85.00001683830776
 31
0.0
  0
LINE
  5
C9
330
2
100
AcDbEntity
  8
L-TYUSIN
 48
0.4
100
AcDbLine
 10
299.7000480894413
 20
94.50001683830825
 30
0.0
 11
299.7000480894413
 21
105.5000168383082
 31
0.0
  0
CIRCLE
  5
CA
330
2
100
AcDbEntity
  8
L-ZISSEN
100
AcDbCircle
 10
299.7000480894413
 20
100.0000168383082
 30
0.0
 40
2.149999999999999
  0
LINE
  5
CB
330
2
100
AcDbEntity
  8
L-ZISSEN
100
AcDbLine
 10
350.1000480894432
 20
115.0000168383077
 30
0.0
 11
350.1000480894429
 21
111.400016838308
 31
0.0
  0
LINE
  5
CC
330
2
100
AcDbEntity
  8
L-ZISSEN
100
AcDbLine
 10
350.1000480894432
 20
115.0000168383077
 30
0.0
 11
350.1000480894432
 21
111.400016838308
 31
0.0
  0
LINE
  5
CD
330
2
100
AcDbEntity
  8
L-ZISSEN
100
AcDbLine
 10
369.0000480894436
 20
90.85001683830766
 30
0.0
 11
364.2500480894434
 21
90.85001683830766
 31
0.0
  0
LINE
  5
CE
330
2
100
AcDbEntity
  8
L-ZISSEN
100
AcDbLine
 10
369.0000480894434
 20
109.1500168383076
 30
0.0
 11
364.2500480894434
 21
109.1500168383076
 31
0.0
  0
LINE
  5
CF
330
2
100
AcDbEntity
  8
L-ZISSEN
100
AcDbLine
 10
364.2500480894434
 20
88.80001683830771
 30
0.0
 11
364.2500480894434
 21
111.2000168383075
 31
0.0
  0
LINE
  5
D0
330
2
100
AcDbEntity
  8
L-ZISSEN
100
AcDbLine
 10
350.6000480894432
 20
88.60001683830766
 30
0.0
 11
350.6000480894432
 21
111.4000168383078
 31
0.0
  0
LINE
  5
D1
330
2
100
AcDbEntity
  8
L-ZISSEN
100
AcDbLine
 10
352.6000480894432
 20
88.60001683830766
 30
0.0
 11
352.6000480894432
 21
111.4000168383078
 31
0.0
  0
LINE
  5
D2
330
2
100
AcDbEntity
  8
L-ZISSEN
100
AcDbLine
 10
364.2500480894434
 20
88.80001683830771
 30
0.0
 11
352.5000480894432
 21
88.80001683830771
 31
0.0
  0
LINE
  5
D3
330
2
100
AcDbEntity
  8
L-ZISSEN
100
AcDbLine
 10
350.1000480894432
 20
88.60001683830766
 30
0.0
 11
350.1000480894433
 21
85.00001683830776
 31
0.0
  0
LINE
  5
D4
330
2
100
AcDbEntity
  8
L-ZISSEN
100
AcDbLine
 10
350.1000480894432
 20
88.60001683830766
 30
0.0
 11
350.1000480894433
 21
85.00001683830776
 31
0.0
  0
LINE
  5
D5
330
2
100
AcDbEntity
  8
L-ZISSEN
100
AcDbLine
 10
352.6000480894431
 20
95.75001683830775
 30
0.0
 11
352.6000480894432
 21
90.25001683830774
 31
0.0
  0
LINE
  5
D6
330
2
100
AcDbEntity
  8
L-ZISSEN
100
AcDbLine
 10
351.6000480894434
 20
90.25001683830776
 30
0.0
 11
350.6000480894432
 21
90.25001683830776
 31
0.0
  0
LINE
  5
D7
330
2
100
AcDbEntity
  8
L-ZISSEN
100
AcDbLine
 10
352.6000480894432
 20
90.25001683830774
 30
0.0
 11
350.6000480894432
 21
90.25001683830776
 31
0.0
  0
LINE
  5
D8
330
2
100
AcDbEntity
  8
L-ZISSEN
100
AcDbLine
 10
352.6000480894431
 20
95.75001683830775
 30
0.0
 11
350.6000480894432
 21
95.75001683830775
 31
0.0
  0
LINE
  5
D9
330
2
100
AcDbEntity
  8
L-ZISSEN
100
AcDbLine
 10
352.6000480894432
 20
96.50001683830776
 30
0.0
 11
350.6000480894432
 21
96.50001683830776
 31
0.0
  0
LINE
  5
DA
330
2
100
AcDbEntity
  8
L-ZISSEN
100
AcDbLine
 10
364.2500480894434
 20
111.2000168383075
 30
0.0
 11
352.5000480894432
 21
111.2000168383075
 31
0.0
  0
LINE
  5
DB
330
2
100
AcDbEntity
  8
L-ZISSEN
100
AcDbLine
 10
374.0000480894436
 20
90.50001683830776
 30
0.0
 11
374.0000480894436
 21
109.5000168383075
 31
0.0
  0
LINE
  5
DC
330
2
100
AcDbEntity
  8
L-ZISSEN
100
AcDbLine
 10
369.0000480894436
 20
90.50001683830776
 30
0.0
 11
369.0000480894434
 21
109.5000168383075
 31
0.0
  0
LINE
  5
DD
330
2
100
AcDbEntity
  8
L-ZISSEN
100
AcDbLine
 10
374.0000480894436
 20
90.50001683830776
 30
0.0
 11
369.0000480894434
 21
90.50001683830776
 31
0.0
  0
LINE
  5
DE
330
2
100
AcDbEntity
  8
L-ZISSEN
100
AcDbLine
 10
369.0000480894435
 20
100.0000168383076
 30
0.0
 11
374.0000480894436
 21
100.0000168383076
 31
0.0
  0
LINE
  5
DF
330
2
100
AcDbEntity
  8
L-ZISSEN
100
AcDbLine
 10
374.0000480894436
 20
109.5000168383075
 30
0.0
 11
369.0000480894434
 21
109.5000168383075
 31
0.0
  0
LINE
  5
E0
330
2
100
AcDbEntity
  8
L-ZISSEN
100
AcDbLine
 10
351.7000480894414
 20
190.3413346197394
 30
0.0
 11
308.5000480894411
 21
190.3413346197394
 31
0.0
  0
LINE
  5
E1
330
2
100
AcDbEntity
  8
L-ZISSEN
100
AcDbLine
 10
351.7000480894414
 20
214.2913346197397
 30
0.0
 11
349.7000480894413
 21
214.2913346197397
 31
0.0
  0
LINE
  5
E2
330
2
100
AcDbEntity
  8
L-ZISSEN
100
AcDbLine
 10
351.7000480894414
 20
213.5413346197397
 30
0.0
 11
349.7000480894413
 21
213.5413346197397
 31
0.0
  0
LINE
  5
E3
330
2
100
AcDbEntity
  8
L-ZISSEN
100
AcDbLine
 10
435.6000480894414
 20
180.2413346197388
 30
0.0
 11
404.4000480894413
 21
180.2413346197388
 31
0.0
  0
LINE
  5
E4
330
2
100
AcDbEntity
  8
L-ZISSEN
100
AcDbLine
 10
408.6000480894416
 20
212.9813346197395
 30
0.0
 11
416.0000480894412
 21
212.9813346197395
 31
0.0
  0
LINE
  5
E5
330
2
100
AcDbEntity
  8
L-TYUSIN
 48
0.4
100
AcDbLine
 10
407.7500480894412
 20
206.0413346197394
 30
0.0
 11
432.2500480894417
 21
206.0413346197394
 31
0.0
  0
LINE
  5
E6
330
2
100
AcDbEntity
  8
L-ZISSEN
100
AcDbLine
 10
431.4000480894413
 20
190.3413346197396
 30
0.0
 11
408.6000480894416
 21
190.3413346197396
 31
0.0
  0
LINE
  5
E7
330
2
100
AcDbEntity
  8
L-ZISSEN
100
AcDbLine
 10
404.4000480894413
 20
189.2413346197387
 30
0.0
 11
435.6000480894414
 21
189.2413346197387
 31
0.0
  0
LINE
  5
E8
330
2
100
AcDbEntity
  8
L-ZISSEN
100
AcDbLine
 10
424.0000480894416
 20
199.0413346197394
 30
0.0
 11
424.0000480894416
 21
190.3413346197396
 31
0.0
  0
CIRCLE
  5
E9
330
2
100
AcDbEntity
  8
L-ZISSEN
100
AcDbCircle
 10
427.0000480894417
 20
195.5413346197395
 30
0.0
 40
2.75
  0
LINE
  5
EA
330
2
100
AcDbEntity
  8
L-TYUSIN
 48
0.4
100
AcDbLine
 10
428.7500480894417
 20
195.5413346197394
 30
0.0
 11
425.2500480894417
 21
195.5413346197394
 31
0.0
  0
LINE
  5
EB
330
2
100
AcDbEntity
  8
L-TYUSIN
 48
0.4
100
AcDbLine
 10
427.0000480894417
 20
197.2913346197394
 30
0.0
 11
427.0000480894417
 21
193.7913346197394
 31
0.0
  0
LINE
  5
EC
330
2
100
AcDbEntity
  8
L-ZISSEN
100
AcDbLine
 10
431.4000480894413
 20
199.0413346197394
 30
0.0
 11
424.0000480894416
 21
199.0413346197394
 31
0.0
  0
LEADER
  5
ED
330
2
100
AcDbEntity
  8
L-ZISSEN
100
AcDbLeader
  3
STANDARD
 73
     0
 74
     0
 40
5.599999999999999
 41
9.599999999999997
 76
     3
 10
601.1660494529746
 20
205.0801964954388
 30
0.0
 10
609.3667178912514
 20
182.0914986543681
 30
0.0
 10
611.6937632294771
 20
182.0914986543681
 30
0.0
1001
ACAD
1000
DSTYLE
1002
{
1070
     5
1000

1070
    40
1040
2.0
1070
    41
1040
2.0
1070
    42
1040
2.0
1070
    44
1040
2.0
1070
    46
1040
1.0
1070
    73
1070
     0
1070
    74
1070
     0
1070
    77
1070
     1
1070
   140
1040
2.799999999999999
1070
   147
1040
1.0
1070
   172
1070
     1
1070
   174
1070
     1
1070
   271
1070
     1
1070
   287
1070
     5
1070
   342
1005
0
1002
}
1000
LEANOF
1010
0.0
1020
0.0
1030
0.0
  0
MTEXT
  5
EE
330
2
100
AcDbEntity
  8
L-ZISSEN
100
AcDbMText
 10
613.7231862204387
 20
184.0914986543681
 30
0.0
 40
4.5
 41
0.0
 71
     7
 72
     1
  1
P.P
1001
ACAD
1000
MTEXTBEGIN
1070
    73
1070
     1
1070
    44
1040
1.0
1070
    74
1070
     0
1000
MTEXTEND
1000
MTEXTBEGIN
1070
    73
1070
     1
1070
    44
1040
1.0
1070
    74
1070
     0
1000
MTEXTEND
1000
MTEXTBEGIN
1070
    73
1070
     1
1070
    44
1040
1.0
1070
    74
1070
     0
1000
MTEXTEND
  0
LINE
  5
EF
330
2
100
AcDbEntity
  8
L-TYUSIN
100
AcDbLine
 10
507.580180375761
 20
312.5828161217412
 30
0.0
 11
725.124427710594
 21
312.5828161217412
 31
0.0
  0
LINE
  5
F0
330
2
100
AcDbEntity
  8
L-ZISSEN
100
AcDbLine
 10
308.5000480894411
 20
326.724371864472
 30
0.0
 11
308.5000480894411
 21
358.7243718644727
 31
0.0
  0
LINE
  5
F1
330
2
100
AcDbEntity
  8
L-ZISSEN
100
AcDbLine
 10
319.5000480894435
 20
327.724371864472
 30
0.0
 11
319.5000480894435
 21
357.7243718644723
 31
0.0
  0
LINE
  5
F2
330
2
100
AcDbEntity
  8
L-ZISSEN
100
AcDbLine
 10
319.5000480894435
 20
327.724371864472
 30
0.0
 11
319.5000480894435
 21
357.7243718644723
 31
0.0
  0
LINE
  5
F3
330
2
100
AcDbEntity
  8
L-ZISSEN
100
AcDbLine
 10
373.7000480894438
 20
352.2243718644722
 30
0.0
 11
373.7000480894438
 21
333.2243718644723
 31
0.0
  0
LINE
  5
F4
330
2
100
AcDbEntity
  8
L-ZISSEN
100
AcDbLine
 10
368.7000480894438
 20
352.2243718644722
 30
0.0
 11
368.7000480894436
 21
333.2243718644724
 31
0.0
  0
LINE
  5
F5
330
2
100
AcDbEntity
  8
L-ZISSEN
100
AcDbLine
 10
363.9500480894436
 20
353.9243718644724
 30
0.0
 11
363.9500480894436
 21
331.5243718644724
 31
0.0
  0
LINE
  5
F6
330
2
100
AcDbEntity
  8
L-TYUSIN
 48
0.4
100
AcDbLine
 10
334.7000480894434
 20
325.2243718644722
 30
0.0
 11
334.7000480894436
 21
360.2243718644722
 31
0.0
  0
LINE
  5
F7
330
2
100
AcDbEntity
  8
L-ZISSEN
100
AcDbLine
 10
349.7000480894436
 20
357.7243718644723
 30
0.0
 11
349.7000480894433
 21
327.7243718644722
 31
0.0
  0
LEADER
  5
F8
330
2
100
AcDbEntity
  8
L-ZISSEN
100
AcDbLeader
  3
STANDARD
 73
     0
 74
     0
 40
5.599999999999999
 41
9.599999999999997
 76
     3
 10
299.7000480894413
 20
342.7243718644727
 30
0.0
 10
319.6159916127002
 20
384.6378119901706
 30
0.0
 10
331.4246145736859
 20
384.6378119901706
 30
0.0
1001
ACAD
1000
DSTYLE
1002
{
1070
     5
1000

1070
    40
1040
2.0
1070
    41
1040
2.0
1070
    42
1040
1.0
1070
    43
1040
8.0
1070
    44
1040
1.0
1070
    73
1070
     0
1070
    74
1070
     0
1070
    77
1070
     1
1070
    78
1070
     8
1070
   140
1040
2.799999999999999
1070
   141
1040
0.8
1070
   145
1040
1.0
1070
   147
1040
1.0
1070
   172
1070
     1
1070
   174
1070
     1
1070
   271
1070
     3
1070
   284
1070
     8
1070
   342
1005
0
1002
}
1000
LEANOF
1010
0.0
1020
0.0
1030
0.0
  0
LINE
  5
F9
330
2
100
AcDbEntity
  8
L-ZISSEN
100
AcDbLine
 10
349.7000480894412
 20
225.5413346197396
 30
0.0
 11
319.7000480894413
 21
225.5413346197389
 31
0.0
  0
LINE
  5
FA
330
2
100
AcDbEntity
  8
L-TYUSIN
 48
0.4
100
AcDbLine
 10
378.8000480894412
 20
254.8413346197398
 30
0.0
 11
334.500048089441
 21
254.8413346197398
 31
0.0
  0
LINE
  5
FB
330
2
100
AcDbEntity
  8
L-ZISSEN
100
AcDbLine
 10
348.4500480894414
 20
266.0413346197399
 30
0.0
 11
320.750048089441
 21
266.0413346197397
 31
0.0
  0
LINE
  5
FC
330
2
100
AcDbEntity
  8
L-ZISSEN
100
AcDbLine
 10
349.6000480894412
 20
235.0413346197398
 30
0.0
 11
319.5000480894413
 21
235.0413346197397
 31
0.0
  0
LINE
  5
FD
330
2
100
AcDbEntity
  8
L-ZISSEN
100
AcDbLine
 10
349.6000480894412
 20
230.5413346197397
 30
0.0
 11
319.5000480894413
 21
230.5413346197395
 31
0.0
  0
LINE
  5
FE
330
2
100
AcDbEntity
  8
L-ZISSEN
100
AcDbLine
 10
345.6000480894412
 20
221.7413346197394
 30
0.0
 11
319.5000480894413
 21
221.7413346197395
 31
0.0
  0
LINE
  5
FF
330
2
100
AcDbEntity
  8
L-ZISSEN
100
AcDbLine
 10
320.750048089441
 20
266.0413346197398
 30
0.0
 11
320.7500480894411
 21
234.8413346197397
 31
0.0
  0
LINE
  5
100
330
2
100
AcDbEntity
  8
L-TYUSIN
 48
0.4
100
AcDbLine
 10
334.5000480894412
 20
268.7413346197391
 30
0.0
 11
334.5000480894412
 21
219.3413346197397
 31
0.0
  0
LINE
  5
101
330
2
100
AcDbEntity
  8
L-ZISSEN
100
AcDbLine
 10
313.0882414767094
 20
223.6454597912072
 30
0.0
 11
305.4606013412509
 21
247.3849573359828
 31
0.0
  0
LINE
  5
102
330
2
100
AcDbEntity
  8
L-ZISSEN
100
AcDbLine
 10
319.5000480894413
 20
221.7413346197395
 30
0.0
 11
308.5000480894413
 21
221.7413346197395
 31
0.0
  0
LINE
  5
103
330
2
100
AcDbEntity
  8
L-ZISSEN
100
AcDbLine
 10
316.3000480894413
 20
222.0413346197392
 30
0.0
 11
311.1000480894414
 21
222.0413346197392
 31
0.0
  0
LINE
  5
104
330
2
100
AcDbEntity
  8
L-TYUSIN
 48
0.4
100
AcDbLine
 10
313.7000480894413
 20
219.2413346197395
 30
0.0
 11
313.7000480894413
 21
223.7413346197393
 31
0.0
  0
LINE
  5
105
330
2
100
AcDbEntity
  8
L-ZISSEN
100
AcDbLine
 10
311.1000480894413
 20
222.0413346197392
 30
0.0
 11
311.1000480894413
 21
221.7413346197395
 31
0.0
  0
SOLID
  5
106
330
2
100
AcDbEntity
  8
L-ZISSEN
100
AcDbTrace
 10
313.405595671954
 20
223.747427559996
 30
0.0
 11
312.7708872814647
 21
223.5434920224188
 31
0.0
 12
313.7000480894413
 22
221.7413346197395
 32
0.0
 13
313.7000480894413
 23
221.7413346197395
 33
0.0
  0
LINE
  5
107
330
2
100
AcDbEntity
  8
L-ZISSEN
100
AcDbLine
 10
316.3000480894413
 20
222.0413346197392
 30
0.0
 11
316.3000480894413
 21
221.7413346197395
 31
0.0
  0
LINE
  5
108
330
2
100
AcDbEntity
  8
L-ZISSEN
100
AcDbLine
 10
305.4606013412509
 20
247.3849573359828
 30
0.0
 11
303.4606013412509
 21
247.3849573359828
 31
0.0
  0
LINE
  5
109
330
2
100
AcDbEntity
  8
L-ZISSEN
100
AcDbLine
 10
348.4500480894414
 20
266.0413346197399
 30
0.0
 11
348.4500480894414
 21
234.8413346197398
 31
0.0
  0
LINE
  5
10A
330
2
100
AcDbEntity
  8
L-ZISSEN
100
AcDbLine
 10
373.7000480894413
 20
265.8109897343426
 30
0.0
 11
373.7000480894412
 21
243.8716795051369
 31
0.0
  0
LINE
  5
10B
330
2
100
AcDbEntity
  8
L-ZISSEN
100
AcDbLine
 10
368.7000480894412
 20
265.8109897343426
 30
0.0
 11
368.7000480894412
 21
243.871679505137
 31
0.0
  0
LINE
  5
10C
330
2
100
AcDbEntity
  8
L-ZISSEN
100
AcDbLine
 10
363.9500480894411
 20
266.0413346197398
 30
0.0
 11
363.9500480894411
 21
243.6413346197397
 31
0.0
  0
LINE
  5
10D
330
2
100
AcDbEntity
  8
L-ZISSEN
100
AcDbLine
 10
368.7000480894412
 20
245.6913346197399
 30
0.0
 11
363.9500480894411
 21
245.6913346197399
 31
0.0
  0
LINE
  5
10E
330
2
100
AcDbEntity
  8
L-ZISSEN
100
AcDbLine
 10
349.6000480894412
 20
225.5413346197395
 30
0.0
 11
349.6000480894412
 21
235.0413346197398
 31
0.0
  0
LINE
  5
10F
330
2
100
AcDbEntity
  8
L-ZISSEN
100
AcDbLine
 10
351.7000480894414
 20
221.7413346197394
 30
0.0
 11
345.1000480894411
 21
221.7413346197394
 31
0.0
  0
LINE
  5
110
330
2
100
AcDbEntity
  8
L-ZISSEN
100
AcDbLine
 10
351.7000480894414
 20
219.7913346197397
 30
0.0
 11
349.7000480894413
 21
219.7913346197397
 31
0.0
  0
LINE
  5
111
330
2
100
AcDbEntity
  8
L-ZISSEN
100
AcDbLine
 10
363.9500480894411
 20
243.6413346197397
 30
0.0
 11
348.4500480894413
 21
243.6413346197397
 31
0.0
  0
LINE
  5
112
330
2
100
AcDbEntity
  8
L-ZISSEN
100
AcDbLine
 10
373.7000480894412
 20
243.8716795051369
 30
0.0
 11
368.7000480894412
 21
243.871679505137
 31
0.0
  0
LINE
  5
113
330
2
100
AcDbEntity
  8
L-ZISSEN
100
AcDbLine
 10
368.7000480894412
 20
263.9913346197396
 30
0.0
 11
363.9500480894411
 21
263.9913346197396
 31
0.0
  0
LINE
  5
114
330
2
100
AcDbEntity
  8
L-ZISSEN
100
AcDbLine
 10
348.4500480894414
 20
266.0413346197399
 30
0.0
 11
363.9500480894411
 21
266.0413346197398
 31
0.0
  0
LINE
  5
115
330
2
100
AcDbEntity
  8
L-ZISSEN
100
AcDbLine
 10
373.7000480894413
 20
265.8412897343426
 30
0.0
 11
368.7000480894412
 21
265.8412897343426
 31
0.0
  0
LINE
  5
116
330
2
100
AcDbEntity
  8
L-ZISSEN
100
AcDbLine
 10
349.5000480894433
 20
327.7243718644722
 30
0.0
 11
319.5000480894435
 21
327.724371864472
 31
0.0
  0
LINE
  5
117
330
2
100
AcDbEntity
  8
L-ZISSEN
100
AcDbLine
 10
349.7000480894433
 20
327.7243718644722
 30
0.0
 11
319.7000480894436
 21
327.724371864472
 31
0.0
  0
LINE
  5
118
330
2
100
AcDbEntity
  8
L-ZISSEN
100
AcDbLine
 10
319.5000480894435
 20
331.3243718644721
 30
0.0
 11
308.5000480894413
 21
331.3243718644721
 31
0.0
  0
LINE
  5
119
330
2
100
AcDbEntity
  8
L-ZISSEN
100
AcDbLine
 10
319.5000480894435
 20
331.3243718644721
 30
0.0
 11
308.5000480894413
 21
331.3243718644721
 31
0.0
  0
CIRCLE
  5
11A
330
2
100
AcDbEntity
  8
L-ZISSEN
100
AcDbCircle
 10
313.7000480894434
 20
342.7243718644723
 30
0.0
 40
2.600000000000008
  0
CIRCLE
  5
11B
330
2
100
AcDbEntity
  8
L-ZISSEN
100
AcDbCircle
 10
313.7000480894434
 20
342.7243718644723
 30
0.0
 40
1.500000000000099
  0
CIRCLE
  5
11C
330
2
100
AcDbEntity
  8
L-ZISSEN
100
AcDbCircle
 10
334.7000480894436
 20
342.7243718644723
 30
0.0
 40
3.25
  0
LINE
  5
11D
330
2
100
AcDbEntity
  8
L-TYUSIN
 48
0.4
100
AcDbLine
 10
336.2910383471145
 20
344.3153621221433
 30
0.0
 11
333.109057831774
 21
341.1333816068026
 31
0.0
  0
LINE
  5
11E
330
2
100
AcDbEntity
  8
L-TYUSIN
 48
0.4
100
AcDbLine
 10
333.1090578317724
 20
344.3153621221433
 30
0.0
 11
336.2910383471117
 21
341.1333816068038
 31
0.0
  0
LINE
  5
11F
330
2
100
AcDbEntity
  8
L-ZISSEN
100
AcDbLine
 10
368.7000480894436
 20
333.5743718644723
 30
0.0
 11
363.9500480894436
 21
333.5743718644723
 31
0.0
  0
LINE
  5
120
330
2
100
AcDbEntity
  8
L-ZISSEN
100
AcDbLine
 10
363.9500480894436
 20
331.5243718644724
 30
0.0
 11
349.7000480894433
 21
331.5243718644723
 31
0.0
  0
LINE
  5
121
330
2
100
AcDbEntity
  8
L-ZISSEN
100
AcDbLine
 10
373.7000480894438
 20
333.2243718644723
 30
0.0
 11
368.7000480894436
 21
333.2243718644724
 31
0.0
  0
LINE
  5
122
330
2
100
AcDbEntity
  8
L-ZISSEN
100
AcDbLine
 10
373.1052932940102
 20
342.724371864471
 30
0.0
 11
368.7000480894438
 21
342.7243718644723
 31
0.0
  0
LINE
  5
123
330
2
100
AcDbEntity
  8
L-ZISSEN
100
AcDbLine
 10
373.1052932940102
 20
342.724371864471
 30
0.0
 11
373.7000480894438
 21
342.7243718644727
 31
0.0
  0
LINE
  5
124
330
2
100
AcDbEntity
  8
L-TYUSIN
 48
0.4
100
AcDbLine
 10
436.2500480894412
 20
255.0413346197391
 30
0.0
 11
403.7500480894412
 21
255.0413346197391
 31
0.0
  0
CIRCLE
  5
125
330
2
100
AcDbEntity
  8
L-ZISSEN
100
AcDbCircle
 10
420.0000480894412
 20
255.0413346197391
 30
0.0
 40
11.19999999999999
  0
CIRCLE
  5
126
330
2
100
AcDbEntity
  8
L-ZISSEN
100
AcDbCircle
 10
420.0000480894412
 20
255.0413346197391
 30
0.0
 40
6.5
  0
LINE
  5
127
330
2
100
AcDbEntity
  8
L-ZISSEN
100
AcDbLine
 10
433.7500480894412
 20
266.2413346197392
 30
0.0
 11
433.7500480894414
 21
235.0413346197398
 31
0.0
  0
LINE
  5
128
330
2
100
AcDbEntity
  8
L-ZISSEN
100
AcDbLine
 10
406.2500480894412
 20
266.2413346197392
 30
0.0
 11
406.2500480894412
 21
235.0413346197398
 31
0.0
  0
LINE
  5
129
330
2
100
AcDbEntity
  8
L-ZISSEN
100
AcDbLine
 10
435.0000480894414
 20
235.0413346197398
 30
0.0
 11
405.0000480894414
 21
235.0413346197398
 31
0.0
  0
LINE
  5
12A
330
2
100
AcDbEntity
  8
L-ZISSEN
100
AcDbLine
 10
435.0000480894414
 20
230.5413346197394
 30
0.0
 11
405.0000480894414
 21
230.5413346197395
 31
0.0
  0
LINE
  5
12B
330
2
100
AcDbEntity
  8
L-ZISSEN
100
AcDbLine
 10
435.0000480894417
 20
225.5413346197395
 30
0.0
 11
405.0000480894414
 21
225.5413346197396
 31
0.0
  0
LINE
  5
12C
330
2
100
AcDbEntity
  8
L-TYUSIN
 48
0.4
100
AcDbLine
 10
414.7500480894412
 20
216.4813346197395
 30
0.0
 11
411.2500480894412
 21
216.4813346197395
 31
0.0
  0
LINE
  5
12D
330
2
100
AcDbEntity
  8
L-ZISSEN
100
AcDbLine
 10
431.4000480894413
 20
221.7413346197395
 30
0.0
 11
408.6000480894416
 21
221.7413346197395
 31
0.0
  0
LINE
  5
12E
330
2
100
AcDbEntity
  8
L-ZISSEN
100
AcDbLine
 10
405.0000480894414
 20
235.0413346197398
 30
0.0
 11
405.0000480894414
 21
225.5413346197396
 31
0.0
  0
LINE
  5
12F
330
2
100
AcDbEntity
  8
L-ZISSEN
100
AcDbLine
 10
405.0000480894414
 20
225.5413346197396
 30
0.0
 11
408.6000480894416
 21
221.7413346197395
 31
0.0
  0
LINE
  5
130
330
2
100
AcDbEntity
  8
L-ZISSEN
100
AcDbLine
 10
404.4000480894413
 20
231.8413346197388
 30
0.0
 11
405.0000480894413
 21
231.8413346197388
 31
0.0
  0
LINE
  5
131
330
2
100
AcDbEntity
  8
L-ZISSEN
100
AcDbLine
 10
435.0000480894414
 20
235.0413346197398
 30
0.0
 11
435.0000480894417
 21
225.5413346197395
 31
0.0
  0
LINE
  5
132
330
2
100
AcDbEntity
  8
L-ZISSEN
100
AcDbLine
 10
435.0000480894417
 20
225.5413346197395
 30
0.0
 11
431.4000480894413
 21
221.7413346197395
 31
0.0
  0
LINE
  5
133
330
2
100
AcDbEntity
  8
L-ZISSEN
100
AcDbLine
 10
435.0000480894417
 20
231.8413346197388
 30
0.0
 11
435.6000480894414
 21
231.8413346197388
 31
0.0
  0
LINE
  5
134
330
2
100
AcDbEntity
  8
L-ZISSEN
100
AcDbLine
 10
406.2500480894412
 20
266.2413346197392
 30
0.0
 11
433.7500480894412
 21
266.2413346197392
 31
0.0
  0
LINE
  5
135
330
2
100
AcDbEntity
  8
L-ZISSEN
100
AcDbLine
 10
349.5000480894435
 20
357.7243718644723
 30
0.0
 11
319.5000480894435
 21
357.7243718644723
 31
0.0
  0
LINE
  5
136
330
2
100
AcDbEntity
  8
L-ZISSEN
100
AcDbLine
 10
349.7000480894436
 20
357.7243718644723
 30
0.0
 11
319.7000480894436
 21
357.7243718644723
 31
0.0
  0
LINE
  5
137
330
2
100
AcDbEntity
  8
L-ZISSEN
100
AcDbLine
 10
319.5000480894435
 20
354.1243718644723
 30
0.0
 11
308.5000480894413
 21
354.1243718644723
 31
0.0
  0
LINE
  5
138
330
2
100
AcDbEntity
  8
L-ZISSEN
100
AcDbLine
 10
319.5000480894435
 20
354.1243718644723
 30
0.0
 11
308.5000480894413
 21
354.1243718644723
 31
0.0
  0
MTEXT
  5
139
330
2
100
AcDbEntity
  8
L-ZISSEN
100
AcDbMText
 10
333.4246145736859
 20
386.6378119901706
 30
0.0
 40
4.5
 41
0.0
 71
     7
 72
     1
  1
P.P
1001
ACAD
1000
MTEXTBEGIN
1070
    73
1070
     1
1070
    44
1040
1.0
1070
    74
1070
     0
1000
MTEXTEND
1000
MTEXTBEGIN
1070
    73
1070
     1
1070
    44
1040
1.0
1070
    74
1070
     0
1000
MTEXTEND
  0
LINE
  5
13A
330
2
100
AcDbEntity
  8
L-ZISSEN
100
AcDbLine
 10
368.7000480894438
 20
351.8743718644723
 30
0.0
 11
363.9500480894436
 21
351.8743718644723
 31
0.0
  0
LINE
  5
13B
330
2
100
AcDbEntity
  8
L-ZISSEN
100
AcDbLine
 10
363.9500480894436
 20
353.9243718644724
 30
0.0
 11
349.7000480894435
 21
353.9243718644724
 31
0.0
  0
LINE
  5
13C
330
2
100
AcDbEntity
  8
L-ZISSEN
100
AcDbLine
 10
373.7000480894438
 20
352.2243718644722
 30
0.0
 11
368.7000480894436
 21
352.2243718644722
 31
0.0
  0
LINE
  5
13D
330
2
100
AcDbEntity
  8
L-TYUSIN
100
AcDbLine
 10
585.5682317109439
 20
354.4356980299875
 30
0.0
 11
585.5682317109439
 21
338.4356980299865
 31
0.0
  0
CIRCLE
  5
13E
330
2
100
AcDbEntity
  8
L-ZISSEN
100
AcDbCircle
 10
585.5682317109439
 20
346.4356980299867
 30
0.0
 40
4.283
  0
TEXT
  5
13F
330
2
100
AcDbEntity
  8
L-ZISSEN
100
AcDbText
 10
517.580180375761
 20
287.5828161217412
 30
0.0
 40
4.5
  1
MODEL No. :  MVS-495-0*Y****R*
100
AcDbText
  0
TEXT
  5
140
330
2
100
AcDbEntity
  8
L-ZISSEN
100
AcDbText
 10
517.580180375761
 20
297.5828161217411
 30
0.0
 40
4.5
  1
LOCK TYPE MANUAL OPERATION BUTTON
100
AcDbText
  0
TEXT
  5
141
330
2
100
AcDbEntity
  8
L-ZISSEN
100
AcDbText
 10
517.580180375761
 20
287.5828161217412
 30
0.0
 40
4.5
  1
MODEL No. :
100
AcDbText
  0
LEADER
  5
142
330
2
100
AcDbEntity
  8
L-ZISSEN
100
AcDbLeader
  3
STANDARD
 73
     0
 74
     0
 40
5.599999999999999
 41
9.599999999999997
 76
     3
 10
601.1660494529746
 20
236.3221208239591
 30
0.0
 10
609.3667178912514
 20
263.4365140104416
 30
0.0
 10
611.6937632294771
 20
263.4365140104416
 30
0.0
210
0.0
220
0.0
230
-1.0
1001
ACAD
1000
DSTYLE
1002
{
1070
     5
1000

1070
    40
1040
2.0
1070
    41
1040
2.0
1070
    42
1040
2.0
1070
    44
1040
2.0
1070
    46
1040
1.0
1070
    73
1070
     0
1070
    74
1070
     0
1070
    77
1070
     1
1070
   140
1040
2.799999999999999
1070
   147
1040
1.0
1070
   172
1070
     1
1070
   174
1070
     1
1070
   271
1070
     1
1070
   287
1070
     5
1070
   342
1005
0
1002
}
1000
LEANOF
1010
0.0
1020
0.0
1030
0.0
  0
MTEXT
  5
143
330
2
100
AcDbEntity
  8
L-ZISSEN
100
AcDbMText
 10
613.9991916039973
 20
264.8066455849437
 30
0.0
 40
4.5
 41
0.0
 71
     7
 72
     1
  1
P.P
1001
ACAD
1000
MTEXTBEGIN
1070
    73
1070
     1
1070
    44
1040
1.0
1070
    74
1070
     0
1000
MTEXTEND
1000
MTEXTBEGIN
1070
    73
1070
     1
1070
    44
1040
1.0
1070
    74
1070
     0
1000
MTEXTEND
1000
MTEXTBEGIN
1070
    73
1070
     1
1070
    44
1040
1.0
1070
    74
1070
     0
1000
MTEXTEND
  0
CIRCLE
  5
144
330
2
100
AcDbEntity
  8
L-ZISSEN
100
AcDbCircle
 10
601.1660494529746
 20
236.3221208239591
 30
0.0
 40
3.0
  0
LINE
  5
145
330
2
100
AcDbEntity
  8
L-ZISSEN
100
AcDbLine
 10
598.1660494529746
 20
218.3801964954387
 30
0.0
 11
600.7660494529747
 21
218.3801964954387
 31
0.0
  0
LINE
  5
146
330
2
100
AcDbEntity
  8
L-TYUSIN
100
AcDbLine
 10
601.1660494529746
 20
244.3221208239599
 30
0.0
 11
601.1660494529746
 21
228.3221208239589
 31
0.0
  0
LINE
  5
147
330
2
100
AcDbEntity
  8
L-ZISSEN
100
AcDbLine
 10
601.5660494529746
 20
218.3801964954387
 30
0.0
 11
601.5660494529746
 21
216.3801964954387
 31
0.0
  0
LINE
  5
148
330
2
100
AcDbEntity
  8
L-ZISSEN
100
AcDbLine
 10
601.5660494529746
 20
216.3801964954387
 30
0.0
 11
600.7660494529747
 21
216.3801964954387
 31
0.0
  0
LINE
  5
149
330
2
100
AcDbEntity
  8
L-ZISSEN
100
AcDbLine
 10
600.7660494529747
 20
216.3801964954387
 30
0.0
 11
600.7660494529747
 21
218.3801964954387
 31
0.0
  0
LINE
  5
14A
330
2
100
AcDbEntity
  8
L-ZISSEN
100
AcDbLine
 10
601.5660494529746
 20
218.3801964954387
 30
0.0
 11
604.1660494529747
 21
218.3801964954387
 31
0.0
  0
LINE
  5
14B
330
2
100
AcDbEntity
  8
L-ZISSEN
100
AcDbLine
 10
600.7660494529748
 20
233.3489070744954
 30
0.0
 11
600.7660494529747
 21
239.2953345734228
 31
0.0
  0
LINE
  5
14C
330
2
100
AcDbEntity
  8
L-ZISSEN
100
AcDbLine
 10
601.5660494529746
 20
239.2953345734228
 30
0.0
 11
601.5660494529746
 21
233.3489070744954
 31
0.0
  0
LINE
  5
14D
330
2
100
AcDbEntity
  8
L-ZISSEN
100
AcDbLine
 10
587.2323322996196
 20
345.3262976375363
 30
0.0
 11
600.568231710944
 21
336.4356980299867
 31
0.0
  0
SOLID
  5
14E
330
2
100
AcDbEntity
  8
L-ZISSEN
100
AcDbTrace
 10
587.0474322342113
 20
345.0489475394237
 30
0.0
 11
587.4172323650282
 21
345.6036477356489
 31
0.0
 12
585.5682317109439
 22
346.4356980299867
 32
0.0
 13
585.5682317109439
 23
346.4356980299867
 33
0.0
  0
TEXT
  5
14F
330
2
100
AcDbEntity
  8
L-ZISSEN
100
AcDbText
 10
604.568231710944
 20
334.1856980299866
 30
0.0
 40
4.5
  1
P.P
100
AcDbText
  0
LINE
  5
150
330
2
100
AcDbEntity
  8
L-ZISSEN
100
AcDbLine
 10
600.568231710944
 20
336.4356980299866
 30
0.0
 11
602.568231710944
 21
336.4356980299866
 31
0.0
  0
TEXT
  5
151
330
2
100
AcDbEntity
  8
L-ZISSEN
100
AcDbText
 10
520.3861300297715
 20
386.0147984160962
 30
0.0
 40
4.5
  1
EXTERNAL PILOT AIR SUPPLY
100
AcDbText
  0
TEXT
  5
152
330
2
100
AcDbEntity
  8
L-ZISSEN
100
AcDbText
 10
520.3518903541605
 20
377.0246102840792
 30
0.0
 40
4.5
  1
MODEL No. :  MVS-495-0*Y**P**
100
AcDbText
  0
TEXT
  5
153
330
2
100
AcDbEntity
  8
L-ZISSEN
100
AcDbText
 10
325.7553058635996
 20
314.6672026980781
 30
0.0000000232876899
 40
4.5
  1
P.P
100
AcDbText
  0
LINE
  5
154
330
2
100
AcDbEntity
  8
L-ZISSEN
100
AcDbLine
 10
314.3118547021752
 20
340.8202466930045
 30
0.0000000232876899
 11
321.9394948376337
 21
317.080749148229
 31
0.0000000232876899
  0
LINE
  5
155
330
2
100
AcDbEntity
  8
L-TYUSIN
100
AcDbLine
 10
313.7000480894434
 20
341.1243718644722
 30
0.0000000232876899
 11
313.7000480894434
 21
344.3243718644723
 31
0.0000000232876899
  0
LINE
  5
156
330
2
100
AcDbEntity
  8
L-TYUSIN
100
AcDbLine
 10
313.7000480894434
 20
341.1243718644722
 30
0.0000000232876899
 11
313.7000480894434
 21
344.3243718644723
 31
0.0000000232876899
  0
SOLID
  5
157
330
2
100
AcDbEntity
  8
L-ZISSEN
100
AcDbTrace
 10
313.9945005069306
 20
340.7182789242158
 30
0.0000000232876899
 11
314.6292088974199
 21
340.9222144617929
 31
0.0000000232876899
 12
313.7000480894434
 22
342.7243718644723
 32
0.0000000232876899
 13
313.7000480894434
 23
342.7243718644723
 33
0.0000000232876899
  0
LINE
  5
158
330
2
100
AcDbEntity
  8
L-TYUSIN
100
AcDbLine
 10
312.1000480894433
 20
342.7243718644723
 30
0.0000000232876899
 11
315.3000480894434
 21
342.7243718644723
 31
0.0000000232876899
  0
LINE
  5
159
330
2
100
AcDbEntity
  8
L-TYUSIN
100
AcDbLine
 10
312.1000480894433
 20
342.7243718644723
 30
0.0000000232876899
 11
315.3000480894434
 21
342.7243718644723
 31
0.0000000232876899
  0
LINE
  5
15A
330
2
100
AcDbEntity
  8
L-ZISSEN
100
AcDbLine
 10
321.9394948376337
 20
317.080749148229
 30
0.0000000232876899
 11
323.9394948376337
 21
317.080749148229
 31
0.0000000232876899
  0
ENDSEC
  0
SECTION
  2
OBJECTS
  0
DICTIONARY
  5
9
330
0
100
AcDbDictionary
  3
ACAD_GROUP
350
23
  3
ACAD_LAYOUT
350
E
  3
ACAD_MLINESTYLE
350
24
  3
ACAD_PLOTSETTINGS
350
25
1001
ACAD
1000
TREAT_AS_HARD
1070
     0
  0
DICTIONARY
  5
3
330
2
100
AcDbDictionary
  3
ACAD_LAYOUTSELFREF
350
189
1001
ACAD
1000
TREAT_AS_HARD
1070
     1
  0
DICTIONARY
  5
10
330
F
100
AcDbDictionary
  3
ACAD_LAYOUTSELFREF
350
18A
1001
ACAD
1000
TREAT_AS_HARD
1070
     1
  0
DICTIONARY
  5
23
102
{ACAD_REACTORS
330
9
102
}
330
9
100
AcDbDictionary
1001
ACAD
1000
TREAT_AS_HARD
1070
     0
  0
DICTIONARY
  5
E
102
{ACAD_REACTORS
330
9
102
}
330
9
100
AcDbDictionary
1001
ACAD
1000
TREAT_AS_HARD
1070
     0
  0
DICTIONARY
  5
24
102
{ACAD_REACTORS
330
9
102
}
330
9
100
AcDbDictionary
  3
STANDARD
350
27
1001
ACAD
1000
TREAT_AS_HARD
1070
     0
  0
DICTIONARY
  5
25
102
{ACAD_REACTORS
330
9
102
}
330
9
100
AcDbDictionary
1001
ACAD
1000
TREAT_AS_HARD
1070
     0
  0
XRECORD
  5
189
102
{ACAD_REACTORS
330
3
102
}
330
3
100
AcDbXrecord
340
2
  0
XRECORD
  5
18A
102
{ACAD_REACTORS
330
10
102
}
330
10
100
AcDbXrecord
340
F
  0
MLINESTYLE
  5
27
102
{ACAD_REACTORS
330
24
102
}
330
24
100
AcDbMlineStyle
  2
STANDARD
 70
     0
  3

 62
   256
 51
90.0
 52
90.0
 71
     2
 49
0.5
 62
   256
  6
BYLAYER
 49
-0.5
 62
   256
  6
BYLAYER
  0
ENDSEC
  0
EOF
