  0
SECTION
  2
HEADER
  9
$ACADVER
  1
AC1006
  9
$INSBASE
 10
0.0
 20
0.0
 30
0.0
  9
$EXTMIN
 10
0.0
 20
0.0
  9
$EXTMAX
 10
1715.0
 20
1188.0
  9
$LIMMIN
 10
0.0
 20
0.0
  9
$LIMMAX
 10
1680.0
 20
1188.0
  9
$ORTHOMODE
 70
     0
  9
$REGENMODE
 70
     1
  9
$FILLMODE
 70
     1
  9
$QTEXTMODE
 70
     0
  9
$MIRRTEXT
 70
     1
  9
$DRAGMODE
 70
     2
  9
$LTSCALE
 40
1.0
  9
$OSMODE
 70
     0
  9
$ATTMODE
 70
     1
  9
$TEXTSIZE
 40
4.5
  9
$TRACEWID
 40
0.05
  9
$TEXTSTYLE
  7
STANDARD
  9
$CLAYER
  8
L-ZISSEN
  9
$CELTYPE
  6
BYLAYER
  9
$CECOLOR
 62
   256
  9
$DIMSCALE
 40
1.0
  9
$DIMASZ
 40
2.0
  9
$DIMEXO
 40
1.0
  9
$DIMDLI
 40
0.38
  9
$DIMRND
 40
0.0
  9
$DIMDLE
 40
1.0
  9
$DIMEXE
 40
1.0
  9
$DIMTP
 40
0.0
  9
$DIMTM
 40
0.0
  9
$DIMTXT
 40
4.5
  9
$DIMCEN
 40
0.09
  9
$DIMTSZ
 40
0.0
  9
$DIMTOL
 70
     0
  9
$DIMLIM
 70
     0
  9
$DIMTIH
 70
     0
  9
$DIMTOH
 70
     0
  9
$DIMSE1
 70
     0
  9
$DIMSE2
 70
     0
  9
$DIMTAD
 70
     1
  9
$DIMZIN
 70
     0
  9
$DIMBLK
  1

  9
$DIMASO
 70
     0
  9
$DIMSHO
 70
     0
  9
$DIMPOST
  1

  9
$DIMAPOST
  1

  9
$DIMALT
 70
     0
  9
$DIMALTD
 70
     2
  9
$DIMALTF
 40
25.4
  9
$DIMLFAC
 40
1.0
  9
$DIMTOFL
 70
     1
  9
$DIMTVP
 40
0.0
  9
$DIMTIX
 70
     0
  9
$DIMSOXD
 70
     0
  9
$DIMSAH
 70
     0
  9
$DIMBLK1
  1

  9
$DIMBLK2
  1

  9
$LUNITS
 70
     2
  9
$LUPREC
 70
     4
  9
$AXISMODE
 70
     0
  9
$AXISUNIT
 10
0.0
 20
0.0
  9
$SKETCHINC
 40
0.1
  9
$FILLETRAD
 40
0.0
  9
$AUNITS
 70
     0
  9
$AUPREC
 70
     0
  9
$MENU
  1
acad
  9
$ELEVATION
 40
0.0
  9
$THICKNESS
 40
0.0
  9
$LIMCHECK
 70
     0
  9
$BLIPMODE
 70
     1
  9
$CHAMFERA
 40
0.0
  9
$CHAMFERB
 40
0.0
  9
$SKPOLY
 70
     0
  9
$TDCREATE
 40
2449251.5066570602
  9
$TDUPDATE
 40
2449251.5066570602
  9
$TDINDWG
 40
0.0000000000
  9
$TDUSRTIMER
 40
0.0000000000
  9
$USRTIMER
 70
     1
  9
$ANGBASE
 50
0.0
  9
$ANGDIR
 70
     0
  9
$PDMODE
 70
     0
  9
$PDSIZE
 40
0.0
  9
$PLINEWID
 40
0.0
  9
$COORDS
 70
     2
  9
$SPLFRAME
 70
     0
  9
$SPLINETYPE
 70
     6
  9
$SPLINESEGS
 70
     8
  9
$ATTDIA
 70
     0
  9
$ATTREQ
 70
     1
  9
$HANDLING
 70
     0
  9
$HANDSEED
  5
0
  9
$SURFTAB1
 70
     6
  9
$SURFTAB2
 70
     6
  9
$SURFTYPE
 70
     6
  9
$SURFU
 70
     6
  9
$SURFV
 70
     6
  9
$FLATLAND
 70
     0
  9
$UCSNAME
  2

  9
$UCSORG
 10
0.0
 20
0.0
 30
0.0
  9
$UCSXDIR
 10
1.0
 20
0.0
 30
0.0
  9
$UCSYDIR
 10
0.0
 20
1.0
 30
0.0
  9
$USERI1
 70
     0
  9
$USERI2
 70
     0
  9
$USERI3
 70
     0
  9
$USERI4
 70
     0
  9
$USERI5
 70
     0
  9
$USERR1
 40
0.0
  9
$USERR2
 40
0.0
  9
$USERR3
 40
0.0
  9
$USERR4
 40
0.0
  9
$USERR5
 40
0.0
  9
$WORLDVIEW
 70
     1
  0
ENDSEC
  0
SECTION
  2
TABLES
  0
TABLE
  2
VPORT
 70
     2
  0
VPORT
  2
*ACTIVE
 70
     0
 10
0.0
 20
0.0
 11
1.0
 21
1.0
 12
952.911956
 22
615.298075
 13
0.0
 23
0.0
 14
5.0
 24
5.0
 15
0.0
 25
0.0
 16
0.0
 26
0.0
 36
1.0
 17
0.0
 27
0.0
 37
0.0
 40
1230.59615
 41
1.5487
 42
50.0
 43
0.0
 44
0.0
 50
0.0
 51
0.0
 71
     0
 72
   100
 73
     1
 74
     0
 75
     0
 76
     0
 77
     0
 78
     0
  0
ENDTAB
  0
TABLE
  2
LTYPE
 70
     2
  0
LTYPE
  2
CONTINUOUS
 70
    64
  3
Solid line
 72
    65
 73
     0
 40
0.0
  0
LTYPE
  2
CENTER
 70
    64
  3
____ _ ____ _ ____ _ ____ _ 
 72
    65
 73
     4
 40
60.0
 49
45.0
 49
-5.0
 49
5.0
 49
-5.0
  0
ENDTAB
  0
TABLE
  2
LAYER
 70
     3
  0
LAYER
  2
0
 70
     0
 62
     7
  6
CONTINUOUS
  0
LAYER
  2
L-ZISSEN
 70
    64
 62
     7
  6
CONTINUOUS
  0
LAYER
  2
L-TYUSIN
 70
    64
 62
     1
  6
CENTER
  0
ENDTAB
  0
TABLE
  2
STYLE
 70
     1
  0
STYLE
  2
STANDARD
 70
    64
 40
0.0
 41
1.0
 50
0.0
 71
     0
 42
4.5
  3
TXT
  4

  0
ENDTAB
  0
TABLE
  2
VIEW
 70
     0
  0
ENDTAB
  0
TABLE
  2
UCS
 70
     0
  0
ENDTAB
  0
TABLE
  2
DWGMGR
 70
     0
  0
ENDTAB
  0
ENDSEC
  0
SECTION
  2
BLOCKS
  0
ENDSEC
  0
SECTION
  2
ENTITIES
  0
LINE
  8
L-ZISSEN
  6
CONTINUOUS
 62
     7
 10
1282.5
 20
180.0
 30
0.0
 11
1277.0
 21
180.0
 31
0.0
  0
LINE
  8
L-ZISSEN
  6
CONTINUOUS
 62
     7
 10
1295.0
 20
183.5
 30
0.0
 11
1282.5
 21
183.5
 31
0.0
  0
LINE
  8
L-ZISSEN
  6
CONTINUOUS
 62
     7
 10
1282.5
 20
183.5
 30
0.0
 11
1282.5
 21
167.5
 31
0.0
  0
LINE
  8
L-ZISSEN
  6
CONTINUOUS
 62
     7
 10
1282.5
 20
167.5
 30
0.0
 11
1295.0
 21
167.5
 31
0.0
  0
LINE
  8
L-ZISSEN
  6
CONTINUOUS
 62
     7
 10
1305.0
 20
185.0
 30
0.0
 11
1295.0
 21
185.0
 31
0.0
  0
LINE
  8
L-ZISSEN
  6
CONTINUOUS
 62
     7
 10
1295.0
 20
95.0
 30
0.0
 11
1295.0
 21
185.0
 31
0.0
  0
LINE
  8
L-ZISSEN
  6
CONTINUOUS
 62
     7
 10
1277.0
 20
100.0
 30
0.0
 11
1277.0
 21
180.0
 31
0.0
  0
LINE
  8
L-ZISSEN
  6
CONTINUOUS
 62
     7
 10
1282.5
 20
100.0
 30
0.0
 11
1277.0
 21
100.0
 31
0.0
  0
LINE
  8
L-ZISSEN
  6
CONTINUOUS
 62
     7
 10
1305.0
 20
95.0
 30
0.0
 11
1295.0
 21
95.0
 31
0.0
  0
LINE
  8
L-ZISSEN
  6
CONTINUOUS
 62
     7
 10
1282.5
 20
112.5
 30
0.0
 11
1295.0
 21
112.5
 31
0.0
  0
LINE
  8
L-ZISSEN
  6
CONTINUOUS
 62
     7
 10
1282.5
 20
96.5
 30
0.0
 11
1282.5
 21
112.5
 31
0.0
  0
LINE
  8
L-ZISSEN
  6
CONTINUOUS
 62
     7
 10
1295.0
 20
96.5
 30
0.0
 11
1282.5
 21
96.5
 31
0.0
  0
LINE
  8
L-TYUSIN
  6
CENTER
 62
     1
 10
440.0
 20
550.0
 30
0.0
 11
405.0
 21
550.0
 31
0.0
  0
LINE
  8
L-ZISSEN
  6
CONTINUOUS
 62
     7
 10
435.0
 20
400.0
 30
0.0
 11
525.0
 21
400.0
 31
0.0
  0
LINE
  8
L-ZISSEN
  6
CONTINUOUS
 62
     7
 10
440.0
 20
377.5
 30
0.0
 11
440.0
 21
372.0
 31
0.0
  0
LINE
  8
L-ZISSEN
  6
CONTINUOUS
 62
     7
 10
436.5
 20
390.0
 30
0.0
 11
436.5
 21
377.5
 31
0.0
  0
LINE
  8
L-ZISSEN
  6
CONTINUOUS
 62
     7
 10
436.5
 20
377.5
 30
0.0
 11
452.5
 21
377.5
 31
0.0
  0
LINE
  8
L-ZISSEN
  6
CONTINUOUS
 62
     7
 10
452.5
 20
377.5
 30
0.0
 11
452.5
 21
390.0
 31
0.0
  0
LINE
  8
L-ZISSEN
  6
CONTINUOUS
 62
     7
 10
525.0
 20
390.0
 30
0.0
 11
435.0
 21
390.0
 31
0.0
  0
LINE
  8
L-ZISSEN
  6
CONTINUOUS
 62
     7
 10
520.0
 20
372.0
 30
0.0
 11
440.0
 21
372.0
 31
0.0
  0
LINE
  8
L-ZISSEN
  6
CONTINUOUS
 62
     7
 10
520.0
 20
377.5
 30
0.0
 11
520.0
 21
372.0
 31
0.0
  0
LINE
  8
L-ZISSEN
  6
CONTINUOUS
 62
     7
 10
507.5
 20
377.5
 30
0.0
 11
507.5
 21
390.0
 31
0.0
  0
LINE
  8
L-ZISSEN
  6
CONTINUOUS
 62
     7
 10
523.5
 20
377.5
 30
0.0
 11
507.5
 21
377.5
 31
0.0
  0
LINE
  8
L-ZISSEN
  6
CONTINUOUS
 62
     7
 10
523.5
 20
390.0
 30
0.0
 11
523.5
 21
377.5
 31
0.0
  0
LINE
  8
L-ZISSEN
  6
CONTINUOUS
 62
     7
 10
435.0
 20
600.0
 30
0.0
 11
435.0
 21
390.0
 31
0.0
  0
LINE
  8
L-ZISSEN
 10
533.0
 20
600.0
 30
0.0
 11
427.0
 21
600.0
 31
0.0
  0
LINE
  8
L-ZISSEN
  6
CONTINUOUS
 62
     7
 10
412.5
 20
590.0
 30
0.0
 11
410.0
 21
590.0
 31
0.0
  0
LINE
  8
L-ZISSEN
  6
CONTINUOUS
 62
     7
 10
425.0
 20
593.5
 30
0.0
 11
412.5
 21
593.5
 31
0.0
  0
LINE
  8
L-ZISSEN
  6
CONTINUOUS
 62
     7
 10
412.5
 20
593.5
 30
0.0
 11
412.5
 21
577.5
 31
0.0
  0
LINE
  8
L-ZISSEN
  6
CONTINUOUS
 62
     7
 10
412.5
 20
577.5
 30
0.0
 11
425.0
 21
577.5
 31
0.0
  0
LINE
  8
L-ZISSEN
  6
CONTINUOUS
 62
     7
 10
425.0
 20
505.0
 30
0.0
 11
425.0
 21
595.0
 31
0.0
  0
LINE
  8
L-ZISSEN
  6
CONTINUOUS
 62
     7
 10
410.0
 20
510.0
 30
0.0
 11
410.0
 21
590.0
 31
0.0
  0
LINE
  8
L-ZISSEN
  6
CONTINUOUS
 62
     7
 10
412.5
 20
510.0
 30
0.0
 11
410.0
 21
510.0
 31
0.0
  0
LINE
  8
L-ZISSEN
  6
CONTINUOUS
 62
     7
 10
412.5
 20
522.5
 30
0.0
 11
425.0
 21
522.5
 31
0.0
  0
LINE
  8
L-ZISSEN
  6
CONTINUOUS
 62
     7
 10
412.5
 20
506.5
 30
0.0
 11
412.5
 21
522.5
 31
0.0
  0
LINE
  8
L-ZISSEN
  6
CONTINUOUS
 62
     7
 10
425.0
 20
506.5
 30
0.0
 11
412.5
 21
506.5
 31
0.0
  0
LINE
  8
L-ZISSEN
  6
CONTINUOUS
 62
     7
 10
535.0
 20
595.0
 30
0.0
 11
425.0
 21
595.0
 31
0.0
  0
LINE
  8
L-ZISSEN
  6
CONTINUOUS
 62
     7
 10
435.0
 20
505.0
 30
0.0
 11
425.0
 21
505.0
 31
0.0
  0
LINE
  8
L-ZISSEN
 10
575.0
 20
621.0
 30
0.0
 11
528.5
 21
621.0
 31
0.0
  0
LINE
  8
L-ZISSEN
 10
575.0
 20
616.5
 30
0.0
 11
575.0
 21
621.0
 31
0.0
  0
LINE
  8
L-ZISSEN
 10
575.0
 20
616.5
 30
0.0
 11
533.0
 21
616.5
 31
0.0
  0
CIRCLE
  8
L-ZISSEN
  6
CONTINUOUS
 62
     7
 10
515.5
 20
585.5
 30
0.0
 40
8.0
  0
CIRCLE
  8
L-ZISSEN
  6
CONTINUOUS
 62
     7
 10
444.5
 20
585.5
 30
0.0
 40
8.0
  0
LINE
  8
L-ZISSEN
 10
533.0
 20
600.0
 30
0.0
 11
533.0
 21
616.5
 31
0.0
  0
LINE
  8
L-ZISSEN
 10
528.5
 20
604.5
 30
0.0
 11
431.5
 21
604.5
 31
0.0
  0
LINE
  8
L-ZISSEN
 10
528.5
 20
604.5
 30
0.0
 11
528.5
 21
621.0
 31
0.0
  0
LINE
  8
L-ZISSEN
 10
431.5
 20
604.5
 30
0.0
 11
431.5
 21
621.0
 31
0.0
  0
LINE
  8
L-ZISSEN
 10
427.0
 20
600.0
 30
0.0
 11
427.0
 21
616.5
 31
0.0
  0
LINE
  8
L-ZISSEN
 10
385.0
 20
616.5
 30
0.0
 11
427.0
 21
616.5
 31
0.0
  0
LINE
  8
L-ZISSEN
 10
385.0
 20
616.5
 30
0.0
 11
385.0
 21
621.0
 31
0.0
  0
LINE
  8
L-ZISSEN
 10
385.0
 20
621.0
 30
0.0
 11
431.5
 21
621.0
 31
0.0
  0
LINE
  8
L-TYUSIN
  6
CENTER
 62
     1
 10
555.0
 20
626.0
 30
0.0
 11
555.0
 21
611.5
 31
0.0
  0
LINE
  8
L-TYUSIN
  6
CENTER
 62
     1
 10
405.0
 20
626.0
 30
0.0
 11
405.0
 21
611.5
 31
0.0
  0
LINE
  8
L-ZISSEN
  6
CONTINUOUS
 62
     7
 10
436.5
 20
617.0
 30
0.0
 11
436.5
 21
604.5
 31
0.0
  0
LINE
  8
L-ZISSEN
  6
CONTINUOUS
 62
     7
 10
452.5
 20
617.0
 30
0.0
 11
436.5
 21
617.0
 31
0.0
  0
LINE
  8
L-ZISSEN
  6
CONTINUOUS
 62
     7
 10
452.5
 20
604.5
 30
0.0
 11
452.5
 21
617.0
 31
0.0
  0
LINE
  8
L-ZISSEN
  6
CONTINUOUS
 62
     7
 10
523.5
 20
617.0
 30
0.0
 11
507.5
 21
617.0
 31
0.0
  0
LINE
  8
L-ZISSEN
  6
CONTINUOUS
 62
     7
 10
507.5
 20
617.0
 30
0.0
 11
507.5
 21
604.5
 31
0.0
  0
LINE
  8
L-ZISSEN
  6
CONTINUOUS
 62
     7
 10
523.5
 20
604.5
 30
0.0
 11
523.5
 21
617.0
 31
0.0
  0
TEXT
  8
L-ZISSEN
 10
1280.0
 20
455.0
 30
0.0
 40
4.5
  1
FLANGE
  0
LINE
  8
L-ZISSEN
  6
CONTINUOUS
 62
     7
 10
525.0
 20
600.0
 30
0.0
 11
525.0
 21
390.0
 31
0.0
  0
LINE
  8
L-TYUSIN
  6
CENTER
 62
     1
 10
1010.0
 20
246.5
 30
0.0
 11
1010.0
 21
226.5
 31
0.0
  0
LINE
  8
L-TYUSIN
  6
CENTER
 62
     1
 10
995.0
 20
236.5
 30
0.0
 11
1025.0
 21
236.5
 31
0.0
  0
LINE
  8
L-TYUSIN
  6
CENTER
 62
     1
 10
1160.0
 20
246.5
 30
0.0
 11
1160.0
 21
226.5
 31
0.0
  0
LINE
  8
L-TYUSIN
  6
CENTER
 62
     1
 10
1175.0
 20
236.5
 30
0.0
 11
1145.0
 21
236.5
 31
0.0
  0
LINE
  8
L-TYUSIN
  6
CENTER
 62
     1
 10
1010.0
 20
106.5
 30
0.0
 11
1010.0
 21
86.5
 31
0.0
  0
LINE
  8
L-TYUSIN
  6
CENTER
 62
     1
 10
995.0
 20
96.5
 30
0.0
 11
1025.0
 21
96.5
 31
0.0
  0
LINE
  8
L-TYUSIN
  6
CENTER
 62
     1
 10
1160.0
 20
106.5
 30
0.0
 11
1160.0
 21
86.5
 31
0.0
  0
ARC
  8
L-ZISSEN
  6
CONTINUOUS
 62
     7
 10
1015.0
 20
96.5
 30
0.0
 40
5.6
 50
270.0
 51
90.0
  0
LINE
  8
L-ZISSEN
  6
CONTINUOUS
 62
     7
 10
990.0
 20
81.5
 30
0.0
 11
1180.0
 21
81.5
 31
0.0
  0
LINE
  8
L-TYUSIN
  6
CENTER
 62
     1
 10
1175.0
 20
96.5
 30
0.0
 11
1145.0
 21
96.5
 31
0.0
  0
ARC
  8
L-ZISSEN
  6
CONTINUOUS
 62
     7
 10
1155.0
 20
236.5
 30
0.0
 40
5.6
 50
90.0
 51
270.0
  0
ARC
  8
L-ZISSEN
  6
CONTINUOUS
 62
     7
 10
1165.0
 20
236.5
 30
0.0
 40
5.6
 50
270.0
 51
90.0
  0
LINE
  8
L-ZISSEN
  6
CONTINUOUS
 62
     7
 10
1155.0
 20
242.1
 30
0.0
 11
1165.0
 21
242.1
 31
0.0
  0
LINE
  8
L-ZISSEN
  6
CONTINUOUS
 62
     7
 10
1155.0
 20
230.9
 30
0.0
 11
1165.0
 21
230.9
 31
0.0
  0
LINE
  8
L-ZISSEN
  6
CONTINUOUS
 62
     7
 10
1155.0
 20
90.9
 30
0.0
 11
1165.0
 21
90.9
 31
0.0
  0
LINE
  8
L-ZISSEN
  6
CONTINUOUS
 62
     7
 10
1155.0
 20
102.1
 30
0.0
 11
1165.0
 21
102.1
 31
0.0
  0
ARC
  8
L-ZISSEN
  6
CONTINUOUS
 62
     7
 10
1165.0
 20
96.5
 30
0.0
 40
5.6
 50
270.0
 51
90.0
  0
ARC
  8
L-ZISSEN
  6
CONTINUOUS
 62
     7
 10
1155.0
 20
96.5
 30
0.0
 40
5.6
 50
90.0
 51
270.0
  0
ARC
  8
L-ZISSEN
  6
CONTINUOUS
 62
     7
 10
1005.0
 20
96.5
 30
0.0
 40
5.6
 50
90.0
 51
270.0
  0
LINE
  8
L-ZISSEN
  6
CONTINUOUS
 62
     7
 10
1015.0
 20
102.1
 30
0.0
 11
1005.0
 21
102.1
 31
0.0
  0
LINE
  8
L-ZISSEN
  6
CONTINUOUS
 62
     7
 10
1015.0
 20
90.9
 30
0.0
 11
1005.0
 21
90.9
 31
0.0
  0
LINE
  8
L-ZISSEN
  6
CONTINUOUS
 62
     7
 10
1015.0
 20
230.9
 30
0.0
 11
1005.0
 21
230.9
 31
0.0
  0
LINE
  8
L-ZISSEN
  6
CONTINUOUS
 62
     7
 10
1015.0
 20
242.1
 30
0.0
 11
1005.0
 21
242.1
 31
0.0
  0
ARC
  8
L-ZISSEN
  6
CONTINUOUS
 62
     7
 10
1005.0
 20
236.5
 30
0.0
 40
5.6
 50
90.0
 51
270.0
  0
ARC
  8
L-ZISSEN
  6
CONTINUOUS
 62
     7
 10
1015.0
 20
236.5
 30
0.0
 40
5.6
 50
270.0
 51
90.0
  0
LINE
  8
L-ZISSEN
  6
CONTINUOUS
 62
     7
 10
1180.0
 20
261.5
 30
0.0
 11
1180.0
 21
81.5
 31
0.0
  0
LINE
  8
L-ZISSEN
  6
CONTINUOUS
 62
     7
 10
990.0
 20
261.5
 30
0.0
 11
990.0
 21
81.5
 31
0.0
  0
LINE
  8
L-ZISSEN
  6
CONTINUOUS
 62
     7
 10
1180.0
 20
261.5
 30
0.0
 11
990.0
 21
261.5
 31
0.0
  0
LINE
  8
L-ZISSEN
  6
CONTINUOUS
 62
     7
 10
1112.5
 20
74.5
 30
0.0
 11
1112.5
 21
62.0
 31
0.0
  0
LINE
  8
L-ZISSEN
  6
CONTINUOUS
 62
     7
 10
1112.5
 20
62.0
 30
0.0
 11
1128.5
 21
62.0
 31
0.0
  0
LINE
  8
L-ZISSEN
  6
CONTINUOUS
 62
     7
 10
1128.5
 20
62.0
 30
0.0
 11
1128.5
 21
74.5
 31
0.0
  0
LINE
  8
L-ZISSEN
  6
CONTINUOUS
 62
     7
 10
1041.5
 20
62.0
 30
0.0
 11
1041.5
 21
74.5
 31
0.0
  0
LINE
  8
L-ZISSEN
  6
CONTINUOUS
 62
     7
 10
1057.5
 20
62.0
 30
0.0
 11
1041.5
 21
62.0
 31
0.0
  0
LINE
  8
L-ZISSEN
  6
CONTINUOUS
 62
     7
 10
1057.5
 20
74.5
 30
0.0
 11
1057.5
 21
62.0
 31
0.0
  0
LINE
  8
L-ZISSEN
  6
CONTINUOUS
 62
     7
 10
1130.0
 20
74.5
 30
0.0
 11
1130.0
 21
79.0
 31
0.0
  0
LINE
  8
L-ZISSEN
  6
CONTINUOUS
 62
     7
 10
1040.0
 20
74.5
 30
0.0
 11
1130.0
 21
74.5
 31
0.0
  0
LINE
  8
L-ZISSEN
  6
CONTINUOUS
 62
     7
 10
1040.0
 20
79.0
 30
0.0
 11
1040.0
 21
74.5
 31
0.0
  0
CIRCLE
  8
L-ZISSEN
  6
CONTINUOUS
 62
     7
 10
1120.5
 20
241.5
 30
0.0
 40
8.0
  0
CIRCLE
  8
L-ZISSEN
  6
CONTINUOUS
 62
     7
 10
1049.5
 20
241.5
 30
0.0
 40
8.0
  0
LINE
  8
L-ZISSEN
  6
CONTINUOUS
 62
     7
 10
1040.0
 20
264.0
 30
0.0
 11
1130.0
 21
264.0
 31
0.0
  0
LINE
  8
L-ZISSEN
  6
CONTINUOUS
 62
     7
 10
1130.0
 20
79.0
 30
0.0
 11
1040.0
 21
79.0
 31
0.0
  0
LINE
  8
L-ZISSEN
  6
CONTINUOUS
 62
     7
 10
1130.0
 20
293.5
 30
0.0
 11
1130.0
 21
261.5
 31
0.0
  0
LINE
  8
L-ZISSEN
  6
CONTINUOUS
 62
     7
 10
1040.0
 20
79.0
 30
0.0
 11
1040.0
 21
81.5
 31
0.0
  0
LINE
  8
L-TYUSIN
  6
CENTER
 62
     1
 10
1085.0
 20
298.5
 30
0.0
 11
1085.0
 21
66.682303
 31
0.0
  0
CIRCLE
  8
L-ZISSEN
  6
CONTINUOUS
 62
     7
 10
1120.5
 20
170.5
 30
0.0
 40
8.0
  0
CIRCLE
  8
L-ZISSEN
  6
CONTINUOUS
 62
     7
 10
1049.5
 20
170.5
 30
0.0
 40
8.0
  0
LINE
  8
L-ZISSEN
  6
CONTINUOUS
 62
     7
 10
1130.0
 20
81.5
 30
0.0
 11
1130.0
 21
79.0
 31
0.0
  0
LINE
  8
L-ZISSEN
 10
1036.5
 20
261.5
 30
0.0
 11
1036.5
 21
81.5
 31
0.0
  0
LINE
  8
L-ZISSEN
 10
1133.5
 20
261.5
 30
0.0
 11
1133.5
 21
81.5
 31
0.0
  0
LINE
  8
L-TYUSIN
  6
CENTER
 62
     1
 10
100.0
 20
150.0
 30
0.0
 11
300.0
 21
150.0
 31
0.0
  0
LINE
  8
L-TYUSIN
  6
CENTER
 62
     1
 10
74.0
 20
236.5
 30
0.0
 11
88.5
 21
236.5
 31
0.0
  0
LINE
  8
L-TYUSIN
  6
CENTER
 62
     1
 10
74.0
 20
96.5
 30
0.0
 11
88.5
 21
96.5
 31
0.0
  0
CIRCLE
  8
L-ZISSEN
  6
CONTINUOUS
 62
     7
 10
185.5
 20
114.5
 30
0.0
 40
8.0
  0
CIRCLE
  8
L-ZISSEN
  6
CONTINUOUS
 62
     7
 10
185.5
 20
185.5
 30
0.0
 40
8.0
  0
CIRCLE
  8
L-ZISSEN
  6
CONTINUOUS
 62
     7
 10
114.5
 20
185.5
 30
0.0
 40
8.0
  0
CIRCLE
  8
L-ZISSEN
  6
CONTINUOUS
 62
     7
 10
114.5
 20
114.5
 30
0.0
 40
8.0
  0
LINE
  8
L-ZISSEN
  6
CONTINUOUS
 62
     7
 10
106.5
 20
74.5
 30
0.0
 11
106.5
 21
62.0
 31
0.0
  0
LINE
  8
L-ZISSEN
  6
CONTINUOUS
 62
     7
 10
106.5
 20
62.0
 30
0.0
 11
122.5
 21
62.0
 31
0.0
  0
LINE
  8
L-ZISSEN
  6
CONTINUOUS
 62
     7
 10
122.5
 20
62.0
 30
0.0
 11
122.5
 21
74.5
 31
0.0
  0
LINE
  8
L-ZISSEN
  6
CONTINUOUS
 62
     7
 10
193.5
 20
62.0
 30
0.0
 11
193.5
 21
74.5
 31
0.0
  0
LINE
  8
L-ZISSEN
  6
CONTINUOUS
 62
     7
 10
177.5
 20
62.0
 30
0.0
 11
193.5
 21
62.0
 31
0.0
  0
LINE
  8
L-ZISSEN
  6
CONTINUOUS
 62
     7
 10
177.5
 20
74.5
 30
0.0
 11
177.5
 21
62.0
 31
0.0
  0
CIRCLE
  8
L-ZISSEN
 10
150.0
 20
150.0
 30
0.0
 40
22.4225
  0
LINE
  8
L-ZISSEN
  6
CONTINUOUS
 62
     7
 10
310.0
 20
162.5
 30
0.0
 11
322.5
 21
162.5
 31
0.0
  0
LINE
  8
L-ZISSEN
  6
CONTINUOUS
 62
     7
 10
322.5
 20
162.5
 30
0.0
 11
322.5
 21
178.5
 31
0.0
  0
LINE
  8
L-ZISSEN
  6
CONTINUOUS
 62
     7
 10
322.5
 20
178.5
 30
0.0
 11
310.0
 21
178.5
 31
0.0
  0
LINE
  8
L-ZISSEN
  6
CONTINUOUS
 62
     7
 10
322.5
 20
166.0
 30
0.0
 11
328.0
 21
166.0
 31
0.0
  0
LINE
  8
L-ZISSEN
  6
CONTINUOUS
 62
     7
 10
328.0
 20
166.0
 30
0.0
 11
328.0
 21
246.0
 31
0.0
  0
LINE
  8
L-ZISSEN
  6
CONTINUOUS
 62
     7
 10
310.0
 20
161.0
 30
0.0
 11
310.0
 21
251.0
 31
0.0
  0
LINE
  8
L-ZISSEN
  6
CONTINUOUS
 62
     7
 10
322.5
 20
233.5
 30
0.0
 11
310.0
 21
233.5
 31
0.0
  0
LINE
  8
L-ZISSEN
  6
CONTINUOUS
 62
     7
 10
322.5
 20
249.5
 30
0.0
 11
322.5
 21
233.5
 31
0.0
  0
LINE
  8
L-ZISSEN
  6
CONTINUOUS
 62
     7
 10
310.0
 20
249.5
 30
0.0
 11
322.5
 21
249.5
 31
0.0
  0
LINE
  8
L-ZISSEN
  6
CONTINUOUS
 62
     7
 10
322.5
 20
246.0
 30
0.0
 11
328.0
 21
246.0
 31
0.0
  0
LINE
  8
L-ZISSEN
  6
CONTINUOUS
 62
     7
 10
105.0
 20
195.0
 30
0.0
 11
105.0
 21
74.5
 31
0.0
  0
LINE
  8
L-ZISSEN
  6
CONTINUOUS
 62
     7
 10
122.5
 20
291.5
 30
0.0
 11
122.5
 21
279.0
 31
0.0
  0
LINE
  8
L-ZISSEN
  6
CONTINUOUS
 62
     7
 10
106.5
 20
291.5
 30
0.0
 11
122.5
 21
291.5
 31
0.0
  0
LINE
  8
L-ZISSEN
  6
CONTINUOUS
 62
     7
 10
106.5
 20
279.0
 30
0.0
 11
106.5
 21
291.5
 31
0.0
  0
LINE
  8
L-ZISSEN
  6
CONTINUOUS
 62
     7
 10
177.5
 20
279.0
 30
0.0
 11
177.5
 21
291.5
 31
0.0
  0
LINE
  8
L-ZISSEN
  6
CONTINUOUS
 62
     7
 10
177.5
 20
291.5
 30
0.0
 11
193.5
 21
291.5
 31
0.0
  0
LINE
  8
L-ZISSEN
  6
CONTINUOUS
 62
     7
 10
193.5
 20
291.5
 30
0.0
 11
193.5
 21
279.0
 31
0.0
  0
LINE
  8
L-TYUSIN
  6
CENTER
 62
     1
 10
150.0
 20
200.0
 30
0.0
 11
150.0
 21
100.0
 31
0.0
  0
LINE
  8
L-ZISSEN
  6
CONTINUOUS
 62
     7
 10
100.0
 20
161.0
 30
0.0
 11
105.0
 21
161.0
 31
0.0
  0
LINE
  8
L-ZISSEN
  6
CONTINUOUS
 62
     7
 10
83.5
 20
81.5
 30
0.0
 11
83.5
 21
261.5
 31
0.0
  0
LINE
  8
L-ZISSEN
  6
CONTINUOUS
 62
     7
 10
100.0
 20
261.5
 30
0.0
 11
100.0
 21
81.5
 31
0.0
  0
LINE
  8
L-ZISSEN
  6
CONTINUOUS
 62
     7
 10
79.0
 20
261.5
 30
0.0
 11
100.0
 21
261.5
 31
0.0
  0
LINE
  8
L-ZISSEN
  6
CONTINUOUS
 62
     7
 10
79.0
 20
81.5
 30
0.0
 11
79.0
 21
261.5
 31
0.0
  0
LINE
  8
L-ZISSEN
  6
CONTINUOUS
 62
     7
 10
100.0
 20
81.5
 30
0.0
 11
79.0
 21
81.5
 31
0.0
  0
LINE
  8
L-ZISSEN
  6
CONTINUOUS
 62
     7
 10
195.0
 20
79.0
 30
0.0
 11
105.0
 21
79.0
 31
0.0
  0
LINE
  8
L-ZISSEN
  6
CONTINUOUS
 62
     7
 10
105.0
 20
74.5
 30
0.0
 11
195.0
 21
74.5
 31
0.0
  0
LINE
  8
L-ZISSEN
  6
CONTINUOUS
 62
     7
 10
144.0
 20
79.0
 30
0.0
 11
105.0
 21
79.0
 31
0.0
  0
LINE
  8
L-ZISSEN
  6
CONTINUOUS
 62
     7
 10
195.0
 20
195.0
 30
0.0
 11
195.0
 21
74.5
 31
0.0
  0
LINE
  8
L-ZISSEN
  6
CONTINUOUS
 62
     7
 10
105.0
 20
251.0
 30
0.0
 11
105.0
 21
293.5
 31
0.0
  0
LINE
  8
L-ZISSEN
  6
CONTINUOUS
 62
     7
 10
300.0
 20
251.0
 30
0.0
 11
300.0
 21
161.0
 31
0.0
  0
LINE
  8
L-ZISSEN
  6
CONTINUOUS
 62
     7
 10
100.0
 20
251.0
 30
0.0
 11
105.0
 21
251.0
 31
0.0
  0
LINE
  8
L-ZISSEN
  6
CONTINUOUS
 62
     7
 10
100.0
 20
251.0
 30
0.0
 11
100.0
 21
161.0
 31
0.0
  0
LINE
  8
L-ZISSEN
  6
CONTINUOUS
 62
     7
 10
195.0
 20
264.0
 30
0.0
 11
195.0
 21
251.0
 31
0.0
  0
LINE
  8
L-ZISSEN
  6
CONTINUOUS
 62
     7
 10
195.0
 20
79.0
 30
0.0
 11
156.0
 21
79.0
 31
0.0
  0
LINE
  8
L-ZISSEN
  6
CONTINUOUS
 62
     7
 10
105.0
 20
264.0
 30
0.0
 11
295.0
 21
264.0
 31
0.0
  0
LINE
  8
L-TYUSIN
  6
CENTER
 62
     1
 10
295.0
 20
206.0
 30
0.0
 11
333.0
 21
206.0
 31
0.0
  0
LINE
  8
L-ZISSEN
  6
CONTINUOUS
 62
     7
 10
105.0
 20
195.0
 30
0.0
 11
195.0
 21
195.0
 31
0.0
  0
LINE
  8
L-ZISSEN
  6
CONTINUOUS
 62
     7
 10
295.0
 20
105.0
 30
0.0
 11
105.0
 21
105.0
 31
0.0
  0
CIRCLE
  8
L-ZISSEN
  6
CONTINUOUS
 62
     7
 10
150.0
 20
150.0
 30
0.0
 40
40.0
  0
LINE
  8
L-ZISSEN
  6
CONTINUOUS
 62
     7
 10
295.0
 20
161.0
 30
0.0
 11
310.0
 21
161.0
 31
0.0
  0
LINE
  8
L-ZISSEN
  6
CONTINUOUS
 62
     7
 10
295.0
 20
251.0
 30
0.0
 11
310.0
 21
251.0
 31
0.0
  0
CIRCLE
  8
L-ZISSEN
  6
CONTINUOUS
 62
     7
 10
250.0
 20
150.0
 30
0.0
 40
40.0
  0
LINE
  8
L-ZISSEN
  6
CONTINUOUS
 62
     7
 10
205.0
 20
195.0
 30
0.0
 11
295.0
 21
195.0
 31
0.0
  0
LINE
  8
L-ZISSEN
  6
CONTINUOUS
 62
     7
 10
295.0
 20
79.0
 30
0.0
 11
256.0
 21
79.0
 31
0.0
  0
LINE
  8
L-ZISSEN
  6
CONTINUOUS
 62
     7
 10
295.0
 20
293.5
 30
0.0
 11
295.0
 21
251.0
 31
0.0
  0
LINE
  8
L-ZISSEN
  6
CONTINUOUS
 62
     7
 10
205.0
 20
251.0
 30
0.0
 11
205.0
 21
264.0
 31
0.0
  0
LINE
  8
L-ZISSEN
  6
CONTINUOUS
 62
     7
 10
295.0
 20
195.0
 30
0.0
 11
295.0
 21
74.5
 31
0.0
  0
LINE
  8
L-ZISSEN
  6
CONTINUOUS
 62
     7
 10
244.0
 20
79.0
 30
0.0
 11
205.0
 21
79.0
 31
0.0
  0
LINE
  8
L-ZISSEN
  6
CONTINUOUS
 62
     7
 10
205.0
 20
74.5
 30
0.0
 11
295.0
 21
74.5
 31
0.0
  0
LINE
  8
L-ZISSEN
  6
CONTINUOUS
 62
     7
 10
295.0
 20
79.0
 30
0.0
 11
205.0
 21
79.0
 31
0.0
  0
LINE
  8
L-ZISSEN
  6
CONTINUOUS
 62
     7
 10
293.5
 20
291.5
 30
0.0
 11
293.5
 21
279.0
 31
0.0
  0
LINE
  8
L-ZISSEN
  6
CONTINUOUS
 62
     7
 10
277.5
 20
291.5
 30
0.0
 11
293.5
 21
291.5
 31
0.0
  0
LINE
  8
L-ZISSEN
  6
CONTINUOUS
 62
     7
 10
277.5
 20
279.0
 30
0.0
 11
277.5
 21
291.5
 31
0.0
  0
LINE
  8
L-ZISSEN
  6
CONTINUOUS
 62
     7
 10
206.5
 20
279.0
 30
0.0
 11
206.5
 21
291.5
 31
0.0
  0
LINE
  8
L-ZISSEN
  6
CONTINUOUS
 62
     7
 10
206.5
 20
291.5
 30
0.0
 11
222.5
 21
291.5
 31
0.0
  0
LINE
  8
L-ZISSEN
  6
CONTINUOUS
 62
     7
 10
222.5
 20
291.5
 30
0.0
 11
222.5
 21
279.0
 31
0.0
  0
LINE
  8
L-ZISSEN
  6
CONTINUOUS
 62
     7
 10
205.0
 20
195.0
 30
0.0
 11
205.0
 21
74.5
 31
0.0
  0
CIRCLE
  8
L-ZISSEN
 10
250.0
 20
150.0
 30
0.0
 40
22.4225
  0
LINE
  8
L-ZISSEN
  6
CONTINUOUS
 62
     7
 10
277.5
 20
74.5
 30
0.0
 11
277.5
 21
62.0
 31
0.0
  0
LINE
  8
L-ZISSEN
  6
CONTINUOUS
 62
     7
 10
277.5
 20
62.0
 30
0.0
 11
293.5
 21
62.0
 31
0.0
  0
LINE
  8
L-ZISSEN
  6
CONTINUOUS
 62
     7
 10
293.5
 20
62.0
 30
0.0
 11
293.5
 21
74.5
 31
0.0
  0
LINE
  8
L-ZISSEN
  6
CONTINUOUS
 62
     7
 10
222.5
 20
62.0
 30
0.0
 11
222.5
 21
74.5
 31
0.0
  0
LINE
  8
L-ZISSEN
  6
CONTINUOUS
 62
     7
 10
206.5
 20
62.0
 30
0.0
 11
222.5
 21
62.0
 31
0.0
  0
LINE
  8
L-ZISSEN
  6
CONTINUOUS
 62
     7
 10
206.5
 20
74.5
 30
0.0
 11
206.5
 21
62.0
 31
0.0
  0
CIRCLE
  8
L-ZISSEN
  6
CONTINUOUS
 62
     7
 10
214.5
 20
114.5
 30
0.0
 40
8.0
  0
CIRCLE
  8
L-ZISSEN
  6
CONTINUOUS
 62
     7
 10
214.5
 20
185.5
 30
0.0
 40
8.0
  0
CIRCLE
  8
L-ZISSEN
  6
CONTINUOUS
 62
     7
 10
285.5
 20
185.5
 30
0.0
 40
8.0
  0
CIRCLE
  8
L-ZISSEN
  6
CONTINUOUS
 62
     7
 10
285.5
 20
114.5
 30
0.0
 40
8.0
  0
LINE
  8
L-TYUSIN
  6
CENTER
 62
     1
 10
250.0
 20
200.0
 30
0.0
 11
250.0
 21
100.0
 31
0.0
  0
LINE
  8
L-ZISSEN
 10
205.0
 20
161.0
 30
0.0
 11
195.0
 21
161.0
 31
0.0
  0
LINE
  8
L-ZISSEN
 10
205.0
 20
251.0
 30
0.0
 11
195.0
 21
251.0
 31
0.0
  0
LINE
  8
L-ZISSEN
 10
200.0
 20
251.0
 30
0.0
 11
200.0
 21
161.0
 31
0.0
  0
LINE
  8
L-ZISSEN
 10
295.0
 20
293.5
 30
0.0
 11
105.0
 21
293.5
 31
0.0
  0
LINE
  8
L-TYUSIN
  6
CENTER
 62
     1
 10
200.0
 20
298.5
 30
0.0
 11
200.0
 21
100.0
 31
0.0
  0
LINE
  8
L-TYUSIN
  6
CENTER
 62
     1
 10
785.0
 20
298.5
 30
0.0
 11
785.0
 21
100.0
 31
0.0
  0
LINE
  8
L-ZISSEN
 10
785.0
 20
251.0
 30
0.0
 11
785.0
 21
195.0
 31
0.0
  0
LINE
  8
L-ZISSEN
 10
780.0
 20
251.0
 30
0.0
 11
790.0
 21
251.0
 31
0.0
  0
LINE
  8
L-TYUSIN
  6
CENTER
 62
     1
 10
835.0
 20
286.0
 30
0.0
 11
835.0
 21
272.0
 31
0.0
  0
CIRCLE
  8
L-ZISSEN
  6
CONTINUOUS
 62
     7
 10
699.5
 20
114.5
 30
0.0
 40
8.0
  0
CIRCLE
  8
L-ZISSEN
  6
CONTINUOUS
 62
     7
 10
699.5
 20
185.5
 30
0.0
 40
8.0
  0
LINE
  8
L-ZISSEN
  6
CONTINUOUS
 62
     7
 10
778.5
 20
74.5
 30
0.0
 11
778.5
 21
62.0
 31
0.0
  0
LINE
  8
L-ZISSEN
  6
CONTINUOUS
 62
     7
 10
778.5
 20
62.0
 30
0.0
 11
762.5
 21
62.0
 31
0.0
  0
LINE
  8
L-ZISSEN
  6
CONTINUOUS
 62
     7
 10
762.5
 20
62.0
 30
0.0
 11
762.5
 21
74.5
 31
0.0
  0
LINE
  8
L-ZISSEN
  6
CONTINUOUS
 62
     7
 10
691.5
 20
62.0
 30
0.0
 11
691.5
 21
74.5
 31
0.0
  0
LINE
  8
L-ZISSEN
  6
CONTINUOUS
 62
     7
 10
707.5
 20
62.0
 30
0.0
 11
691.5
 21
62.0
 31
0.0
  0
LINE
  8
L-ZISSEN
  6
CONTINUOUS
 62
     7
 10
707.5
 20
74.5
 30
0.0
 11
707.5
 21
62.0
 31
0.0
  0
CIRCLE
  8
L-ZISSEN
 10
785.0
 20
150.0
 30
0.0
 40
22.4225
  0
LINE
  8
L-ZISSEN
  6
CONTINUOUS
 62
     7
 10
690.0
 20
79.0
 30
0.0
 11
780.0
 21
79.0
 31
0.0
  0
LINE
  8
L-ZISSEN
  6
CONTINUOUS
 62
     7
 10
780.0
 20
74.5
 30
0.0
 11
690.0
 21
74.5
 31
0.0
  0
LINE
  8
L-ZISSEN
  6
CONTINUOUS
 62
     7
 10
741.0
 20
79.0
 30
0.0
 11
780.0
 21
79.0
 31
0.0
  0
LINE
  8
L-ZISSEN
  6
CONTINUOUS
 62
     7
 10
690.0
 20
195.0
 30
0.0
 11
690.0
 21
74.5
 31
0.0
  0
LINE
  8
L-ZISSEN
  6
CONTINUOUS
 62
     7
 10
780.0
 20
251.0
 30
0.0
 11
780.0
 21
264.0
 31
0.0
  0
LINE
  8
L-ZISSEN
  6
CONTINUOUS
 62
     7
 10
690.0
 20
293.5
 30
0.0
 11
690.0
 21
251.0
 31
0.0
  0
LINE
  8
L-ZISSEN
  6
CONTINUOUS
 62
     7
 10
690.0
 20
79.0
 30
0.0
 11
729.0
 21
79.0
 31
0.0
  0
LINE
  8
L-ZISSEN
  6
CONTINUOUS
 62
     7
 10
880.0
 20
195.0
 30
0.0
 11
690.0
 21
195.0
 31
0.0
  0
CIRCLE
  8
L-ZISSEN
  6
CONTINUOUS
 62
     7
 10
785.0
 20
150.0
 30
0.0
 40
40.0
  0
LINE
  8
L-ZISSEN
  6
CONTINUOUS
 62
     7
 10
690.0
 20
251.0
 30
0.0
 11
675.0
 21
251.0
 31
0.0
  0
LINE
  8
L-ZISSEN
  6
CONTINUOUS
 62
     7
 10
690.0
 20
161.0
 30
0.0
 11
675.0
 21
161.0
 31
0.0
  0
LINE
  8
L-ZISSEN
  6
CONTINUOUS
 62
     7
 10
690.0
 20
105.0
 30
0.0
 11
880.0
 21
105.0
 31
0.0
  0
LINE
  8
L-TYUSIN
  6
CENTER
 62
     1
 10
690.0
 20
206.0
 30
0.0
 11
652.0
 21
206.0
 31
0.0
  0
LINE
  8
L-ZISSEN
  6
CONTINUOUS
 62
     7
 10
880.0
 20
264.0
 30
0.0
 11
690.0
 21
264.0
 31
0.0
  0
LINE
  8
L-ZISSEN
  6
CONTINUOUS
 62
     7
 10
790.0
 20
79.0
 30
0.0
 11
829.0
 21
79.0
 31
0.0
  0
LINE
  8
L-ZISSEN
  6
CONTINUOUS
 62
     7
 10
790.0
 20
264.0
 30
0.0
 11
790.0
 21
251.0
 31
0.0
  0
LINE
  8
L-ZISSEN
  6
CONTINUOUS
 62
     7
 10
885.0
 20
251.0
 30
0.0
 11
885.0
 21
161.0
 31
0.0
  0
LINE
  8
L-ZISSEN
  6
CONTINUOUS
 62
     7
 10
885.0
 20
251.0
 30
0.0
 11
880.0
 21
251.0
 31
0.0
  0
LINE
  8
L-ZISSEN
  6
CONTINUOUS
 62
     7
 10
685.0
 20
251.0
 30
0.0
 11
685.0
 21
161.0
 31
0.0
  0
LINE
  8
L-ZISSEN
  6
CONTINUOUS
 62
     7
 10
880.0
 20
251.0
 30
0.0
 11
880.0
 21
293.5
 31
0.0
  0
LINE
  8
L-ZISSEN
  6
CONTINUOUS
 62
     7
 10
841.0
 20
79.0
 30
0.0
 11
880.0
 21
79.0
 31
0.0
  0
LINE
  8
L-ZISSEN
  6
CONTINUOUS
 62
     7
 10
880.0
 20
74.5
 30
0.0
 11
790.0
 21
74.5
 31
0.0
  0
LINE
  8
L-ZISSEN
  6
CONTINUOUS
 62
     7
 10
790.0
 20
79.0
 30
0.0
 11
880.0
 21
79.0
 31
0.0
  0
LINE
  8
L-ZISSEN
  6
CONTINUOUS
 62
     7
 10
885.0
 20
81.5
 30
0.0
 11
906.0
 21
81.5
 31
0.0
  0
LINE
  8
L-ZISSEN
  6
CONTINUOUS
 62
     7
 10
906.0
 20
81.5
 30
0.0
 11
906.0
 21
261.5
 31
0.0
  0
LINE
  8
L-ZISSEN
  6
CONTINUOUS
 62
     7
 10
906.0
 20
261.5
 30
0.0
 11
885.0
 21
261.5
 31
0.0
  0
LINE
  8
L-ZISSEN
  6
CONTINUOUS
 62
     7
 10
885.0
 20
261.5
 30
0.0
 11
885.0
 21
81.5
 31
0.0
  0
LINE
  8
L-ZISSEN
  6
CONTINUOUS
 62
     7
 10
901.5
 20
81.5
 30
0.0
 11
901.5
 21
261.5
 31
0.0
  0
LINE
  8
L-ZISSEN
  6
CONTINUOUS
 62
     7
 10
885.0
 20
161.0
 30
0.0
 11
880.0
 21
161.0
 31
0.0
  0
LINE
  8
L-ZISSEN
  6
CONTINUOUS
 62
     7
 10
880.0
 20
195.0
 30
0.0
 11
880.0
 21
74.5
 31
0.0
  0
LINE
  8
L-ZISSEN
  6
CONTINUOUS
 62
     7
 10
662.5
 20
246.0
 30
0.0
 11
657.0
 21
246.0
 31
0.0
  0
LINE
  8
L-ZISSEN
  6
CONTINUOUS
 62
     7
 10
675.0
 20
249.5
 30
0.0
 11
662.5
 21
249.5
 31
0.0
  0
LINE
  8
L-ZISSEN
  6
CONTINUOUS
 62
     7
 10
662.5
 20
249.5
 30
0.0
 11
662.5
 21
233.5
 31
0.0
  0
LINE
  8
L-ZISSEN
  6
CONTINUOUS
 62
     7
 10
662.5
 20
233.5
 30
0.0
 11
675.0
 21
233.5
 31
0.0
  0
LINE
  8
L-ZISSEN
  6
CONTINUOUS
 62
     7
 10
675.0
 20
161.0
 30
0.0
 11
675.0
 21
251.0
 31
0.0
  0
LINE
  8
L-ZISSEN
  6
CONTINUOUS
 62
     7
 10
657.0
 20
166.0
 30
0.0
 11
657.0
 21
246.0
 31
0.0
  0
LINE
  8
L-ZISSEN
  6
CONTINUOUS
 62
     7
 10
662.5
 20
166.0
 30
0.0
 11
657.0
 21
166.0
 31
0.0
  0
LINE
  8
L-ZISSEN
  6
CONTINUOUS
 62
     7
 10
662.5
 20
178.5
 30
0.0
 11
675.0
 21
178.5
 31
0.0
  0
LINE
  8
L-ZISSEN
  6
CONTINUOUS
 62
     7
 10
662.5
 20
162.5
 30
0.0
 11
662.5
 21
178.5
 31
0.0
  0
LINE
  8
L-ZISSEN
  6
CONTINUOUS
 62
     7
 10
675.0
 20
162.5
 30
0.0
 11
662.5
 21
162.5
 31
0.0
  0
LINE
  8
L-ZISSEN
  6
CONTINUOUS
 62
     7
 10
807.5
 20
74.5
 30
0.0
 11
807.5
 21
62.0
 31
0.0
  0
LINE
  8
L-ZISSEN
  6
CONTINUOUS
 62
     7
 10
807.5
 20
62.0
 30
0.0
 11
791.5
 21
62.0
 31
0.0
  0
LINE
  8
L-ZISSEN
  6
CONTINUOUS
 62
     7
 10
791.5
 20
62.0
 30
0.0
 11
791.5
 21
74.5
 31
0.0
  0
LINE
  8
L-ZISSEN
  6
CONTINUOUS
 62
     7
 10
862.5
 20
62.0
 30
0.0
 11
862.5
 21
74.5
 31
0.0
  0
LINE
  8
L-ZISSEN
  6
CONTINUOUS
 62
     7
 10
878.5
 20
62.0
 30
0.0
 11
862.5
 21
62.0
 31
0.0
  0
LINE
  8
L-ZISSEN
  6
CONTINUOUS
 62
     7
 10
878.5
 20
74.5
 30
0.0
 11
878.5
 21
62.0
 31
0.0
  0
CIRCLE
  8
L-ZISSEN
  6
CONTINUOUS
 62
     7
 10
870.5
 20
114.5
 30
0.0
 40
8.0
  0
CIRCLE
  8
L-ZISSEN
  6
CONTINUOUS
 62
     7
 10
870.5
 20
185.5
 30
0.0
 40
8.0
  0
LINE
  8
L-TYUSIN
  6
CENTER
 62
     1
 10
911.0
 20
96.5
 30
0.0
 11
896.5
 21
96.5
 31
0.0
  0
LINE
  8
L-TYUSIN
  6
CENTER
 62
     1
 10
911.0
 20
236.5
 30
0.0
 11
896.5
 21
236.5
 31
0.0
  0
LINE
  8
L-TYUSIN
  6
CENTER
 62
     1
 10
835.0
 20
150.0
 30
0.0
 11
735.0
 21
150.0
 31
0.0
  0
LINE
  8
L-ZISSEN
  6
CONTINUOUS
 62
     7
 10
790.0
 20
105.0
 30
0.0
 11
790.0
 21
74.5
 31
0.0
  0
LINE
  8
L-ZISSEN
  6
CONTINUOUS
 62
     7
 10
780.0
 20
105.0
 30
0.0
 11
780.0
 21
74.5
 31
0.0
  0
LINE
  8
L-ZISSEN
 10
830.0
 20
195.0
 30
0.0
 11
830.0
 21
105.0
 31
0.0
  0
LINE
  8
L-ZISSEN
 10
740.0
 20
195.0
 30
0.0
 11
740.0
 21
105.0
 31
0.0
  0
CIRCLE
  8
L-ZISSEN
  6
CONTINUOUS
 62
     7
 10
820.5
 20
114.5
 30
0.0
 40
8.0
  0
CIRCLE
  8
L-ZISSEN
  6
CONTINUOUS
 62
     7
 10
820.5
 20
185.5
 30
0.0
 40
8.0
  0
CIRCLE
  8
L-ZISSEN
  6
CONTINUOUS
 62
     7
 10
749.5
 20
114.5
 30
0.0
 40
8.0
  0
CIRCLE
  8
L-ZISSEN
  6
CONTINUOUS
 62
     7
 10
749.5
 20
185.5
 30
0.0
 40
8.0
  0
CIRCLE
  8
L-ZISSEN
 10
480.0
 20
206.0
 30
0.0
 40
28.328
  0
LINE
  8
L-ZISSEN
  6
CONTINUOUS
 62
     7
 10
523.5
 20
279.0
 30
0.0
 11
523.5
 21
291.5
 31
0.0
  0
LINE
  8
L-ZISSEN
  6
CONTINUOUS
 62
     7
 10
507.5
 20
291.5
 30
0.0
 11
507.5
 21
279.0
 31
0.0
  0
LINE
  8
L-ZISSEN
  6
CONTINUOUS
 62
     7
 10
523.5
 20
291.5
 30
0.0
 11
507.5
 21
291.5
 31
0.0
  0
LINE
  8
L-TYUSIN
  6
CENTER
 62
     1
 10
555.0
 20
246.5
 30
0.0
 11
555.0
 21
226.5
 31
0.0
  0
LINE
  8
L-TYUSIN
  6
CENTER
 62
     1
 10
570.0
 20
236.5
 30
0.0
 11
540.0
 21
236.5
 31
0.0
  0
LINE
  8
L-TYUSIN
  6
CENTER
 62
     1
 10
405.0
 20
246.5
 30
0.0
 11
405.0
 21
226.5
 31
0.0
  0
LINE
  8
L-TYUSIN
  6
CENTER
 62
     1
 10
390.0
 20
236.5
 30
0.0
 11
420.0
 21
236.5
 31
0.0
  0
LINE
  8
L-TYUSIN
  6
CENTER
 62
     1
 10
555.0
 20
106.5
 30
0.0
 11
555.0
 21
86.5
 31
0.0
  0
LINE
  8
L-TYUSIN
  6
CENTER
 62
     1
 10
570.0
 20
96.5
 30
0.0
 11
540.0
 21
96.5
 31
0.0
  0
LINE
  8
L-ZISSEN
  6
CONTINUOUS
 62
     7
 10
580.0
 20
106.5
 30
0.0
 11
592.5
 21
106.5
 31
0.0
  0
LINE
  8
L-ZISSEN
  6
CONTINUOUS
 62
     7
 10
592.5
 20
106.5
 30
0.0
 11
592.5
 21
122.5
 31
0.0
  0
LINE
  8
L-ZISSEN
  6
CONTINUOUS
 62
     7
 10
592.5
 20
122.5
 30
0.0
 11
580.0
 21
122.5
 31
0.0
  0
LINE
  8
L-ZISSEN
  6
CONTINUOUS
 62
     7
 10
525.0
 20
105.0
 30
0.0
 11
580.0
 21
105.0
 31
0.0
  0
LINE
  8
L-ZISSEN
  6
CONTINUOUS
 62
     7
 10
592.5
 20
110.0
 30
0.0
 11
595.0
 21
110.0
 31
0.0
  0
LINE
  8
L-ZISSEN
  6
CONTINUOUS
 62
     7
 10
595.0
 20
110.0
 30
0.0
 11
595.0
 21
190.0
 31
0.0
  0
LINE
  8
L-ZISSEN
  6
CONTINUOUS
 62
     7
 10
580.0
 20
105.0
 30
0.0
 11
580.0
 21
195.0
 31
0.0
  0
LINE
  8
L-ZISSEN
  6
CONTINUOUS
 62
     7
 10
525.0
 20
195.0
 30
0.0
 11
580.0
 21
195.0
 31
0.0
  0
LINE
  8
L-ZISSEN
  6
CONTINUOUS
 62
     7
 10
592.5
 20
177.5
 30
0.0
 11
580.0
 21
177.5
 31
0.0
  0
LINE
  8
L-ZISSEN
  6
CONTINUOUS
 62
     7
 10
592.5
 20
193.5
 30
0.0
 11
592.5
 21
177.5
 31
0.0
  0
LINE
  8
L-ZISSEN
  6
CONTINUOUS
 62
     7
 10
580.0
 20
193.5
 30
0.0
 11
592.5
 21
193.5
 31
0.0
  0
LINE
  8
L-ZISSEN
  6
CONTINUOUS
 62
     7
 10
592.5
 20
190.0
 30
0.0
 11
595.0
 21
190.0
 31
0.0
  0
LINE
  8
L-ZISSEN
  6
CONTINUOUS
 62
     7
 10
412.5
 20
190.0
 30
0.0
 11
410.0
 21
190.0
 31
0.0
  0
LINE
  8
L-ZISSEN
  6
CONTINUOUS
 62
     7
 10
425.0
 20
193.5
 30
0.0
 11
412.5
 21
193.5
 31
0.0
  0
LINE
  8
L-ZISSEN
  6
CONTINUOUS
 62
     7
 10
412.5
 20
193.5
 30
0.0
 11
412.5
 21
177.5
 31
0.0
  0
LINE
  8
L-ZISSEN
  6
CONTINUOUS
 62
     7
 10
412.5
 20
177.5
 30
0.0
 11
425.0
 21
177.5
 31
0.0
  0
LINE
  8
L-ZISSEN
  6
CONTINUOUS
 62
     7
 10
435.0
 20
195.0
 30
0.0
 11
425.0
 21
195.0
 31
0.0
  0
LINE
  8
L-ZISSEN
  6
CONTINUOUS
 62
     7
 10
425.0
 20
105.0
 30
0.0
 11
425.0
 21
195.0
 31
0.0
  0
LINE
  8
L-ZISSEN
  6
CONTINUOUS
 62
     7
 10
427.0
 20
105.0
 30
0.0
 11
427.0
 21
81.5
 31
0.0
  0
LINE
  8
L-ZISSEN
  6
CONTINUOUS
 62
     7
 10
410.0
 20
110.0
 30
0.0
 11
410.0
 21
190.0
 31
0.0
  0
LINE
  8
L-TYUSIN
  6
CENTER
 62
     1
 10
405.0
 20
106.5
 30
0.0
 11
405.0
 21
86.5
 31
0.0
  0
ARC
  8
L-ZISSEN
  6
CONTINUOUS
 62
     7
 10
550.0
 20
96.5
 30
0.0
 40
5.6
 50
90.0
 51
270.0
  0
LINE
  8
L-TYUSIN
  6
CENTER
 62
     1
 10
530.0
 20
206.0
 30
0.0
 11
430.0
 21
206.0
 31
0.0
  0
LINE
  8
L-ZISSEN
  6
CONTINUOUS
 62
     7
 10
533.0
 20
105.0
 30
0.0
 11
533.0
 21
81.5
 31
0.0
  0
LINE
  8
L-ZISSEN
  6
CONTINUOUS
 62
     7
 10
435.0
 20
81.5
 30
0.0
 11
385.0
 21
81.5
 31
0.0
  0
LINE
  8
L-ZISSEN
  6
CONTINUOUS
 62
     7
 10
525.0
 20
261.5
 30
0.0
 11
575.0
 21
261.5
 31
0.0
  0
LINE
  8
L-TYUSIN
  6
CENTER
 62
     1
 10
390.0
 20
96.5
 30
0.0
 11
420.0
 21
96.5
 31
0.0
  0
ARC
  8
L-ZISSEN
  6
CONTINUOUS
 62
     7
 10
410.0
 20
236.5
 30
0.0
 40
5.6
 50
270.0
 51
90.0
  0
ARC
  8
L-ZISSEN
  6
CONTINUOUS
 62
     7
 10
400.0
 20
236.5
 30
0.0
 40
5.6
 50
90.0
 51
270.0
  0
LINE
  8
L-ZISSEN
  6
CONTINUOUS
 62
     7
 10
410.0
 20
242.1
 30
0.0
 11
400.0
 21
242.1
 31
0.0
  0
LINE
  8
L-ZISSEN
  6
CONTINUOUS
 62
     7
 10
410.0
 20
230.9
 30
0.0
 11
400.0
 21
230.9
 31
0.0
  0
LINE
  8
L-ZISSEN
  6
CONTINUOUS
 62
     7
 10
410.0
 20
90.9
 30
0.0
 11
400.0
 21
90.9
 31
0.0
  0
LINE
  8
L-ZISSEN
  6
CONTINUOUS
 62
     7
 10
410.0
 20
102.1
 30
0.0
 11
400.0
 21
102.1
 31
0.0
  0
ARC
  8
L-ZISSEN
  6
CONTINUOUS
 62
     7
 10
400.0
 20
96.5
 30
0.0
 40
5.6
 50
90.0
 51
270.0
  0
ARC
  8
L-ZISSEN
  6
CONTINUOUS
 62
     7
 10
410.0
 20
96.5
 30
0.0
 40
5.6
 50
270.0
 51
90.0
  0
ARC
  8
L-ZISSEN
  6
CONTINUOUS
 62
     7
 10
560.0
 20
96.5
 30
0.0
 40
5.6
 50
270.0
 51
90.0
  0
LINE
  8
L-ZISSEN
  6
CONTINUOUS
 62
     7
 10
550.0
 20
102.1
 30
0.0
 11
560.0
 21
102.1
 31
0.0
  0
LINE
  8
L-ZISSEN
  6
CONTINUOUS
 62
     7
 10
550.0
 20
90.9
 30
0.0
 11
560.0
 21
90.9
 31
0.0
  0
LINE
  8
L-ZISSEN
  6
CONTINUOUS
 62
     7
 10
550.0
 20
230.9
 30
0.0
 11
560.0
 21
230.9
 31
0.0
  0
LINE
  8
L-ZISSEN
  6
CONTINUOUS
 62
     7
 10
550.0
 20
242.1
 30
0.0
 11
560.0
 21
242.1
 31
0.0
  0
ARC
  8
L-ZISSEN
  6
CONTINUOUS
 62
     7
 10
560.0
 20
236.5
 30
0.0
 40
5.6
 50
270.0
 51
90.0
  0
ARC
  8
L-ZISSEN
  6
CONTINUOUS
 62
     7
 10
550.0
 20
236.5
 30
0.0
 40
5.6
 50
90.0
 51
270.0
  0
LINE
  8
L-ZISSEN
  6
CONTINUOUS
 62
     7
 10
385.0
 20
261.5
 30
0.0
 11
385.0
 21
81.5
 31
0.0
  0
LINE
  8
L-ZISSEN
  6
CONTINUOUS
 62
     7
 10
427.0
 20
261.5
 30
0.0
 11
427.0
 21
195.0
 31
0.0
  0
LINE
  8
L-ZISSEN
  6
CONTINUOUS
 62
     7
 10
533.0
 20
261.5
 30
0.0
 11
533.0
 21
195.0
 31
0.0
  0
LINE
  8
L-ZISSEN
  6
CONTINUOUS
 62
     7
 10
575.0
 20
81.5
 30
0.0
 11
525.0
 21
81.5
 31
0.0
  0
LINE
  8
L-ZISSEN
  6
CONTINUOUS
 62
     7
 10
575.0
 20
261.5
 30
0.0
 11
575.0
 21
195.0
 31
0.0
  0
LINE
  8
L-ZISSEN
  6
CONTINUOUS
 62
     7
 10
385.0
 20
261.5
 30
0.0
 11
435.0
 21
261.5
 31
0.0
  0
LINE
  8
L-ZISSEN
  6
CONTINUOUS
 62
     7
 10
412.5
 20
110.0
 30
0.0
 11
410.0
 21
110.0
 31
0.0
  0
LINE
  8
L-TYUSIN
  6
CENTER
 62
     1
 10
530.0
 20
279.0
 30
0.0
 11
520.0
 21
279.0
 31
0.0
  0
LINE
  8
L-ZISSEN
  6
CONTINUOUS
 62
     7
 10
436.5
 20
291.5
 30
0.0
 11
436.5
 21
279.0
 31
0.0
  0
LINE
  8
L-ZISSEN
  6
CONTINUOUS
 62
     7
 10
452.5
 20
291.5
 30
0.0
 11
436.5
 21
291.5
 31
0.0
  0
LINE
  8
L-ZISSEN
  6
CONTINUOUS
 62
     7
 10
452.5
 20
279.0
 30
0.0
 11
452.5
 21
291.5
 31
0.0
  0
LINE
  8
L-ZISSEN
  6
CONTINUOUS
 62
     7
 10
452.5
 20
74.5
 30
0.0
 11
452.5
 21
62.0
 31
0.0
  0
LINE
  8
L-ZISSEN
  6
CONTINUOUS
 62
     7
 10
452.5
 20
62.0
 30
0.0
 11
436.5
 21
62.0
 31
0.0
  0
LINE
  8
L-ZISSEN
  6
CONTINUOUS
 62
     7
 10
436.5
 20
62.0
 30
0.0
 11
436.5
 21
74.5
 31
0.0
  0
LINE
  8
L-ZISSEN
  6
CONTINUOUS
 62
     7
 10
523.5
 20
62.0
 30
0.0
 11
523.5
 21
74.5
 31
0.0
  0
LINE
  8
L-ZISSEN
  6
CONTINUOUS
 62
     7
 10
507.5
 20
62.0
 30
0.0
 11
523.5
 21
62.0
 31
0.0
  0
LINE
  8
L-ZISSEN
  6
CONTINUOUS
 62
     7
 10
507.5
 20
74.5
 30
0.0
 11
507.5
 21
62.0
 31
0.0
  0
LINE
  8
L-ZISSEN
  6
CONTINUOUS
 62
     7
 10
435.0
 20
74.5
 30
0.0
 11
435.0
 21
79.0
 31
0.0
  0
LINE
  8
L-ZISSEN
  6
CONTINUOUS
 62
     7
 10
525.0
 20
74.5
 30
0.0
 11
435.0
 21
74.5
 31
0.0
  0
LINE
  8
L-ZISSEN
  6
CONTINUOUS
 62
     7
 10
525.0
 20
79.0
 30
0.0
 11
525.0
 21
74.5
 31
0.0
  0
CIRCLE
  8
L-ZISSEN
  6
CONTINUOUS
 62
     7
 10
515.5
 20
170.5
 30
0.0
 40
8.0
  0
CIRCLE
  8
L-ZISSEN
  6
CONTINUOUS
 62
     7
 10
444.5
 20
170.5
 30
0.0
 40
8.0
  0
CIRCLE
  8
L-ZISSEN
  6
CONTINUOUS
 62
     7
 10
444.5
 20
241.5
 30
0.0
 40
8.0
  0
LINE
  8
L-ZISSEN
  6
CONTINUOUS
 62
     7
 10
435.0
 20
105.0
 30
0.0
 11
425.0
 21
105.0
 31
0.0
  0
LINE
  8
L-ZISSEN
  6
CONTINUOUS
 62
     7
 10
412.5
 20
122.5
 30
0.0
 11
425.0
 21
122.5
 31
0.0
  0
LINE
  8
L-ZISSEN
  6
CONTINUOUS
 62
     7
 10
412.5
 20
106.5
 30
0.0
 11
412.5
 21
122.5
 31
0.0
  0
LINE
  8
L-ZISSEN
  6
CONTINUOUS
 62
     7
 10
425.0
 20
106.5
 30
0.0
 11
412.5
 21
106.5
 31
0.0
  0
CIRCLE
  8
L-ZISSEN
  6
CONTINUOUS
 62
     7
 10
515.5
 20
241.5
 30
0.0
 40
8.0
  0
LINE
  8
L-TYUSIN
  6
CENTER
 62
     1
 10
600.0
 20
150.0
 30
0.0
 11
405.0
 21
150.0
 31
0.0
  0
CIRCLE
  8
L-ZISSEN
  6
CONTINUOUS
 62
     7
 10
480.0
 20
206.0
 30
0.0
 40
40.0
  0
LINE
  8
L-ZISSEN
  6
CONTINUOUS
 62
     7
 10
435.0
 20
161.0
 30
0.0
 11
525.0
 21
161.0
 31
0.0
  0
LINE
  8
L-ZISSEN
  6
CONTINUOUS
 62
     7
 10
525.0
 20
251.0
 30
0.0
 11
435.0
 21
251.0
 31
0.0
  0
LINE
  8
L-ZISSEN
  6
CONTINUOUS
 62
     7
 10
525.0
 20
264.0
 30
0.0
 11
435.0
 21
264.0
 31
0.0
  0
LINE
  8
L-ZISSEN
  6
CONTINUOUS
 62
     7
 10
435.0
 20
79.0
 30
0.0
 11
525.0
 21
79.0
 31
0.0
  0
LINE
  8
L-ZISSEN
  6
CONTINUOUS
 62
     7
 10
435.0
 20
293.5
 30
0.0
 11
435.0
 21
79.0
 31
0.0
  0
LINE
  8
L-ZISSEN
  6
CONTINUOUS
 62
     7
 10
525.0
 20
79.0
 30
0.0
 11
525.0
 21
293.5
 31
0.0
  0
LINE
  8
L-TYUSIN
  6
CENTER
 62
     1
 10
480.0
 20
298.5
 30
0.0
 11
480.0
 21
66.682303
 31
0.0
  0
LINE
  8
L-ZISSEN
 10
435.0
 20
293.5
 30
0.0
 11
525.0
 21
293.5
 31
0.0
  0
LINE
  8
L-ZISSEN
  6
CONTINUOUS
 62
     7
 10
505.5
 20
293.5
 30
0.0
 11
505.5
 21
279.0
 31
0.0
  0
LINE
  8
L-ZISSEN
 10
505.5
 20
279.0
 30
0.0
 11
525.0
 21
279.0
 31
0.0
  0
LINE
  8
L-ZISSEN
  6
CONTINUOUS
 62
     7
 10
570.0
 20
105.0
 30
0.0
 11
570.0
 21
195.0
 31
0.0
  0
LINE
  8
L-ZISSEN
  6
CONTINUOUS
 62
     7
 10
575.0
 20
105.0
 30
0.0
 11
575.0
 21
81.5
 31
0.0
  0
LINE
  8
L-ZISSEN
  6
CONTINUOUS
 62
     7
 10
535.0
 20
105.0
 30
0.0
 11
535.0
 21
195.0
 31
0.0
  0
LINE
  8
L-ZISSEN
  6
CONTINUOUS
 62
     7
 10
566.0
 20
114.5
 30
0.0
 11
566.0
 21
185.5
 31
0.0
  0
LINE
  8
L-ZISSEN
 10
566.0
 20
114.5
 30
0.0
 11
547.5
 21
114.5
 31
0.0
  0
LINE
  8
L-ZISSEN
 10
566.0
 20
185.5
 30
0.0
 11
547.5
 21
185.5
 31
0.0
  0
LINE
  8
L-ZISSEN
  6
CONTINUOUS
 62
     7
 10
547.5
 20
122.5
 30
0.0
 11
535.0
 21
122.5
 31
0.0
  0
LINE
  8
L-ZISSEN
  6
CONTINUOUS
 62
     7
 10
547.5
 20
106.5
 30
0.0
 11
547.5
 21
122.5
 31
0.0
  0
LINE
  8
L-ZISSEN
  6
CONTINUOUS
 62
     7
 10
535.0
 20
106.5
 30
0.0
 11
547.5
 21
106.5
 31
0.0
  0
LINE
  8
L-ZISSEN
  6
CONTINUOUS
 62
     7
 10
535.0
 20
193.5
 30
0.0
 11
547.5
 21
193.5
 31
0.0
  0
LINE
  8
L-ZISSEN
  6
CONTINUOUS
 62
     7
 10
547.5
 20
177.5
 30
0.0
 11
535.0
 21
177.5
 31
0.0
  0
LINE
  8
L-ZISSEN
  6
CONTINUOUS
 62
     7
 10
547.5
 20
193.5
 30
0.0
 11
547.5
 21
177.5
 31
0.0
  0
LINE
  8
L-ZISSEN
  6
CONTINUOUS
 62
     7
 10
1040.0
 20
293.5
 30
0.0
 11
1040.0
 21
261.5
 31
0.0
  0
LINE
  8
L-ZISSEN
  6
CONTINUOUS
 62
     7
 10
972.5
 20
190.0
 30
0.0
 11
970.0
 21
190.0
 31
0.0
  0
LINE
  8
L-ZISSEN
  6
CONTINUOUS
 62
     7
 10
985.0
 20
193.5
 30
0.0
 11
972.5
 21
193.5
 31
0.0
  0
LINE
  8
L-ZISSEN
  6
CONTINUOUS
 62
     7
 10
972.5
 20
193.5
 30
0.0
 11
972.5
 21
177.5
 31
0.0
  0
LINE
  8
L-ZISSEN
  6
CONTINUOUS
 62
     7
 10
972.5
 20
177.5
 30
0.0
 11
985.0
 21
177.5
 31
0.0
  0
LINE
  8
L-ZISSEN
  6
CONTINUOUS
 62
     7
 10
985.0
 20
105.0
 30
0.0
 11
985.0
 21
195.0
 31
0.0
  0
LINE
  8
L-ZISSEN
  6
CONTINUOUS
 62
     7
 10
970.0
 20
110.0
 30
0.0
 11
970.0
 21
190.0
 31
0.0
  0
LINE
  8
L-ZISSEN
  6
CONTINUOUS
 62
     7
 10
972.5
 20
110.0
 30
0.0
 11
970.0
 21
110.0
 31
0.0
  0
LINE
  8
L-ZISSEN
  6
CONTINUOUS
 62
     7
 10
972.5
 20
122.5
 30
0.0
 11
985.0
 21
122.5
 31
0.0
  0
LINE
  8
L-ZISSEN
  6
CONTINUOUS
 62
     7
 10
972.5
 20
106.5
 30
0.0
 11
972.5
 21
122.5
 31
0.0
  0
LINE
  8
L-ZISSEN
  6
CONTINUOUS
 62
     7
 10
985.0
 20
106.5
 30
0.0
 11
972.5
 21
106.5
 31
0.0
  0
LINE
  8
L-ZISSEN
  6
CONTINUOUS
 62
     7
 10
990.0
 20
195.0
 30
0.0
 11
985.0
 21
195.0
 31
0.0
  0
LINE
  8
L-ZISSEN
  6
CONTINUOUS
 62
     7
 10
990.0
 20
105.0
 30
0.0
 11
985.0
 21
105.0
 31
0.0
  0
LINE
  8
L-TYUSIN
  6
CENTER
 62
     1
 10
965.0
 20
150.0
 30
0.0
 11
995.0
 21
150.0
 31
0.0
  0
LINE
  8
L-ZISSEN
  6
CONTINUOUS
 62
     7
 10
425.0
 20
406.5
 30
0.0
 11
412.5
 21
406.5
 31
0.0
  0
LINE
  8
L-ZISSEN
  6
CONTINUOUS
 62
     7
 10
412.5
 20
406.5
 30
0.0
 11
412.5
 21
422.5
 31
0.0
  0
LINE
  8
L-ZISSEN
  6
CONTINUOUS
 62
     7
 10
412.5
 20
422.5
 30
0.0
 11
425.0
 21
422.5
 31
0.0
  0
LINE
  8
L-ZISSEN
  6
CONTINUOUS
 62
     7
 10
412.5
 20
410.0
 30
0.0
 11
410.0
 21
410.0
 31
0.0
  0
LINE
  8
L-ZISSEN
  6
CONTINUOUS
 62
     7
 10
410.0
 20
410.0
 30
0.0
 11
410.0
 21
490.0
 31
0.0
  0
LINE
  8
L-ZISSEN
  6
CONTINUOUS
 62
     7
 10
425.0
 20
405.0
 30
0.0
 11
425.0
 21
495.0
 31
0.0
  0
LINE
  8
L-ZISSEN
  6
CONTINUOUS
 62
     7
 10
412.5
 20
477.5
 30
0.0
 11
425.0
 21
477.5
 31
0.0
  0
LINE
  8
L-ZISSEN
  6
CONTINUOUS
 62
     7
 10
412.5
 20
493.5
 30
0.0
 11
412.5
 21
477.5
 31
0.0
  0
LINE
  8
L-ZISSEN
  6
CONTINUOUS
 62
     7
 10
425.0
 20
493.5
 30
0.0
 11
412.5
 21
493.5
 31
0.0
  0
LINE
  8
L-ZISSEN
  6
CONTINUOUS
 62
     7
 10
412.5
 20
490.0
 30
0.0
 11
410.0
 21
490.0
 31
0.0
  0
LINE
  8
L-TYUSIN
  6
CENTER
 62
     1
 10
440.0
 20
450.0
 30
0.0
 11
405.0
 21
450.0
 31
0.0
  0
LINE
  8
L-TYUSIN
  6
CENTER
 62
     1
 10
480.0
 20
609.5
 30
0.0
 11
480.0
 21
367.0
 31
0.0
  0
LINE
  8
L-ZISSEN
  6
CONTINUOUS
 62
     7
 10
535.0
 20
405.0
 30
0.0
 11
425.0
 21
405.0
 31
0.0
  0
LINE
  8
L-ZISSEN
  6
CONTINUOUS
 62
     7
 10
435.0
 20
495.0
 30
0.0
 11
425.0
 21
495.0
 31
0.0
  0
LINE
  8
L-TYUSIN
  6
CENTER
 62
     1
 10
600.0
 20
500.0
 30
0.0
 11
430.0
 21
500.0
 31
0.0
  0
CIRCLE
  8
L-ZISSEN
  6
CONTINUOUS
 62
     7
 10
444.5
 20
414.5
 30
0.0
 40
8.0
  0
CIRCLE
  8
L-ZISSEN
  6
CONTINUOUS
 62
     7
 10
515.5
 20
414.5
 30
0.0
 40
8.0
  0
LINE
  8
L-ZISSEN
  6
CONTINUOUS
 62
     7
 10
570.0
 20
545.0
 30
0.0
 11
570.0
 21
455.0
 31
0.0
  0
LINE
  8
L-ZISSEN
  6
CONTINUOUS
 62
     7
 10
535.0
 20
422.5
 30
0.0
 11
547.5
 21
422.5
 31
0.0
  0
LINE
  8
L-ZISSEN
  6
CONTINUOUS
 62
     7
 10
547.5
 20
422.5
 30
0.0
 11
547.5
 21
406.5
 31
0.0
  0
LINE
  8
L-ZISSEN
  6
CONTINUOUS
 62
     7
 10
547.5
 20
406.5
 30
0.0
 11
535.0
 21
406.5
 31
0.0
  0
LINE
  8
L-ZISSEN
  6
CONTINUOUS
 62
     7
 10
566.0
 20
455.0
 30
0.0
 11
580.0
 21
455.0
 31
0.0
  0
LINE
  8
L-ZISSEN
  6
CONTINUOUS
 62
     7
 10
566.0
 20
545.0
 30
0.0
 11
580.0
 21
545.0
 31
0.0
  0
LINE
  8
L-ZISSEN
  6
CONTINUOUS
 62
     7
 10
580.0
 20
455.0
 30
0.0
 11
580.0
 21
545.0
 31
0.0
  0
LINE
  8
L-ZISSEN
  6
CONTINUOUS
 62
     7
 10
592.5
 20
540.0
 30
0.0
 11
595.0
 21
540.0
 31
0.0
  0
LINE
  8
L-ZISSEN
  6
CONTINUOUS
 62
     7
 10
580.0
 20
543.5
 30
0.0
 11
592.5
 21
543.5
 31
0.0
  0
LINE
  8
L-ZISSEN
  6
CONTINUOUS
 62
     7
 10
592.5
 20
543.5
 30
0.0
 11
592.5
 21
527.5
 31
0.0
  0
LINE
  8
L-ZISSEN
  6
CONTINUOUS
 62
     7
 10
592.5
 20
527.5
 30
0.0
 11
580.0
 21
527.5
 31
0.0
  0
LINE
  8
L-ZISSEN
  6
CONTINUOUS
 62
     7
 10
595.0
 20
460.0
 30
0.0
 11
595.0
 21
540.0
 31
0.0
  0
LINE
  8
L-ZISSEN
  6
CONTINUOUS
 62
     7
 10
592.5
 20
460.0
 30
0.0
 11
595.0
 21
460.0
 31
0.0
  0
LINE
  8
L-ZISSEN
  6
CONTINUOUS
 62
     7
 10
592.5
 20
472.5
 30
0.0
 11
580.0
 21
472.5
 31
0.0
  0
LINE
  8
L-ZISSEN
  6
CONTINUOUS
 62
     7
 10
592.5
 20
456.5
 30
0.0
 11
592.5
 21
472.5
 31
0.0
  0
LINE
  8
L-ZISSEN
  6
CONTINUOUS
 62
     7
 10
580.0
 20
456.5
 30
0.0
 11
592.5
 21
456.5
 31
0.0
  0
LINE
  8
L-ZISSEN
  6
CONTINUOUS
 62
     7
 10
566.0
 20
545.0
 30
0.0
 11
566.0
 21
455.0
 31
0.0
  0
LINE
  8
L-ZISSEN
  6
CONTINUOUS
 62
     7
 10
535.0
 20
577.5
 30
0.0
 11
547.5
 21
577.5
 31
0.0
  0
LINE
  8
L-ZISSEN
  6
CONTINUOUS
 62
     7
 10
547.5
 20
577.5
 30
0.0
 11
547.5
 21
593.5
 31
0.0
  0
LINE
  8
L-ZISSEN
  6
CONTINUOUS
 62
     7
 10
547.5
 20
593.5
 30
0.0
 11
535.0
 21
593.5
 31
0.0
  0
LINE
  8
L-ZISSEN
 10
547.0
 20
422.5
 30
0.0
 11
561.058657
 21
436.558657
 31
0.0
  0
LINE
  8
L-ZISSEN
 10
547.0
 20
577.5
 30
0.0
 11
561.058657
 21
563.441343
 31
0.0
  0
TEXT
  8
L-ZISSEN
 10
100.0
 20
615.0
 30
0.0
 40
4.5
  1
MODEL NO. : 46B- 00- 0BM
  0
SOLID
  8
L-ZISSEN
 10
479.469313
 20
148.043094
 30
0.0
 11
480.132672
 21
147.976758
 31
0.0
 12
480.0
 22
150.0
 32
0.0
 13
480.0
 23
150.0
 33
0.0
  0
LINE
  8
L-ZISSEN
 10
479.800993
 20
148.009926
 30
0.0
 11
470.0
 21
50.0
 31
0.0
  0
LINE
  8
L-ZISSEN
 10
470.0
 20
50.0
 30
0.0
 11
468.0
 21
50.0
 31
0.0
  0
TEXT
  8
L-ZISSEN
 10
457.0
 20
47.75
 30
0.0
 40
4.5
  1
P.P
  0
LINE
  8
L-ZISSEN
  6
CONTINUOUS
 62
     7
 10
1450.5
 20
96.5
 30
0.0
 11
1463.0
 21
96.5
 31
0.0
  0
LINE
  8
L-ZISSEN
  6
CONTINUOUS
 62
     7
 10
1463.0
 20
96.5
 30
0.0
 11
1463.0
 21
112.5
 31
0.0
  0
LINE
  8
L-ZISSEN
  6
CONTINUOUS
 62
     7
 10
1463.0
 20
112.5
 30
0.0
 11
1450.5
 21
112.5
 31
0.0
  0
LINE
  8
L-ZISSEN
  6
CONTINUOUS
 62
     7
 10
1440.0
 20
95.0
 30
0.0
 11
1450.5
 21
95.0
 31
0.0
  0
LINE
  8
L-ZISSEN
  6
CONTINUOUS
 62
     7
 10
1463.0
 20
100.0
 30
0.0
 11
1475.5
 21
100.0
 31
0.0
  0
LINE
  8
L-ZISSEN
  6
CONTINUOUS
 62
     7
 10
1475.5
 20
100.0
 30
0.0
 11
1475.5
 21
180.0
 31
0.0
  0
LINE
  8
L-ZISSEN
  6
CONTINUOUS
 62
     7
 10
1450.5
 20
95.0
 30
0.0
 11
1450.5
 21
185.0
 31
0.0
  0
LINE
  8
L-ZISSEN
  6
CONTINUOUS
 62
     7
 10
1440.0
 20
185.0
 30
0.0
 11
1450.5
 21
185.0
 31
0.0
  0
LINE
  8
L-ZISSEN
  6
CONTINUOUS
 62
     7
 10
1463.0
 20
167.5
 30
0.0
 11
1450.5
 21
167.5
 31
0.0
  0
LINE
  8
L-ZISSEN
  6
CONTINUOUS
 62
     7
 10
1463.0
 20
183.5
 30
0.0
 11
1463.0
 21
167.5
 31
0.0
  0
LINE
  8
L-ZISSEN
  6
CONTINUOUS
 62
     7
 10
1450.5
 20
183.5
 30
0.0
 11
1463.0
 21
183.5
 31
0.0
  0
LINE
  8
L-ZISSEN
  6
CONTINUOUS
 62
     7
 10
1463.0
 20
180.0
 30
0.0
 11
1475.5
 21
180.0
 31
0.0
  0
SOLID
  8
L-ZISSEN
 10
1350.065372
 20
137.973467
 30
0.0
 11
1350.719092
 21
138.104211
 31
0.0
 12
1350.0
 22
140.0
 32
0.0
 13
1350.0
 23
140.0
 33
0.0
  0
LINE
  8
L-ZISSEN
 10
1350.392232
 20
138.038839
 30
0.0
 11
1360.0
 21
90.0
 31
0.0
  0
LINE
  8
L-ZISSEN
 10
1360.0
 20
90.0
 30
0.0
 11
1362.0
 21
90.0
 31
0.0
  0
TEXT
  8
L-ZISSEN
 10
1364.0
 20
87.75
 30
0.0
 40
4.5
  1
P.P
  0
LINE
  8
L-ZISSEN
  6
CONTINUOUS
 62
     7
 10
1295.0
 20
326.5
 30
0.0
 11
1282.5
 21
326.5
 31
0.0
  0
LINE
  8
L-ZISSEN
  6
CONTINUOUS
 62
     7
 10
1282.5
 20
326.5
 30
0.0
 11
1282.5
 21
342.5
 31
0.0
  0
LINE
  8
L-ZISSEN
  6
CONTINUOUS
 62
     7
 10
1282.5
 20
342.5
 30
0.0
 11
1295.0
 21
342.5
 31
0.0
  0
LINE
  8
L-ZISSEN
  6
CONTINUOUS
 62
     7
 10
1305.0
 20
325.0
 30
0.0
 11
1295.0
 21
325.0
 31
0.0
  0
LINE
  8
L-ZISSEN
  6
CONTINUOUS
 62
     7
 10
1282.5
 20
330.0
 30
0.0
 11
1277.0
 21
330.0
 31
0.0
  0
LINE
  8
L-ZISSEN
  6
CONTINUOUS
 62
     7
 10
1277.0
 20
330.0
 30
0.0
 11
1277.0
 21
410.0
 31
0.0
  0
LINE
  8
L-ZISSEN
  6
CONTINUOUS
 62
     7
 10
1295.0
 20
325.0
 30
0.0
 11
1295.0
 21
415.0
 31
0.0
  0
LINE
  8
L-ZISSEN
  6
CONTINUOUS
 62
     7
 10
1305.0
 20
415.0
 30
0.0
 11
1295.0
 21
415.0
 31
0.0
  0
LINE
  8
L-ZISSEN
  6
CONTINUOUS
 62
     7
 10
1282.5
 20
397.5
 30
0.0
 11
1295.0
 21
397.5
 31
0.0
  0
LINE
  8
L-ZISSEN
  6
CONTINUOUS
 62
     7
 10
1282.5
 20
413.5
 30
0.0
 11
1282.5
 21
397.5
 31
0.0
  0
LINE
  8
L-ZISSEN
  6
CONTINUOUS
 62
     7
 10
1295.0
 20
413.5
 30
0.0
 11
1282.5
 21
413.5
 31
0.0
  0
LINE
  8
L-ZISSEN
  6
CONTINUOUS
 62
     7
 10
1282.5
 20
410.0
 30
0.0
 11
1277.0
 21
410.0
 31
0.0
  0
LINE
  8
L-ZISSEN
  6
CONTINUOUS
 62
     7
 10
1282.5
 20
310.0
 30
0.0
 11
1277.0
 21
310.0
 31
0.0
  0
LINE
  8
L-ZISSEN
  6
CONTINUOUS
 62
     7
 10
1295.0
 20
313.5
 30
0.0
 11
1282.5
 21
313.5
 31
0.0
  0
LINE
  8
L-ZISSEN
  6
CONTINUOUS
 62
     7
 10
1282.5
 20
313.5
 30
0.0
 11
1282.5
 21
297.5
 31
0.0
  0
LINE
  8
L-ZISSEN
  6
CONTINUOUS
 62
     7
 10
1282.5
 20
297.5
 30
0.0
 11
1295.0
 21
297.5
 31
0.0
  0
LINE
  8
L-ZISSEN
  6
CONTINUOUS
 62
     7
 10
1305.0
 20
315.0
 30
0.0
 11
1295.0
 21
315.0
 31
0.0
  0
LINE
  8
L-ZISSEN
  6
CONTINUOUS
 62
     7
 10
1295.0
 20
225.0
 30
0.0
 11
1295.0
 21
315.0
 31
0.0
  0
LINE
  8
L-ZISSEN
  6
CONTINUOUS
 62
     7
 10
1277.0
 20
230.0
 30
0.0
 11
1277.0
 21
310.0
 31
0.0
  0
LINE
  8
L-ZISSEN
  6
CONTINUOUS
 62
     7
 10
1282.5
 20
230.0
 30
0.0
 11
1277.0
 21
230.0
 31
0.0
  0
LINE
  8
L-ZISSEN
  6
CONTINUOUS
 62
     7
 10
1305.0
 20
225.0
 30
0.0
 11
1295.0
 21
225.0
 31
0.0
  0
LINE
  8
L-ZISSEN
  6
CONTINUOUS
 62
     7
 10
1282.5
 20
242.5
 30
0.0
 11
1295.0
 21
242.5
 31
0.0
  0
LINE
  8
L-ZISSEN
  6
CONTINUOUS
 62
     7
 10
1282.5
 20
226.5
 30
0.0
 11
1282.5
 21
242.5
 31
0.0
  0
LINE
  8
L-ZISSEN
  6
CONTINUOUS
 62
     7
 10
1295.0
 20
226.5
 30
0.0
 11
1282.5
 21
226.5
 31
0.0
  0
LINE
  8
L-ZISSEN
  6
CONTINUOUS
 62
     7
 10
1463.0
 20
360.0
 30
0.0
 11
1475.5
 21
360.0
 31
0.0
  0
LINE
  8
L-ZISSEN
  6
CONTINUOUS
 62
     7
 10
1450.5
 20
363.5
 30
0.0
 11
1463.0
 21
363.5
 31
0.0
  0
LINE
  8
L-ZISSEN
  6
CONTINUOUS
 62
     7
 10
1463.0
 20
363.5
 30
0.0
 11
1463.0
 21
347.5
 31
0.0
  0
LINE
  8
L-ZISSEN
  6
CONTINUOUS
 62
     7
 10
1463.0
 20
347.5
 30
0.0
 11
1450.5
 21
347.5
 31
0.0
  0
LINE
  8
L-ZISSEN
  6
CONTINUOUS
 62
     7
 10
1440.0
 20
365.0
 30
0.0
 11
1450.5
 21
365.0
 31
0.0
  0
LINE
  8
L-ZISSEN
  6
CONTINUOUS
 62
     7
 10
1450.5
 20
275.0
 30
0.0
 11
1450.5
 21
365.0
 31
0.0
  0
LINE
  8
L-ZISSEN
  6
CONTINUOUS
 62
     7
 10
1475.5
 20
280.0
 30
0.0
 11
1475.5
 21
360.0
 31
0.0
  0
LINE
  8
L-ZISSEN
  6
CONTINUOUS
 62
     7
 10
1463.0
 20
280.0
 30
0.0
 11
1475.5
 21
280.0
 31
0.0
  0
LINE
  8
L-ZISSEN
  6
CONTINUOUS
 62
     7
 10
1440.0
 20
275.0
 30
0.0
 11
1450.5
 21
275.0
 31
0.0
  0
LINE
  8
L-ZISSEN
  6
CONTINUOUS
 62
     7
 10
1463.0
 20
292.5
 30
0.0
 11
1450.5
 21
292.5
 31
0.0
  0
LINE
  8
L-ZISSEN
  6
CONTINUOUS
 62
     7
 10
1463.0
 20
276.5
 30
0.0
 11
1463.0
 21
292.5
 31
0.0
  0
LINE
  8
L-ZISSEN
  6
CONTINUOUS
 62
     7
 10
1450.5
 20
276.5
 30
0.0
 11
1463.0
 21
276.5
 31
0.0
  0
SOLID
  8
L-ZISSEN
 10
1349.066667
 20
321.8
 30
0.0
 11
1348.533333
 21
321.4
 31
0.0
 12
1350.0
 22
320.0
 32
0.0
 13
1350.0
 23
320.0
 33
0.0
  0
LINE
  8
L-ZISSEN
 10
1348.8
 20
321.6
 30
0.0
 11
1335.0
 21
340.0
 31
0.0
  0
LINE
  8
L-ZISSEN
 10
1335.0
 20
340.0
 30
0.0
 11
1333.0
 21
340.0
 31
0.0
  0
TEXT
  8
L-ZISSEN
 10
1322.0
 20
337.75
 30
0.0
 40
4.5
  1
P.P
  0
LINE
  8
L-ZISSEN
  6
CONTINUOUS
 62
     7
 10
454.5
 20
293.5
 30
0.0
 11
454.5
 21
279.0
 31
0.0
  0
LINE
  8
L-ZISSEN
 10
454.5
 20
279.0
 30
0.0
 11
435.0
 21
279.0
 31
0.0
  0
LINE
  8
L-ZISSEN
  6
CONTINUOUS
 62
     7
 10
275.5
 20
293.5
 30
0.0
 11
275.5
 21
279.0
 31
0.0
  0
LINE
  8
L-ZISSEN
 10
275.5
 20
279.0
 30
0.0
 11
295.0
 21
279.0
 31
0.0
  0
LINE
  8
L-ZISSEN
  6
CONTINUOUS
 62
     7
 10
175.5
 20
293.5
 30
0.0
 11
175.5
 21
279.0
 31
0.0
  0
LINE
  8
L-ZISSEN
  6
CONTINUOUS
 62
     7
 10
224.5
 20
293.5
 30
0.0
 11
224.5
 21
279.0
 31
0.0
  0
LINE
  8
L-ZISSEN
 10
175.5
 20
279.0
 30
0.0
 11
224.5
 21
279.0
 31
0.0
  0
LINE
  8
L-ZISSEN
 10
124.5
 20
279.0
 30
0.0
 11
105.0
 21
279.0
 31
0.0
  0
LINE
  8
L-ZISSEN
  6
CONTINUOUS
 62
     7
 10
124.5
 20
293.5
 30
0.0
 11
124.5
 21
279.0
 31
0.0
  0
ARC
  8
L-ZISSEN
 10
444.5
 20
414.5
 30
0.0
 40
10.0
 50
0.0
 51
90.0
  0
LINE
  8
L-ZISSEN
 10
444.5
 20
424.5
 30
0.0
 11
435.0
 21
424.5
 31
0.0
  0
LINE
  8
L-ZISSEN
 10
454.5
 20
414.5
 30
0.0
 11
454.5
 21
405.0
 31
0.0
  0
LINE
  8
L-ZISSEN
 10
515.5
 20
424.5
 30
0.0
 11
525.0
 21
424.5
 31
0.0
  0
ARC
  8
L-ZISSEN
 10
515.5
 20
414.5
 30
0.0
 40
10.0
 50
90.0
 51
180.0
  0
LINE
  8
L-ZISSEN
 10
505.5
 20
414.5
 30
0.0
 11
505.5
 21
405.0
 31
0.0
  0
LINE
  8
L-ZISSEN
 10
444.5
 20
575.5
 30
0.0
 11
435.0
 21
575.5
 31
0.0
  0
ARC
  8
L-ZISSEN
 10
444.5
 20
585.5
 30
0.0
 40
10.0
 50
270.0
 51
0.0
  0
LINE
  8
L-ZISSEN
 10
454.5
 20
585.5
 30
0.0
 11
454.5
 21
595.0
 31
0.0
  0
ARC
  8
L-ZISSEN
 10
515.5
 20
585.5
 30
0.0
 40
10.0
 50
180.0
 51
270.0
  0
LINE
  8
L-ZISSEN
 10
515.5
 20
575.5
 30
0.0
 11
525.0
 21
575.5
 31
0.0
  0
LINE
  8
L-ZISSEN
 10
505.5
 20
585.5
 30
0.0
 11
505.5
 21
595.0
 31
0.0
  0
LINE
  8
L-ZISSEN
  6
CONTINUOUS
 62
     7
 10
535.0
 20
405.0
 30
0.0
 11
535.0
 21
595.0
 31
0.0
  0
LINE
  8
L-ZISSEN
 10
566.0
 20
545.0
 30
0.0
 11
561.058657
 21
563.441343
 31
0.0
  0
LINE
  8
L-ZISSEN
 10
566.0
 20
455.0
 30
0.0
 11
561.058657
 21
436.558657
 31
0.0
  0
LINE
  8
L-ZISSEN
 10
444.5
 20
524.5
 30
0.0
 11
435.0
 21
524.5
 31
0.0
  0
LINE
  8
L-ZISSEN
 10
444.5
 20
475.5
 30
0.0
 11
435.0
 21
475.5
 31
0.0
  0
TEXT
  8
L-ZISSEN
 10
183.0
 20
619.0
 30
0.0
 40
4.5
  1
4
  0
TEXT
  8
L-ZISSEN
 10
183.0
 20
611.0
 30
0.0
 40
4.5
  1
5
  0
LINE
  8
L-TYUSIN
 10
1245.0
 20
470.0
 30
0.0
 11
1245.0
 21
70.0
 31
0.0
  0
CIRCLE
  8
L-ZISSEN
 10
835.0
 20
279.0
 30
0.0
 40
4.283
  0
LINE
  8
L-TYUSIN
  6
CENTER
 62
     1
 10
842.0
 20
279.0
 30
0.0
 11
828.0
 21
279.0
 31
0.0
  0
LINE
  8
L-ZISSEN
  6
CONTINUOUS
 62
     7
 10
709.5
 20
293.5
 30
0.0
 11
709.5
 21
279.0
 31
0.0
  0
LINE
  8
L-ZISSEN
 10
709.5
 20
279.0
 30
0.0
 11
690.0
 21
279.0
 31
0.0
  0
LINE
  8
L-ZISSEN
 10
760.5
 20
279.0
 30
0.0
 11
809.5
 21
279.0
 31
0.0
  0
LINE
  8
L-ZISSEN
  6
CONTINUOUS
 62
     7
 10
809.5
 20
293.5
 30
0.0
 11
809.5
 21
279.0
 31
0.0
  0
LINE
  8
L-ZISSEN
  6
CONTINUOUS
 62
     7
 10
760.5
 20
293.5
 30
0.0
 11
760.5
 21
279.0
 31
0.0
  0
LINE
  8
L-ZISSEN
 10
860.5
 20
279.0
 30
0.0
 11
880.0
 21
279.0
 31
0.0
  0
LINE
  8
L-ZISSEN
  6
CONTINUOUS
 62
     7
 10
860.5
 20
293.5
 30
0.0
 11
860.5
 21
279.0
 31
0.0
  0
LINE
  8
L-ZISSEN
 10
880.0
 20
293.5
 30
0.0
 11
690.0
 21
293.5
 31
0.0
  0
LINE
  8
L-ZISSEN
  6
CONTINUOUS
 62
     7
 10
807.5
 20
291.5
 30
0.0
 11
807.5
 21
279.0
 31
0.0
  0
LINE
  8
L-ZISSEN
  6
CONTINUOUS
 62
     7
 10
791.5
 20
291.5
 30
0.0
 11
807.5
 21
291.5
 31
0.0
  0
LINE
  8
L-ZISSEN
  6
CONTINUOUS
 62
     7
 10
791.5
 20
279.0
 30
0.0
 11
791.5
 21
291.5
 31
0.0
  0
LINE
  8
L-ZISSEN
  6
CONTINUOUS
 62
     7
 10
862.5
 20
279.0
 30
0.0
 11
862.5
 21
291.5
 31
0.0
  0
LINE
  8
L-ZISSEN
  6
CONTINUOUS
 62
     7
 10
862.5
 20
291.5
 30
0.0
 11
878.5
 21
291.5
 31
0.0
  0
LINE
  8
L-ZISSEN
  6
CONTINUOUS
 62
     7
 10
878.5
 20
291.5
 30
0.0
 11
878.5
 21
279.0
 31
0.0
  0
LINE
  8
L-ZISSEN
  6
CONTINUOUS
 62
     7
 10
778.5
 20
291.5
 30
0.0
 11
778.5
 21
279.0
 31
0.0
  0
LINE
  8
L-ZISSEN
  6
CONTINUOUS
 62
     7
 10
762.5
 20
291.5
 30
0.0
 11
778.5
 21
291.5
 31
0.0
  0
LINE
  8
L-ZISSEN
  6
CONTINUOUS
 62
     7
 10
762.5
 20
279.0
 30
0.0
 11
762.5
 21
291.5
 31
0.0
  0
LINE
  8
L-ZISSEN
  6
CONTINUOUS
 62
     7
 10
691.5
 20
279.0
 30
0.0
 11
691.5
 21
291.5
 31
0.0
  0
LINE
  8
L-ZISSEN
  6
CONTINUOUS
 62
     7
 10
691.5
 20
291.5
 30
0.0
 11
707.5
 21
291.5
 31
0.0
  0
LINE
  8
L-ZISSEN
  6
CONTINUOUS
 62
     7
 10
707.5
 20
291.5
 30
0.0
 11
707.5
 21
279.0
 31
0.0
  0
LINE
  8
L-TYUSIN
  6
CENTER
 62
     1
 10
742.0
 20
279.0
 30
0.0
 11
728.0
 21
279.0
 31
0.0
  0
CIRCLE
  8
L-ZISSEN
 10
735.0
 20
279.0
 30
0.0
 40
4.283
  0
LINE
  8
L-ZISSEN
 10
1059.5
 20
279.0
 30
0.0
 11
1040.0
 21
279.0
 31
0.0
  0
LINE
  8
L-ZISSEN
  6
CONTINUOUS
 62
     7
 10
1059.5
 20
293.5
 30
0.0
 11
1059.5
 21
279.0
 31
0.0
  0
LINE
  8
L-ZISSEN
 10
1110.5
 20
279.0
 30
0.0
 11
1130.0
 21
279.0
 31
0.0
  0
LINE
  8
L-ZISSEN
  6
CONTINUOUS
 62
     7
 10
1110.5
 20
293.5
 30
0.0
 11
1110.5
 21
279.0
 31
0.0
  0
LINE
  8
L-ZISSEN
 10
1040.0
 20
293.5
 30
0.0
 11
1130.0
 21
293.5
 31
0.0
  0
LINE
  8
L-ZISSEN
  6
CONTINUOUS
 62
     7
 10
1057.5
 20
279.0
 30
0.0
 11
1057.5
 21
291.5
 31
0.0
  0
LINE
  8
L-ZISSEN
  6
CONTINUOUS
 62
     7
 10
1057.5
 20
291.5
 30
0.0
 11
1041.5
 21
291.5
 31
0.0
  0
LINE
  8
L-ZISSEN
  6
CONTINUOUS
 62
     7
 10
1041.5
 20
291.5
 30
0.0
 11
1041.5
 21
279.0
 31
0.0
  0
LINE
  8
L-TYUSIN
  6
CENTER
 62
     1
 10
1035.0
 20
279.0
 30
0.0
 11
1045.0
 21
279.0
 31
0.0
  0
LINE
  8
L-ZISSEN
  6
CONTINUOUS
 62
     7
 10
1128.5
 20
291.5
 30
0.0
 11
1112.5
 21
291.5
 31
0.0
  0
LINE
  8
L-ZISSEN
  6
CONTINUOUS
 62
     7
 10
1112.5
 20
291.5
 30
0.0
 11
1112.5
 21
279.0
 31
0.0
  0
LINE
  8
L-ZISSEN
  6
CONTINUOUS
 62
     7
 10
1128.5
 20
279.0
 30
0.0
 11
1128.5
 21
291.5
 31
0.0
  0
LINE
  8
L-TYUSIN
  6
CENTER
 62
     1
 10
530.0
 20
550.0
 30
0.0
 11
520.0
 21
550.0
 31
0.0
  0
LINE
  8
L-TYUSIN
  6
CENTER
 62
     1
 10
530.0
 20
450.0
 30
0.0
 11
520.0
 21
450.0
 31
0.0
  0
CIRCLE
  8
L-ZISSEN
  6
CONTINUOUS
 62
     7
 10
444.5
 20
485.5
 30
0.0
 40
8.0
  0
ARC
  8
L-ZISSEN
 10
444.5
 20
485.5
 30
0.0
 40
10.0
 50
270.0
 51
0.0
  0
LINE
  8
L-ZISSEN
 10
454.5
 20
485.5
 30
0.0
 11
454.5
 21
514.5
 31
0.0
  0
CIRCLE
  8
L-ZISSEN
  6
CONTINUOUS
 62
     7
 10
444.5
 20
514.5
 30
0.0
 40
8.0
  0
ARC
  8
L-ZISSEN
 10
444.5
 20
514.5
 30
0.0
 40
10.0
 50
0.0
 51
90.0
  0
ARC
  8
L-ZISSEN
 10
515.5
 20
514.5
 30
0.0
 40
10.0
 50
90.0
 51
180.0
  0
CIRCLE
  8
L-ZISSEN
  6
CONTINUOUS
 62
     7
 10
515.5
 20
514.5
 30
0.0
 40
8.0
  0
LINE
  8
L-ZISSEN
 10
505.5
 20
485.5
 30
0.0
 11
505.5
 21
514.5
 31
0.0
  0
ARC
  8
L-ZISSEN
 10
515.5
 20
485.5
 30
0.0
 40
10.0
 50
180.0
 51
270.0
  0
CIRCLE
  8
L-ZISSEN
  6
CONTINUOUS
 62
     7
 10
515.5
 20
485.5
 30
0.0
 40
8.0
  0
LINE
  8
L-ZISSEN
 10
515.5
 20
475.5
 30
0.0
 11
525.0
 21
475.5
 31
0.0
  0
LINE
  8
L-ZISSEN
 10
515.5
 20
524.5
 30
0.0
 11
525.0
 21
524.5
 31
0.0
  0
SOLID
  8
L-ZISSEN
 10
479.566711
 20
501.98075
 30
0.0
 11
478.947726
 21
501.733156
 31
0.0
 12
480.0
 22
500.0
 32
0.0
 13
480.0
 23
500.0
 33
0.0
  0
LINE
  8
L-ZISSEN
 10
479.257219
 20
501.856953
 30
0.0
 11
470.0
 21
525.0
 31
0.0
  0
LINE
  8
L-ZISSEN
 10
470.0
 20
525.0
 30
0.0
 11
468.0
 21
525.0
 31
0.0
  0
TEXT
  8
L-ZISSEN
 10
457.0
 20
522.75
 30
0.0
 40
4.5
  1
P.P
  0
TEXT
  8
L-ZISSEN
 10
1280.0
 20
445.0
 30
0.0
 40
4.5
  1
MODEL NO. : 46B-C00- 0BM
  0
TEXT
  8
L-ZISSEN
 10
1363.0
 20
449.0
 30
0.0
 40
4.5
  1
4
  0
TEXT
  8
L-ZISSEN
 10
1363.0
 20
441.0
 30
0.0
 40
4.5
  1
5
  0
LINE
  8
L-TYUSIN
  6
CENTER
 62
     1
 10
735.0
 20
286.0
 30
0.0
 11
735.0
 21
272.0
 31
0.0
  0
TEXT
  8
L-ZISSEN
 10
166.0
 20
619.0
 30
0.0
 40
4.5
  1
A
  0
TEXT
  8
L-ZISSEN
 10
166.0
 20
611.0
 30
0.0
 40
4.5
  1
B
  0
SOLID
  8
L-ZISSEN
 10
596.178511
 20
148.350084
 30
0.0
 11
596.649916
 21
148.821489
 31
0.0
 12
595.0
 22
150.0
 32
0.0
 13
595.0
 23
150.0
 33
0.0
  0
LINE
  8
L-ZISSEN
 10
596.414214
 20
148.585786
 30
0.0
 11
615.0
 21
130.0
 31
0.0
  0
LINE
  8
L-ZISSEN
 10
615.0
 20
130.0
 30
0.0
 11
617.0
 21
130.0
 31
0.0
  0
TEXT
  8
L-ZISSEN
 10
619.0
 20
127.75
 30
0.0
 40
4.5
  1
IN
  0
TEXT
  8
L-ZISSEN
 10
620.0
 20
120.0
 30
0.0
 40
4.5
  1
Rc 1-1/4
  0
TEXT
  8
L-ZISSEN
 10
620.0
 20
110.0
 30
0.0
 40
4.5
  1
Rc 1-1/2
  0
SOLID
  8
L-ZISSEN
 10
1476.657534
 20
138.3353
 30
0.0
 11
1477.134867
 21
138.8007
 31
0.0
 12
1475.5
 22
140.0
 32
0.0
 13
1475.5
 23
140.0
 33
0.0
  0
LINE
  8
L-ZISSEN
 10
1476.8962
 20
138.568
 30
0.0
 11
1495.0
 21
120.0
 31
0.0
  0
LINE
  8
L-ZISSEN
 10
1495.0
 20
120.0
 30
0.0
 11
1497.0
 21
120.0
 31
0.0
  0
TEXT
  8
L-ZISSEN
 10
1499.0
 20
117.75
 30
0.0
 40
4.5
  1
IN
  0
TEXT
  8
L-ZISSEN
 10
1500.0
 20
110.0
 30
0.0
 40
4.5
  1
Rc 2
  0
ENDSEC
  0
EOF
