  0
SECTION
  2
HEADER
  9
$ACADVER
  1
AC1006
  9
$INSBASE
 10
111.699912
 20
136.395385
 30
0.0
  9
$EXTMIN
 10
44.0
 20
50.0
  9
$EXTMAX
 10
770.0
 20
351.5
  9
$LIMMIN
 10
0.0
 20
0.0
  9
$LIMMAX
 10
841.0
 20
594.0
  9
$ORTHOMODE
 70
     0
  9
$REGENMODE
 70
     1
  9
$FILLMODE
 70
     1
  9
$QTEXTMODE
 70
     0
  9
$MIRRTEXT
 70
     1
  9
$DRAGMODE
 70
     2
  9
$LTSCALE
 40
1.0
  9
$OSMODE
 70
     0
  9
$ATTMODE
 70
     1
  9
$TEXTSIZE
 40
4.5
  9
$TRACEWID
 40
0.05
  9
$TEXTSTYLE
  7
STANDARD
  9
$CLAYER
  8
L-ZISSEN
  9
$CELTYPE
  6
BYLAYER
  9
$CECOLOR
 62
   256
  9
$DIMSCALE
 40
1.0
  9
$DIMASZ
 40
2.0
  9
$DIMEXO
 40
1.0
  9
$DIMDLI
 40
0.38
  9
$DIMRND
 40
0.0
  9
$DIMDLE
 40
2.0
  9
$DIMEXE
 40
1.0
  9
$DIMTP
 40
0.0
  9
$DIMTM
 40
0.0
  9
$DIMTXT
 40
4.5
  9
$DIMCEN
 40
0.09
  9
$DIMTSZ
 40
0.0
  9
$DIMTOL
 70
     0
  9
$DIMLIM
 70
     0
  9
$DIMTIH
 70
     0
  9
$DIMTOH
 70
     0
  9
$DIMSE1
 70
     0
  9
$DIMSE2
 70
     0
  9
$DIMTAD
 70
     1
  9
$DIMZIN
 70
     0
  9
$DIMBLK
  1

  9
$DIMASO
 70
     0
  9
$DIMSHO
 70
     0
  9
$DIMPOST
  1

  9
$DIMAPOST
  1

  9
$DIMALT
 70
     0
  9
$DIMALTD
 70
     2
  9
$DIMALTF
 40
25.4
  9
$DIMLFAC
 40
1.0
  9
$DIMTOFL
 70
     1
  9
$DIMTVP
 40
0.0
  9
$DIMTIX
 70
     1
  9
$DIMSOXD
 70
     0
  9
$DIMSAH
 70
     0
  9
$DIMBLK1
  1

  9
$DIMBLK2
  1

  9
$LUNITS
 70
     2
  9
$LUPREC
 70
     4
  9
$AXISMODE
 70
     0
  9
$AXISUNIT
 10
0.0
 20
0.0
  9
$SKETCHINC
 40
0.1
  9
$FILLETRAD
 40
1.5
  9
$AUNITS
 70
     0
  9
$AUPREC
 70
     0
  9
$MENU
  1
acad
  9
$ELEVATION
 40
0.0
  9
$THICKNESS
 40
0.0
  9
$LIMCHECK
 70
     0
  9
$BLIPMODE
 70
     1
  9
$CHAMFERA
 40
0.0
  9
$CHAMFERB
 40
0.0
  9
$SKPOLY
 70
     0
  9
$TDCREATE
 40
2449251.5012122686
  9
$TDUPDATE
 40
2449251.5012122686
  9
$TDINDWG
 40
0.0000000000
  9
$TDUSRTIMER
 40
0.0000000000
  9
$USRTIMER
 70
     1
  9
$ANGBASE
 50
0.0
  9
$ANGDIR
 70
     0
  9
$PDMODE
 70
     0
  9
$PDSIZE
 40
0.0
  9
$PLINEWID
 40
0.0
  9
$COORDS
 70
     2
  9
$SPLFRAME
 70
     0
  9
$SPLINETYPE
 70
     6
  9
$SPLINESEGS
 70
     8
  9
$ATTDIA
 70
     0
  9
$ATTREQ
 70
     1
  9
$HANDLING
 70
     0
  9
$HANDSEED
  5
0
  9
$SURFTAB1
 70
     6
  9
$SURFTAB2
 70
     6
  9
$SURFTYPE
 70
     6
  9
$SURFU
 70
     6
  9
$SURFV
 70
     6
  9
$FLATLAND
 70
     0
  9
$UCSNAME
  2

  9
$UCSORG
 10
0.0
 20
0.0
 30
0.0
  9
$UCSXDIR
 10
1.0
 20
0.0
 30
0.0
  9
$UCSYDIR
 10
0.0
 20
1.0
 30
0.0
  9
$USERI1
 70
     0
  9
$USERI2
 70
     0
  9
$USERI3
 70
     0
  9
$USERI4
 70
     0
  9
$USERI5
 70
     0
  9
$USERR1
 40
0.0
  9
$USERR2
 40
0.0
  9
$USERR3
 40
0.0
  9
$USERR4
 40
0.0
  9
$USERR5
 40
0.0
  9
$WORLDVIEW
 70
     1
  0
ENDSEC
  0
SECTION
  2
TABLES
  0
TABLE
  2
VPORT
 70
     2
  0
VPORT
  2
*ACTIVE
 70
     0
 10
0.0
 20
0.0
 11
1.0
 21
1.0
 12
476.455978
 22
307.649038
 13
0.0
 23
0.0
 14
5.0
 24
5.0
 15
0.0
 25
0.0
 16
0.0
 26
0.0
 36
1.0
 17
0.0
 27
0.0
 37
0.0
 40
615.298075
 41
1.5487
 42
50.0
 43
0.0
 44
0.0
 50
0.0
 51
0.0
 71
     0
 72
   100
 73
     1
 74
     0
 75
     0
 76
     0
 77
     0
 78
     0
  0
ENDTAB
  0
TABLE
  2
LTYPE
 70
     2
  0
LTYPE
  2
CONTINUOUS
 70
    64
  3
Solid line
 72
    65
 73
     0
 40
0.0
  0
LTYPE
  2
CENTER
 70
    64
  3
____ _ ____ _ ____ _ ____ _ 
 72
    65
 73
     4
 40
60.0
 49
45.0
 49
-5.0
 49
5.0
 49
-5.0
  0
ENDTAB
  0
TABLE
  2
LAYER
 70
     3
  0
LAYER
  2
0
 70
     0
 62
     7
  6
CONTINUOUS
  0
LAYER
  2
L-ZISSEN
 70
    64
 62
     7
  6
CONTINUOUS
  0
LAYER
  2
L-TYUSIN
 70
    64
 62
     1
  6
CENTER
  0
ENDTAB
  0
TABLE
  2
STYLE
 70
     1
  0
STYLE
  2
STANDARD
 70
    64
 40
0.0
 41
1.0
 50
0.0
 71
     0
 42
4.5
  3
txt
  4

  0
ENDTAB
  0
TABLE
  2
VIEW
 70
     0
  0
ENDTAB
  0
TABLE
  2
UCS
 70
     0
  0
ENDTAB
  0
TABLE
  2
DWGMGR
 70
     0
  0
ENDTAB
  0
ENDSEC
  0
SECTION
  2
BLOCKS
  0
ENDSEC
  0
SECTION
  2
ENTITIES
  0
LINE
  8
L-ZISSEN
 10
251.8
 20
140.0
 30
0.0
 11
251.8
 21
122.0
 31
0.0
  0
ARC
  8
L-ZISSEN
 10
234.0
 20
120.0
 30
0.0
 40
3.5
 50
90.0
 51
270.0
  0
LINE
  8
L-ZISSEN
 10
234.0
 20
116.5
 30
0.0
 11
240.999998
 21
116.5
 31
0.0
  0
LINE
  8
L-TYUSIN
 10
237.5
 20
126.0
 30
0.0
 11
237.5
 21
114.0
 31
0.0
  0
LINE
  8
L-ZISSEN
 10
240.999998
 20
123.5
 30
0.0
 11
234.0
 21
123.5
 31
0.0
  0
LINE
  8
L-TYUSIN
 10
227.5
 20
120.0
 30
0.0
 11
247.5
 21
120.0
 31
0.0
  0
ARC
  8
L-ZISSEN
 10
241.0
 20
120.0
 30
0.0
 40
3.5
 50
270.0
 51
336.104492
  0
LINE
  8
L-ZISSEN
 10
237.0
 20
99.5
 30
0.0
 11
224.0
 21
99.5
 31
0.0
  0
LINE
  8
L-ZISSEN
 10
224.0
 20
140.5
 30
0.0
 11
251.5
 21
140.5
 31
0.0
  0
LINE
  8
L-ZISSEN
 10
224.0
 20
99.5
 30
0.0
 11
224.0
 21
140.5
 31
0.0
  0
LINE
  8
L-TYUSIN
 10
303.5
 20
154.0
 30
0.0
 11
313.5
 21
154.0
 31
0.0
  0
LINE
  8
L-ZISSEN
 10
251.5
 20
164.0
 30
0.0
 11
308.5
 21
164.0
 31
0.0
  0
LINE
  8
L-ZISSEN
 10
303.0
 20
64.0
 30
0.0
 11
302.0
 21
63.0
 31
0.0
  0
LINE
  8
L-ZISSEN
 10
257.0
 20
64.0
 30
0.0
 11
258.0
 21
63.0
 31
0.0
  0
LINE
  8
L-ZISSEN
 10
293.5
 20
59.0
 30
0.0
 11
266.5
 21
59.0
 31
0.0
  0
LINE
  8
L-TYUSIN
 10
171.788714
 20
120.0
 30
0.0
 11
201.0
 21
120.0
 31
0.0
  0
LINE
  8
L-ZISSEN
 10
188.8
 20
104.0
 30
0.0
 11
196.0
 21
104.0
 31
0.0
  0
LINE
  8
L-ZISSEN
 10
185.0
 20
100.0
 30
0.0
 11
188.8
 21
100.0
 31
0.0
  0
LINE
  8
L-ZISSEN
 10
188.8
 20
108.5
 30
0.0
 11
185.0
 21
108.5
 31
0.0
  0
LINE
  8
L-ZISSEN
 10
188.8
 20
100.0
 30
0.0
 11
188.8
 21
108.5
 31
0.0
  0
LINE
  8
L-ZISSEN
 10
185.0
 20
99.5
 30
0.0
 11
185.0
 21
140.5
 31
0.0
  0
LINE
  8
L-ZISSEN
 10
188.8
 20
140.0
 30
0.0
 11
188.8
 21
131.5
 31
0.0
  0
LINE
  8
L-ZISSEN
 10
188.8
 20
131.5
 30
0.0
 11
185.0
 21
131.5
 31
0.0
  0
LINE
  8
L-ZISSEN
 10
185.0
 20
140.0
 30
0.0
 11
188.8
 21
140.0
 31
0.0
  0
LINE
  8
L-ZISSEN
 10
196.0
 20
136.0
 30
0.0
 11
196.0
 21
104.0
 31
0.0
  0
LINE
  8
L-ZISSEN
 10
188.8
 20
136.0
 30
0.0
 11
196.0
 21
136.0
 31
0.0
  0
LINE
  8
L-ZISSEN
 10
257.0
 20
64.5
 30
0.0
 11
303.0
 21
64.5
 31
0.0
  0
LINE
  8
L-ZISSEN
 10
258.0
 20
64.5
 30
0.0
 11
258.0
 21
58.2
 31
0.0
  0
LINE
  8
L-ZISSEN
 10
266.5
 20
58.2
 30
0.0
 11
266.5
 21
64.5
 31
0.0
  0
LINE
  8
L-ZISSEN
 10
258.0
 20
58.2
 30
0.0
 11
266.5
 21
58.2
 31
0.0
  0
LINE
  8
L-ZISSEN
 10
244.2
 20
121.0
 30
0.0
 11
244.2
 21
112.5
 31
0.0
  0
LINE
  8
L-ZISSEN
 10
244.2
 20
83.0
 30
0.0
 11
237.0
 21
83.0
 31
0.0
  0
LINE
  8
L-ZISSEN
 10
257.0
 20
122.0
 30
0.0
 11
248.0
 21
122.0
 31
0.0
  0
LINE
  8
L-ZISSEN
 10
244.2
 20
115.0
 30
0.0
 11
237.0
 21
115.0
 31
0.0
  0
LINE
  8
L-ZISSEN
 10
248.0
 20
121.0
 30
0.0
 11
244.2
 21
121.0
 31
0.0
  0
LINE
  8
L-ZISSEN
 10
244.2
 20
112.5
 30
0.0
 11
248.0
 21
112.5
 31
0.0
  0
LINE
  8
L-ZISSEN
 10
248.0
 20
122.0
 30
0.0
 11
248.0
 21
76.0
 31
0.0
  0
LINE
  8
L-ZISSEN
 10
237.0
 20
83.0
 30
0.0
 11
237.0
 21
115.0
 31
0.0
  0
CIRCLE
  8
L-ZISSEN
 10
262.25
 20
135.75
 30
0.0
 40
4.25
  0
CIRCLE
  8
L-ZISSEN
 10
280.0
 20
120.0
 30
0.0
 40
16.0
  0
LINE
  8
L-ZISSEN
 10
256.0
 20
122.0
 30
0.0
 11
256.0
 21
128.291901
 31
0.0
  0
LINE
  8
L-ZISSEN
 10
252.336967
 20
140.0
 30
0.0
 11
253.982433
 21
128.291901
 31
0.0
  0
ARC
  8
L-ZISSEN
 10
276.367497
 20
96.5
 30
0.0
 40
3.0
 50
90.0
 51
218.682187
  0
LINE
  8
L-ZISSEN
 10
258.0
 20
89.0
 30
0.0
 11
258.0
 21
99.5
 31
0.0
  0
ARC
  8
L-ZISSEN
 10
267.0
 20
89.0
 30
0.0
 40
9.0
 50
180.0
 51
38.682191
  0
LINE
  8
L-ZISSEN
 10
255.0
 20
76.095445
 30
0.0
 11
255.0
 21
122.0
 31
0.0
  0
LINE
  8
L-ZISSEN
 10
303.0
 20
64.0
 30
0.0
 11
303.0
 21
76.0
 31
0.0
  0
LINE
  8
L-ZISSEN
 10
257.0
 20
69.0
 30
0.0
 11
303.0
 21
69.0
 31
0.0
  0
LINE
  8
L-ZISSEN
 10
257.0
 20
76.0
 30
0.0
 11
257.0
 21
64.0
 31
0.0
  0
LINE
  8
L-ZISSEN
 10
257.0
 20
140.5
 30
0.0
 11
303.0
 21
140.5
 31
0.0
  0
LINE
  8
L-ZISSEN
 10
257.0
 20
99.5
 30
0.0
 11
257.0
 21
144.0
 31
0.0
  0
LINE
  8
L-ZISSEN
 10
303.0
 20
99.5
 30
0.0
 11
257.0
 21
99.5
 31
0.0
  0
LINE
  8
L-TYUSIN
 10
305.0
 20
120.0
 30
0.0
 11
255.0
 21
120.0
 31
0.0
  0
LINE
  8
L-ZISSEN
 10
251.5
 20
140.0
 30
0.0
 11
257.0
 21
140.0
 31
0.0
  0
LINE
  8
L-ZISSEN
 10
251.5
 20
164.0
 30
0.0
 11
251.5
 21
140.0
 31
0.0
  0
LINE
  8
L-ZISSEN
 10
308.5
 20
144.0
 30
0.0
 11
251.5
 21
144.0
 31
0.0
  0
LINE
  8
L-TYUSIN
 10
280.0
 20
169.0
 30
0.0
 11
280.0
 21
54.0
 31
0.0
  0
LINE
  8
L-TYUSIN
 10
232.0
 20
99.0
 30
0.0
 11
342.0
 21
99.0
 31
0.0
  0
TEXT
  8
L-ZISSEN
 10
65.0
 20
340.0
 30
0.0
 40
4.5
  1
MODEL NO. : 463-300- 0BM
  0
LINE
  8
L-ZISSEN
 10
257.0
 20
128.291901
 30
0.0
 11
253.982433
 21
128.291901
 31
0.0
  0
ARC
  8
L-ZISSEN
 10
241.0
 20
120.0
 30
0.0
 40
3.5
 50
16.60155
 51
90.0
  0
LINE
  8
L-ZISSEN
 10
293.5
 20
58.2
 30
0.0
 11
302.0
 21
58.2
 31
0.0
  0
LINE
  8
L-ZISSEN
 10
293.5
 20
64.5
 30
0.0
 11
293.5
 21
58.2
 31
0.0
  0
LINE
  8
L-ZISSEN
 10
302.0
 20
58.2
 30
0.0
 11
302.0
 21
64.5
 31
0.0
  0
LINE
  8
L-ZISSEN
 10
248.0
 20
77.0
 30
0.0
 11
244.2
 21
77.0
 31
0.0
  0
LINE
  8
L-ZISSEN
 10
244.2
 20
85.5
 30
0.0
 11
248.0
 21
85.5
 31
0.0
  0
LINE
  8
L-ZISSEN
 10
244.2
 20
77.0
 30
0.0
 11
244.2
 21
85.5
 31
0.0
  0
LINE
  8
L-ZISSEN
 10
257.0
 20
76.0
 30
0.0
 11
248.0
 21
76.0
 31
0.0
  0
LINE
  8
L-ZISSEN
 10
303.0
 20
99.5
 30
0.0
 11
303.0
 21
144.0
 31
0.0
  0
CIRCLE
  8
L-ZISSEN
 10
297.75
 20
135.75
 30
0.0
 40
4.25
  0
CIRCLE
  8
L-ZISSEN
 10
262.25
 20
104.25
 30
0.0
 40
4.25
  0
CIRCLE
  8
L-ZISSEN
 10
297.75
 20
104.25
 30
0.0
 40
4.25
  0
LINE
  8
L-ZISSEN
 10
308.5
 20
164.0
 30
0.0
 11
308.5
 21
140.0
 31
0.0
  0
LINE
  8
L-ZISSEN
 10
308.5
 20
140.0
 30
0.0
 11
303.0
 21
140.0
 31
0.0
  0
LINE
  8
L-ZISSEN
 10
307.663033
 20
140.0
 30
0.0
 11
306.017567
 21
128.291901
 31
0.0
  0
LINE
  8
L-ZISSEN
 10
303.0
 20
128.291901
 30
0.0
 11
306.017567
 21
128.291901
 31
0.0
  0
LINE
  8
L-ZISSEN
 10
304.0
 20
122.0
 30
0.0
 11
304.0
 21
128.291901
 31
0.0
  0
LINE
  8
L-ZISSEN
 10
308.2
 20
140.0
 30
0.0
 11
308.2
 21
122.0
 31
0.0
  0
LINE
  8
L-ZISSEN
 10
336.0
 20
140.5
 30
0.0
 11
308.5
 21
140.5
 31
0.0
  0
LINE
  8
L-ZISSEN
 10
336.0
 20
114.0
 30
0.0
 11
336.0
 21
140.5
 31
0.0
  0
LINE
  8
L-ZISSEN
 10
319.000002
 20
123.5
 30
0.0
 11
326.0
 21
123.5
 31
0.0
  0
ARC
  8
L-ZISSEN
 10
326.0
 20
120.0
 30
0.0
 40
3.5
 50
270.0
 51
90.0
  0
LINE
  8
L-TYUSIN
 10
332.5
 20
120.0
 30
0.0
 11
312.5
 21
120.0
 31
0.0
  0
LINE
  8
L-TYUSIN
 10
322.5
 20
126.0
 30
0.0
 11
322.5
 21
114.0
 31
0.0
  0
LINE
  8
L-ZISSEN
 10
326.0
 20
116.5
 30
0.0
 11
319.000002
 21
116.5
 31
0.0
  0
LINE
  8
L-ZISSEN
 10
303.0
 20
122.0
 30
0.0
 11
310.0
 21
122.0
 31
0.0
  0
LINE
  8
L-ZISSEN
 10
303.0
 20
76.0
 30
0.0
 11
310.0
 21
76.0
 31
0.0
  0
LINE
  8
L-ZISSEN
 10
305.0
 20
76.095445
 30
0.0
 11
305.0
 21
122.0
 31
0.0
  0
LINE
  8
L-ZISSEN
 10
666.0
 20
116.5
 30
0.0
 11
659.000002
 21
116.5
 31
0.0
  0
LINE
  8
L-TYUSIN
 10
662.5
 20
126.0
 30
0.0
 11
662.5
 21
114.0
 31
0.0
  0
LINE
  8
L-TYUSIN
 10
672.5
 20
120.0
 30
0.0
 11
652.5
 21
120.0
 31
0.0
  0
ARC
  8
L-ZISSEN
 10
666.0
 20
120.0
 30
0.0
 40
3.5
 50
270.0
 51
90.0
  0
LINE
  8
L-ZISSEN
 10
659.000002
 20
123.5
 30
0.0
 11
666.0
 21
123.5
 31
0.0
  0
CIRCLE
  8
L-ZISSEN
 10
637.75
 20
104.25
 30
0.0
 40
4.25
  0
CIRCLE
  8
L-ZISSEN
 10
602.25
 20
104.25
 30
0.0
 40
4.25
  0
CIRCLE
  8
L-ZISSEN
 10
637.75
 20
135.75
 30
0.0
 40
4.25
  0
CIRCLE
  8
L-ZISSEN
 10
602.25
 20
135.75
 30
0.0
 40
4.25
  0
LINE
  8
L-TYUSIN
 10
567.5
 20
120.0
 30
0.0
 11
587.5
 21
120.0
 31
0.0
  0
LINE
  8
L-ZISSEN
 10
580.999998
 20
123.5
 30
0.0
 11
574.0
 21
123.5
 31
0.0
  0
LINE
  8
L-TYUSIN
 10
577.5
 20
126.0
 30
0.0
 11
577.5
 21
114.0
 31
0.0
  0
LINE
  8
L-ZISSEN
 10
574.0
 20
116.5
 30
0.0
 11
580.999998
 21
116.5
 31
0.0
  0
ARC
  8
L-ZISSEN
 10
574.0
 20
120.0
 30
0.0
 40
3.5
 50
90.0
 51
270.0
  0
ARC
  8
L-ZISSEN
 10
581.0
 20
120.0
 30
0.0
 40
3.5
 50
270.0
 51
90.0
  0
ARC
  8
L-ZISSEN
 10
659.0
 20
120.0
 30
0.0
 40
3.5
 50
90.0
 51
270.0
  0
CIRCLE
  8
L-ZISSEN
 10
280.0
 20
120.0
 30
0.0
 40
9.3155
  0
LINE
  8
L-ZISSEN
 10
316.3
 20
77.0
 30
0.0
 11
316.3
 21
85.5
 31
0.0
  0
LINE
  8
L-ZISSEN
 10
316.3
 20
85.5
 30
0.0
 11
310.0
 21
85.5
 31
0.0
  0
LINE
  8
L-ZISSEN
 10
310.0
 20
77.0
 30
0.0
 11
316.3
 21
77.0
 31
0.0
  0
LINE
  8
L-ZISSEN
 10
310.0
 20
76.0
 30
0.0
 11
310.0
 21
122.0
 31
0.0
  0
LINE
  8
L-ZISSEN
 10
316.3
 20
112.5
 30
0.0
 11
310.0
 21
112.5
 31
0.0
  0
LINE
  8
L-ZISSEN
 10
310.0
 20
121.0
 30
0.0
 11
316.3
 21
121.0
 31
0.0
  0
LINE
  8
L-ZISSEN
 10
316.3
 20
121.0
 30
0.0
 11
316.3
 21
112.5
 31
0.0
  0
ARC
  8
L-ZISSEN
 10
319.0
 20
120.0
 30
0.0
 40
3.5
 50
90.0
 51
163.39845
  0
ARC
  8
L-ZISSEN
 10
319.0
 20
120.0
 30
0.0
 40
3.5
 50
219.517653
 51
270.0
  0
LINE
  8
L-ZISSEN
 10
327.0
 20
110.5
 30
0.0
 11
327.0
 21
87.5
 31
0.0
  0
LINE
  8
L-ZISSEN
 10
316.3
 20
114.0
 30
0.0
 11
337.0
 21
114.0
 31
0.0
  0
LINE
  8
L-ZISSEN
 10
337.0
 20
114.0
 30
0.0
 11
337.0
 21
84.0
 31
0.0
  0
LINE
  8
L-ZISSEN
 10
316.3
 20
84.0
 30
0.0
 11
337.0
 21
84.0
 31
0.0
  0
LINE
  8
L-ZISSEN
 10
327.0
 20
110.5
 30
0.0
 11
310.0
 21
110.5
 31
0.0
  0
LINE
  8
L-ZISSEN
 10
327.0
 20
87.5
 30
0.0
 11
310.0
 21
87.5
 31
0.0
  0
CIRCLE
  8
L-ZISSEN
 10
150.0
 20
99.0
 30
0.0
 40
7.475
  0
LINE
  8
L-ZISSEN
 10
147.0
 20
128.291901
 30
0.0
 11
147.0
 21
122.0
 31
0.0
  0
LINE
  8
L-ZISSEN
 10
144.0
 20
140.0
 30
0.0
 11
145.645466
 21
128.291901
 31
0.0
  0
LINE
  8
L-ZISSEN
 10
145.645466
 20
128.291901
 30
0.0
 11
154.354534
 21
128.291901
 31
0.0
  0
LINE
  8
L-TYUSIN
 10
150.0
 20
124.0
 30
0.0
 11
150.0
 21
74.0
 31
0.0
  0
CIRCLE
  8
L-ZISSEN
 10
134.25
 20
81.25
 30
0.0
 40
4.25
  0
CIRCLE
  8
L-ZISSEN
 10
165.75
 20
81.25
 30
0.0
 40
4.25
  0
CIRCLE
  8
L-ZISSEN
 10
165.75
 20
116.75
 30
0.0
 40
4.25
  0
CIRCLE
  8
L-ZISSEN
 10
134.25
 20
116.75
 30
0.0
 40
4.25
  0
CIRCLE
  8
L-ZISSEN
 10
150.0
 20
99.0
 30
0.0
 40
16.0
  0
LINE
  8
L-ZISSEN
 10
129.5
 20
64.5
 30
0.0
 11
129.5
 21
122.0
 31
0.0
  0
LINE
  8
L-ZISSEN
 10
170.5
 20
122.0
 30
0.0
 11
170.5
 21
64.5
 31
0.0
  0
LINE
  8
L-ZISSEN
 10
129.5
 20
122.0
 30
0.0
 11
170.5
 21
122.0
 31
0.0
  0
LINE
  8
L-ZISSEN
 10
129.5
 20
69.0
 30
0.0
 11
170.5
 21
69.0
 31
0.0
  0
LINE
  8
L-ZISSEN
 10
122.0
 20
140.5
 30
0.0
 11
122.0
 21
99.5
 31
0.0
  0
LINE
  8
L-ZISSEN
 10
114.5
 20
99.5
 30
0.0
 11
129.5
 21
99.5
 31
0.0
  0
LINE
  8
L-ZISSEN
 10
123.5
 20
80.056835
 30
0.0
 11
129.5
 21
80.056835
 31
0.0
  0
LINE
  8
L-ZISSEN
 10
123.5
 20
80.056835
 30
0.0
 11
123.5
 21
99.5
 31
0.0
  0
LINE
  8
L-ZISSEN
 10
127.0
 20
140.5
 30
0.0
 11
127.0
 21
140.0
 31
0.0
  0
LINE
  8
L-ZISSEN
 10
173.0
 20
140.0
 30
0.0
 11
127.0
 21
140.0
 31
0.0
  0
LINE
  8
L-ZISSEN
 10
144.0
 20
140.0
 30
0.0
 11
144.0
 21
144.0
 31
0.0
  0
LINE
  8
L-ZISSEN
 10
173.0
 20
140.5
 30
0.0
 11
173.0
 21
140.0
 31
0.0
  0
LINE
  8
L-ZISSEN
 10
156.0
 20
140.0
 30
0.0
 11
156.0
 21
144.0
 31
0.0
  0
LINE
  8
L-ZISSEN
 10
156.0
 20
140.0
 30
0.0
 11
154.354534
 21
128.291901
 31
0.0
  0
LINE
  8
L-ZISSEN
 10
153.0
 20
128.291901
 30
0.0
 11
153.0
 21
122.0
 31
0.0
  0
LINE
  8
L-ZISSEN
 10
185.0
 20
140.5
 30
0.0
 11
173.0
 21
140.5
 31
0.0
  0
LINE
  8
L-ZISSEN
 10
176.5
 20
80.056835
 30
0.0
 11
176.5
 21
99.5
 31
0.0
  0
LINE
  8
L-ZISSEN
 10
185.0
 20
99.5
 30
0.0
 11
170.5
 21
99.5
 31
0.0
  0
LINE
  8
L-ZISSEN
 10
176.5
 20
80.056835
 30
0.0
 11
170.5
 21
80.056835
 31
0.0
  0
LINE
  8
L-ZISSEN
 10
130.0
 20
64.5
 30
0.0
 11
130.0
 21
58.2
 31
0.0
  0
LINE
  8
L-ZISSEN
 10
138.5
 20
58.2
 30
0.0
 11
138.5
 21
64.5
 31
0.0
  0
LINE
  8
L-ZISSEN
 10
130.0
 20
58.2
 30
0.0
 11
138.5
 21
58.2
 31
0.0
  0
LINE
  8
L-ZISSEN
 10
170.0
 20
58.2
 30
0.0
 11
161.5
 21
58.2
 31
0.0
  0
LINE
  8
L-ZISSEN
 10
161.5
 20
58.2
 30
0.0
 11
161.5
 21
64.5
 31
0.0
  0
LINE
  8
L-ZISSEN
 10
170.0
 20
64.5
 30
0.0
 11
170.0
 21
58.2
 31
0.0
  0
LINE
  8
L-ZISSEN
 10
170.5
 20
64.5
 30
0.0
 11
129.5
 21
64.5
 31
0.0
  0
LINE
  8
L-ZISSEN
 10
127.0
 20
140.5
 30
0.0
 11
117.0
 21
140.5
 31
0.0
  0
LINE
  8
L-ZISSEN
 10
138.5
 20
59.0
 30
0.0
 11
161.5
 21
59.0
 31
0.0
  0
LINE
  8
L-ZISSEN
 10
178.0
 20
99.5
 30
0.0
 11
178.0
 21
140.5
 31
0.0
  0
LINE
  8
L-ZISSEN
 10
178.0
 20
140.5
 30
0.0
 11
178.0
 21
99.5
 31
0.0
  0
LINE
  8
L-ZISSEN
 10
126.0
 20
140.5
 30
0.0
 11
126.0
 21
144.0
 31
0.0
  0
LINE
  8
L-ZISSEN
 10
174.0
 20
140.5
 30
0.0
 11
174.0
 21
144.0
 31
0.0
  0
LINE
  8
L-ZISSEN
 10
49.0
 20
140.5
 30
0.0
 11
49.0
 21
99.5
 31
0.0
  0
LINE
  8
L-ZISSEN
 10
52.2
 20
99.5
 30
0.0
 11
52.2
 21
140.5
 31
0.0
  0
LINE
  8
L-TYUSIN
 10
44.0
 20
120.0
 30
0.0
 11
57.2
 21
120.0
 31
0.0
  0
LINE
  8
L-TYUSIN
 10
69.0
 20
99.0
 30
0.0
 11
119.0
 21
99.0
 31
0.0
  0
LINE
  8
L-ZISSEN
 10
82.5
 20
59.0
 30
0.0
 11
105.5
 21
59.0
 31
0.0
  0
LINE
  8
L-ZISSEN
 10
71.0
 20
140.5
 30
0.0
 11
49.0
 21
140.5
 31
0.0
  0
LINE
  8
L-ZISSEN
 10
114.5
 20
64.5
 30
0.0
 11
73.5
 21
64.5
 31
0.0
  0
LINE
  8
L-ZISSEN
 10
114.0
 20
64.5
 30
0.0
 11
114.0
 21
58.2
 31
0.0
  0
LINE
  8
L-ZISSEN
 10
105.5
 20
58.2
 30
0.0
 11
105.5
 21
64.5
 31
0.0
  0
LINE
  8
L-ZISSEN
 10
114.0
 20
58.2
 30
0.0
 11
105.5
 21
58.2
 31
0.0
  0
LINE
  8
L-ZISSEN
 10
74.0
 20
58.2
 30
0.0
 11
82.5
 21
58.2
 31
0.0
  0
LINE
  8
L-ZISSEN
 10
82.5
 20
58.2
 30
0.0
 11
82.5
 21
64.5
 31
0.0
  0
LINE
  8
L-ZISSEN
 10
74.0
 20
64.5
 30
0.0
 11
74.0
 21
58.2
 31
0.0
  0
LINE
  8
L-ZISSEN
 10
97.0
 20
128.291901
 30
0.0
 11
97.0
 21
122.0
 31
0.0
  0
LINE
  8
L-ZISSEN
 10
100.0
 20
140.0
 30
0.0
 11
98.354534
 21
128.291901
 31
0.0
  0
LINE
  8
L-ZISSEN
 10
100.0
 20
140.0
 30
0.0
 11
100.0
 21
144.0
 31
0.0
  0
LINE
  8
L-ZISSEN
 10
117.0
 20
140.5
 30
0.0
 11
117.0
 21
140.0
 31
0.0
  0
LINE
  8
L-ZISSEN
 10
88.0
 20
140.0
 30
0.0
 11
88.0
 21
144.0
 31
0.0
  0
LINE
  8
L-ZISSEN
 10
117.0
 20
140.0
 30
0.0
 11
71.0
 21
140.0
 31
0.0
  0
LINE
  8
L-ZISSEN
 10
71.0
 20
140.5
 30
0.0
 11
71.0
 21
140.0
 31
0.0
  0
LINE
  8
L-ZISSEN
 10
67.5
 20
80.056835
 30
0.0
 11
67.5
 21
99.5
 31
0.0
  0
LINE
  8
L-ZISSEN
 10
67.5
 20
80.056835
 30
0.0
 11
73.5
 21
80.056835
 31
0.0
  0
LINE
  8
L-ZISSEN
 10
49.0
 20
99.5
 30
0.0
 11
73.5
 21
99.5
 31
0.0
  0
LINE
  8
L-ZISSEN
 10
66.0
 20
140.5
 30
0.0
 11
66.0
 21
99.5
 31
0.0
  0
LINE
  8
L-ZISSEN
 10
73.5
 20
69.0
 30
0.0
 11
114.5
 21
69.0
 31
0.0
  0
LINE
  8
L-ZISSEN
 10
66.0
 20
144.0
 30
0.0
 11
178.0
 21
144.0
 31
0.0
  0
LINE
  8
L-ZISSEN
 10
73.5
 20
122.0
 30
0.0
 11
114.5
 21
122.0
 31
0.0
  0
LINE
  8
L-ZISSEN
 10
114.5
 20
122.0
 30
0.0
 11
114.5
 21
64.5
 31
0.0
  0
LINE
  8
L-ZISSEN
 10
170.5
 20
76.0
 30
0.0
 11
73.5
 21
76.0
 31
0.0
  0
LINE
  8
L-ZISSEN
 10
73.5
 20
64.5
 30
0.0
 11
73.5
 21
122.0
 31
0.0
  0
CIRCLE
  8
L-ZISSEN
 10
94.0
 20
99.0
 30
0.0
 40
16.0
  0
CIRCLE
  8
L-ZISSEN
 10
78.25
 20
116.75
 30
0.0
 40
4.25
  0
CIRCLE
  8
L-ZISSEN
 10
109.75
 20
116.75
 30
0.0
 40
4.25
  0
CIRCLE
  8
L-ZISSEN
 10
109.75
 20
81.25
 30
0.0
 40
4.25
  0
CIRCLE
  8
L-ZISSEN
 10
78.25
 20
81.25
 30
0.0
 40
4.25
  0
LINE
  8
L-ZISSEN
 10
89.645466
 20
128.291901
 30
0.0
 11
98.354534
 21
128.291901
 31
0.0
  0
LINE
  8
L-ZISSEN
 10
88.0
 20
140.0
 30
0.0
 11
89.645466
 21
128.291901
 31
0.0
  0
LINE
  8
L-ZISSEN
 10
91.0
 20
128.291901
 30
0.0
 11
91.0
 21
122.0
 31
0.0
  0
CIRCLE
  8
L-ZISSEN
 10
94.0
 20
99.0
 30
0.0
 40
7.475
  0
LINE
  8
L-ZISSEN
 10
118.0
 20
140.5
 30
0.0
 11
118.0
 21
144.0
 31
0.0
  0
LINE
  8
L-ZISSEN
 10
70.0
 20
140.5
 30
0.0
 11
70.0
 21
144.0
 31
0.0
  0
LINE
  8
L-ZISSEN
 10
120.5
 20
80.056835
 30
0.0
 11
120.5
 21
99.5
 31
0.0
  0
LINE
  8
L-ZISSEN
 10
120.5
 20
80.056835
 30
0.0
 11
114.5
 21
80.056835
 31
0.0
  0
LINE
  8
L-TYUSIN
 10
94.0
 20
124.0
 30
0.0
 11
94.0
 21
74.0
 31
0.0
  0
LINE
  8
L-ZISSEN
 10
573.0
 20
87.5
 30
0.0
 11
590.0
 21
87.5
 31
0.0
  0
LINE
  8
L-ZISSEN
 10
583.7
 20
84.0
 30
0.0
 11
563.0
 21
84.0
 31
0.0
  0
LINE
  8
L-ZISSEN
 10
563.0
 20
114.0
 30
0.0
 11
563.0
 21
84.0
 31
0.0
  0
LINE
  8
L-ZISSEN
 10
573.0
 20
99.5
 30
0.0
 11
573.0
 21
87.5
 31
0.0
  0
LINE
  8
L-ZISSEN
 10
590.0
 20
76.0
 30
0.0
 11
590.0
 21
99.5
 31
0.0
  0
LINE
  8
L-ZISSEN
 10
590.0
 20
77.0
 30
0.0
 11
583.7
 21
77.0
 31
0.0
  0
LINE
  8
L-ZISSEN
 10
583.7
 20
85.5
 30
0.0
 11
590.0
 21
85.5
 31
0.0
  0
LINE
  8
L-ZISSEN
 10
583.7
 20
77.0
 30
0.0
 11
583.7
 21
85.5
 31
0.0
  0
LINE
  8
L-ZISSEN
 10
595.0
 20
76.095445
 30
0.0
 11
595.0
 21
140.5
 31
0.0
  0
LINE
  8
L-ZISSEN
 10
597.0
 20
76.0
 30
0.0
 11
590.0
 21
76.0
 31
0.0
  0
LINE
  8
L-ZISSEN
 10
564.0
 20
99.5
 30
0.0
 11
564.0
 21
140.5
 31
0.0
  0
LINE
  8
L-ZISSEN
 10
591.5
 20
164.0
 30
0.0
 11
591.5
 21
140.5
 31
0.0
  0
LINE
  8
L-ZISSEN
 10
643.0
 20
76.0
 30
0.0
 11
652.0
 21
76.0
 31
0.0
  0
LINE
  8
L-ZISSEN
 10
655.8
 20
77.0
 30
0.0
 11
655.8
 21
85.5
 31
0.0
  0
LINE
  8
L-ZISSEN
 10
655.8
 20
85.5
 30
0.0
 11
652.0
 21
85.5
 31
0.0
  0
LINE
  8
L-ZISSEN
 10
652.0
 20
77.0
 30
0.0
 11
655.8
 21
77.0
 31
0.0
  0
LINE
  8
L-ZISSEN
 10
598.0
 20
58.2
 30
0.0
 11
598.0
 21
64.5
 31
0.0
  0
LINE
  8
L-ZISSEN
 10
606.5
 20
64.5
 30
0.0
 11
606.5
 21
58.2
 31
0.0
  0
LINE
  8
L-ZISSEN
 10
606.5
 20
58.2
 30
0.0
 11
598.0
 21
58.2
 31
0.0
  0
LINE
  8
L-TYUSIN
 10
668.0
 20
99.0
 30
0.0
 11
558.0
 21
99.0
 31
0.0
  0
LINE
  8
L-TYUSIN
 10
620.0
 20
169.0
 30
0.0
 11
620.0
 21
54.0
 31
0.0
  0
LINE
  8
L-ZISSEN
 10
648.5
 20
164.0
 30
0.0
 11
648.5
 21
140.5
 31
0.0
  0
LINE
  8
L-ZISSEN
 10
643.0
 20
99.5
 30
0.0
 11
597.0
 21
99.5
 31
0.0
  0
LINE
  8
L-ZISSEN
 10
643.0
 20
76.0
 30
0.0
 11
643.0
 21
64.0
 31
0.0
  0
LINE
  8
L-ZISSEN
 10
643.0
 20
69.0
 30
0.0
 11
597.0
 21
69.0
 31
0.0
  0
LINE
  8
L-ZISSEN
 10
597.0
 20
64.0
 30
0.0
 11
597.0
 21
76.0
 31
0.0
  0
LINE
  8
L-ZISSEN
 10
645.0
 20
76.095445
 30
0.0
 11
645.0
 21
140.5
 31
0.0
  0
ARC
  8
L-ZISSEN
 10
607.0
 20
89.0
 30
0.0
 40
9.0
 50
180.0
 51
38.682191
  0
LINE
  8
L-ZISSEN
 10
598.0
 20
89.0
 30
0.0
 11
598.0
 21
99.5
 31
0.0
  0
ARC
  8
L-ZISSEN
 10
616.367497
 20
96.5
 30
0.0
 40
3.0
 50
90.0
 51
218.682187
  0
LINE
  8
L-ZISSEN
 10
663.0
 20
83.0
 30
0.0
 11
663.0
 21
99.5
 31
0.0
  0
LINE
  8
L-ZISSEN
 10
652.0
 20
99.5
 30
0.0
 11
652.0
 21
76.0
 31
0.0
  0
LINE
  8
L-ZISSEN
 10
655.8
 20
83.0
 30
0.0
 11
663.0
 21
83.0
 31
0.0
  0
LINE
  8
L-ZISSEN
 10
642.0
 20
58.2
 30
0.0
 11
633.5
 21
58.2
 31
0.0
  0
LINE
  8
L-ZISSEN
 10
633.5
 20
58.2
 30
0.0
 11
633.5
 21
64.5
 31
0.0
  0
LINE
  8
L-ZISSEN
 10
642.0
 20
64.5
 30
0.0
 11
642.0
 21
58.2
 31
0.0
  0
LINE
  8
L-ZISSEN
 10
643.0
 20
64.5
 30
0.0
 11
597.0
 21
64.5
 31
0.0
  0
LINE
  8
L-ZISSEN
 10
606.5
 20
59.0
 30
0.0
 11
633.5
 21
59.0
 31
0.0
  0
LINE
  8
L-ZISSEN
 10
643.0
 20
64.0
 30
0.0
 11
642.0
 21
63.0
 31
0.0
  0
LINE
  8
L-ZISSEN
 10
597.0
 20
64.0
 30
0.0
 11
598.0
 21
63.0
 31
0.0
  0
LINE
  8
L-ZISSEN
 10
676.0
 20
99.5
 30
0.0
 11
676.0
 21
140.5
 31
0.0
  0
LINE
  8
L-ZISSEN
 10
676.0
 20
140.5
 30
0.0
 11
564.0
 21
140.5
 31
0.0
  0
LINE
  8
L-ZISSEN
 10
564.0
 20
99.5
 30
0.0
 11
676.0
 21
99.5
 31
0.0
  0
LINE
  8
L-ZISSEN
 10
564.0
 20
114.0
 30
0.0
 11
563.0
 21
114.0
 31
0.0
  0
LINE
  8
L-TYUSIN
 10
122.0
 20
169.0
 30
0.0
 11
122.0
 21
71.0
 31
0.0
  0
LINE
  8
L-TYUSIN
 10
462.0
 20
169.0
 30
0.0
 11
462.0
 21
71.0
 31
0.0
  0
LINE
  8
L-TYUSIN
 10
490.0
 20
161.0
 30
0.0
 11
490.0
 21
147.0
 31
0.0
  0
LINE
  8
L-ZISSEN
 10
514.0
 20
140.5
 30
0.0
 11
514.0
 21
144.0
 31
0.0
  0
LINE
  8
L-ZISSEN
 10
466.0
 20
140.5
 30
0.0
 11
466.0
 21
144.0
 31
0.0
  0
CIRCLE
  8
L-ZISSEN
 10
462.0
 20
99.0
 30
0.0
 40
7.475
  0
LINE
  8
L-ZISSEN
 10
493.0
 20
128.291901
 30
0.0
 11
493.0
 21
122.0
 31
0.0
  0
LINE
  8
L-ZISSEN
 10
496.0
 20
140.0
 30
0.0
 11
494.354534
 21
128.291901
 31
0.0
  0
LINE
  8
L-ZISSEN
 10
494.354534
 20
128.291901
 30
0.0
 11
485.645466
 21
128.291901
 31
0.0
  0
CIRCLE
  8
L-ZISSEN
 10
505.75
 20
81.25
 30
0.0
 40
4.25
  0
CIRCLE
  8
L-ZISSEN
 10
474.25
 20
81.25
 30
0.0
 40
4.25
  0
CIRCLE
  8
L-ZISSEN
 10
474.25
 20
116.75
 30
0.0
 40
4.25
  0
CIRCLE
  8
L-ZISSEN
 10
505.75
 20
116.75
 30
0.0
 40
4.25
  0
LINE
  8
L-ZISSEN
 10
510.5
 20
64.5
 30
0.0
 11
510.5
 21
122.0
 31
0.0
  0
LINE
  8
L-ZISSEN
 10
413.5
 20
76.0
 30
0.0
 11
510.5
 21
76.0
 31
0.0
  0
LINE
  8
L-ZISSEN
 10
469.5
 20
76.0
 30
0.0
 11
469.5
 21
64.5
 31
0.0
  0
LINE
  8
L-ZISSEN
 10
510.5
 20
122.0
 30
0.0
 11
413.5
 21
122.0
 31
0.0
  0
LINE
  8
L-ZISSEN
 10
518.0
 20
144.0
 30
0.0
 11
406.0
 21
144.0
 31
0.0
  0
LINE
  8
L-ZISSEN
 10
510.5
 20
69.0
 30
0.0
 11
469.5
 21
69.0
 31
0.0
  0
LINE
  8
L-ZISSEN
 10
518.0
 20
140.5
 30
0.0
 11
518.0
 21
99.5
 31
0.0
  0
LINE
  8
L-ZISSEN
 10
535.0
 20
99.5
 30
0.0
 11
510.5
 21
99.5
 31
0.0
  0
LINE
  8
L-ZISSEN
 10
516.5
 20
80.056835
 30
0.0
 11
510.5
 21
80.056835
 31
0.0
  0
LINE
  8
L-ZISSEN
 10
516.5
 20
80.056835
 30
0.0
 11
516.5
 21
99.5
 31
0.0
  0
LINE
  8
L-ZISSEN
 10
513.0
 20
140.5
 30
0.0
 11
513.0
 21
140.0
 31
0.0
  0
LINE
  8
L-ZISSEN
 10
467.0
 20
140.0
 30
0.0
 11
513.0
 21
140.0
 31
0.0
  0
LINE
  8
L-ZISSEN
 10
496.0
 20
140.0
 30
0.0
 11
496.0
 21
144.0
 31
0.0
  0
LINE
  8
L-ZISSEN
 10
467.0
 20
140.5
 30
0.0
 11
467.0
 21
140.0
 31
0.0
  0
LINE
  8
L-ZISSEN
 10
484.0
 20
140.0
 30
0.0
 11
484.0
 21
144.0
 31
0.0
  0
LINE
  8
L-ZISSEN
 10
484.0
 20
140.0
 30
0.0
 11
485.645466
 21
128.291901
 31
0.0
  0
LINE
  8
L-ZISSEN
 10
487.0
 20
128.291901
 30
0.0
 11
487.0
 21
122.0
 31
0.0
  0
LINE
  8
L-ZISSEN
 10
510.0
 20
64.5
 30
0.0
 11
510.0
 21
58.2
 31
0.0
  0
LINE
  8
L-ZISSEN
 10
501.5
 20
58.2
 30
0.0
 11
501.5
 21
64.5
 31
0.0
  0
LINE
  8
L-ZISSEN
 10
510.0
 20
58.2
 30
0.0
 11
501.5
 21
58.2
 31
0.0
  0
LINE
  8
L-ZISSEN
 10
470.0
 20
58.2
 30
0.0
 11
478.5
 21
58.2
 31
0.0
  0
LINE
  8
L-ZISSEN
 10
478.5
 20
58.2
 30
0.0
 11
478.5
 21
64.5
 31
0.0
  0
LINE
  8
L-ZISSEN
 10
470.0
 20
64.5
 30
0.0
 11
470.0
 21
58.2
 31
0.0
  0
LINE
  8
L-ZISSEN
 10
469.5
 20
64.5
 30
0.0
 11
510.5
 21
64.5
 31
0.0
  0
LINE
  8
L-ZISSEN
 10
513.0
 20
140.5
 30
0.0
 11
535.0
 21
140.5
 31
0.0
  0
LINE
  8
L-ZISSEN
 10
501.5
 20
59.0
 30
0.0
 11
478.5
 21
59.0
 31
0.0
  0
LINE
  8
L-TYUSIN
 10
482.0
 20
99.0
 30
0.0
 11
442.0
 21
99.0
 31
0.0
  0
LINE
  8
L-TYUSIN
 10
540.0
 20
120.0
 30
0.0
 11
526.8
 21
120.0
 31
0.0
  0
LINE
  8
L-ZISSEN
 10
531.8
 20
99.5
 30
0.0
 11
531.8
 21
140.5
 31
0.0
  0
LINE
  8
L-ZISSEN
 10
535.0
 20
140.5
 30
0.0
 11
535.0
 21
99.5
 31
0.0
  0
LINE
  8
L-ZISSEN
 10
410.0
 20
140.5
 30
0.0
 11
410.0
 21
144.0
 31
0.0
  0
LINE
  8
L-ZISSEN
 10
458.0
 20
140.5
 30
0.0
 11
458.0
 21
144.0
 31
0.0
  0
LINE
  8
L-ZISSEN
 10
406.0
 20
140.5
 30
0.0
 11
406.0
 21
99.5
 31
0.0
  0
LINE
  8
L-ZISSEN
 10
406.0
 20
99.5
 30
0.0
 11
406.0
 21
140.5
 31
0.0
  0
LINE
  8
L-ZISSEN
 10
445.5
 20
59.0
 30
0.0
 11
422.5
 21
59.0
 31
0.0
  0
LINE
  8
L-ZISSEN
 10
457.0
 20
140.5
 30
0.0
 11
467.0
 21
140.5
 31
0.0
  0
LINE
  8
L-ZISSEN
 10
413.5
 20
64.5
 30
0.0
 11
454.5
 21
64.5
 31
0.0
  0
LINE
  8
L-ZISSEN
 10
414.0
 20
64.5
 30
0.0
 11
414.0
 21
58.2
 31
0.0
  0
LINE
  8
L-ZISSEN
 10
422.5
 20
58.2
 30
0.0
 11
422.5
 21
64.5
 31
0.0
  0
LINE
  8
L-ZISSEN
 10
414.0
 20
58.2
 30
0.0
 11
422.5
 21
58.2
 31
0.0
  0
LINE
  8
L-ZISSEN
 10
454.0
 20
58.2
 30
0.0
 11
445.5
 21
58.2
 31
0.0
  0
LINE
  8
L-ZISSEN
 10
445.5
 20
58.2
 30
0.0
 11
445.5
 21
64.5
 31
0.0
  0
LINE
  8
L-ZISSEN
 10
454.0
 20
64.5
 30
0.0
 11
454.0
 21
58.2
 31
0.0
  0
LINE
  8
L-ZISSEN
 10
407.5
 20
80.056835
 30
0.0
 11
413.5
 21
80.056835
 31
0.0
  0
LINE
  8
L-ZISSEN
 10
399.0
 20
99.5
 30
0.0
 11
413.5
 21
99.5
 31
0.0
  0
LINE
  8
L-ZISSEN
 10
407.5
 20
80.056835
 30
0.0
 11
407.5
 21
99.5
 31
0.0
  0
LINE
  8
L-ZISSEN
 10
399.0
 20
140.5
 30
0.0
 11
411.0
 21
140.5
 31
0.0
  0
LINE
  8
L-ZISSEN
 10
431.0
 20
128.291901
 30
0.0
 11
431.0
 21
122.0
 31
0.0
  0
LINE
  8
L-ZISSEN
 10
428.0
 20
140.0
 30
0.0
 11
429.645466
 21
128.291901
 31
0.0
  0
LINE
  8
L-ZISSEN
 10
428.0
 20
140.0
 30
0.0
 11
428.0
 21
144.0
 31
0.0
  0
LINE
  8
L-ZISSEN
 10
411.0
 20
140.5
 30
0.0
 11
411.0
 21
140.0
 31
0.0
  0
LINE
  8
L-ZISSEN
 10
440.0
 20
140.0
 30
0.0
 11
440.0
 21
144.0
 31
0.0
  0
LINE
  8
L-ZISSEN
 10
411.0
 20
140.0
 30
0.0
 11
457.0
 21
140.0
 31
0.0
  0
LINE
  8
L-ZISSEN
 10
457.0
 20
140.5
 30
0.0
 11
457.0
 21
140.0
 31
0.0
  0
LINE
  8
L-ZISSEN
 10
462.0
 20
140.5
 30
0.0
 11
462.0
 21
122.0
 31
0.0
  0
LINE
  8
L-ZISSEN
 10
454.5
 20
69.0
 30
0.0
 11
413.5
 21
69.0
 31
0.0
  0
LINE
  8
L-ZISSEN
 10
413.5
 20
122.0
 30
0.0
 11
413.5
 21
64.5
 31
0.0
  0
LINE
  8
L-ZISSEN
 10
454.5
 20
64.5
 30
0.0
 11
454.5
 21
76.0
 31
0.0
  0
CIRCLE
  8
L-ZISSEN
 10
449.75
 20
116.75
 30
0.0
 40
4.25
  0
CIRCLE
  8
L-ZISSEN
 10
418.25
 20
116.75
 30
0.0
 40
4.25
  0
CIRCLE
  8
L-ZISSEN
 10
418.25
 20
81.25
 30
0.0
 40
4.25
  0
CIRCLE
  8
L-ZISSEN
 10
449.75
 20
81.25
 30
0.0
 40
4.25
  0
LINE
  8
L-TYUSIN
 10
434.0
 20
161.0
 30
0.0
 11
434.0
 21
147.0
 31
0.0
  0
LINE
  8
L-ZISSEN
 10
438.354534
 20
128.291901
 30
0.0
 11
429.645466
 21
128.291901
 31
0.0
  0
LINE
  8
L-ZISSEN
 10
440.0
 20
140.0
 30
0.0
 11
438.354534
 21
128.291901
 31
0.0
  0
LINE
  8
L-ZISSEN
 10
437.0
 20
128.291901
 30
0.0
 11
437.0
 21
122.0
 31
0.0
  0
LINE
  8
L-ZISSEN
 10
395.2
 20
136.0
 30
0.0
 11
388.0
 21
136.0
 31
0.0
  0
LINE
  8
L-ZISSEN
 10
388.0
 20
136.0
 30
0.0
 11
388.0
 21
104.0
 31
0.0
  0
LINE
  8
L-ZISSEN
 10
399.0
 20
140.0
 30
0.0
 11
395.2
 21
140.0
 31
0.0
  0
LINE
  8
L-ZISSEN
 10
395.2
 20
131.5
 30
0.0
 11
399.0
 21
131.5
 31
0.0
  0
LINE
  8
L-ZISSEN
 10
395.2
 20
140.0
 30
0.0
 11
395.2
 21
131.5
 31
0.0
  0
LINE
  8
L-ZISSEN
 10
399.0
 20
99.5
 30
0.0
 11
399.0
 21
140.5
 31
0.0
  0
LINE
  8
L-ZISSEN
 10
395.2
 20
100.0
 30
0.0
 11
395.2
 21
108.5
 31
0.0
  0
LINE
  8
L-ZISSEN
 10
395.2
 20
108.5
 30
0.0
 11
399.0
 21
108.5
 31
0.0
  0
LINE
  8
L-ZISSEN
 10
399.0
 20
100.0
 30
0.0
 11
395.2
 21
100.0
 31
0.0
  0
LINE
  8
L-ZISSEN
 10
395.2
 20
104.0
 30
0.0
 11
388.0
 21
104.0
 31
0.0
  0
LINE
  8
L-TYUSIN
 10
412.211286
 20
120.0
 30
0.0
 11
383.0
 21
120.0
 31
0.0
  0
CIRCLE
  8
L-ZISSEN
 10
462.0
 20
99.0
 30
0.0
 40
15.0
  0
LINE
  8
L-ZISSEN
 10
413.5
 20
87.5
 30
0.0
 11
452.36932
 21
87.5
 31
0.0
  0
LINE
  8
L-ZISSEN
 10
413.5
 20
110.5
 30
0.0
 11
452.36932
 21
110.5
 31
0.0
  0
LINE
  8
L-ZISSEN
 10
471.63068
 20
110.5
 30
0.0
 11
510.5
 21
110.5
 31
0.0
  0
LINE
  8
L-ZISSEN
 10
471.63068
 20
87.5
 30
0.0
 11
510.5
 21
87.5
 31
0.0
  0
LINE
  8
L-ZISSEN
 10
442.944864
 20
87.5
 30
0.0
 11
442.944864
 21
110.5
 31
0.0
  0
LINE
  8
L-ZISSEN
 10
481.055136
 20
87.5
 30
0.0
 11
481.055136
 21
110.5
 31
0.0
  0
LINE
  8
L-ZISSEN
 10
66.0
 20
164.0
 30
0.0
 11
178.0
 21
164.0
 31
0.0
  0
LINE
  8
L-ZISSEN
 10
178.0
 20
164.0
 30
0.0
 11
178.0
 21
144.0
 31
0.0
  0
LINE
  8
L-ZISSEN
 10
66.0
 20
164.0
 30
0.0
 11
66.0
 21
144.0
 31
0.0
  0
LINE
  8
L-ZISSEN
 10
591.5
 20
144.0
 30
0.0
 11
648.5
 21
144.0
 31
0.0
  0
LINE
  8
L-ZISSEN
 10
406.0
 20
164.0
 30
0.0
 11
518.0
 21
164.0
 31
0.0
  0
LINE
  8
L-ZISSEN
 10
406.0
 20
164.0
 30
0.0
 11
406.0
 21
144.0
 31
0.0
  0
LINE
  8
L-ZISSEN
 10
518.0
 20
164.0
 30
0.0
 11
518.0
 21
144.0
 31
0.0
  0
LINE
  8
L-TYUSIN
 10
483.0
 20
154.0
 30
0.0
 11
497.0
 21
154.0
 31
0.0
  0
CIRCLE
  8
L-ZISSEN
 10
490.0
 20
154.0
 30
0.0
 40
4.283
  0
TEXT
  8
L-ZISSEN
 10
148.0
 20
344.0
 30
0.0
 40
4.5
  1
4
  0
TEXT
  8
L-ZISSEN
 10
148.0
 20
336.0
 30
0.0
 40
4.5
  1
5
  0
CIRCLE
  8
L-ZISSEN
 10
434.0
 20
154.0
 30
0.0
 40
4.283
  0
LINE
  8
L-TYUSIN
 10
441.0
 20
154.0
 30
0.0
 11
427.0
 21
154.0
 31
0.0
  0
LINE
  8
L-ZISSEN
 10
648.5
 20
164.0
 30
0.0
 11
591.5
 21
164.0
 31
0.0
  0
LINE
  8
L-TYUSIN
 10
596.5
 20
154.0
 30
0.0
 11
586.5
 21
154.0
 31
0.0
  0
LINE
  8
L-TYUSIN
  6
CENTER
 62
     1
 10
232.0
 20
242.0
 30
0.0
 11
256.5
 21
242.0
 31
0.0
  0
LINE
  8
L-ZISSEN
 10
251.5
 20
214.0
 30
0.0
 11
308.5
 21
214.0
 31
0.0
  0
LINE
  8
L-ZISSEN
 10
258.0
 20
207.0
 30
0.0
 11
258.0
 21
203.2
 31
0.0
  0
LINE
  8
L-ZISSEN
 10
258.0
 20
203.2
 30
0.0
 11
266.5
 21
203.2
 31
0.0
  0
LINE
  8
L-ZISSEN
 10
266.5
 20
203.2
 30
0.0
 11
266.5
 21
207.0
 31
0.0
  0
LINE
  8
L-ZISSEN
 10
264.0
 20
203.2
 30
0.0
 11
264.0
 21
196.0
 31
0.0
  0
LINE
  8
L-ZISSEN
 10
264.0
 20
196.0
 30
0.0
 11
296.0
 21
196.0
 31
0.0
  0
LINE
  8
L-ZISSEN
 10
296.0
 20
203.2
 30
0.0
 11
296.0
 21
196.0
 31
0.0
  0
LINE
  8
L-ZISSEN
 10
303.0
 20
207.0
 30
0.0
 11
257.0
 21
207.0
 31
0.0
  0
LINE
  8
L-ZISSEN
 10
293.5
 20
203.2
 30
0.0
 11
293.5
 21
207.0
 31
0.0
  0
LINE
  8
L-ZISSEN
 10
302.0
 20
203.2
 30
0.0
 11
293.5
 21
203.2
 31
0.0
  0
LINE
  8
L-ZISSEN
 10
302.0
 20
207.0
 30
0.0
 11
302.0
 21
203.2
 31
0.0
  0
LINE
  8
L-ZISSEN
 10
303.0
 20
214.0
 30
0.0
 11
303.0
 21
207.0
 31
0.0
  0
LINE
  8
L-ZISSEN
 10
257.0
 20
214.0
 30
0.0
 11
257.0
 21
207.0
 31
0.0
  0
LINE
  8
L-ZISSEN
 10
237.0
 20
258.0
 30
0.0
 11
237.0
 21
226.0
 31
0.0
  0
LINE
  8
L-ZISSEN
 10
244.2
 20
226.0
 30
0.0
 11
237.0
 21
226.0
 31
0.0
  0
LINE
  8
L-TYUSIN
 10
322.5
 20
348.0
 30
0.0
 11
322.5
 21
334.8
 31
0.0
  0
LINE
  8
L-TYUSIN
 10
237.5
 20
348.0
 30
0.0
 11
237.5
 21
334.8
 31
0.0
  0
LINE
  8
L-ZISSEN
 10
293.5
 20
335.5
 30
0.0
 11
293.5
 21
329.2
 31
0.0
  0
LINE
  8
L-ZISSEN
 10
302.0
 20
335.5
 30
0.0
 11
293.5
 21
335.5
 31
0.0
  0
LINE
  8
L-ZISSEN
 10
302.0
 20
329.2
 30
0.0
 11
302.0
 21
335.5
 31
0.0
  0
LINE
  8
L-ZISSEN
 10
258.0
 20
329.2
 30
0.0
 11
258.0
 21
335.5
 31
0.0
  0
LINE
  8
L-ZISSEN
 10
258.0
 20
335.5
 30
0.0
 11
266.5
 21
335.5
 31
0.0
  0
LINE
  8
L-ZISSEN
 10
266.5
 20
335.5
 30
0.0
 11
266.5
 21
329.2
 31
0.0
  0
LINE
  8
L-ZISSEN
 10
251.8
 20
339.8
 30
0.0
 11
224.0
 21
339.8
 31
0.0
  0
LINE
  8
L-ZISSEN
 10
255.0
 20
343.0
 30
0.0
 11
255.0
 21
329.2
 31
0.0
  0
LINE
  8
L-ZISSEN
 10
251.8
 20
339.8
 30
0.0
 11
251.8
 21
326.0
 31
0.0
  0
LINE
  8
L-ZISSEN
 10
255.0
 20
343.0
 30
0.0
 11
224.0
 21
343.0
 31
0.0
  0
LINE
  8
L-ZISSEN
 10
308.2
 20
339.8
 30
0.0
 11
308.2
 21
326.0
 31
0.0
  0
LINE
  8
L-ZISSEN
 10
305.0
 20
329.2
 30
0.0
 11
255.0
 21
329.2
 31
0.0
  0
LINE
  8
L-ZISSEN
 10
305.0
 20
343.0
 30
0.0
 11
305.0
 21
329.2
 31
0.0
  0
LINE
  8
L-ZISSEN
 10
308.5
 20
326.0
 30
0.0
 11
251.5
 21
326.0
 31
0.0
  0
LINE
  8
L-ZISSEN
 10
336.0
 20
339.8
 30
0.0
 11
308.2
 21
339.8
 31
0.0
  0
LINE
  8
L-ZISSEN
 10
336.0
 20
339.8
 30
0.0
 11
336.0
 21
343.0
 31
0.0
  0
LINE
  8
L-ZISSEN
 10
224.0
 20
339.8
 30
0.0
 11
224.0
 21
343.0
 31
0.0
  0
LINE
  8
L-ZISSEN
 10
336.0
 20
343.0
 30
0.0
 11
305.0
 21
343.0
 31
0.0
  0
LINE
  8
L-TYUSIN
  6
CENTER
 62
     1
 10
232.0
 20
298.0
 30
0.0
 11
256.5
 21
298.0
 31
0.0
  0
LINE
  8
L-TYUSIN
  6
CENTER
 62
     1
 10
246.5
 20
270.0
 30
0.0
 11
342.0
 21
270.0
 31
0.0
  0
LINE
  8
L-ZISSEN
 10
311.5
 20
322.0
 30
0.0
 11
308.5
 21
322.0
 31
0.0
  0
LINE
  8
L-ZISSEN
 10
311.5
 20
218.0
 30
0.0
 11
308.5
 21
218.0
 31
0.0
  0
LINE
  8
L-ZISSEN
 10
248.0
 20
222.0
 30
0.0
 11
244.2
 21
222.0
 31
0.0
  0
LINE
  8
L-ZISSEN
 10
244.2
 20
230.5
 30
0.0
 11
248.0
 21
230.5
 31
0.0
  0
LINE
  8
L-ZISSEN
 10
244.2
 20
222.0
 30
0.0
 11
244.2
 21
230.5
 31
0.0
  0
LINE
  8
L-ZISSEN
 10
248.0
 20
221.5
 30
0.0
 11
248.0
 21
262.5
 31
0.0
  0
LINE
  8
L-ZISSEN
 10
248.0
 20
221.5
 30
0.0
 11
251.5
 21
221.5
 31
0.0
  0
LINE
  8
L-ZISSEN
 10
244.2
 20
258.0
 30
0.0
 11
237.0
 21
258.0
 31
0.0
  0
LINE
  8
L-ZISSEN
 10
244.2
 20
282.0
 30
0.0
 11
237.0
 21
282.0
 31
0.0
  0
LINE
  8
L-ZISSEN
 10
248.0
 20
318.5
 30
0.0
 11
248.0
 21
277.5
 31
0.0
  0
LINE
  8
L-ZISSEN
 10
237.0
 20
282.0
 30
0.0
 11
237.0
 21
314.0
 31
0.0
  0
LINE
  8
L-ZISSEN
 10
248.0
 20
318.5
 30
0.0
 11
251.5
 21
318.5
 31
0.0
  0
LINE
  8
L-ZISSEN
 10
244.2
 20
318.0
 30
0.0
 11
244.2
 21
309.5
 31
0.0
  0
LINE
  8
L-ZISSEN
 10
244.2
 20
309.5
 30
0.0
 11
248.0
 21
309.5
 31
0.0
  0
LINE
  8
L-ZISSEN
 10
248.0
 20
318.0
 30
0.0
 11
244.2
 21
318.0
 31
0.0
  0
LINE
  8
L-ZISSEN
 10
244.2
 20
314.0
 30
0.0
 11
237.0
 21
314.0
 31
0.0
  0
LINE
  8
L-TYUSIN
 10
280.0
 20
334.2
 30
0.0
 11
280.0
 21
191.0
 31
0.0
  0
LINE
  8
L-ZISSEN
 10
311.5
 20
218.0
 30
0.0
 11
311.5
 21
322.0
 31
0.0
  0
LINE
  8
L-ZISSEN
 10
316.3
 20
222.0
 30
0.0
 11
311.5
 21
222.0
 31
0.0
  0
LINE
  8
L-ZISSEN
 10
316.3
 20
230.5
 30
0.0
 11
316.3
 21
222.0
 31
0.0
  0
LINE
  8
L-ZISSEN
 10
311.5
 20
230.5
 30
0.0
 11
316.3
 21
230.5
 31
0.0
  0
LINE
  8
L-ZISSEN
 10
311.5
 20
309.5
 30
0.0
 11
316.3
 21
309.5
 31
0.0
  0
LINE
  8
L-ZISSEN
 10
316.3
 20
309.5
 30
0.0
 11
316.3
 21
318.0
 31
0.0
  0
LINE
  8
L-ZISSEN
 10
316.3
 20
318.0
 30
0.0
 11
311.5
 21
318.0
 31
0.0
  0
LINE
  8
L-ZISSEN
 10
244.2
 20
262.0
 30
0.0
 11
244.2
 21
253.5
 31
0.0
  0
LINE
  8
L-ZISSEN
 10
244.2
 20
253.5
 30
0.0
 11
248.0
 21
253.5
 31
0.0
  0
LINE
  8
L-ZISSEN
 10
248.0
 20
262.0
 30
0.0
 11
244.2
 21
262.0
 31
0.0
  0
LINE
  8
L-ZISSEN
 10
248.0
 20
262.5
 30
0.0
 11
251.5
 21
262.5
 31
0.0
  0
LINE
  8
L-ZISSEN
 10
248.0
 20
278.0
 30
0.0
 11
244.2
 21
278.0
 31
0.0
  0
LINE
  8
L-ZISSEN
 10
244.2
 20
286.5
 30
0.0
 11
248.0
 21
286.5
 31
0.0
  0
LINE
  8
L-ZISSEN
 10
244.2
 20
278.0
 30
0.0
 11
244.2
 21
286.5
 31
0.0
  0
LINE
  8
L-ZISSEN
 10
248.0
 20
277.5
 30
0.0
 11
251.5
 21
277.5
 31
0.0
  0
LINE
  8
L-ZISSEN
 10
337.0
 20
285.0
 30
0.0
 11
337.0
 21
255.0
 31
0.0
  0
LINE
  8
L-ZISSEN
 10
327.0
 20
255.0
 30
0.0
 11
337.0
 21
255.0
 31
0.0
  0
LINE
  8
L-ZISSEN
 10
327.0
 20
285.0
 30
0.0
 11
337.0
 21
285.0
 31
0.0
  0
LINE
  8
L-ZISSEN
 10
327.0
 20
260.36932
 30
0.0
 11
327.0
 21
250.944864
 31
0.0
  0
LINE
  8
L-ZISSEN
 10
315.196152
 20
230.5
 30
0.0
 11
327.0
 21
250.944864
 31
0.0
  0
LINE
  8
L-ZISSEN
 10
315.196152
 20
309.5
 30
0.0
 11
327.0
 21
289.055136
 31
0.0
  0
LINE
  8
L-ZISSEN
 10
327.0
 20
279.63068
 30
0.0
 11
327.0
 21
289.055136
 31
0.0
  0
LINE
  8
L-ZISSEN
 10
327.0
 20
260.36932
 30
0.0
 11
316.3
 21
260.36932
 31
0.0
  0
LINE
  8
L-ZISSEN
 10
327.0
 20
279.63068
 30
0.0
 11
316.3
 21
279.63068
 31
0.0
  0
CIRCLE
  8
L-ZISSEN
 10
262.25
 20
226.25
 30
0.0
 40
4.25
  0
CIRCLE
  8
L-ZISSEN
 10
297.75
 20
226.25
 30
0.0
 40
4.25
  0
CIRCLE
  8
L-ZISSEN
 10
262.25
 20
257.75
 30
0.0
 40
4.25
  0
CIRCLE
  8
L-ZISSEN
 10
297.75
 20
257.75
 30
0.0
 40
4.25
  0
CIRCLE
  8
L-ZISSEN
 10
297.75
 20
282.25
 30
0.0
 40
4.25
  0
CIRCLE
  8
L-ZISSEN
 10
262.25
 20
282.25
 30
0.0
 40
4.25
  0
CIRCLE
  8
L-ZISSEN
 10
297.75
 20
313.75
 30
0.0
 40
4.25
  0
CIRCLE
  8
L-ZISSEN
 10
262.25
 20
313.75
 30
0.0
 40
4.25
  0
LINE
  8
L-ZISSEN
 10
308.5
 20
214.0
 30
0.0
 11
308.5
 21
326.0
 31
0.0
  0
LINE
  8
L-ZISSEN
 10
251.5
 20
214.0
 30
0.0
 11
251.5
 21
326.0
 31
0.0
  0
LINE
  8
L-ZISSEN
 10
316.3
 20
253.5
 30
0.0
 11
311.5
 21
253.5
 31
0.0
  0
LINE
  8
L-ZISSEN
 10
311.5
 20
262.0
 30
0.0
 11
316.3
 21
262.0
 31
0.0
  0
LINE
  8
L-ZISSEN
 10
316.3
 20
262.0
 30
0.0
 11
316.3
 21
253.5
 31
0.0
  0
LINE
  8
L-ZISSEN
 10
311.5
 20
278.0
 30
0.0
 11
316.3
 21
278.0
 31
0.0
  0
LINE
  8
L-ZISSEN
 10
316.3
 20
278.0
 30
0.0
 11
316.3
 21
286.5
 31
0.0
  0
LINE
  8
L-ZISSEN
 10
316.3
 20
286.5
 30
0.0
 11
311.5
 21
286.5
 31
0.0
  0
LINE
  8
L-TYUSIN
 10
125.0
 20
99.0
 30
0.0
 11
175.0
 21
99.0
 31
0.0
  0
LINE
  8
L-TYUSIN
 10
303.5
 20
242.0
 30
0.0
 11
313.5
 21
242.0
 31
0.0
  0
LINE
  8
L-TYUSIN
 10
303.5
 20
298.0
 30
0.0
 11
313.5
 21
298.0
 31
0.0
  0
SOLID
  8
L-ZISSEN
 10
338.079591
 20
97.283727
 30
0.0
 11
338.577864
 21
97.726636
 31
0.0
 12
337.0
 22
99.0
 32
0.0
 13
337.0
 23
99.0
 33
0.0
  0
LINE
  8
L-ZISSEN
 10
338.328728
 20
97.505181
 30
0.0
 11
345.0
 21
90.0
 31
0.0
  0
LINE
  8
L-ZISSEN
 10
345.0
 20
90.0
 30
0.0
 11
347.0
 21
90.0
 31
0.0
  0
TEXT
  8
L-ZISSEN
 10
349.0
 20
87.75
 30
0.0
 40
4.5
  1
IN
  0
TEXT
  8
L-ZISSEN
 10
350.0
 20
80.0
 30
0.0
 40
4.5
  1
Rc 1/4
  0
TEXT
  8
L-ZISSEN
 10
350.0
 20
70.0
 30
0.0
 40
4.5
  1
Rc 3/8
  0
TEXT
  8
L-ZISSEN
 10
350.0
 20
60.0
 30
0.0
 40
4.5
  1
Rc 1/2
  0
TEXT
  8
L-ZISSEN
 10
131.0
 20
347.0
 30
0.0
 40
4.5
  1
2
  0
TEXT
  8
L-ZISSEN
 10
131.0
 20
333.0
 30
0.0
 40
4.5
  1
4
  0
ENDSEC
  0
EOF
