  0
SECTION
  2
HEADER
  9
$ACADVER
  1
AC1006
  9
$INSBASE
 10
111.699912
 20
136.395385
 30
0.0
  9
$EXTMIN
 10
0.0
 20
0.0
  9
$EXTMAX
 10
841.0
 20
594.0
  9
$LIMMIN
 10
0.0
 20
0.0
  9
$LIMMAX
 10
841.0
 20
594.0
  9
$ORTHOMODE
 70
     0
  9
$REGENMODE
 70
     1
  9
$FILLMODE
 70
     1
  9
$QTEXTMODE
 70
     0
  9
$MIRRTEXT
 70
     1
  9
$DRAGMODE
 70
     2
  9
$LTSCALE
 40
1.0
  9
$OSMODE
 70
     0
  9
$ATTMODE
 70
     1
  9
$TEXTSIZE
 40
4.5
  9
$TRACEWID
 40
0.05
  9
$TEXTSTYLE
  7
STANDARD
  9
$CLAYER
  8
L-ZISSEN
  9
$CELTYPE
  6
BYLAYER
  9
$CECOLOR
 62
   256
  9
$DIMSCALE
 40
1.0
  9
$DIMASZ
 40
2.0
  9
$DIMEXO
 40
1.0
  9
$DIMDLI
 40
0.38
  9
$DIMRND
 40
0.0
  9
$DIMDLE
 40
2.0
  9
$DIMEXE
 40
1.0
  9
$DIMTP
 40
0.0
  9
$DIMTM
 40
0.0
  9
$DIMTXT
 40
4.5
  9
$DIMCEN
 40
0.09
  9
$DIMTSZ
 40
0.0
  9
$DIMTOL
 70
     0
  9
$DIMLIM
 70
     0
  9
$DIMTIH
 70
     0
  9
$DIMTOH
 70
     0
  9
$DIMSE1
 70
     0
  9
$DIMSE2
 70
     0
  9
$DIMTAD
 70
     1
  9
$DIMZIN
 70
     0
  9
$DIMBLK
  1

  9
$DIMASO
 70
     0
  9
$DIMSHO
 70
     0
  9
$DIMPOST
  1

  9
$DIMAPOST
  1

  9
$DIMALT
 70
     0
  9
$DIMALTD
 70
     2
  9
$DIMALTF
 40
25.4
  9
$DIMLFAC
 40
1.0
  9
$DIMTOFL
 70
     1
  9
$DIMTVP
 40
0.0
  9
$DIMTIX
 70
     1
  9
$DIMSOXD
 70
     0
  9
$DIMSAH
 70
     0
  9
$DIMBLK1
  1

  9
$DIMBLK2
  1

  9
$LUNITS
 70
     2
  9
$LUPREC
 70
     4
  9
$AXISMODE
 70
     0
  9
$AXISUNIT
 10
0.0
 20
0.0
  9
$SKETCHINC
 40
0.1
  9
$FILLETRAD
 40
1.5
  9
$AUNITS
 70
     0
  9
$AUPREC
 70
     0
  9
$MENU
  1
acad
  9
$ELEVATION
 40
0.0
  9
$THICKNESS
 40
0.0
  9
$LIMCHECK
 70
     0
  9
$BLIPMODE
 70
     1
  9
$CHAMFERA
 40
0.0
  9
$CHAMFERB
 40
0.0
  9
$SKPOLY
 70
     0
  9
$TDCREATE
 40
2449251.4926606482
  9
$TDUPDATE
 40
2449251.4926606482
  9
$TDINDWG
 40
0.0000000000
  9
$TDUSRTIMER
 40
0.0000000000
  9
$USRTIMER
 70
     1
  9
$ANGBASE
 50
0.0
  9
$ANGDIR
 70
     0
  9
$PDMODE
 70
     0
  9
$PDSIZE
 40
0.0
  9
$PLINEWID
 40
0.0
  9
$COORDS
 70
     2
  9
$SPLFRAME
 70
     0
  9
$SPLINETYPE
 70
     6
  9
$SPLINESEGS
 70
     8
  9
$ATTDIA
 70
     0
  9
$ATTREQ
 70
     1
  9
$HANDLING
 70
     0
  9
$HANDSEED
  5
0
  9
$SURFTAB1
 70
     6
  9
$SURFTAB2
 70
     6
  9
$SURFTYPE
 70
     6
  9
$SURFU
 70
     6
  9
$SURFV
 70
     6
  9
$FLATLAND
 70
     0
  9
$UCSNAME
  2

  9
$UCSORG
 10
0.0
 20
0.0
 30
0.0
  9
$UCSXDIR
 10
1.0
 20
0.0
 30
0.0
  9
$UCSYDIR
 10
0.0
 20
1.0
 30
0.0
  9
$USERI1
 70
     0
  9
$USERI2
 70
     0
  9
$USERI3
 70
     0
  9
$USERI4
 70
     0
  9
$USERI5
 70
     0
  9
$USERR1
 40
0.0
  9
$USERR2
 40
0.0
  9
$USERR3
 40
0.0
  9
$USERR4
 40
0.0
  9
$USERR5
 40
0.0
  9
$WORLDVIEW
 70
     1
  0
ENDSEC
  0
SECTION
  2
TABLES
  0
TABLE
  2
VPORT
 70
     2
  0
VPORT
  2
*ACTIVE
 70
     0
 10
0.0
 20
0.0
 11
1.0
 21
1.0
 12
476.455978
 22
307.649038
 13
0.0
 23
0.0
 14
5.0
 24
5.0
 15
0.0
 25
0.0
 16
0.0
 26
0.0
 36
1.0
 17
0.0
 27
0.0
 37
0.0
 40
615.298075
 41
1.5487
 42
50.0
 43
0.0
 44
0.0
 50
0.0
 51
0.0
 71
     0
 72
   100
 73
     1
 74
     0
 75
     0
 76
     0
 77
     0
 78
     0
  0
ENDTAB
  0
TABLE
  2
LTYPE
 70
     2
  0
LTYPE
  2
CONTINUOUS
 70
    64
  3
Solid line
 72
    65
 73
     0
 40
0.0
  0
LTYPE
  2
CENTER
 70
    64
  3
____ _ ____ _ ____ _ ____ _ 
 72
    65
 73
     4
 40
60.0
 49
45.0
 49
-5.0
 49
5.0
 49
-5.0
  0
ENDTAB
  0
TABLE
  2
LAYER
 70
     3
  0
LAYER
  2
0
 70
     0
 62
     7
  6
CONTINUOUS
  0
LAYER
  2
L-ZISSEN
 70
    64
 62
     7
  6
CONTINUOUS
  0
LAYER
  2
L-TYUSIN
 70
    64
 62
     1
  6
CENTER
  0
ENDTAB
  0
TABLE
  2
STYLE
 70
     1
  0
STYLE
  2
STANDARD
 70
    64
 40
0.0
 41
1.0
 50
0.0
 71
     0
 42
4.5
  3
txt
  4

  0
ENDTAB
  0
TABLE
  2
VIEW
 70
     0
  0
ENDTAB
  0
TABLE
  2
UCS
 70
     0
  0
ENDTAB
  0
TABLE
  2
DWGMGR
 70
     0
  0
ENDTAB
  0
ENDSEC
  0
SECTION
  2
BLOCKS
  0
ENDSEC
  0
SECTION
  2
ENTITIES
  0
LINE
  8
L-ZISSEN
 10
251.8
 20
120.0
 30
0.0
 11
251.8
 21
102.0
 31
0.0
  0
ARC
  8
L-ZISSEN
 10
234.0
 20
100.0
 30
0.0
 40
3.5
 50
90.0
 51
270.0
  0
LINE
  8
L-ZISSEN
 10
234.0
 20
96.5
 30
0.0
 11
240.999998
 21
96.5
 31
0.0
  0
LINE
  8
L-TYUSIN
 10
237.5
 20
106.0
 30
0.0
 11
237.5
 21
94.0
 31
0.0
  0
LINE
  8
L-ZISSEN
 10
240.999998
 20
103.5
 30
0.0
 11
234.0
 21
103.5
 31
0.0
  0
LINE
  8
L-TYUSIN
 10
227.5
 20
100.0
 30
0.0
 11
247.5
 21
100.0
 31
0.0
  0
ARC
  8
L-ZISSEN
 10
241.0
 20
100.0
 30
0.0
 40
3.5
 50
270.0
 51
336.104492
  0
LINE
  8
L-ZISSEN
 10
237.0
 20
79.5
 30
0.0
 11
224.0
 21
79.5
 31
0.0
  0
LINE
  8
L-ZISSEN
 10
224.0
 20
120.5
 30
0.0
 11
251.5
 21
120.5
 31
0.0
  0
LINE
  8
L-ZISSEN
 10
224.0
 20
79.5
 30
0.0
 11
224.0
 21
120.5
 31
0.0
  0
LINE
  8
L-TYUSIN
 10
320.0
 20
165.0
 30
0.0
 11
330.0
 21
165.0
 31
0.0
  0
LINE
  8
L-ZISSEN
 10
303.0
 20
44.0
 30
0.0
 11
302.0
 21
43.0
 31
0.0
  0
LINE
  8
L-ZISSEN
 10
257.0
 20
44.0
 30
0.0
 11
258.0
 21
43.0
 31
0.0
  0
LINE
  8
L-ZISSEN
 10
293.5
 20
39.0
 30
0.0
 11
266.5
 21
39.0
 31
0.0
  0
LINE
  8
L-TYUSIN
 10
171.788714
 20
100.0
 30
0.0
 11
201.0
 21
100.0
 31
0.0
  0
LINE
  8
L-ZISSEN
 10
188.8
 20
84.0
 30
0.0
 11
196.0
 21
84.0
 31
0.0
  0
LINE
  8
L-ZISSEN
 10
185.0
 20
80.0
 30
0.0
 11
188.8
 21
80.0
 31
0.0
  0
LINE
  8
L-ZISSEN
 10
188.8
 20
88.5
 30
0.0
 11
185.0
 21
88.5
 31
0.0
  0
LINE
  8
L-ZISSEN
 10
188.8
 20
80.0
 30
0.0
 11
188.8
 21
88.5
 31
0.0
  0
LINE
  8
L-ZISSEN
 10
185.0
 20
79.5
 30
0.0
 11
185.0
 21
120.5
 31
0.0
  0
LINE
  8
L-ZISSEN
 10
188.8
 20
120.0
 30
0.0
 11
188.8
 21
111.5
 31
0.0
  0
LINE
  8
L-ZISSEN
 10
188.8
 20
111.5
 30
0.0
 11
185.0
 21
111.5
 31
0.0
  0
LINE
  8
L-ZISSEN
 10
185.0
 20
120.0
 30
0.0
 11
188.8
 21
120.0
 31
0.0
  0
LINE
  8
L-ZISSEN
 10
196.0
 20
116.0
 30
0.0
 11
196.0
 21
84.0
 31
0.0
  0
LINE
  8
L-ZISSEN
 10
188.8
 20
116.0
 30
0.0
 11
196.0
 21
116.0
 31
0.0
  0
LINE
  8
L-ZISSEN
 10
257.0
 20
44.5
 30
0.0
 11
303.0
 21
44.5
 31
0.0
  0
LINE
  8
L-ZISSEN
 10
258.0
 20
44.5
 30
0.0
 11
258.0
 21
38.2
 31
0.0
  0
LINE
  8
L-ZISSEN
 10
266.5
 20
38.2
 30
0.0
 11
266.5
 21
44.5
 31
0.0
  0
LINE
  8
L-ZISSEN
 10
258.0
 20
38.2
 30
0.0
 11
266.5
 21
38.2
 31
0.0
  0
LINE
  8
L-ZISSEN
 10
244.2
 20
101.0
 30
0.0
 11
244.2
 21
92.5
 31
0.0
  0
LINE
  8
L-ZISSEN
 10
244.2
 20
63.0
 30
0.0
 11
237.0
 21
63.0
 31
0.0
  0
LINE
  8
L-ZISSEN
 10
257.0
 20
102.0
 30
0.0
 11
248.0
 21
102.0
 31
0.0
  0
LINE
  8
L-ZISSEN
 10
244.2
 20
95.0
 30
0.0
 11
237.0
 21
95.0
 31
0.0
  0
LINE
  8
L-ZISSEN
 10
248.0
 20
101.0
 30
0.0
 11
244.2
 21
101.0
 31
0.0
  0
LINE
  8
L-ZISSEN
 10
244.2
 20
92.5
 30
0.0
 11
248.0
 21
92.5
 31
0.0
  0
LINE
  8
L-ZISSEN
 10
248.0
 20
102.0
 30
0.0
 11
248.0
 21
56.0
 31
0.0
  0
LINE
  8
L-ZISSEN
 10
237.0
 20
63.0
 30
0.0
 11
237.0
 21
95.0
 31
0.0
  0
CIRCLE
  8
L-ZISSEN
 10
262.25
 20
115.75
 30
0.0
 40
4.25
  0
CIRCLE
  8
L-ZISSEN
 10
280.0
 20
100.0
 30
0.0
 40
16.0
  0
LINE
  8
L-ZISSEN
 10
256.0
 20
102.0
 30
0.0
 11
256.0
 21
108.291901
 31
0.0
  0
LINE
  8
L-ZISSEN
 10
252.336967
 20
120.0
 30
0.0
 11
253.982433
 21
108.291901
 31
0.0
  0
ARC
  8
L-ZISSEN
 10
276.367497
 20
76.5
 30
0.0
 40
3.0
 50
90.0
 51
218.682187
  0
LINE
  8
L-ZISSEN
 10
258.0
 20
69.0
 30
0.0
 11
258.0
 21
79.5
 31
0.0
  0
ARC
  8
L-ZISSEN
 10
267.0
 20
69.0
 30
0.0
 40
9.0
 50
180.0
 51
38.682191
  0
LINE
  8
L-ZISSEN
 10
255.0
 20
56.095445
 30
0.0
 11
255.0
 21
102.0
 31
0.0
  0
LINE
  8
L-ZISSEN
 10
303.0
 20
44.0
 30
0.0
 11
303.0
 21
56.0
 31
0.0
  0
LINE
  8
L-ZISSEN
 10
257.0
 20
49.0
 30
0.0
 11
303.0
 21
49.0
 31
0.0
  0
LINE
  8
L-ZISSEN
 10
257.0
 20
56.0
 30
0.0
 11
257.0
 21
44.0
 31
0.0
  0
LINE
  8
L-ZISSEN
 10
257.0
 20
120.5
 30
0.0
 11
303.0
 21
120.5
 31
0.0
  0
LINE
  8
L-ZISSEN
 10
257.0
 20
79.5
 30
0.0
 11
257.0
 21
124.0
 31
0.0
  0
LINE
  8
L-ZISSEN
 10
303.0
 20
79.5
 30
0.0
 11
257.0
 21
79.5
 31
0.0
  0
LINE
  8
L-TYUSIN
 10
305.0
 20
100.0
 30
0.0
 11
255.0
 21
100.0
 31
0.0
  0
LINE
  8
L-ZISSEN
 10
251.5
 20
120.0
 30
0.0
 11
257.0
 21
120.0
 31
0.0
  0
LINE
  8
L-ZISSEN
 10
251.5
 20
124.0
 30
0.0
 11
251.5
 21
120.0
 31
0.0
  0
LINE
  8
L-ZISSEN
 10
240.0
 20
124.0
 30
0.0
 11
310.0
 21
124.0
 31
0.0
  0
LINE
  8
L-TYUSIN
 10
280.0
 20
177.0
 30
0.0
 11
280.0
 21
34.0
 31
0.0
  0
LINE
  8
L-TYUSIN
 10
232.0
 20
79.0
 30
0.0
 11
342.0
 21
79.0
 31
0.0
  0
TEXT
  8
L-ZISSEN
 10
65.0
 20
385.0
 30
0.0
 40
4.5
  1
MODEL NO. : 463-300-30BM
  0
LINE
  8
L-ZISSEN
 10
257.0
 20
108.291901
 30
0.0
 11
253.982433
 21
108.291901
 31
0.0
  0
ARC
  8
L-ZISSEN
 10
241.0
 20
100.0
 30
0.0
 40
3.5
 50
16.60155
 51
90.0
  0
LINE
  8
L-ZISSEN
 10
293.5
 20
38.2
 30
0.0
 11
302.0
 21
38.2
 31
0.0
  0
LINE
  8
L-ZISSEN
 10
293.5
 20
44.5
 30
0.0
 11
293.5
 21
38.2
 31
0.0
  0
LINE
  8
L-ZISSEN
 10
302.0
 20
38.2
 30
0.0
 11
302.0
 21
44.5
 31
0.0
  0
LINE
  8
L-ZISSEN
 10
248.0
 20
57.0
 30
0.0
 11
244.2
 21
57.0
 31
0.0
  0
LINE
  8
L-ZISSEN
 10
244.2
 20
65.5
 30
0.0
 11
248.0
 21
65.5
 31
0.0
  0
LINE
  8
L-ZISSEN
 10
244.2
 20
57.0
 30
0.0
 11
244.2
 21
65.5
 31
0.0
  0
LINE
  8
L-ZISSEN
 10
257.0
 20
56.0
 30
0.0
 11
248.0
 21
56.0
 31
0.0
  0
LINE
  8
L-ZISSEN
 10
303.0
 20
79.5
 30
0.0
 11
303.0
 21
124.0
 31
0.0
  0
CIRCLE
  8
L-ZISSEN
 10
297.75
 20
115.75
 30
0.0
 40
4.25
  0
CIRCLE
  8
L-ZISSEN
 10
262.25
 20
84.25
 30
0.0
 40
4.25
  0
CIRCLE
  8
L-ZISSEN
 10
297.75
 20
84.25
 30
0.0
 40
4.25
  0
LINE
  8
L-ZISSEN
 10
308.5
 20
124.0
 30
0.0
 11
308.5
 21
120.0
 31
0.0
  0
LINE
  8
L-ZISSEN
 10
308.5
 20
120.0
 30
0.0
 11
303.0
 21
120.0
 31
0.0
  0
LINE
  8
L-ZISSEN
 10
307.663033
 20
120.0
 30
0.0
 11
306.017567
 21
108.291901
 31
0.0
  0
LINE
  8
L-ZISSEN
 10
303.0
 20
108.291901
 30
0.0
 11
306.017567
 21
108.291901
 31
0.0
  0
LINE
  8
L-ZISSEN
 10
304.0
 20
102.0
 30
0.0
 11
304.0
 21
108.291901
 31
0.0
  0
LINE
  8
L-ZISSEN
 10
308.2
 20
120.0
 30
0.0
 11
308.2
 21
102.0
 31
0.0
  0
LINE
  8
L-ZISSEN
 10
336.0
 20
120.5
 30
0.0
 11
308.5
 21
120.5
 31
0.0
  0
LINE
  8
L-ZISSEN
 10
336.0
 20
94.0
 30
0.0
 11
336.0
 21
120.5
 31
0.0
  0
LINE
  8
L-ZISSEN
 10
319.000002
 20
103.5
 30
0.0
 11
326.0
 21
103.5
 31
0.0
  0
ARC
  8
L-ZISSEN
 10
326.0
 20
100.0
 30
0.0
 40
3.5
 50
270.0
 51
90.0
  0
LINE
  8
L-TYUSIN
 10
332.5
 20
100.0
 30
0.0
 11
312.5
 21
100.0
 31
0.0
  0
LINE
  8
L-TYUSIN
 10
322.5
 20
106.0
 30
0.0
 11
322.5
 21
94.0
 31
0.0
  0
LINE
  8
L-ZISSEN
 10
326.0
 20
96.5
 30
0.0
 11
319.000002
 21
96.5
 31
0.0
  0
LINE
  8
L-ZISSEN
 10
303.0
 20
102.0
 30
0.0
 11
310.0
 21
102.0
 31
0.0
  0
LINE
  8
L-ZISSEN
 10
303.0
 20
56.0
 30
0.0
 11
310.0
 21
56.0
 31
0.0
  0
LINE
  8
L-ZISSEN
 10
305.0
 20
56.095445
 30
0.0
 11
305.0
 21
102.0
 31
0.0
  0
LINE
  8
L-ZISSEN
 10
666.0
 20
96.5
 30
0.0
 11
659.000002
 21
96.5
 31
0.0
  0
LINE
  8
L-TYUSIN
 10
662.5
 20
106.0
 30
0.0
 11
662.5
 21
94.0
 31
0.0
  0
LINE
  8
L-TYUSIN
 10
672.5
 20
100.0
 30
0.0
 11
652.5
 21
100.0
 31
0.0
  0
ARC
  8
L-ZISSEN
 10
666.0
 20
100.0
 30
0.0
 40
3.5
 50
270.0
 51
90.0
  0
LINE
  8
L-ZISSEN
 10
659.000002
 20
103.5
 30
0.0
 11
666.0
 21
103.5
 31
0.0
  0
CIRCLE
  8
L-ZISSEN
 10
637.75
 20
84.25
 30
0.0
 40
4.25
  0
CIRCLE
  8
L-ZISSEN
 10
602.25
 20
84.25
 30
0.0
 40
4.25
  0
CIRCLE
  8
L-ZISSEN
 10
637.75
 20
115.75
 30
0.0
 40
4.25
  0
CIRCLE
  8
L-ZISSEN
 10
602.25
 20
115.75
 30
0.0
 40
4.25
  0
LINE
  8
L-TYUSIN
 10
567.5
 20
100.0
 30
0.0
 11
587.5
 21
100.0
 31
0.0
  0
LINE
  8
L-ZISSEN
 10
580.999998
 20
103.5
 30
0.0
 11
574.0
 21
103.5
 31
0.0
  0
LINE
  8
L-TYUSIN
 10
577.5
 20
106.0
 30
0.0
 11
577.5
 21
94.0
 31
0.0
  0
LINE
  8
L-ZISSEN
 10
574.0
 20
96.5
 30
0.0
 11
580.999998
 21
96.5
 31
0.0
  0
ARC
  8
L-ZISSEN
 10
574.0
 20
100.0
 30
0.0
 40
3.5
 50
90.0
 51
270.0
  0
ARC
  8
L-ZISSEN
 10
581.0
 20
100.0
 30
0.0
 40
3.5
 50
270.0
 51
90.0
  0
ARC
  8
L-ZISSEN
 10
659.0
 20
100.0
 30
0.0
 40
3.5
 50
90.0
 51
270.0
  0
CIRCLE
  8
L-ZISSEN
 10
280.0
 20
100.0
 30
0.0
 40
9.3155
  0
LINE
  8
L-ZISSEN
 10
316.3
 20
57.0
 30
0.0
 11
316.3
 21
65.5
 31
0.0
  0
LINE
  8
L-ZISSEN
 10
316.3
 20
65.5
 30
0.0
 11
310.0
 21
65.5
 31
0.0
  0
LINE
  8
L-ZISSEN
 10
310.0
 20
57.0
 30
0.0
 11
316.3
 21
57.0
 31
0.0
  0
LINE
  8
L-ZISSEN
 10
310.0
 20
56.0
 30
0.0
 11
310.0
 21
102.0
 31
0.0
  0
LINE
  8
L-ZISSEN
 10
316.3
 20
92.5
 30
0.0
 11
310.0
 21
92.5
 31
0.0
  0
LINE
  8
L-ZISSEN
 10
310.0
 20
101.0
 30
0.0
 11
316.3
 21
101.0
 31
0.0
  0
LINE
  8
L-ZISSEN
 10
316.3
 20
101.0
 30
0.0
 11
316.3
 21
92.5
 31
0.0
  0
ARC
  8
L-ZISSEN
 10
319.0
 20
100.0
 30
0.0
 40
3.5
 50
90.0
 51
163.39845
  0
ARC
  8
L-ZISSEN
 10
319.0
 20
100.0
 30
0.0
 40
3.5
 50
219.517653
 51
270.0
  0
LINE
  8
L-ZISSEN
 10
327.0
 20
90.5
 30
0.0
 11
327.0
 21
67.5
 31
0.0
  0
LINE
  8
L-ZISSEN
 10
316.3
 20
94.0
 30
0.0
 11
337.0
 21
94.0
 31
0.0
  0
LINE
  8
L-ZISSEN
 10
337.0
 20
94.0
 30
0.0
 11
337.0
 21
64.0
 31
0.0
  0
LINE
  8
L-ZISSEN
 10
316.3
 20
64.0
 30
0.0
 11
337.0
 21
64.0
 31
0.0
  0
LINE
  8
L-ZISSEN
 10
327.0
 20
90.5
 30
0.0
 11
310.0
 21
90.5
 31
0.0
  0
LINE
  8
L-ZISSEN
 10
327.0
 20
67.5
 30
0.0
 11
310.0
 21
67.5
 31
0.0
  0
CIRCLE
  8
L-ZISSEN
 10
150.0
 20
79.0
 30
0.0
 40
7.475
  0
LINE
  8
L-ZISSEN
 10
147.0
 20
108.291901
 30
0.0
 11
147.0
 21
102.0
 31
0.0
  0
LINE
  8
L-ZISSEN
 10
144.0
 20
120.0
 30
0.0
 11
145.645466
 21
108.291901
 31
0.0
  0
LINE
  8
L-ZISSEN
 10
145.645466
 20
108.291901
 30
0.0
 11
154.354534
 21
108.291901
 31
0.0
  0
LINE
  8
L-TYUSIN
 10
150.0
 20
104.0
 30
0.0
 11
150.0
 21
54.0
 31
0.0
  0
CIRCLE
  8
L-ZISSEN
 10
134.25
 20
61.25
 30
0.0
 40
4.25
  0
CIRCLE
  8
L-ZISSEN
 10
165.75
 20
61.25
 30
0.0
 40
4.25
  0
CIRCLE
  8
L-ZISSEN
 10
165.75
 20
96.75
 30
0.0
 40
4.25
  0
CIRCLE
  8
L-ZISSEN
 10
134.25
 20
96.75
 30
0.0
 40
4.25
  0
CIRCLE
  8
L-ZISSEN
 10
150.0
 20
79.0
 30
0.0
 40
16.0
  0
LINE
  8
L-ZISSEN
 10
129.5
 20
44.5
 30
0.0
 11
129.5
 21
102.0
 31
0.0
  0
LINE
  8
L-ZISSEN
 10
170.5
 20
102.0
 30
0.0
 11
170.5
 21
44.5
 31
0.0
  0
LINE
  8
L-ZISSEN
 10
129.5
 20
102.0
 30
0.0
 11
170.5
 21
102.0
 31
0.0
  0
LINE
  8
L-ZISSEN
 10
129.5
 20
49.0
 30
0.0
 11
170.5
 21
49.0
 31
0.0
  0
LINE
  8
L-ZISSEN
 10
122.0
 20
120.5
 30
0.0
 11
122.0
 21
79.5
 31
0.0
  0
LINE
  8
L-ZISSEN
 10
114.5
 20
79.5
 30
0.0
 11
129.5
 21
79.5
 31
0.0
  0
LINE
  8
L-ZISSEN
 10
123.5
 20
60.056835
 30
0.0
 11
129.5
 21
60.056835
 31
0.0
  0
LINE
  8
L-ZISSEN
 10
123.5
 20
60.056835
 30
0.0
 11
123.5
 21
79.5
 31
0.0
  0
LINE
  8
L-ZISSEN
 10
127.0
 20
120.5
 30
0.0
 11
127.0
 21
120.0
 31
0.0
  0
LINE
  8
L-ZISSEN
 10
173.0
 20
120.0
 30
0.0
 11
127.0
 21
120.0
 31
0.0
  0
LINE
  8
L-ZISSEN
 10
144.0
 20
120.0
 30
0.0
 11
144.0
 21
124.0
 31
0.0
  0
LINE
  8
L-ZISSEN
 10
173.0
 20
120.5
 30
0.0
 11
173.0
 21
120.0
 31
0.0
  0
LINE
  8
L-ZISSEN
 10
156.0
 20
120.0
 30
0.0
 11
156.0
 21
124.0
 31
0.0
  0
LINE
  8
L-ZISSEN
 10
156.0
 20
120.0
 30
0.0
 11
154.354534
 21
108.291901
 31
0.0
  0
LINE
  8
L-ZISSEN
 10
153.0
 20
108.291901
 30
0.0
 11
153.0
 21
102.0
 31
0.0
  0
LINE
  8
L-ZISSEN
 10
185.0
 20
120.5
 30
0.0
 11
173.0
 21
120.5
 31
0.0
  0
LINE
  8
L-ZISSEN
 10
176.5
 20
60.056835
 30
0.0
 11
176.5
 21
79.5
 31
0.0
  0
LINE
  8
L-ZISSEN
 10
185.0
 20
79.5
 30
0.0
 11
170.5
 21
79.5
 31
0.0
  0
LINE
  8
L-ZISSEN
 10
176.5
 20
60.056835
 30
0.0
 11
170.5
 21
60.056835
 31
0.0
  0
LINE
  8
L-ZISSEN
 10
130.0
 20
44.5
 30
0.0
 11
130.0
 21
38.2
 31
0.0
  0
LINE
  8
L-ZISSEN
 10
138.5
 20
38.2
 30
0.0
 11
138.5
 21
44.5
 31
0.0
  0
LINE
  8
L-ZISSEN
 10
130.0
 20
38.2
 30
0.0
 11
138.5
 21
38.2
 31
0.0
  0
LINE
  8
L-ZISSEN
 10
170.0
 20
38.2
 30
0.0
 11
161.5
 21
38.2
 31
0.0
  0
LINE
  8
L-ZISSEN
 10
161.5
 20
38.2
 30
0.0
 11
161.5
 21
44.5
 31
0.0
  0
LINE
  8
L-ZISSEN
 10
170.0
 20
44.5
 30
0.0
 11
170.0
 21
38.2
 31
0.0
  0
LINE
  8
L-ZISSEN
 10
170.5
 20
44.5
 30
0.0
 11
129.5
 21
44.5
 31
0.0
  0
LINE
  8
L-ZISSEN
 10
127.0
 20
120.5
 30
0.0
 11
117.0
 21
120.5
 31
0.0
  0
LINE
  8
L-ZISSEN
 10
138.5
 20
39.0
 30
0.0
 11
161.5
 21
39.0
 31
0.0
  0
LINE
  8
L-ZISSEN
 10
178.0
 20
79.5
 30
0.0
 11
178.0
 21
120.5
 31
0.0
  0
LINE
  8
L-ZISSEN
 10
178.0
 20
120.5
 30
0.0
 11
178.0
 21
79.5
 31
0.0
  0
LINE
  8
L-ZISSEN
 10
126.0
 20
120.5
 30
0.0
 11
126.0
 21
124.0
 31
0.0
  0
LINE
  8
L-ZISSEN
 10
174.0
 20
120.5
 30
0.0
 11
174.0
 21
124.0
 31
0.0
  0
LINE
  8
L-ZISSEN
 10
49.0
 20
120.5
 30
0.0
 11
49.0
 21
79.5
 31
0.0
  0
LINE
  8
L-ZISSEN
 10
52.2
 20
79.5
 30
0.0
 11
52.2
 21
120.5
 31
0.0
  0
LINE
  8
L-TYUSIN
 10
44.0
 20
100.0
 30
0.0
 11
57.2
 21
100.0
 31
0.0
  0
LINE
  8
L-TYUSIN
 10
69.0
 20
79.0
 30
0.0
 11
119.0
 21
79.0
 31
0.0
  0
LINE
  8
L-ZISSEN
 10
82.5
 20
39.0
 30
0.0
 11
105.5
 21
39.0
 31
0.0
  0
LINE
  8
L-ZISSEN
 10
71.0
 20
120.5
 30
0.0
 11
49.0
 21
120.5
 31
0.0
  0
LINE
  8
L-ZISSEN
 10
114.5
 20
44.5
 30
0.0
 11
73.5
 21
44.5
 31
0.0
  0
LINE
  8
L-ZISSEN
 10
114.0
 20
44.5
 30
0.0
 11
114.0
 21
38.2
 31
0.0
  0
LINE
  8
L-ZISSEN
 10
105.5
 20
38.2
 30
0.0
 11
105.5
 21
44.5
 31
0.0
  0
LINE
  8
L-ZISSEN
 10
114.0
 20
38.2
 30
0.0
 11
105.5
 21
38.2
 31
0.0
  0
LINE
  8
L-ZISSEN
 10
74.0
 20
38.2
 30
0.0
 11
82.5
 21
38.2
 31
0.0
  0
LINE
  8
L-ZISSEN
 10
82.5
 20
38.2
 30
0.0
 11
82.5
 21
44.5
 31
0.0
  0
LINE
  8
L-ZISSEN
 10
74.0
 20
44.5
 30
0.0
 11
74.0
 21
38.2
 31
0.0
  0
LINE
  8
L-ZISSEN
 10
97.0
 20
108.291901
 30
0.0
 11
97.0
 21
102.0
 31
0.0
  0
LINE
  8
L-ZISSEN
 10
100.0
 20
120.0
 30
0.0
 11
98.354534
 21
108.291901
 31
0.0
  0
LINE
  8
L-ZISSEN
 10
100.0
 20
120.0
 30
0.0
 11
100.0
 21
124.0
 31
0.0
  0
LINE
  8
L-ZISSEN
 10
117.0
 20
120.5
 30
0.0
 11
117.0
 21
120.0
 31
0.0
  0
LINE
  8
L-ZISSEN
 10
88.0
 20
120.0
 30
0.0
 11
88.0
 21
124.0
 31
0.0
  0
LINE
  8
L-ZISSEN
 10
117.0
 20
120.0
 30
0.0
 11
71.0
 21
120.0
 31
0.0
  0
LINE
  8
L-ZISSEN
 10
71.0
 20
120.5
 30
0.0
 11
71.0
 21
120.0
 31
0.0
  0
LINE
  8
L-ZISSEN
 10
67.5
 20
60.056835
 30
0.0
 11
67.5
 21
79.5
 31
0.0
  0
LINE
  8
L-ZISSEN
 10
67.5
 20
60.056835
 30
0.0
 11
73.5
 21
60.056835
 31
0.0
  0
LINE
  8
L-ZISSEN
 10
49.0
 20
79.5
 30
0.0
 11
73.5
 21
79.5
 31
0.0
  0
LINE
  8
L-ZISSEN
 10
66.0
 20
120.5
 30
0.0
 11
66.0
 21
79.5
 31
0.0
  0
LINE
  8
L-ZISSEN
 10
73.5
 20
49.0
 30
0.0
 11
114.5
 21
49.0
 31
0.0
  0
LINE
  8
L-ZISSEN
 10
66.5
 20
124.0
 30
0.0
 11
177.5
 21
124.0
 31
0.0
  0
LINE
  8
L-ZISSEN
 10
73.5
 20
102.0
 30
0.0
 11
114.5
 21
102.0
 31
0.0
  0
LINE
  8
L-ZISSEN
 10
114.5
 20
102.0
 30
0.0
 11
114.5
 21
44.5
 31
0.0
  0
LINE
  8
L-ZISSEN
 10
170.5
 20
56.0
 30
0.0
 11
73.5
 21
56.0
 31
0.0
  0
LINE
  8
L-ZISSEN
 10
73.5
 20
44.5
 30
0.0
 11
73.5
 21
102.0
 31
0.0
  0
CIRCLE
  8
L-ZISSEN
 10
94.0
 20
79.0
 30
0.0
 40
16.0
  0
CIRCLE
  8
L-ZISSEN
 10
78.25
 20
96.75
 30
0.0
 40
4.25
  0
CIRCLE
  8
L-ZISSEN
 10
109.75
 20
96.75
 30
0.0
 40
4.25
  0
CIRCLE
  8
L-ZISSEN
 10
109.75
 20
61.25
 30
0.0
 40
4.25
  0
CIRCLE
  8
L-ZISSEN
 10
78.25
 20
61.25
 30
0.0
 40
4.25
  0
LINE
  8
L-ZISSEN
 10
89.645466
 20
108.291901
 30
0.0
 11
98.354534
 21
108.291901
 31
0.0
  0
LINE
  8
L-ZISSEN
 10
88.0
 20
120.0
 30
0.0
 11
89.645466
 21
108.291901
 31
0.0
  0
LINE
  8
L-ZISSEN
 10
91.0
 20
108.291901
 30
0.0
 11
91.0
 21
102.0
 31
0.0
  0
CIRCLE
  8
L-ZISSEN
 10
94.0
 20
79.0
 30
0.0
 40
7.475
  0
LINE
  8
L-ZISSEN
 10
118.0
 20
120.5
 30
0.0
 11
118.0
 21
124.0
 31
0.0
  0
LINE
  8
L-ZISSEN
 10
70.0
 20
120.5
 30
0.0
 11
70.0
 21
124.0
 31
0.0
  0
LINE
  8
L-ZISSEN
 10
120.5
 20
60.056835
 30
0.0
 11
120.5
 21
79.5
 31
0.0
  0
LINE
  8
L-ZISSEN
 10
120.5
 20
60.056835
 30
0.0
 11
114.5
 21
60.056835
 31
0.0
  0
LINE
  8
L-TYUSIN
 10
94.0
 20
104.0
 30
0.0
 11
94.0
 21
54.0
 31
0.0
  0
LINE
  8
L-ZISSEN
 10
573.0
 20
67.5
 30
0.0
 11
590.0
 21
67.5
 31
0.0
  0
LINE
  8
L-ZISSEN
 10
583.7
 20
64.0
 30
0.0
 11
563.0
 21
64.0
 31
0.0
  0
LINE
  8
L-ZISSEN
 10
563.0
 20
94.0
 30
0.0
 11
563.0
 21
64.0
 31
0.0
  0
LINE
  8
L-ZISSEN
 10
573.0
 20
79.5
 30
0.0
 11
573.0
 21
67.5
 31
0.0
  0
LINE
  8
L-ZISSEN
 10
590.0
 20
56.0
 30
0.0
 11
590.0
 21
79.5
 31
0.0
  0
LINE
  8
L-ZISSEN
 10
590.0
 20
57.0
 30
0.0
 11
583.7
 21
57.0
 31
0.0
  0
LINE
  8
L-ZISSEN
 10
583.7
 20
65.5
 30
0.0
 11
590.0
 21
65.5
 31
0.0
  0
LINE
  8
L-ZISSEN
 10
583.7
 20
57.0
 30
0.0
 11
583.7
 21
65.5
 31
0.0
  0
LINE
  8
L-ZISSEN
 10
595.0
 20
56.095445
 30
0.0
 11
595.0
 21
120.5
 31
0.0
  0
LINE
  8
L-ZISSEN
 10
597.0
 20
56.0
 30
0.0
 11
590.0
 21
56.0
 31
0.0
  0
LINE
  8
L-ZISSEN
 10
564.0
 20
79.5
 30
0.0
 11
564.0
 21
120.5
 31
0.0
  0
LINE
  8
L-ZISSEN
 10
591.5
 20
124.0
 30
0.0
 11
591.5
 21
120.5
 31
0.0
  0
LINE
  8
L-ZISSEN
 10
643.0
 20
56.0
 30
0.0
 11
652.0
 21
56.0
 31
0.0
  0
LINE
  8
L-ZISSEN
 10
655.8
 20
57.0
 30
0.0
 11
655.8
 21
65.5
 31
0.0
  0
LINE
  8
L-ZISSEN
 10
655.8
 20
65.5
 30
0.0
 11
652.0
 21
65.5
 31
0.0
  0
LINE
  8
L-ZISSEN
 10
652.0
 20
57.0
 30
0.0
 11
655.8
 21
57.0
 31
0.0
  0
LINE
  8
L-ZISSEN
 10
598.0
 20
38.2
 30
0.0
 11
598.0
 21
44.5
 31
0.0
  0
LINE
  8
L-ZISSEN
 10
606.5
 20
44.5
 30
0.0
 11
606.5
 21
38.2
 31
0.0
  0
LINE
  8
L-ZISSEN
 10
606.5
 20
38.2
 30
0.0
 11
598.0
 21
38.2
 31
0.0
  0
LINE
  8
L-TYUSIN
 10
668.0
 20
79.0
 30
0.0
 11
558.0
 21
79.0
 31
0.0
  0
LINE
  8
L-TYUSIN
 10
620.0
 20
177.0
 30
0.0
 11
620.0
 21
34.0
 31
0.0
  0
LINE
  8
L-ZISSEN
 10
660.0
 20
124.0
 30
0.0
 11
590.0
 21
124.0
 31
0.0
  0
LINE
  8
L-ZISSEN
 10
648.5
 20
124.0
 30
0.0
 11
648.5
 21
120.5
 31
0.0
  0
LINE
  8
L-ZISSEN
 10
643.0
 20
79.5
 30
0.0
 11
597.0
 21
79.5
 31
0.0
  0
LINE
  8
L-ZISSEN
 10
643.0
 20
56.0
 30
0.0
 11
643.0
 21
44.0
 31
0.0
  0
LINE
  8
L-ZISSEN
 10
643.0
 20
49.0
 30
0.0
 11
597.0
 21
49.0
 31
0.0
  0
LINE
  8
L-ZISSEN
 10
597.0
 20
44.0
 30
0.0
 11
597.0
 21
56.0
 31
0.0
  0
LINE
  8
L-ZISSEN
 10
645.0
 20
56.095445
 30
0.0
 11
645.0
 21
120.5
 31
0.0
  0
ARC
  8
L-ZISSEN
 10
607.0
 20
69.0
 30
0.0
 40
9.0
 50
180.0
 51
38.682191
  0
LINE
  8
L-ZISSEN
 10
598.0
 20
69.0
 30
0.0
 11
598.0
 21
79.5
 31
0.0
  0
ARC
  8
L-ZISSEN
 10
616.367497
 20
76.5
 30
0.0
 40
3.0
 50
90.0
 51
218.682187
  0
LINE
  8
L-ZISSEN
 10
663.0
 20
63.0
 30
0.0
 11
663.0
 21
79.5
 31
0.0
  0
LINE
  8
L-ZISSEN
 10
652.0
 20
79.5
 30
0.0
 11
652.0
 21
56.0
 31
0.0
  0
LINE
  8
L-ZISSEN
 10
655.8
 20
63.0
 30
0.0
 11
663.0
 21
63.0
 31
0.0
  0
LINE
  8
L-ZISSEN
 10
642.0
 20
38.2
 30
0.0
 11
633.5
 21
38.2
 31
0.0
  0
LINE
  8
L-ZISSEN
 10
633.5
 20
38.2
 30
0.0
 11
633.5
 21
44.5
 31
0.0
  0
LINE
  8
L-ZISSEN
 10
642.0
 20
44.5
 30
0.0
 11
642.0
 21
38.2
 31
0.0
  0
LINE
  8
L-ZISSEN
 10
643.0
 20
44.5
 30
0.0
 11
597.0
 21
44.5
 31
0.0
  0
LINE
  8
L-ZISSEN
 10
606.5
 20
39.0
 30
0.0
 11
633.5
 21
39.0
 31
0.0
  0
LINE
  8
L-ZISSEN
 10
643.0
 20
44.0
 30
0.0
 11
642.0
 21
43.0
 31
0.0
  0
LINE
  8
L-ZISSEN
 10
597.0
 20
44.0
 30
0.0
 11
598.0
 21
43.0
 31
0.0
  0
LINE
  8
L-ZISSEN
 10
676.0
 20
79.5
 30
0.0
 11
676.0
 21
120.5
 31
0.0
  0
LINE
  8
L-ZISSEN
 10
676.0
 20
120.5
 30
0.0
 11
564.0
 21
120.5
 31
0.0
  0
LINE
  8
L-ZISSEN
 10
564.0
 20
79.5
 30
0.0
 11
676.0
 21
79.5
 31
0.0
  0
LINE
  8
L-ZISSEN
 10
564.0
 20
94.0
 30
0.0
 11
563.0
 21
94.0
 31
0.0
  0
LINE
  8
L-TYUSIN
 10
122.0
 20
177.0
 30
0.0
 11
122.0
 21
51.0
 31
0.0
  0
LINE
  8
L-TYUSIN
 10
452.0
 20
177.0
 30
0.0
 11
452.0
 21
51.0
 31
0.0
  0
LINE
  8
L-ZISSEN
 10
504.0
 20
120.5
 30
0.0
 11
504.0
 21
124.0
 31
0.0
  0
LINE
  8
L-ZISSEN
 10
456.0
 20
120.5
 30
0.0
 11
456.0
 21
124.0
 31
0.0
  0
CIRCLE
  8
L-ZISSEN
 10
452.0
 20
79.0
 30
0.0
 40
7.475
  0
LINE
  8
L-ZISSEN
 10
483.0
 20
108.291901
 30
0.0
 11
483.0
 21
102.0
 31
0.0
  0
LINE
  8
L-ZISSEN
 10
486.0
 20
120.0
 30
0.0
 11
484.354534
 21
108.291901
 31
0.0
  0
LINE
  8
L-ZISSEN
 10
484.354534
 20
108.291901
 30
0.0
 11
475.645466
 21
108.291901
 31
0.0
  0
CIRCLE
  8
L-ZISSEN
 10
495.75
 20
61.25
 30
0.0
 40
4.25
  0
CIRCLE
  8
L-ZISSEN
 10
464.25
 20
61.25
 30
0.0
 40
4.25
  0
CIRCLE
  8
L-ZISSEN
 10
464.25
 20
96.75
 30
0.0
 40
4.25
  0
CIRCLE
  8
L-ZISSEN
 10
495.75
 20
96.75
 30
0.0
 40
4.25
  0
LINE
  8
L-ZISSEN
 10
500.5
 20
44.5
 30
0.0
 11
500.5
 21
102.0
 31
0.0
  0
LINE
  8
L-ZISSEN
 10
403.5
 20
56.0
 30
0.0
 11
500.5
 21
56.0
 31
0.0
  0
LINE
  8
L-ZISSEN
 10
459.5
 20
56.0
 30
0.0
 11
459.5
 21
44.5
 31
0.0
  0
LINE
  8
L-ZISSEN
 10
500.5
 20
102.0
 30
0.0
 11
403.5
 21
102.0
 31
0.0
  0
LINE
  8
L-ZISSEN
 10
500.5
 20
49.0
 30
0.0
 11
459.5
 21
49.0
 31
0.0
  0
LINE
  8
L-ZISSEN
 10
508.0
 20
120.5
 30
0.0
 11
508.0
 21
79.5
 31
0.0
  0
LINE
  8
L-ZISSEN
 10
525.0
 20
79.5
 30
0.0
 11
500.5
 21
79.5
 31
0.0
  0
LINE
  8
L-ZISSEN
 10
506.5
 20
60.056835
 30
0.0
 11
500.5
 21
60.056835
 31
0.0
  0
LINE
  8
L-ZISSEN
 10
506.5
 20
60.056835
 30
0.0
 11
506.5
 21
79.5
 31
0.0
  0
LINE
  8
L-ZISSEN
 10
503.0
 20
120.5
 30
0.0
 11
503.0
 21
120.0
 31
0.0
  0
LINE
  8
L-ZISSEN
 10
457.0
 20
120.0
 30
0.0
 11
503.0
 21
120.0
 31
0.0
  0
LINE
  8
L-ZISSEN
 10
486.0
 20
120.0
 30
0.0
 11
486.0
 21
124.0
 31
0.0
  0
LINE
  8
L-ZISSEN
 10
457.0
 20
120.5
 30
0.0
 11
457.0
 21
120.0
 31
0.0
  0
LINE
  8
L-ZISSEN
 10
474.0
 20
120.0
 30
0.0
 11
474.0
 21
124.0
 31
0.0
  0
LINE
  8
L-ZISSEN
 10
474.0
 20
120.0
 30
0.0
 11
475.645466
 21
108.291901
 31
0.0
  0
LINE
  8
L-ZISSEN
 10
477.0
 20
108.291901
 30
0.0
 11
477.0
 21
102.0
 31
0.0
  0
LINE
  8
L-ZISSEN
 10
500.0
 20
44.5
 30
0.0
 11
500.0
 21
38.2
 31
0.0
  0
LINE
  8
L-ZISSEN
 10
491.5
 20
38.2
 30
0.0
 11
491.5
 21
44.5
 31
0.0
  0
LINE
  8
L-ZISSEN
 10
500.0
 20
38.2
 30
0.0
 11
491.5
 21
38.2
 31
0.0
  0
LINE
  8
L-ZISSEN
 10
460.0
 20
38.2
 30
0.0
 11
468.5
 21
38.2
 31
0.0
  0
LINE
  8
L-ZISSEN
 10
468.5
 20
38.2
 30
0.0
 11
468.5
 21
44.5
 31
0.0
  0
LINE
  8
L-ZISSEN
 10
460.0
 20
44.5
 30
0.0
 11
460.0
 21
38.2
 31
0.0
  0
LINE
  8
L-ZISSEN
 10
459.5
 20
44.5
 30
0.0
 11
500.5
 21
44.5
 31
0.0
  0
LINE
  8
L-ZISSEN
 10
503.0
 20
120.5
 30
0.0
 11
525.0
 21
120.5
 31
0.0
  0
LINE
  8
L-ZISSEN
 10
491.5
 20
39.0
 30
0.0
 11
468.5
 21
39.0
 31
0.0
  0
LINE
  8
L-TYUSIN
 10
472.0
 20
79.0
 30
0.0
 11
432.0
 21
79.0
 31
0.0
  0
LINE
  8
L-TYUSIN
 10
530.0
 20
100.0
 30
0.0
 11
516.8
 21
100.0
 31
0.0
  0
LINE
  8
L-ZISSEN
 10
521.8
 20
79.5
 30
0.0
 11
521.8
 21
120.5
 31
0.0
  0
LINE
  8
L-ZISSEN
 10
525.0
 20
120.5
 30
0.0
 11
525.0
 21
79.5
 31
0.0
  0
LINE
  8
L-ZISSEN
 10
400.0
 20
120.5
 30
0.0
 11
400.0
 21
124.0
 31
0.0
  0
LINE
  8
L-ZISSEN
 10
448.0
 20
120.5
 30
0.0
 11
448.0
 21
124.0
 31
0.0
  0
LINE
  8
L-ZISSEN
 10
396.0
 20
120.5
 30
0.0
 11
396.0
 21
79.5
 31
0.0
  0
LINE
  8
L-ZISSEN
 10
396.0
 20
79.5
 30
0.0
 11
396.0
 21
120.5
 31
0.0
  0
LINE
  8
L-ZISSEN
 10
435.5
 20
39.0
 30
0.0
 11
412.5
 21
39.0
 31
0.0
  0
LINE
  8
L-ZISSEN
 10
447.0
 20
120.5
 30
0.0
 11
457.0
 21
120.5
 31
0.0
  0
LINE
  8
L-ZISSEN
 10
403.5
 20
44.5
 30
0.0
 11
444.5
 21
44.5
 31
0.0
  0
LINE
  8
L-ZISSEN
 10
404.0
 20
44.5
 30
0.0
 11
404.0
 21
38.2
 31
0.0
  0
LINE
  8
L-ZISSEN
 10
412.5
 20
38.2
 30
0.0
 11
412.5
 21
44.5
 31
0.0
  0
LINE
  8
L-ZISSEN
 10
404.0
 20
38.2
 30
0.0
 11
412.5
 21
38.2
 31
0.0
  0
LINE
  8
L-ZISSEN
 10
444.0
 20
38.2
 30
0.0
 11
435.5
 21
38.2
 31
0.0
  0
LINE
  8
L-ZISSEN
 10
435.5
 20
38.2
 30
0.0
 11
435.5
 21
44.5
 31
0.0
  0
LINE
  8
L-ZISSEN
 10
444.0
 20
44.5
 30
0.0
 11
444.0
 21
38.2
 31
0.0
  0
LINE
  8
L-ZISSEN
 10
397.5
 20
60.056835
 30
0.0
 11
403.5
 21
60.056835
 31
0.0
  0
LINE
  8
L-ZISSEN
 10
389.0
 20
79.5
 30
0.0
 11
403.5
 21
79.5
 31
0.0
  0
LINE
  8
L-ZISSEN
 10
397.5
 20
60.056835
 30
0.0
 11
397.5
 21
79.5
 31
0.0
  0
LINE
  8
L-ZISSEN
 10
389.0
 20
120.5
 30
0.0
 11
401.0
 21
120.5
 31
0.0
  0
LINE
  8
L-ZISSEN
 10
421.0
 20
108.291901
 30
0.0
 11
421.0
 21
102.0
 31
0.0
  0
LINE
  8
L-ZISSEN
 10
418.0
 20
120.0
 30
0.0
 11
419.645466
 21
108.291901
 31
0.0
  0
LINE
  8
L-ZISSEN
 10
418.0
 20
120.0
 30
0.0
 11
418.0
 21
124.0
 31
0.0
  0
LINE
  8
L-ZISSEN
 10
401.0
 20
120.5
 30
0.0
 11
401.0
 21
120.0
 31
0.0
  0
LINE
  8
L-ZISSEN
 10
401.0
 20
100.0
 30
0.0
 11
403.5
 21
100.0
 31
0.0
  0
LINE
  8
L-ZISSEN
 10
430.0
 20
120.0
 30
0.0
 11
430.0
 21
124.0
 31
0.0
  0
LINE
  8
L-ZISSEN
 10
401.0
 20
120.0
 30
0.0
 11
447.0
 21
120.0
 31
0.0
  0
LINE
  8
L-ZISSEN
 10
447.0
 20
120.5
 30
0.0
 11
447.0
 21
120.0
 31
0.0
  0
LINE
  8
L-ZISSEN
 10
452.0
 20
120.5
 30
0.0
 11
452.0
 21
102.0
 31
0.0
  0
LINE
  8
L-ZISSEN
 10
444.5
 20
49.0
 30
0.0
 11
403.5
 21
49.0
 31
0.0
  0
LINE
  8
L-ZISSEN
 10
403.5
 20
102.0
 30
0.0
 11
403.5
 21
44.5
 31
0.0
  0
LINE
  8
L-ZISSEN
 10
444.5
 20
44.5
 30
0.0
 11
444.5
 21
56.0
 31
0.0
  0
CIRCLE
  8
L-ZISSEN
 10
439.75
 20
96.75
 30
0.0
 40
4.25
  0
CIRCLE
  8
L-ZISSEN
 10
408.25
 20
96.75
 30
0.0
 40
4.25
  0
CIRCLE
  8
L-ZISSEN
 10
408.25
 20
61.25
 30
0.0
 40
4.25
  0
CIRCLE
  8
L-ZISSEN
 10
439.75
 20
61.25
 30
0.0
 40
4.25
  0
LINE
  8
L-ZISSEN
 10
428.354534
 20
108.291901
 30
0.0
 11
419.645466
 21
108.291901
 31
0.0
  0
LINE
  8
L-ZISSEN
 10
430.0
 20
120.0
 30
0.0
 11
428.354534
 21
108.291901
 31
0.0
  0
LINE
  8
L-ZISSEN
 10
427.0
 20
108.291901
 30
0.0
 11
427.0
 21
102.0
 31
0.0
  0
LINE
  8
L-ZISSEN
 10
385.2
 20
116.0
 30
0.0
 11
378.0
 21
116.0
 31
0.0
  0
LINE
  8
L-ZISSEN
 10
378.0
 20
116.0
 30
0.0
 11
378.0
 21
84.0
 31
0.0
  0
LINE
  8
L-ZISSEN
 10
389.0
 20
120.0
 30
0.0
 11
385.2
 21
120.0
 31
0.0
  0
LINE
  8
L-ZISSEN
 10
385.2
 20
111.5
 30
0.0
 11
389.0
 21
111.5
 31
0.0
  0
LINE
  8
L-ZISSEN
 10
385.2
 20
120.0
 30
0.0
 11
385.2
 21
111.5
 31
0.0
  0
LINE
  8
L-ZISSEN
 10
389.0
 20
79.5
 30
0.0
 11
389.0
 21
120.5
 31
0.0
  0
LINE
  8
L-ZISSEN
 10
385.2
 20
80.0
 30
0.0
 11
385.2
 21
88.5
 31
0.0
  0
LINE
  8
L-ZISSEN
 10
385.2
 20
88.5
 30
0.0
 11
389.0
 21
88.5
 31
0.0
  0
LINE
  8
L-ZISSEN
 10
389.0
 20
80.0
 30
0.0
 11
385.2
 21
80.0
 31
0.0
  0
LINE
  8
L-ZISSEN
 10
385.2
 20
84.0
 30
0.0
 11
378.0
 21
84.0
 31
0.0
  0
LINE
  8
L-TYUSIN
 10
402.211286
 20
100.0
 30
0.0
 11
373.0
 21
100.0
 31
0.0
  0
CIRCLE
  8
L-ZISSEN
 10
452.0
 20
79.0
 30
0.0
 40
15.0
  0
LINE
  8
L-ZISSEN
 10
403.5
 20
67.5
 30
0.0
 11
442.36932
 21
67.5
 31
0.0
  0
LINE
  8
L-ZISSEN
 10
403.5
 20
90.5
 30
0.0
 11
442.36932
 21
90.5
 31
0.0
  0
LINE
  8
L-ZISSEN
 10
461.63068
 20
90.5
 30
0.0
 11
500.5
 21
90.5
 31
0.0
  0
LINE
  8
L-ZISSEN
 10
461.63068
 20
67.5
 30
0.0
 11
500.5
 21
67.5
 31
0.0
  0
LINE
  8
L-ZISSEN
 10
432.944864
 20
67.5
 30
0.0
 11
432.944864
 21
90.5
 31
0.0
  0
LINE
  8
L-ZISSEN
 10
471.055136
 20
67.5
 30
0.0
 11
471.055136
 21
90.5
 31
0.0
  0
LINE
  8
L-ZISSEN
 10
310.0
 20
124.0
 30
0.0
 11
310.0
 21
154.0
 31
0.0
  0
LINE
  8
L-ZISSEN
 10
240.0
 20
154.0
 30
0.0
 11
325.0
 21
154.0
 31
0.0
  0
LINE
  8
L-ZISSEN
 10
240.0
 20
172.0
 30
0.0
 11
240.0
 21
124.0
 31
0.0
  0
LINE
  8
L-ZISSEN
 10
240.0
 20
172.0
 30
0.0
 11
325.0
 21
172.0
 31
0.0
  0
LINE
  8
L-ZISSEN
 10
325.0
 20
172.0
 30
0.0
 11
325.0
 21
154.0
 31
0.0
  0
LINE
  8
L-ZISSEN
 10
177.5
 20
124.0
 30
0.0
 11
177.5
 21
154.0
 31
0.0
  0
LINE
  8
L-ZISSEN
 10
66.0
 20
154.0
 30
0.0
 11
178.0
 21
154.0
 31
0.0
  0
LINE
  8
L-ZISSEN
 10
66.5
 20
124.0
 30
0.0
 11
66.5
 21
154.0
 31
0.0
  0
LINE
  8
L-ZISSEN
 10
66.0
 20
172.0
 30
0.0
 11
178.0
 21
172.0
 31
0.0
  0
LINE
  8
L-ZISSEN
 10
178.0
 20
172.0
 30
0.0
 11
178.0
 21
154.0
 31
0.0
  0
LINE
  8
L-ZISSEN
 10
66.0
 20
172.0
 30
0.0
 11
66.0
 21
154.0
 31
0.0
  0
LINE
  8
L-ZISSEN
 10
396.0
 20
172.0
 30
0.0
 11
396.0
 21
154.0
 31
0.0
  0
LINE
  8
L-ZISSEN
 10
396.0
 20
154.0
 30
0.0
 11
508.0
 21
154.0
 31
0.0
  0
LINE
  8
L-ZISSEN
 10
396.0
 20
172.0
 30
0.0
 11
508.0
 21
172.0
 31
0.0
  0
LINE
  8
L-ZISSEN
 10
508.0
 20
172.0
 30
0.0
 11
508.0
 21
154.0
 31
0.0
  0
LINE
  8
L-ZISSEN
 10
507.5
 20
124.0
 30
0.0
 11
507.5
 21
154.0
 31
0.0
  0
LINE
  8
L-ZISSEN
 10
396.5
 20
124.0
 30
0.0
 11
396.5
 21
154.0
 31
0.0
  0
LINE
  8
L-ZISSEN
 10
396.5
 20
124.0
 30
0.0
 11
507.5
 21
124.0
 31
0.0
  0
LINE
  8
L-ZISSEN
 10
575.0
 20
172.0
 30
0.0
 11
575.0
 21
154.0
 31
0.0
  0
LINE
  8
L-ZISSEN
 10
660.0
 20
172.0
 30
0.0
 11
575.0
 21
172.0
 31
0.0
  0
LINE
  8
L-ZISSEN
 10
660.0
 20
154.0
 30
0.0
 11
575.0
 21
154.0
 31
0.0
  0
LINE
  8
L-TYUSIN
 10
580.0
 20
165.0
 30
0.0
 11
570.0
 21
165.0
 31
0.0
  0
LINE
  8
L-ZISSEN
 10
590.0
 20
124.0
 30
0.0
 11
590.0
 21
154.0
 31
0.0
  0
LINE
  8
L-ZISSEN
 10
660.0
 20
172.0
 30
0.0
 11
660.0
 21
124.0
 31
0.0
  0
LINE
  8
L-ZISSEN
 10
122.0
 20
124.0
 30
0.0
 11
122.0
 21
154.0
 31
0.0
  0
LINE
  8
L-ZISSEN
 10
452.0
 20
124.0
 30
0.0
 11
452.0
 21
154.0
 31
0.0
  0
CIRCLE
  8
L-ZISSEN
 10
488.0
 20
161.0
 30
0.0
 40
4.283
  0
LINE
  8
L-TYUSIN
 10
481.0
 20
161.0
 30
0.0
 11
495.0
 21
161.0
 31
0.0
  0
LINE
  8
L-TYUSIN
 10
488.0
 20
168.0
 30
0.0
 11
488.0
 21
154.0
 31
0.0
  0
LINE
  8
L-TYUSIN
 10
320.0
 20
161.0
 30
0.0
 11
330.0
 21
161.0
 31
0.0
  0
LINE
  8
L-TYUSIN
 10
466.0
 20
172.0
 30
0.0
 11
466.0
 21
158.0
 31
0.0
  0
LINE
  8
L-TYUSIN
 10
459.0
 20
165.0
 30
0.0
 11
473.0
 21
165.0
 31
0.0
  0
CIRCLE
  8
L-ZISSEN
 10
466.0
 20
165.0
 30
0.0
 40
4.283
  0
CIRCLE
  8
L-ZISSEN
 10
438.0
 20
165.0
 30
0.0
 40
4.283
  0
LINE
  8
L-TYUSIN
 10
445.0
 20
165.0
 30
0.0
 11
431.0
 21
165.0
 31
0.0
  0
LINE
  8
L-TYUSIN
 10
438.0
 20
172.0
 30
0.0
 11
438.0
 21
158.0
 31
0.0
  0
LINE
  8
L-TYUSIN
 10
416.0
 20
168.0
 30
0.0
 11
416.0
 21
154.0
 31
0.0
  0
LINE
  8
L-TYUSIN
 10
423.0
 20
161.0
 30
0.0
 11
409.0
 21
161.0
 31
0.0
  0
CIRCLE
  8
L-ZISSEN
 10
416.0
 20
161.0
 30
0.0
 40
4.283
  0
LINE
  8
L-TYUSIN
 10
580.0
 20
161.0
 30
0.0
 11
570.0
 21
161.0
 31
0.0
  0
LINE
  8
L-TYUSIN
  6
CENTER
 62
     1
 10
232.0
 20
272.0
 30
0.0
 11
245.0
 21
272.0
 31
0.0
  0
LINE
  8
L-ZISSEN
 10
240.0
 20
244.0
 30
0.0
 11
325.0
 21
244.0
 31
0.0
  0
LINE
  8
L-ZISSEN
 10
258.0
 20
237.0
 30
0.0
 11
258.0
 21
233.2
 31
0.0
  0
LINE
  8
L-ZISSEN
 10
258.0
 20
233.2
 30
0.0
 11
266.5
 21
233.2
 31
0.0
  0
LINE
  8
L-ZISSEN
 10
266.5
 20
233.2
 30
0.0
 11
266.5
 21
237.0
 31
0.0
  0
LINE
  8
L-ZISSEN
 10
264.0
 20
233.2
 30
0.0
 11
264.0
 21
226.0
 31
0.0
  0
LINE
  8
L-ZISSEN
 10
264.0
 20
226.0
 30
0.0
 11
296.0
 21
226.0
 31
0.0
  0
LINE
  8
L-ZISSEN
 10
296.0
 20
233.2
 30
0.0
 11
296.0
 21
226.0
 31
0.0
  0
LINE
  8
L-ZISSEN
 10
303.0
 20
237.0
 30
0.0
 11
257.0
 21
237.0
 31
0.0
  0
LINE
  8
L-ZISSEN
 10
293.5
 20
233.2
 30
0.0
 11
293.5
 21
237.0
 31
0.0
  0
LINE
  8
L-ZISSEN
 10
302.0
 20
233.2
 30
0.0
 11
293.5
 21
233.2
 31
0.0
  0
LINE
  8
L-ZISSEN
 10
302.0
 20
237.0
 30
0.0
 11
302.0
 21
233.2
 31
0.0
  0
LINE
  8
L-ZISSEN
 10
303.0
 20
244.0
 30
0.0
 11
303.0
 21
237.0
 31
0.0
  0
LINE
  8
L-ZISSEN
 10
257.0
 20
244.0
 30
0.0
 11
257.0
 21
237.0
 31
0.0
  0
LINE
  8
L-ZISSEN
 10
237.0
 20
288.0
 30
0.0
 11
237.0
 21
256.0
 31
0.0
  0
LINE
  8
L-ZISSEN
 10
240.0
 20
256.0
 30
0.0
 11
237.0
 21
256.0
 31
0.0
  0
LINE
  8
L-TYUSIN
 10
322.5
 20
378.0
 30
0.0
 11
322.5
 21
364.8
 31
0.0
  0
LINE
  8
L-TYUSIN
 10
237.5
 20
378.0
 30
0.0
 11
237.5
 21
364.8
 31
0.0
  0
LINE
  8
L-ZISSEN
 10
293.5
 20
365.5
 30
0.0
 11
293.5
 21
359.2
 31
0.0
  0
LINE
  8
L-ZISSEN
 10
302.0
 20
365.5
 30
0.0
 11
293.5
 21
365.5
 31
0.0
  0
LINE
  8
L-ZISSEN
 10
302.0
 20
359.2
 30
0.0
 11
302.0
 21
365.5
 31
0.0
  0
LINE
  8
L-ZISSEN
 10
258.0
 20
359.2
 30
0.0
 11
258.0
 21
365.5
 31
0.0
  0
LINE
  8
L-ZISSEN
 10
258.0
 20
365.5
 30
0.0
 11
266.5
 21
365.5
 31
0.0
  0
LINE
  8
L-ZISSEN
 10
266.5
 20
365.5
 30
0.0
 11
266.5
 21
359.2
 31
0.0
  0
LINE
  8
L-ZISSEN
 10
251.8
 20
369.8
 30
0.0
 11
224.0
 21
369.8
 31
0.0
  0
LINE
  8
L-ZISSEN
 10
255.0
 20
373.0
 30
0.0
 11
255.0
 21
359.2
 31
0.0
  0
LINE
  8
L-ZISSEN
 10
251.8
 20
369.8
 30
0.0
 11
251.8
 21
356.0
 31
0.0
  0
LINE
  8
L-ZISSEN
 10
255.0
 20
373.0
 30
0.0
 11
224.0
 21
373.0
 31
0.0
  0
LINE
  8
L-ZISSEN
 10
308.2
 20
369.8
 30
0.0
 11
308.2
 21
356.0
 31
0.0
  0
LINE
  8
L-ZISSEN
 10
305.0
 20
359.2
 30
0.0
 11
255.0
 21
359.2
 31
0.0
  0
LINE
  8
L-ZISSEN
 10
305.0
 20
373.0
 30
0.0
 11
305.0
 21
359.2
 31
0.0
  0
LINE
  8
L-ZISSEN
 10
325.0
 20
356.0
 30
0.0
 11
240.0
 21
356.0
 31
0.0
  0
LINE
  8
L-ZISSEN
 10
336.0
 20
369.8
 30
0.0
 11
308.2
 21
369.8
 31
0.0
  0
LINE
  8
L-ZISSEN
 10
336.0
 20
369.8
 30
0.0
 11
336.0
 21
373.0
 31
0.0
  0
LINE
  8
L-ZISSEN
 10
224.0
 20
369.8
 30
0.0
 11
224.0
 21
373.0
 31
0.0
  0
LINE
  8
L-ZISSEN
 10
336.0
 20
373.0
 30
0.0
 11
305.0
 21
373.0
 31
0.0
  0
LINE
  8
L-TYUSIN
  6
CENTER
 62
     1
 10
232.0
 20
328.0
 30
0.0
 11
245.0
 21
328.0
 31
0.0
  0
LINE
  8
L-TYUSIN
  6
CENTER
 62
     1
 10
235.0
 20
300.0
 30
0.0
 11
342.0
 21
300.0
 31
0.0
  0
LINE
  8
L-ZISSEN
 10
240.0
 20
288.0
 30
0.0
 11
237.0
 21
288.0
 31
0.0
  0
LINE
  8
L-ZISSEN
 10
240.0
 20
312.0
 30
0.0
 11
237.0
 21
312.0
 31
0.0
  0
LINE
  8
L-ZISSEN
 10
237.0
 20
312.0
 30
0.0
 11
237.0
 21
344.0
 31
0.0
  0
LINE
  8
L-ZISSEN
 10
240.0
 20
344.0
 30
0.0
 11
237.0
 21
344.0
 31
0.0
  0
LINE
  8
L-TYUSIN
 10
280.0
 20
364.2
 30
0.0
 11
280.0
 21
221.0
 31
0.0
  0
LINE
  8
L-ZISSEN
 10
337.0
 20
315.0
 30
0.0
 11
337.0
 21
285.0
 31
0.0
  0
LINE
  8
L-ZISSEN
 10
327.0
 20
285.0
 30
0.0
 11
337.0
 21
285.0
 31
0.0
  0
LINE
  8
L-ZISSEN
 10
327.0
 20
315.0
 30
0.0
 11
337.0
 21
315.0
 31
0.0
  0
LINE
  8
L-ZISSEN
 10
327.0
 20
290.36932
 30
0.0
 11
327.0
 21
280.944864
 31
0.0
  0
LINE
  8
L-ZISSEN
 10
325.0
 20
277.480762
 30
0.0
 11
327.0
 21
280.944864
 31
0.0
  0
LINE
  8
L-ZISSEN
 10
325.0
 20
322.519238
 30
0.0
 11
327.0
 21
319.055136
 31
0.0
  0
LINE
  8
L-ZISSEN
 10
327.0
 20
309.63068
 30
0.0
 11
327.0
 21
319.055136
 31
0.0
  0
LINE
  8
L-ZISSEN
 10
327.0
 20
290.36932
 30
0.0
 11
325.0
 21
290.36932
 31
0.0
  0
LINE
  8
L-ZISSEN
 10
327.0
 20
309.63068
 30
0.0
 11
325.0
 21
309.63068
 31
0.0
  0
CIRCLE
  8
L-ZISSEN
 10
262.25
 20
256.25
 30
0.0
 40
4.25
  0
CIRCLE
  8
L-ZISSEN
 10
297.75
 20
256.25
 30
0.0
 40
4.25
  0
CIRCLE
  8
L-ZISSEN
 10
262.25
 20
287.75
 30
0.0
 40
4.25
  0
CIRCLE
  8
L-ZISSEN
 10
297.75
 20
287.75
 30
0.0
 40
4.25
  0
CIRCLE
  8
L-ZISSEN
 10
297.75
 20
312.25
 30
0.0
 40
4.25
  0
CIRCLE
  8
L-ZISSEN
 10
262.25
 20
312.25
 30
0.0
 40
4.25
  0
CIRCLE
  8
L-ZISSEN
 10
297.75
 20
343.75
 30
0.0
 40
4.25
  0
CIRCLE
  8
L-ZISSEN
 10
262.25
 20
343.75
 30
0.0
 40
4.25
  0
LINE
  8
L-ZISSEN
 10
240.0
 20
244.0
 30
0.0
 11
240.0
 21
356.0
 31
0.0
  0
LINE
  8
L-ZISSEN
 10
325.0
 20
244.0
 30
0.0
 11
325.0
 21
356.0
 31
0.0
  0
LINE
  8
L-TYUSIN
  6
CENTER
 62
     1
 10
320.0
 20
336.0
 30
0.0
 11
330.0
 21
336.0
 31
0.0
  0
LINE
  8
L-TYUSIN
  6
CENTER
 62
     1
 10
320.0
 20
264.0
 30
0.0
 11
330.0
 21
264.0
 31
0.0
  0
LINE
  8
L-TYUSIN
 10
125.0
 20
79.0
 30
0.0
 11
175.0
 21
79.0
 31
0.0
  0
SOLID
  8
L-ZISSEN
 10
338.079591
 20
77.283727
 30
0.0
 11
338.577864
 21
77.726636
 31
0.0
 12
337.0
 22
79.0
 32
0.0
 13
337.0
 23
79.0
 33
0.0
  0
LINE
  8
L-ZISSEN
 10
338.328728
 20
77.505181
 30
0.0
 11
345.0
 21
70.0
 31
0.0
  0
LINE
  8
L-ZISSEN
 10
345.0
 20
70.0
 30
0.0
 11
347.0
 21
70.0
 31
0.0
  0
TEXT
  8
L-ZISSEN
 10
349.0
 20
67.75
 30
0.0
 40
4.5
  1
IN
  0
TEXT
  8
L-ZISSEN
 10
350.0
 20
60.0
 30
0.0
 40
4.5
  1
Rc 1/4
  0
TEXT
  8
L-ZISSEN
 10
350.0
 20
50.0
 30
0.0
 40
4.5
  1
Rc 3/8
  0
TEXT
  8
L-ZISSEN
 10
350.0
 20
40.0
 30
0.0
 40
4.5
  1
Rc 1/2
  0
TEXT
  8
L-ZISSEN
 10
131.0
 20
392.0
 30
0.0
 40
4.5
  1
2
  0
TEXT
  8
L-ZISSEN
 10
131.0
 20
378.0
 30
0.0
 40
4.5
  1
4
  0
LINE
  8
L-TYUSIN
  6
CENTER
 62
     1
 10
320.0
 20
286.0
 30
0.0
 11
330.0
 21
286.0
 31
0.0
  0
LINE
  8
L-TYUSIN
  6
CENTER
 62
     1
 10
320.0
 20
314.0
 30
0.0
 11
330.0
 21
314.0
 31
0.0
  0
ENDSEC
  0
EOF
