  0
SECTION
  2
HEADER
  9
$ACADVER
  1
AC1006
  9
$INSBASE
 10
111.699912
 20
136.395385
 30
0.0
  9
$EXTMIN
 10
44.0
 20
34.0
  9
$EXTMAX
 10
815.0
 20
401.5
  9
$LIMMIN
 10
0.0
 20
0.0
  9
$LIMMAX
 10
841.0
 20
594.0
  9
$ORTHOMODE
 70
     0
  9
$REGENMODE
 70
     1
  9
$FILLMODE
 70
     1
  9
$QTEXTMODE
 70
     0
  9
$MIRRTEXT
 70
     1
  9
$DRAGMODE
 70
     2
  9
$LTSCALE
 40
1.0
  9
$OSMODE
 70
     0
  9
$ATTMODE
 70
     1
  9
$TEXTSIZE
 40
4.5
  9
$TRACEWID
 40
0.05
  9
$TEXTSTYLE
  7
STANDARD
  9
$CLAYER
  8
L-ZISSEN
  9
$CELTYPE
  6
BYLAYER
  9
$CECOLOR
 62
   256
  9
$DIMSCALE
 40
1.0
  9
$DIMASZ
 40
2.0
  9
$DIMEXO
 40
1.0
  9
$DIMDLI
 40
0.38
  9
$DIMRND
 40
0.0
  9
$DIMDLE
 40
2.0
  9
$DIMEXE
 40
1.0
  9
$DIMTP
 40
0.0
  9
$DIMTM
 40
0.0
  9
$DIMTXT
 40
4.5
  9
$DIMCEN
 40
0.09
  9
$DIMTSZ
 40
0.0
  9
$DIMTOL
 70
     0
  9
$DIMLIM
 70
     0
  9
$DIMTIH
 70
     0
  9
$DIMTOH
 70
     0
  9
$DIMSE1
 70
     0
  9
$DIMSE2
 70
     0
  9
$DIMTAD
 70
     1
  9
$DIMZIN
 70
     0
  9
$DIMBLK
  1

  9
$DIMASO
 70
     0
  9
$DIMSHO
 70
     0
  9
$DIMPOST
  1

  9
$DIMAPOST
  1

  9
$DIMALT
 70
     0
  9
$DIMALTD
 70
     2
  9
$DIMALTF
 40
25.4
  9
$DIMLFAC
 40
1.0
  9
$DIMTOFL
 70
     1
  9
$DIMTVP
 40
0.0
  9
$DIMTIX
 70
     1
  9
$DIMSOXD
 70
     0
  9
$DIMSAH
 70
     0
  9
$DIMBLK1
  1

  9
$DIMBLK2
  1

  9
$LUNITS
 70
     2
  9
$LUPREC
 70
     4
  9
$AXISMODE
 70
     0
  9
$AXISUNIT
 10
0.0
 20
0.0
  9
$SKETCHINC
 40
0.1
  9
$FILLETRAD
 40
1.5
  9
$AUNITS
 70
     0
  9
$AUPREC
 70
     0
  9
$MENU
  1
acad
  9
$ELEVATION
 40
0.0
  9
$THICKNESS
 40
0.0
  9
$LIMCHECK
 70
     0
  9
$BLIPMODE
 70
     1
  9
$CHAMFERA
 40
0.0
  9
$CHAMFERB
 40
0.0
  9
$SKPOLY
 70
     0
  9
$TDCREATE
 40
2449251.4843245372
  9
$TDUPDATE
 40
2449251.4843245372
  9
$TDINDWG
 40
0.0000000000
  9
$TDUSRTIMER
 40
0.0000000000
  9
$USRTIMER
 70
     1
  9
$ANGBASE
 50
0.0
  9
$ANGDIR
 70
     0
  9
$PDMODE
 70
     0
  9
$PDSIZE
 40
0.0
  9
$PLINEWID
 40
0.0
  9
$COORDS
 70
     2
  9
$SPLFRAME
 70
     0
  9
$SPLINETYPE
 70
     6
  9
$SPLINESEGS
 70
     8
  9
$ATTDIA
 70
     0
  9
$ATTREQ
 70
     1
  9
$HANDLING
 70
     0
  9
$HANDSEED
  5
0
  9
$SURFTAB1
 70
     6
  9
$SURFTAB2
 70
     6
  9
$SURFTYPE
 70
     6
  9
$SURFU
 70
     6
  9
$SURFV
 70
     6
  9
$FLATLAND
 70
     0
  9
$UCSNAME
  2

  9
$UCSORG
 10
0.0
 20
0.0
 30
0.0
  9
$UCSXDIR
 10
1.0
 20
0.0
 30
0.0
  9
$UCSYDIR
 10
0.0
 20
1.0
 30
0.0
  9
$USERI1
 70
     0
  9
$USERI2
 70
     0
  9
$USERI3
 70
     0
  9
$USERI4
 70
     0
  9
$USERI5
 70
     0
  9
$USERR1
 40
0.0
  9
$USERR2
 40
0.0
  9
$USERR3
 40
0.0
  9
$USERR4
 40
0.0
  9
$USERR5
 40
0.0
  9
$WORLDVIEW
 70
     1
  0
ENDSEC
  0
SECTION
  2
TABLES
  0
TABLE
  2
VPORT
 70
     2
  0
VPORT
  2
*ACTIVE
 70
     0
 10
0.0
 20
0.0
 11
1.0
 21
1.0
 12
476.455978
 22
307.649038
 13
0.0
 23
0.0
 14
5.0
 24
5.0
 15
0.0
 25
0.0
 16
0.0
 26
0.0
 36
1.0
 17
0.0
 27
0.0
 37
0.0
 40
615.298075
 41
1.5487
 42
50.0
 43
0.0
 44
0.0
 50
0.0
 51
0.0
 71
     0
 72
   100
 73
     1
 74
     0
 75
     0
 76
     0
 77
     0
 78
     0
  0
ENDTAB
  0
TABLE
  2
LTYPE
 70
     2
  0
LTYPE
  2
CONTINUOUS
 70
    64
  3
Solid line
 72
    65
 73
     0
 40
0.0
  0
LTYPE
  2
CENTER
 70
    64
  3
____ _ ____ _ ____ _ ____ _ 
 72
    65
 73
     4
 40
60.0
 49
45.0
 49
-5.0
 49
5.0
 49
-5.0
  0
ENDTAB
  0
TABLE
  2
LAYER
 70
     3
  0
LAYER
  2
0
 70
     0
 62
     7
  6
CONTINUOUS
  0
LAYER
  2
L-ZISSEN
 70
    64
 62
     7
  6
CONTINUOUS
  0
LAYER
  2
L-TYUSIN
 70
    64
 62
     1
  6
CENTER
  0
ENDTAB
  0
TABLE
  2
STYLE
 70
     1
  0
STYLE
  2
STANDARD
 70
    64
 40
0.0
 41
1.0
 50
0.0
 71
     0
 42
4.5
  3
txt
  4

  0
ENDTAB
  0
TABLE
  2
VIEW
 70
     0
  0
ENDTAB
  0
TABLE
  2
UCS
 70
     0
  0
ENDTAB
  0
TABLE
  2
DWGMGR
 70
     0
  0
ENDTAB
  0
ENDSEC
  0
SECTION
  2
BLOCKS
  0
ENDSEC
  0
SECTION
  2
ENTITIES
  0
LINE
  8
L-ZISSEN
 10
251.8
 20
120.0
 30
0.0
 11
251.8
 21
102.0
 31
0.0
  0
ARC
  8
L-ZISSEN
 10
234.0
 20
100.0
 30
0.0
 40
3.5
 50
90.0
 51
270.0
  0
LINE
  8
L-ZISSEN
 10
234.0
 20
96.5
 30
0.0
 11
240.999998
 21
96.5
 31
0.0
  0
LINE
  8
L-TYUSIN
 10
237.5
 20
106.0
 30
0.0
 11
237.5
 21
94.0
 31
0.0
  0
LINE
  8
L-ZISSEN
 10
240.999998
 20
103.5
 30
0.0
 11
234.0
 21
103.5
 31
0.0
  0
LINE
  8
L-TYUSIN
 10
227.5
 20
100.0
 30
0.0
 11
247.5
 21
100.0
 31
0.0
  0
ARC
  8
L-ZISSEN
 10
241.0
 20
100.0
 30
0.0
 40
3.5
 50
270.0
 51
336.104492
  0
LINE
  8
L-ZISSEN
 10
237.0
 20
79.5
 30
0.0
 11
224.0
 21
79.5
 31
0.0
  0
LINE
  8
L-ZISSEN
 10
224.0
 20
120.5
 30
0.0
 11
251.5
 21
120.5
 31
0.0
  0
LINE
  8
L-ZISSEN
 10
224.0
 20
79.5
 30
0.0
 11
224.0
 21
120.5
 31
0.0
  0
LINE
  8
L-TYUSIN
 10
311.0
 20
134.0
 30
0.0
 11
321.0
 21
134.0
 31
0.0
  0
LINE
  8
L-ZISSEN
 10
251.5
 20
148.5
 30
0.0
 11
311.5
 21
148.5
 31
0.0
  0
LINE
  8
L-ZISSEN
 10
303.0
 20
44.0
 30
0.0
 11
302.0
 21
43.0
 31
0.0
  0
LINE
  8
L-ZISSEN
 10
257.0
 20
44.0
 30
0.0
 11
258.0
 21
43.0
 31
0.0
  0
LINE
  8
L-ZISSEN
 10
293.5
 20
39.0
 30
0.0
 11
266.5
 21
39.0
 31
0.0
  0
LINE
  8
L-TYUSIN
 10
171.788714
 20
100.0
 30
0.0
 11
201.0
 21
100.0
 31
0.0
  0
LINE
  8
L-ZISSEN
 10
188.8
 20
84.0
 30
0.0
 11
196.0
 21
84.0
 31
0.0
  0
LINE
  8
L-ZISSEN
 10
185.0
 20
80.0
 30
0.0
 11
188.8
 21
80.0
 31
0.0
  0
LINE
  8
L-ZISSEN
 10
188.8
 20
88.5
 30
0.0
 11
185.0
 21
88.5
 31
0.0
  0
LINE
  8
L-ZISSEN
 10
188.8
 20
80.0
 30
0.0
 11
188.8
 21
88.5
 31
0.0
  0
LINE
  8
L-ZISSEN
 10
185.0
 20
79.5
 30
0.0
 11
185.0
 21
120.5
 31
0.0
  0
LINE
  8
L-ZISSEN
 10
188.8
 20
120.0
 30
0.0
 11
188.8
 21
111.5
 31
0.0
  0
LINE
  8
L-ZISSEN
 10
188.8
 20
111.5
 30
0.0
 11
185.0
 21
111.5
 31
0.0
  0
LINE
  8
L-ZISSEN
 10
185.0
 20
120.0
 30
0.0
 11
188.8
 21
120.0
 31
0.0
  0
LINE
  8
L-ZISSEN
 10
196.0
 20
116.0
 30
0.0
 11
196.0
 21
84.0
 31
0.0
  0
LINE
  8
L-ZISSEN
 10
188.8
 20
116.0
 30
0.0
 11
196.0
 21
116.0
 31
0.0
  0
LINE
  8
L-ZISSEN
 10
257.0
 20
44.5
 30
0.0
 11
303.0
 21
44.5
 31
0.0
  0
LINE
  8
L-ZISSEN
 10
258.0
 20
44.5
 30
0.0
 11
258.0
 21
38.2
 31
0.0
  0
LINE
  8
L-ZISSEN
 10
266.5
 20
38.2
 30
0.0
 11
266.5
 21
44.5
 31
0.0
  0
LINE
  8
L-ZISSEN
 10
258.0
 20
38.2
 30
0.0
 11
266.5
 21
38.2
 31
0.0
  0
LINE
  8
L-ZISSEN
 10
244.2
 20
101.0
 30
0.0
 11
244.2
 21
92.5
 31
0.0
  0
LINE
  8
L-ZISSEN
 10
244.2
 20
63.0
 30
0.0
 11
237.0
 21
63.0
 31
0.0
  0
LINE
  8
L-ZISSEN
 10
257.0
 20
102.0
 30
0.0
 11
248.0
 21
102.0
 31
0.0
  0
LINE
  8
L-ZISSEN
 10
244.2
 20
95.0
 30
0.0
 11
237.0
 21
95.0
 31
0.0
  0
LINE
  8
L-ZISSEN
 10
248.0
 20
101.0
 30
0.0
 11
244.2
 21
101.0
 31
0.0
  0
LINE
  8
L-ZISSEN
 10
244.2
 20
92.5
 30
0.0
 11
248.0
 21
92.5
 31
0.0
  0
LINE
  8
L-ZISSEN
 10
248.0
 20
102.0
 30
0.0
 11
248.0
 21
56.0
 31
0.0
  0
LINE
  8
L-ZISSEN
 10
237.0
 20
63.0
 30
0.0
 11
237.0
 21
95.0
 31
0.0
  0
CIRCLE
  8
L-ZISSEN
 10
262.25
 20
115.75
 30
0.0
 40
4.25
  0
CIRCLE
  8
L-ZISSEN
 10
280.0
 20
100.0
 30
0.0
 40
16.0
  0
LINE
  8
L-ZISSEN
 10
256.0
 20
102.0
 30
0.0
 11
256.0
 21
108.291901
 31
0.0
  0
LINE
  8
L-ZISSEN
 10
252.336967
 20
120.0
 30
0.0
 11
253.982433
 21
108.291901
 31
0.0
  0
ARC
  8
L-ZISSEN
 10
276.367497
 20
76.5
 30
0.0
 40
3.0
 50
90.0
 51
218.682187
  0
LINE
  8
L-ZISSEN
 10
258.0
 20
69.0
 30
0.0
 11
258.0
 21
79.5
 31
0.0
  0
ARC
  8
L-ZISSEN
 10
267.0
 20
69.0
 30
0.0
 40
9.0
 50
180.0
 51
38.682191
  0
LINE
  8
L-ZISSEN
 10
255.0
 20
56.095445
 30
0.0
 11
255.0
 21
102.0
 31
0.0
  0
LINE
  8
L-ZISSEN
 10
303.0
 20
44.0
 30
0.0
 11
303.0
 21
56.0
 31
0.0
  0
LINE
  8
L-ZISSEN
 10
257.0
 20
49.0
 30
0.0
 11
303.0
 21
49.0
 31
0.0
  0
LINE
  8
L-ZISSEN
 10
257.0
 20
56.0
 30
0.0
 11
257.0
 21
44.0
 31
0.0
  0
LINE
  8
L-ZISSEN
 10
257.0
 20
120.5
 30
0.0
 11
303.0
 21
120.5
 31
0.0
  0
LINE
  8
L-ZISSEN
 10
257.0
 20
79.5
 30
0.0
 11
257.0
 21
124.0
 31
0.0
  0
LINE
  8
L-ZISSEN
 10
303.0
 20
79.5
 30
0.0
 11
257.0
 21
79.5
 31
0.0
  0
LINE
  8
L-TYUSIN
 10
305.0
 20
100.0
 30
0.0
 11
255.0
 21
100.0
 31
0.0
  0
LINE
  8
L-ZISSEN
 10
251.5
 20
120.0
 30
0.0
 11
257.0
 21
120.0
 31
0.0
  0
LINE
  8
L-ZISSEN
 10
251.5
 20
148.5
 30
0.0
 11
251.5
 21
120.0
 31
0.0
  0
LINE
  8
L-ZISSEN
 10
316.0
 20
124.0
 30
0.0
 11
251.5
 21
124.0
 31
0.0
  0
LINE
  8
L-TYUSIN
 10
280.0
 20
153.5
 30
0.0
 11
280.0
 21
34.0
 31
0.0
  0
LINE
  8
L-TYUSIN
 10
232.0
 20
79.0
 30
0.0
 11
342.0
 21
79.0
 31
0.0
  0
TEXT
  8
L-ZISSEN
 10
65.0
 20
340.0
 30
0.0
 40
4.5
  1
MODEL NO. : 463-300-10BM
  0
LINE
  8
L-ZISSEN
 10
257.0
 20
108.291901
 30
0.0
 11
253.982433
 21
108.291901
 31
0.0
  0
ARC
  8
L-ZISSEN
 10
241.0
 20
100.0
 30
0.0
 40
3.5
 50
16.60155
 51
90.0
  0
LINE
  8
L-ZISSEN
 10
293.5
 20
38.2
 30
0.0
 11
302.0
 21
38.2
 31
0.0
  0
LINE
  8
L-ZISSEN
 10
293.5
 20
44.5
 30
0.0
 11
293.5
 21
38.2
 31
0.0
  0
LINE
  8
L-ZISSEN
 10
302.0
 20
38.2
 30
0.0
 11
302.0
 21
44.5
 31
0.0
  0
LINE
  8
L-ZISSEN
 10
248.0
 20
57.0
 30
0.0
 11
244.2
 21
57.0
 31
0.0
  0
LINE
  8
L-ZISSEN
 10
244.2
 20
65.5
 30
0.0
 11
248.0
 21
65.5
 31
0.0
  0
LINE
  8
L-ZISSEN
 10
244.2
 20
57.0
 30
0.0
 11
244.2
 21
65.5
 31
0.0
  0
LINE
  8
L-ZISSEN
 10
257.0
 20
56.0
 30
0.0
 11
248.0
 21
56.0
 31
0.0
  0
LINE
  8
L-ZISSEN
 10
303.0
 20
79.5
 30
0.0
 11
303.0
 21
124.0
 31
0.0
  0
CIRCLE
  8
L-ZISSEN
 10
297.75
 20
115.75
 30
0.0
 40
4.25
  0
CIRCLE
  8
L-ZISSEN
 10
262.25
 20
84.25
 30
0.0
 40
4.25
  0
CIRCLE
  8
L-ZISSEN
 10
297.75
 20
84.25
 30
0.0
 40
4.25
  0
LINE
  8
L-ZISSEN
 10
308.5
 20
124.0
 30
0.0
 11
308.5
 21
120.0
 31
0.0
  0
LINE
  8
L-ZISSEN
 10
308.5
 20
120.0
 30
0.0
 11
303.0
 21
120.0
 31
0.0
  0
LINE
  8
L-ZISSEN
 10
307.663033
 20
120.0
 30
0.0
 11
306.017567
 21
108.291901
 31
0.0
  0
LINE
  8
L-ZISSEN
 10
303.0
 20
108.291901
 30
0.0
 11
306.017567
 21
108.291901
 31
0.0
  0
LINE
  8
L-ZISSEN
 10
304.0
 20
102.0
 30
0.0
 11
304.0
 21
108.291901
 31
0.0
  0
LINE
  8
L-ZISSEN
 10
308.2
 20
120.0
 30
0.0
 11
308.2
 21
102.0
 31
0.0
  0
LINE
  8
L-ZISSEN
 10
336.0
 20
120.5
 30
0.0
 11
308.5
 21
120.5
 31
0.0
  0
LINE
  8
L-ZISSEN
 10
336.0
 20
94.0
 30
0.0
 11
336.0
 21
120.5
 31
0.0
  0
LINE
  8
L-ZISSEN
 10
319.000002
 20
103.5
 30
0.0
 11
326.0
 21
103.5
 31
0.0
  0
ARC
  8
L-ZISSEN
 10
326.0
 20
100.0
 30
0.0
 40
3.5
 50
270.0
 51
90.0
  0
LINE
  8
L-TYUSIN
 10
332.5
 20
100.0
 30
0.0
 11
312.5
 21
100.0
 31
0.0
  0
LINE
  8
L-TYUSIN
 10
322.5
 20
106.0
 30
0.0
 11
322.5
 21
94.0
 31
0.0
  0
LINE
  8
L-ZISSEN
 10
326.0
 20
96.5
 30
0.0
 11
319.000002
 21
96.5
 31
0.0
  0
LINE
  8
L-ZISSEN
 10
303.0
 20
102.0
 30
0.0
 11
310.0
 21
102.0
 31
0.0
  0
LINE
  8
L-ZISSEN
 10
303.0
 20
56.0
 30
0.0
 11
310.0
 21
56.0
 31
0.0
  0
LINE
  8
L-ZISSEN
 10
305.0
 20
56.095445
 30
0.0
 11
305.0
 21
102.0
 31
0.0
  0
LINE
  8
L-TYUSIN
  6
CENTER
 62
     1
 10
232.0
 20
230.0
 30
0.0
 11
260.0
 21
230.0
 31
0.0
  0
LINE
  8
L-ZISSEN
 10
676.0
 20
96.5
 30
0.0
 11
669.000002
 21
96.5
 31
0.0
  0
LINE
  8
L-TYUSIN
 10
672.5
 20
106.0
 30
0.0
 11
672.5
 21
94.0
 31
0.0
  0
LINE
  8
L-TYUSIN
 10
682.5
 20
100.0
 30
0.0
 11
662.5
 21
100.0
 31
0.0
  0
ARC
  8
L-ZISSEN
 10
676.0
 20
100.0
 30
0.0
 40
3.5
 50
270.0
 51
90.0
  0
LINE
  8
L-ZISSEN
 10
669.000002
 20
103.5
 30
0.0
 11
676.0
 21
103.5
 31
0.0
  0
CIRCLE
  8
L-ZISSEN
 10
647.75
 20
84.25
 30
0.0
 40
4.25
  0
CIRCLE
  8
L-ZISSEN
 10
612.25
 20
84.25
 30
0.0
 40
4.25
  0
CIRCLE
  8
L-ZISSEN
 10
647.75
 20
115.75
 30
0.0
 40
4.25
  0
CIRCLE
  8
L-ZISSEN
 10
612.25
 20
115.75
 30
0.0
 40
4.25
  0
LINE
  8
L-TYUSIN
 10
577.5
 20
100.0
 30
0.0
 11
597.5
 21
100.0
 31
0.0
  0
LINE
  8
L-ZISSEN
 10
590.999998
 20
103.5
 30
0.0
 11
584.0
 21
103.5
 31
0.0
  0
LINE
  8
L-TYUSIN
 10
587.5
 20
106.0
 30
0.0
 11
587.5
 21
94.0
 31
0.0
  0
LINE
  8
L-ZISSEN
 10
584.0
 20
96.5
 30
0.0
 11
590.999998
 21
96.5
 31
0.0
  0
ARC
  8
L-ZISSEN
 10
584.0
 20
100.0
 30
0.0
 40
3.5
 50
90.0
 51
270.0
  0
ARC
  8
L-ZISSEN
 10
591.0
 20
100.0
 30
0.0
 40
3.5
 50
270.0
 51
90.0
  0
ARC
  8
L-ZISSEN
 10
669.0
 20
100.0
 30
0.0
 40
3.5
 50
90.0
 51
270.0
  0
LINE
  8
L-ZISSEN
 10
257.0
 20
202.0
 30
0.0
 11
303.0
 21
202.0
 31
0.0
  0
LINE
  8
L-ZISSEN
 10
258.0
 20
195.0
 30
0.0
 11
258.0
 21
191.2
 31
0.0
  0
LINE
  8
L-ZISSEN
 10
258.0
 20
191.2
 30
0.0
 11
266.5
 21
191.2
 31
0.0
  0
LINE
  8
L-ZISSEN
 10
266.5
 20
191.2
 30
0.0
 11
266.5
 21
195.0
 31
0.0
  0
LINE
  8
L-ZISSEN
 10
264.0
 20
191.2
 30
0.0
 11
264.0
 21
184.0
 31
0.0
  0
LINE
  8
L-ZISSEN
 10
264.0
 20
184.0
 30
0.0
 11
296.0
 21
184.0
 31
0.0
  0
LINE
  8
L-ZISSEN
 10
296.0
 20
191.2
 30
0.0
 11
296.0
 21
184.0
 31
0.0
  0
LINE
  8
L-ZISSEN
 10
303.0
 20
195.0
 30
0.0
 11
257.0
 21
195.0
 31
0.0
  0
LINE
  8
L-ZISSEN
 10
293.5
 20
191.2
 30
0.0
 11
293.5
 21
195.0
 31
0.0
  0
LINE
  8
L-ZISSEN
 10
302.0
 20
191.2
 30
0.0
 11
293.5
 21
191.2
 31
0.0
  0
LINE
  8
L-ZISSEN
 10
302.0
 20
195.0
 30
0.0
 11
302.0
 21
191.2
 31
0.0
  0
LINE
  8
L-ZISSEN
 10
303.0
 20
206.0
 30
0.0
 11
303.0
 21
195.0
 31
0.0
  0
LINE
  8
L-ZISSEN
 10
257.0
 20
206.0
 30
0.0
 11
257.0
 21
195.0
 31
0.0
  0
LINE
  8
L-ZISSEN
 10
237.0
 20
246.0
 30
0.0
 11
237.0
 21
214.0
 31
0.0
  0
LINE
  8
L-ZISSEN
 10
244.2
 20
214.0
 30
0.0
 11
237.0
 21
214.0
 31
0.0
  0
CIRCLE
  8
L-ZISSEN
 10
280.0
 20
100.0
 30
0.0
 40
9.3155
  0
LINE
  8
L-ZISSEN
 10
316.3
 20
57.0
 30
0.0
 11
316.3
 21
65.5
 31
0.0
  0
LINE
  8
L-ZISSEN
 10
316.3
 20
65.5
 30
0.0
 11
310.0
 21
65.5
 31
0.0
  0
LINE
  8
L-ZISSEN
 10
310.0
 20
57.0
 30
0.0
 11
316.3
 21
57.0
 31
0.0
  0
LINE
  8
L-ZISSEN
 10
310.0
 20
56.0
 30
0.0
 11
310.0
 21
102.0
 31
0.0
  0
LINE
  8
L-ZISSEN
 10
316.3
 20
92.5
 30
0.0
 11
310.0
 21
92.5
 31
0.0
  0
LINE
  8
L-ZISSEN
 10
310.0
 20
101.0
 30
0.0
 11
316.3
 21
101.0
 31
0.0
  0
LINE
  8
L-ZISSEN
 10
316.3
 20
101.0
 30
0.0
 11
316.3
 21
92.5
 31
0.0
  0
ARC
  8
L-ZISSEN
 10
319.0
 20
100.0
 30
0.0
 40
3.5
 50
90.0
 51
163.39845
  0
ARC
  8
L-ZISSEN
 10
319.0
 20
100.0
 30
0.0
 40
3.5
 50
219.517653
 51
270.0
  0
LINE
  8
L-ZISSEN
 10
327.0
 20
90.5
 30
0.0
 11
327.0
 21
67.5
 31
0.0
  0
LINE
  8
L-ZISSEN
 10
316.3
 20
94.0
 30
0.0
 11
337.0
 21
94.0
 31
0.0
  0
LINE
  8
L-ZISSEN
 10
337.0
 20
94.0
 30
0.0
 11
337.0
 21
64.0
 31
0.0
  0
LINE
  8
L-ZISSEN
 10
316.3
 20
64.0
 30
0.0
 11
337.0
 21
64.0
 31
0.0
  0
LINE
  8
L-ZISSEN
 10
327.0
 20
90.5
 30
0.0
 11
310.0
 21
90.5
 31
0.0
  0
LINE
  8
L-ZISSEN
 10
327.0
 20
67.5
 30
0.0
 11
310.0
 21
67.5
 31
0.0
  0
LINE
  8
L-ZISSEN
 10
256.0
 20
140.0
 30
0.0
 11
256.0
 21
124.0
 31
0.0
  0
LINE
  8
L-ZISSEN
 10
311.5
 20
140.0
 30
0.0
 11
251.5
 21
140.0
 31
0.0
  0
LINE
  8
L-ZISSEN
 10
311.5
 20
124.0
 30
0.0
 11
311.5
 21
148.5
 31
0.0
  0
LINE
  8
L-ZISSEN
 10
316.0
 20
124.0
 30
0.0
 11
316.0
 21
144.0
 31
0.0
  0
LINE
  8
L-ZISSEN
 10
316.0
 20
144.0
 30
0.0
 11
311.5
 21
144.0
 31
0.0
  0
LINE
  8
L-ZISSEN
 10
258.0
 20
140.0
 30
0.0
 11
258.0
 21
146.3
 31
0.0
  0
LINE
  8
L-ZISSEN
 10
258.0
 20
146.3
 30
0.0
 11
266.5
 21
146.3
 31
0.0
  0
LINE
  8
L-ZISSEN
 10
266.5
 20
146.3
 30
0.0
 11
266.5
 21
140.0
 31
0.0
  0
LINE
  8
L-ZISSEN
 10
293.5
 20
146.3
 30
0.0
 11
293.5
 21
140.0
 31
0.0
  0
LINE
  8
L-ZISSEN
 10
302.0
 20
146.3
 30
0.0
 11
293.5
 21
146.3
 31
0.0
  0
LINE
  8
L-ZISSEN
 10
302.0
 20
140.0
 30
0.0
 11
302.0
 21
146.3
 31
0.0
  0
CIRCLE
  8
L-ZISSEN
 10
150.0
 20
79.0
 30
0.0
 40
7.475
  0
LINE
  8
L-ZISSEN
 10
147.0
 20
108.291901
 30
0.0
 11
147.0
 21
102.0
 31
0.0
  0
LINE
  8
L-ZISSEN
 10
144.0
 20
120.0
 30
0.0
 11
145.645466
 21
108.291901
 31
0.0
  0
LINE
  8
L-ZISSEN
 10
145.645466
 20
108.291901
 30
0.0
 11
154.354534
 21
108.291901
 31
0.0
  0
LINE
  8
L-TYUSIN
 10
150.0
 20
104.0
 30
0.0
 11
150.0
 21
54.0
 31
0.0
  0
CIRCLE
  8
L-ZISSEN
 10
134.25
 20
61.25
 30
0.0
 40
4.25
  0
CIRCLE
  8
L-ZISSEN
 10
165.75
 20
61.25
 30
0.0
 40
4.25
  0
CIRCLE
  8
L-ZISSEN
 10
165.75
 20
96.75
 30
0.0
 40
4.25
  0
CIRCLE
  8
L-ZISSEN
 10
134.25
 20
96.75
 30
0.0
 40
4.25
  0
CIRCLE
  8
L-ZISSEN
 10
150.0
 20
79.0
 30
0.0
 40
16.0
  0
LINE
  8
L-ZISSEN
 10
129.5
 20
44.5
 30
0.0
 11
129.5
 21
102.0
 31
0.0
  0
LINE
  8
L-ZISSEN
 10
170.5
 20
102.0
 30
0.0
 11
170.5
 21
44.5
 31
0.0
  0
LINE
  8
L-ZISSEN
 10
129.5
 20
102.0
 30
0.0
 11
170.5
 21
102.0
 31
0.0
  0
LINE
  8
L-ZISSEN
 10
129.5
 20
49.0
 30
0.0
 11
170.5
 21
49.0
 31
0.0
  0
LINE
  8
L-ZISSEN
 10
122.0
 20
120.5
 30
0.0
 11
122.0
 21
79.5
 31
0.0
  0
LINE
  8
L-ZISSEN
 10
114.5
 20
79.5
 30
0.0
 11
129.5
 21
79.5
 31
0.0
  0
LINE
  8
L-ZISSEN
 10
123.5
 20
60.056835
 30
0.0
 11
129.5
 21
60.056835
 31
0.0
  0
LINE
  8
L-ZISSEN
 10
123.5
 20
60.056835
 30
0.0
 11
123.5
 21
79.5
 31
0.0
  0
LINE
  8
L-ZISSEN
 10
127.0
 20
120.5
 30
0.0
 11
127.0
 21
120.0
 31
0.0
  0
LINE
  8
L-ZISSEN
 10
173.0
 20
120.0
 30
0.0
 11
127.0
 21
120.0
 31
0.0
  0
LINE
  8
L-ZISSEN
 10
144.0
 20
120.0
 30
0.0
 11
144.0
 21
124.0
 31
0.0
  0
LINE
  8
L-ZISSEN
 10
173.0
 20
120.5
 30
0.0
 11
173.0
 21
120.0
 31
0.0
  0
LINE
  8
L-ZISSEN
 10
156.0
 20
120.0
 30
0.0
 11
156.0
 21
140.0
 31
0.0
  0
LINE
  8
L-ZISSEN
 10
156.0
 20
120.0
 30
0.0
 11
154.354534
 21
108.291901
 31
0.0
  0
LINE
  8
L-ZISSEN
 10
153.0
 20
108.291901
 30
0.0
 11
153.0
 21
102.0
 31
0.0
  0
LINE
  8
L-ZISSEN
 10
185.0
 20
120.5
 30
0.0
 11
173.0
 21
120.5
 31
0.0
  0
LINE
  8
L-ZISSEN
 10
176.5
 20
60.056835
 30
0.0
 11
176.5
 21
79.5
 31
0.0
  0
LINE
  8
L-ZISSEN
 10
185.0
 20
79.5
 30
0.0
 11
170.5
 21
79.5
 31
0.0
  0
LINE
  8
L-ZISSEN
 10
176.5
 20
60.056835
 30
0.0
 11
170.5
 21
60.056835
 31
0.0
  0
LINE
  8
L-ZISSEN
 10
130.0
 20
44.5
 30
0.0
 11
130.0
 21
38.2
 31
0.0
  0
LINE
  8
L-ZISSEN
 10
138.5
 20
38.2
 30
0.0
 11
138.5
 21
44.5
 31
0.0
  0
LINE
  8
L-ZISSEN
 10
130.0
 20
38.2
 30
0.0
 11
138.5
 21
38.2
 31
0.0
  0
LINE
  8
L-ZISSEN
 10
170.0
 20
38.2
 30
0.0
 11
161.5
 21
38.2
 31
0.0
  0
LINE
  8
L-ZISSEN
 10
161.5
 20
38.2
 30
0.0
 11
161.5
 21
44.5
 31
0.0
  0
LINE
  8
L-ZISSEN
 10
170.0
 20
44.5
 30
0.0
 11
170.0
 21
38.2
 31
0.0
  0
LINE
  8
L-ZISSEN
 10
170.5
 20
44.5
 30
0.0
 11
129.5
 21
44.5
 31
0.0
  0
LINE
  8
L-ZISSEN
 10
127.0
 20
120.5
 30
0.0
 11
117.0
 21
120.5
 31
0.0
  0
LINE
  8
L-ZISSEN
 10
138.5
 20
39.0
 30
0.0
 11
161.5
 21
39.0
 31
0.0
  0
LINE
  8
L-ZISSEN
 10
178.0
 20
79.5
 30
0.0
 11
178.0
 21
120.5
 31
0.0
  0
LINE
  8
L-ZISSEN
 10
178.0
 20
120.5
 30
0.0
 11
178.0
 21
79.5
 31
0.0
  0
LINE
  8
L-ZISSEN
 10
126.0
 20
120.5
 30
0.0
 11
126.0
 21
124.0
 31
0.0
  0
LINE
  8
L-ZISSEN
 10
174.0
 20
120.5
 30
0.0
 11
174.0
 21
140.0
 31
0.0
  0
LINE
  8
L-ZISSEN
 10
49.0
 20
120.5
 30
0.0
 11
49.0
 21
79.5
 31
0.0
  0
LINE
  8
L-ZISSEN
 10
52.2
 20
79.5
 30
0.0
 11
52.2
 21
120.5
 31
0.0
  0
LINE
  8
L-TYUSIN
 10
44.0
 20
100.0
 30
0.0
 11
57.2
 21
100.0
 31
0.0
  0
LINE
  8
L-TYUSIN
 10
69.0
 20
79.0
 30
0.0
 11
119.0
 21
79.0
 31
0.0
  0
LINE
  8
L-ZISSEN
 10
82.5
 20
39.0
 30
0.0
 11
105.5
 21
39.0
 31
0.0
  0
LINE
  8
L-ZISSEN
 10
71.0
 20
120.5
 30
0.0
 11
49.0
 21
120.5
 31
0.0
  0
LINE
  8
L-ZISSEN
 10
114.5
 20
44.5
 30
0.0
 11
73.5
 21
44.5
 31
0.0
  0
LINE
  8
L-ZISSEN
 10
114.0
 20
44.5
 30
0.0
 11
114.0
 21
38.2
 31
0.0
  0
LINE
  8
L-ZISSEN
 10
105.5
 20
38.2
 30
0.0
 11
105.5
 21
44.5
 31
0.0
  0
LINE
  8
L-ZISSEN
 10
114.0
 20
38.2
 30
0.0
 11
105.5
 21
38.2
 31
0.0
  0
LINE
  8
L-ZISSEN
 10
74.0
 20
38.2
 30
0.0
 11
82.5
 21
38.2
 31
0.0
  0
LINE
  8
L-ZISSEN
 10
82.5
 20
38.2
 30
0.0
 11
82.5
 21
44.5
 31
0.0
  0
LINE
  8
L-ZISSEN
 10
74.0
 20
44.5
 30
0.0
 11
74.0
 21
38.2
 31
0.0
  0
LINE
  8
L-ZISSEN
 10
97.0
 20
108.291901
 30
0.0
 11
97.0
 21
102.0
 31
0.0
  0
LINE
  8
L-ZISSEN
 10
100.0
 20
120.0
 30
0.0
 11
98.354534
 21
108.291901
 31
0.0
  0
LINE
  8
L-ZISSEN
 10
100.0
 20
120.0
 30
0.0
 11
100.0
 21
124.0
 31
0.0
  0
LINE
  8
L-ZISSEN
 10
117.0
 20
120.5
 30
0.0
 11
117.0
 21
120.0
 31
0.0
  0
LINE
  8
L-ZISSEN
 10
88.0
 20
120.0
 30
0.0
 11
88.0
 21
140.0
 31
0.0
  0
LINE
  8
L-ZISSEN
 10
117.0
 20
120.0
 30
0.0
 11
71.0
 21
120.0
 31
0.0
  0
LINE
  8
L-ZISSEN
 10
71.0
 20
120.5
 30
0.0
 11
71.0
 21
120.0
 31
0.0
  0
LINE
  8
L-ZISSEN
 10
67.5
 20
60.056835
 30
0.0
 11
67.5
 21
79.5
 31
0.0
  0
LINE
  8
L-ZISSEN
 10
67.5
 20
60.056835
 30
0.0
 11
73.5
 21
60.056835
 31
0.0
  0
LINE
  8
L-ZISSEN
 10
49.0
 20
79.5
 30
0.0
 11
73.5
 21
79.5
 31
0.0
  0
LINE
  8
L-ZISSEN
 10
66.0
 20
120.5
 30
0.0
 11
66.0
 21
79.5
 31
0.0
  0
LINE
  8
L-ZISSEN
 10
73.5
 20
49.0
 30
0.0
 11
114.5
 21
49.0
 31
0.0
  0
LINE
  8
L-ZISSEN
 10
70.0
 20
124.0
 30
0.0
 11
174.0
 21
124.0
 31
0.0
  0
LINE
  8
L-ZISSEN
 10
73.5
 20
102.0
 30
0.0
 11
114.5
 21
102.0
 31
0.0
  0
LINE
  8
L-ZISSEN
 10
114.5
 20
102.0
 30
0.0
 11
114.5
 21
44.5
 31
0.0
  0
LINE
  8
L-ZISSEN
 10
170.5
 20
56.0
 30
0.0
 11
73.5
 21
56.0
 31
0.0
  0
LINE
  8
L-ZISSEN
 10
73.5
 20
44.5
 30
0.0
 11
73.5
 21
102.0
 31
0.0
  0
CIRCLE
  8
L-ZISSEN
 10
94.0
 20
79.0
 30
0.0
 40
16.0
  0
CIRCLE
  8
L-ZISSEN
 10
78.25
 20
96.75
 30
0.0
 40
4.25
  0
CIRCLE
  8
L-ZISSEN
 10
109.75
 20
96.75
 30
0.0
 40
4.25
  0
CIRCLE
  8
L-ZISSEN
 10
109.75
 20
61.25
 30
0.0
 40
4.25
  0
CIRCLE
  8
L-ZISSEN
 10
78.25
 20
61.25
 30
0.0
 40
4.25
  0
LINE
  8
L-ZISSEN
 10
89.645466
 20
108.291901
 30
0.0
 11
98.354534
 21
108.291901
 31
0.0
  0
LINE
  8
L-ZISSEN
 10
88.0
 20
120.0
 30
0.0
 11
89.645466
 21
108.291901
 31
0.0
  0
LINE
  8
L-ZISSEN
 10
91.0
 20
108.291901
 30
0.0
 11
91.0
 21
102.0
 31
0.0
  0
CIRCLE
  8
L-ZISSEN
 10
94.0
 20
79.0
 30
0.0
 40
7.475
  0
LINE
  8
L-ZISSEN
 10
118.0
 20
120.5
 30
0.0
 11
118.0
 21
124.0
 31
0.0
  0
LINE
  8
L-ZISSEN
 10
70.0
 20
120.5
 30
0.0
 11
70.0
 21
140.0
 31
0.0
  0
LINE
  8
L-ZISSEN
 10
120.5
 20
60.056835
 30
0.0
 11
120.5
 21
79.5
 31
0.0
  0
LINE
  8
L-ZISSEN
 10
120.5
 20
60.056835
 30
0.0
 11
114.5
 21
60.056835
 31
0.0
  0
LINE
  8
L-TYUSIN
 10
94.0
 20
104.0
 30
0.0
 11
94.0
 21
54.0
 31
0.0
  0
LINE
  8
L-ZISSEN
 10
608.0
 20
140.0
 30
0.0
 11
608.0
 21
146.3
 31
0.0
  0
LINE
  8
L-ZISSEN
 10
608.0
 20
146.3
 30
0.0
 11
616.5
 21
146.3
 31
0.0
  0
LINE
  8
L-ZISSEN
 10
616.5
 20
146.3
 30
0.0
 11
616.5
 21
140.0
 31
0.0
  0
LINE
  8
L-ZISSEN
 10
643.5
 20
146.3
 30
0.0
 11
643.5
 21
140.0
 31
0.0
  0
LINE
  8
L-ZISSEN
 10
652.0
 20
146.3
 30
0.0
 11
643.5
 21
146.3
 31
0.0
  0
LINE
  8
L-ZISSEN
 10
652.0
 20
140.0
 30
0.0
 11
652.0
 21
146.3
 31
0.0
  0
LINE
  8
L-ZISSEN
 10
594.0
 20
144.0
 30
0.0
 11
598.5
 21
144.0
 31
0.0
  0
LINE
  8
L-ZISSEN
 10
594.0
 20
124.0
 30
0.0
 11
594.0
 21
144.0
 31
0.0
  0
LINE
  8
L-ZISSEN
 10
598.5
 20
124.0
 30
0.0
 11
598.5
 21
148.5
 31
0.0
  0
LINE
  8
L-ZISSEN
 10
598.5
 20
140.0
 30
0.0
 11
658.5
 21
140.0
 31
0.0
  0
LINE
  8
L-ZISSEN
 10
654.0
 20
140.0
 30
0.0
 11
654.0
 21
124.0
 31
0.0
  0
LINE
  8
L-ZISSEN
 10
583.0
 20
67.5
 30
0.0
 11
600.0
 21
67.5
 31
0.0
  0
LINE
  8
L-ZISSEN
 10
593.7
 20
64.0
 30
0.0
 11
573.0
 21
64.0
 31
0.0
  0
LINE
  8
L-ZISSEN
 10
573.0
 20
94.0
 30
0.0
 11
573.0
 21
64.0
 31
0.0
  0
LINE
  8
L-ZISSEN
 10
583.0
 20
79.5
 30
0.0
 11
583.0
 21
67.5
 31
0.0
  0
LINE
  8
L-ZISSEN
 10
600.0
 20
56.0
 30
0.0
 11
600.0
 21
79.5
 31
0.0
  0
LINE
  8
L-ZISSEN
 10
600.0
 20
57.0
 30
0.0
 11
593.7
 21
57.0
 31
0.0
  0
LINE
  8
L-ZISSEN
 10
593.7
 20
65.5
 30
0.0
 11
600.0
 21
65.5
 31
0.0
  0
LINE
  8
L-ZISSEN
 10
593.7
 20
57.0
 30
0.0
 11
593.7
 21
65.5
 31
0.0
  0
LINE
  8
L-ZISSEN
 10
605.0
 20
56.095445
 30
0.0
 11
605.0
 21
120.5
 31
0.0
  0
LINE
  8
L-ZISSEN
 10
607.0
 20
56.0
 30
0.0
 11
600.0
 21
56.0
 31
0.0
  0
LINE
  8
L-ZISSEN
 10
574.0
 20
79.5
 30
0.0
 11
574.0
 21
120.5
 31
0.0
  0
LINE
  8
L-ZISSEN
 10
601.5
 20
124.0
 30
0.0
 11
601.5
 21
120.5
 31
0.0
  0
LINE
  8
L-ZISSEN
 10
653.0
 20
56.0
 30
0.0
 11
662.0
 21
56.0
 31
0.0
  0
LINE
  8
L-ZISSEN
 10
665.8
 20
57.0
 30
0.0
 11
665.8
 21
65.5
 31
0.0
  0
LINE
  8
L-ZISSEN
 10
665.8
 20
65.5
 30
0.0
 11
662.0
 21
65.5
 31
0.0
  0
LINE
  8
L-ZISSEN
 10
662.0
 20
57.0
 30
0.0
 11
665.8
 21
57.0
 31
0.0
  0
LINE
  8
L-ZISSEN
 10
608.0
 20
38.2
 30
0.0
 11
608.0
 21
44.5
 31
0.0
  0
LINE
  8
L-ZISSEN
 10
616.5
 20
44.5
 30
0.0
 11
616.5
 21
38.2
 31
0.0
  0
LINE
  8
L-ZISSEN
 10
616.5
 20
38.2
 30
0.0
 11
608.0
 21
38.2
 31
0.0
  0
LINE
  8
L-TYUSIN
 10
678.0
 20
79.0
 30
0.0
 11
568.0
 21
79.0
 31
0.0
  0
LINE
  8
L-TYUSIN
 10
630.0
 20
153.5
 30
0.0
 11
630.0
 21
34.0
 31
0.0
  0
LINE
  8
L-ZISSEN
 10
594.0
 20
124.0
 30
0.0
 11
658.5
 21
124.0
 31
0.0
  0
LINE
  8
L-ZISSEN
 10
658.5
 20
148.5
 30
0.0
 11
658.5
 21
120.5
 31
0.0
  0
LINE
  8
L-ZISSEN
 10
653.0
 20
79.5
 30
0.0
 11
607.0
 21
79.5
 31
0.0
  0
LINE
  8
L-ZISSEN
 10
653.0
 20
56.0
 30
0.0
 11
653.0
 21
44.0
 31
0.0
  0
LINE
  8
L-ZISSEN
 10
653.0
 20
49.0
 30
0.0
 11
607.0
 21
49.0
 31
0.0
  0
LINE
  8
L-ZISSEN
 10
607.0
 20
44.0
 30
0.0
 11
607.0
 21
56.0
 31
0.0
  0
LINE
  8
L-ZISSEN
 10
655.0
 20
56.095445
 30
0.0
 11
655.0
 21
120.5
 31
0.0
  0
ARC
  8
L-ZISSEN
 10
617.0
 20
69.0
 30
0.0
 40
9.0
 50
180.0
 51
38.682191
  0
LINE
  8
L-ZISSEN
 10
608.0
 20
69.0
 30
0.0
 11
608.0
 21
79.5
 31
0.0
  0
ARC
  8
L-ZISSEN
 10
626.367497
 20
76.5
 30
0.0
 40
3.0
 50
90.0
 51
218.682187
  0
LINE
  8
L-ZISSEN
 10
673.0
 20
63.0
 30
0.0
 11
673.0
 21
79.5
 31
0.0
  0
LINE
  8
L-ZISSEN
 10
662.0
 20
79.5
 30
0.0
 11
662.0
 21
56.0
 31
0.0
  0
LINE
  8
L-ZISSEN
 10
665.8
 20
63.0
 30
0.0
 11
673.0
 21
63.0
 31
0.0
  0
LINE
  8
L-ZISSEN
 10
652.0
 20
38.2
 30
0.0
 11
643.5
 21
38.2
 31
0.0
  0
LINE
  8
L-ZISSEN
 10
643.5
 20
38.2
 30
0.0
 11
643.5
 21
44.5
 31
0.0
  0
LINE
  8
L-ZISSEN
 10
652.0
 20
44.5
 30
0.0
 11
652.0
 21
38.2
 31
0.0
  0
LINE
  8
L-ZISSEN
 10
653.0
 20
44.5
 30
0.0
 11
607.0
 21
44.5
 31
0.0
  0
LINE
  8
L-ZISSEN
 10
616.5
 20
39.0
 30
0.0
 11
643.5
 21
39.0
 31
0.0
  0
LINE
  8
L-ZISSEN
 10
653.0
 20
44.0
 30
0.0
 11
652.0
 21
43.0
 31
0.0
  0
LINE
  8
L-ZISSEN
 10
607.0
 20
44.0
 30
0.0
 11
608.0
 21
43.0
 31
0.0
  0
LINE
  8
L-TYUSIN
 10
599.0
 20
134.0
 30
0.0
 11
589.0
 21
134.0
 31
0.0
  0
LINE
  8
L-ZISSEN
 10
686.0
 20
79.5
 30
0.0
 11
686.0
 21
120.5
 31
0.0
  0
LINE
  8
L-ZISSEN
 10
686.0
 20
120.5
 30
0.0
 11
574.0
 21
120.5
 31
0.0
  0
LINE
  8
L-ZISSEN
 10
574.0
 20
79.5
 30
0.0
 11
686.0
 21
79.5
 31
0.0
  0
LINE
  8
L-ZISSEN
 10
574.0
 20
94.0
 30
0.0
 11
573.0
 21
94.0
 31
0.0
  0
LINE
  8
L-ZISSEN
 10
174.0
 20
140.0
 30
0.0
 11
150.0
 21
140.0
 31
0.0
  0
LINE
  8
L-ZISSEN
 10
94.0
 20
140.0
 30
0.0
 11
94.0
 21
148.5
 31
0.0
  0
LINE
  8
L-ZISSEN
 10
94.0
 20
140.0
 30
0.0
 11
70.0
 21
140.0
 31
0.0
  0
LINE
  8
L-ZISSEN
 10
150.0
 20
148.5
 30
0.0
 11
150.0
 21
140.0
 31
0.0
  0
LINE
  8
L-TYUSIN
 10
122.0
 20
153.5
 30
0.0
 11
122.0
 21
51.0
 31
0.0
  0
LINE
  8
L-TYUSIN
 10
472.0
 20
153.5
 30
0.0
 11
472.0
 21
51.0
 31
0.0
  0
LINE
  8
L-ZISSEN
 10
444.0
 20
148.5
 30
0.0
 11
444.0
 21
140.0
 31
0.0
  0
LINE
  8
L-TYUSIN
 10
470.0
 20
122.0
 30
0.0
 11
470.0
 21
146.0
 31
0.0
  0
LINE
  8
L-ZISSEN
 10
500.0
 20
140.0
 30
0.0
 11
524.0
 21
140.0
 31
0.0
  0
LINE
  8
L-ZISSEN
 10
500.0
 20
140.0
 30
0.0
 11
500.0
 21
148.5
 31
0.0
  0
LINE
  8
L-ZISSEN
 10
420.0
 20
140.0
 30
0.0
 11
444.0
 21
140.0
 31
0.0
  0
LINE
  8
L-ZISSEN
 10
444.0
 20
148.5
 30
0.0
 11
500.0
 21
148.5
 31
0.0
  0
LINE
  8
L-ZISSEN
 10
524.0
 20
120.5
 30
0.0
 11
524.0
 21
140.0
 31
0.0
  0
LINE
  8
L-ZISSEN
 10
476.0
 20
120.5
 30
0.0
 11
476.0
 21
124.0
 31
0.0
  0
CIRCLE
  8
L-ZISSEN
 10
472.0
 20
79.0
 30
0.0
 40
7.475
  0
LINE
  8
L-ZISSEN
 10
503.0
 20
108.291901
 30
0.0
 11
503.0
 21
102.0
 31
0.0
  0
LINE
  8
L-ZISSEN
 10
506.0
 20
120.0
 30
0.0
 11
504.354534
 21
108.291901
 31
0.0
  0
LINE
  8
L-ZISSEN
 10
504.354534
 20
108.291901
 30
0.0
 11
495.645466
 21
108.291901
 31
0.0
  0
CIRCLE
  8
L-ZISSEN
 10
515.75
 20
61.25
 30
0.0
 40
4.25
  0
CIRCLE
  8
L-ZISSEN
 10
484.25
 20
61.25
 30
0.0
 40
4.25
  0
CIRCLE
  8
L-ZISSEN
 10
484.25
 20
96.75
 30
0.0
 40
4.25
  0
CIRCLE
  8
L-ZISSEN
 10
515.75
 20
96.75
 30
0.0
 40
4.25
  0
LINE
  8
L-ZISSEN
 10
520.5
 20
44.5
 30
0.0
 11
520.5
 21
102.0
 31
0.0
  0
LINE
  8
L-ZISSEN
 10
423.5
 20
56.0
 30
0.0
 11
520.5
 21
56.0
 31
0.0
  0
LINE
  8
L-ZISSEN
 10
479.5
 20
56.0
 30
0.0
 11
479.5
 21
44.5
 31
0.0
  0
LINE
  8
L-ZISSEN
 10
520.5
 20
102.0
 30
0.0
 11
423.5
 21
102.0
 31
0.0
  0
LINE
  8
L-ZISSEN
 10
524.0
 20
124.0
 30
0.0
 11
420.0
 21
124.0
 31
0.0
  0
LINE
  8
L-ZISSEN
 10
520.5
 20
49.0
 30
0.0
 11
479.5
 21
49.0
 31
0.0
  0
LINE
  8
L-ZISSEN
 10
528.0
 20
120.5
 30
0.0
 11
528.0
 21
79.5
 31
0.0
  0
LINE
  8
L-ZISSEN
 10
545.0
 20
79.5
 30
0.0
 11
520.5
 21
79.5
 31
0.0
  0
LINE
  8
L-ZISSEN
 10
526.5
 20
60.056835
 30
0.0
 11
520.5
 21
60.056835
 31
0.0
  0
LINE
  8
L-ZISSEN
 10
526.5
 20
60.056835
 30
0.0
 11
526.5
 21
79.5
 31
0.0
  0
LINE
  8
L-ZISSEN
 10
523.0
 20
120.5
 30
0.0
 11
523.0
 21
120.0
 31
0.0
  0
LINE
  8
L-ZISSEN
 10
477.0
 20
120.0
 30
0.0
 11
523.0
 21
120.0
 31
0.0
  0
LINE
  8
L-ZISSEN
 10
506.0
 20
120.0
 30
0.0
 11
506.0
 21
124.0
 31
0.0
  0
LINE
  8
L-ZISSEN
 10
477.0
 20
120.5
 30
0.0
 11
477.0
 21
120.0
 31
0.0
  0
LINE
  8
L-ZISSEN
 10
494.0
 20
120.0
 30
0.0
 11
494.0
 21
124.0
 31
0.0
  0
LINE
  8
L-ZISSEN
 10
494.0
 20
120.0
 30
0.0
 11
495.645466
 21
108.291901
 31
0.0
  0
LINE
  8
L-ZISSEN
 10
497.0
 20
108.291901
 30
0.0
 11
497.0
 21
102.0
 31
0.0
  0
LINE
  8
L-ZISSEN
 10
520.0
 20
44.5
 30
0.0
 11
520.0
 21
38.2
 31
0.0
  0
LINE
  8
L-ZISSEN
 10
511.5
 20
38.2
 30
0.0
 11
511.5
 21
44.5
 31
0.0
  0
LINE
  8
L-ZISSEN
 10
520.0
 20
38.2
 30
0.0
 11
511.5
 21
38.2
 31
0.0
  0
LINE
  8
L-ZISSEN
 10
480.0
 20
38.2
 30
0.0
 11
488.5
 21
38.2
 31
0.0
  0
LINE
  8
L-ZISSEN
 10
488.5
 20
38.2
 30
0.0
 11
488.5
 21
44.5
 31
0.0
  0
LINE
  8
L-ZISSEN
 10
480.0
 20
44.5
 30
0.0
 11
480.0
 21
38.2
 31
0.0
  0
LINE
  8
L-ZISSEN
 10
479.5
 20
44.5
 30
0.0
 11
520.5
 21
44.5
 31
0.0
  0
LINE
  8
L-ZISSEN
 10
523.0
 20
120.5
 30
0.0
 11
545.0
 21
120.5
 31
0.0
  0
LINE
  8
L-ZISSEN
 10
511.5
 20
39.0
 30
0.0
 11
488.5
 21
39.0
 31
0.0
  0
LINE
  8
L-TYUSIN
 10
492.0
 20
79.0
 30
0.0
 11
452.0
 21
79.0
 31
0.0
  0
LINE
  8
L-TYUSIN
 10
550.0
 20
100.0
 30
0.0
 11
536.8
 21
100.0
 31
0.0
  0
LINE
  8
L-ZISSEN
 10
541.8
 20
79.5
 30
0.0
 11
541.8
 21
120.5
 31
0.0
  0
LINE
  8
L-ZISSEN
 10
545.0
 20
120.5
 30
0.0
 11
545.0
 21
79.5
 31
0.0
  0
LINE
  8
L-ZISSEN
 10
420.0
 20
120.5
 30
0.0
 11
420.0
 21
140.0
 31
0.0
  0
LINE
  8
L-ZISSEN
 10
468.0
 20
120.5
 30
0.0
 11
468.0
 21
124.0
 31
0.0
  0
LINE
  8
L-ZISSEN
 10
416.0
 20
120.5
 30
0.0
 11
416.0
 21
79.5
 31
0.0
  0
LINE
  8
L-ZISSEN
 10
416.0
 20
79.5
 30
0.0
 11
416.0
 21
120.5
 31
0.0
  0
LINE
  8
L-ZISSEN
 10
455.5
 20
39.0
 30
0.0
 11
432.5
 21
39.0
 31
0.0
  0
LINE
  8
L-ZISSEN
 10
467.0
 20
120.5
 30
0.0
 11
477.0
 21
120.5
 31
0.0
  0
LINE
  8
L-ZISSEN
 10
423.5
 20
44.5
 30
0.0
 11
464.5
 21
44.5
 31
0.0
  0
LINE
  8
L-ZISSEN
 10
424.0
 20
44.5
 30
0.0
 11
424.0
 21
38.2
 31
0.0
  0
LINE
  8
L-ZISSEN
 10
432.5
 20
38.2
 30
0.0
 11
432.5
 21
44.5
 31
0.0
  0
LINE
  8
L-ZISSEN
 10
424.0
 20
38.2
 30
0.0
 11
432.5
 21
38.2
 31
0.0
  0
LINE
  8
L-ZISSEN
 10
464.0
 20
38.2
 30
0.0
 11
455.5
 21
38.2
 31
0.0
  0
LINE
  8
L-ZISSEN
 10
455.5
 20
38.2
 30
0.0
 11
455.5
 21
44.5
 31
0.0
  0
LINE
  8
L-ZISSEN
 10
464.0
 20
44.5
 30
0.0
 11
464.0
 21
38.2
 31
0.0
  0
LINE
  8
L-ZISSEN
 10
417.5
 20
60.056835
 30
0.0
 11
423.5
 21
60.056835
 31
0.0
  0
LINE
  8
L-ZISSEN
 10
409.0
 20
79.5
 30
0.0
 11
423.5
 21
79.5
 31
0.0
  0
LINE
  8
L-ZISSEN
 10
417.5
 20
60.056835
 30
0.0
 11
417.5
 21
79.5
 31
0.0
  0
LINE
  8
L-ZISSEN
 10
409.0
 20
120.5
 30
0.0
 11
421.0
 21
120.5
 31
0.0
  0
LINE
  8
L-ZISSEN
 10
441.0
 20
108.291901
 30
0.0
 11
441.0
 21
102.0
 31
0.0
  0
LINE
  8
L-ZISSEN
 10
438.0
 20
120.0
 30
0.0
 11
439.645466
 21
108.291901
 31
0.0
  0
LINE
  8
L-ZISSEN
 10
438.0
 20
120.0
 30
0.0
 11
438.0
 21
124.0
 31
0.0
  0
LINE
  8
L-ZISSEN
 10
421.0
 20
120.5
 30
0.0
 11
421.0
 21
120.0
 31
0.0
  0
LINE
  8
L-ZISSEN
 10
450.0
 20
120.0
 30
0.0
 11
450.0
 21
124.0
 31
0.0
  0
LINE
  8
L-ZISSEN
 10
421.0
 20
120.0
 30
0.0
 11
467.0
 21
120.0
 31
0.0
  0
LINE
  8
L-ZISSEN
 10
467.0
 20
120.5
 30
0.0
 11
467.0
 21
120.0
 31
0.0
  0
LINE
  8
L-ZISSEN
 10
472.0
 20
120.5
 30
0.0
 11
472.0
 21
102.0
 31
0.0
  0
LINE
  8
L-ZISSEN
 10
464.5
 20
49.0
 30
0.0
 11
423.5
 21
49.0
 31
0.0
  0
LINE
  8
L-ZISSEN
 10
423.5
 20
102.0
 30
0.0
 11
423.5
 21
44.5
 31
0.0
  0
LINE
  8
L-ZISSEN
 10
464.5
 20
44.5
 30
0.0
 11
464.5
 21
56.0
 31
0.0
  0
CIRCLE
  8
L-ZISSEN
 10
459.75
 20
96.75
 30
0.0
 40
4.25
  0
CIRCLE
  8
L-ZISSEN
 10
428.25
 20
96.75
 30
0.0
 40
4.25
  0
CIRCLE
  8
L-ZISSEN
 10
428.25
 20
61.25
 30
0.0
 40
4.25
  0
CIRCLE
  8
L-ZISSEN
 10
459.75
 20
61.25
 30
0.0
 40
4.25
  0
LINE
  8
L-ZISSEN
 10
448.354534
 20
108.291901
 30
0.0
 11
439.645466
 21
108.291901
 31
0.0
  0
LINE
  8
L-ZISSEN
 10
450.0
 20
120.0
 30
0.0
 11
448.354534
 21
108.291901
 31
0.0
  0
LINE
  8
L-ZISSEN
 10
447.0
 20
108.291901
 30
0.0
 11
447.0
 21
102.0
 31
0.0
  0
LINE
  8
L-ZISSEN
 10
405.2
 20
116.0
 30
0.0
 11
398.0
 21
116.0
 31
0.0
  0
LINE
  8
L-ZISSEN
 10
398.0
 20
116.0
 30
0.0
 11
398.0
 21
84.0
 31
0.0
  0
LINE
  8
L-ZISSEN
 10
409.0
 20
120.0
 30
0.0
 11
405.2
 21
120.0
 31
0.0
  0
LINE
  8
L-ZISSEN
 10
405.2
 20
111.5
 30
0.0
 11
409.0
 21
111.5
 31
0.0
  0
LINE
  8
L-ZISSEN
 10
405.2
 20
120.0
 30
0.0
 11
405.2
 21
111.5
 31
0.0
  0
LINE
  8
L-ZISSEN
 10
409.0
 20
79.5
 30
0.0
 11
409.0
 21
120.5
 31
0.0
  0
LINE
  8
L-ZISSEN
 10
405.2
 20
80.0
 30
0.0
 11
405.2
 21
88.5
 31
0.0
  0
LINE
  8
L-ZISSEN
 10
405.2
 20
88.5
 30
0.0
 11
409.0
 21
88.5
 31
0.0
  0
LINE
  8
L-ZISSEN
 10
409.0
 20
80.0
 30
0.0
 11
405.2
 21
80.0
 31
0.0
  0
LINE
  8
L-ZISSEN
 10
405.2
 20
84.0
 30
0.0
 11
398.0
 21
84.0
 31
0.0
  0
LINE
  8
L-TYUSIN
 10
422.211286
 20
100.0
 30
0.0
 11
393.0
 21
100.0
 31
0.0
  0
CIRCLE
  8
L-ZISSEN
 10
472.0
 20
79.0
 30
0.0
 40
15.0
  0
LINE
  8
L-ZISSEN
 10
423.5
 20
67.5
 30
0.0
 11
462.36932
 21
67.5
 31
0.0
  0
LINE
  8
L-ZISSEN
 10
423.5
 20
90.5
 30
0.0
 11
462.36932
 21
90.5
 31
0.0
  0
LINE
  8
L-ZISSEN
 10
481.63068
 20
90.5
 30
0.0
 11
520.5
 21
90.5
 31
0.0
  0
LINE
  8
L-ZISSEN
 10
481.63068
 20
67.5
 30
0.0
 11
520.5
 21
67.5
 31
0.0
  0
LINE
  8
L-TYUSIN
 10
322.5
 20
336.0
 30
0.0
 11
322.5
 21
322.8
 31
0.0
  0
LINE
  8
L-TYUSIN
 10
237.5
 20
336.0
 30
0.0
 11
237.5
 21
322.8
 31
0.0
  0
LINE
  8
L-ZISSEN
 10
293.5
 20
323.5
 30
0.0
 11
293.5
 21
317.2
 31
0.0
  0
LINE
  8
L-ZISSEN
 10
302.0
 20
323.5
 30
0.0
 11
293.5
 21
323.5
 31
0.0
  0
LINE
  8
L-ZISSEN
 10
302.0
 20
317.2
 30
0.0
 11
302.0
 21
323.5
 31
0.0
  0
LINE
  8
L-ZISSEN
 10
258.0
 20
317.2
 30
0.0
 11
258.0
 21
323.5
 31
0.0
  0
LINE
  8
L-ZISSEN
 10
258.0
 20
323.5
 30
0.0
 11
266.5
 21
323.5
 31
0.0
  0
LINE
  8
L-ZISSEN
 10
266.5
 20
323.5
 30
0.0
 11
266.5
 21
317.2
 31
0.0
  0
LINE
  8
L-ZISSEN
 10
251.8
 20
327.8
 30
0.0
 11
224.0
 21
327.8
 31
0.0
  0
LINE
  8
L-ZISSEN
 10
255.0
 20
331.0
 30
0.0
 11
255.0
 21
317.2
 31
0.0
  0
LINE
  8
L-ZISSEN
 10
251.8
 20
327.8
 30
0.0
 11
251.8
 21
314.0
 31
0.0
  0
LINE
  8
L-ZISSEN
 10
255.0
 20
331.0
 30
0.0
 11
224.0
 21
331.0
 31
0.0
  0
LINE
  8
L-ZISSEN
 10
308.2
 20
327.8
 30
0.0
 11
308.2
 21
314.0
 31
0.0
  0
LINE
  8
L-ZISSEN
 10
305.0
 20
317.2
 30
0.0
 11
255.0
 21
317.2
 31
0.0
  0
LINE
  8
L-ZISSEN
 10
305.0
 20
331.0
 30
0.0
 11
305.0
 21
317.2
 31
0.0
  0
LINE
  8
L-ZISSEN
 10
308.2
 20
314.0
 30
0.0
 11
251.8
 21
314.0
 31
0.0
  0
LINE
  8
L-ZISSEN
 10
336.0
 20
327.8
 30
0.0
 11
308.2
 21
327.8
 31
0.0
  0
LINE
  8
L-ZISSEN
 10
336.0
 20
327.8
 30
0.0
 11
336.0
 21
331.0
 31
0.0
  0
LINE
  8
L-ZISSEN
 10
224.0
 20
327.8
 30
0.0
 11
224.0
 21
331.0
 31
0.0
  0
LINE
  8
L-ZISSEN
 10
336.0
 20
331.0
 30
0.0
 11
305.0
 21
331.0
 31
0.0
  0
LINE
  8
L-TYUSIN
  6
CENTER
 62
     1
 10
232.0
 20
286.0
 30
0.0
 11
260.0
 21
286.0
 31
0.0
  0
LINE
  8
L-TYUSIN
  6
CENTER
 62
     1
 10
246.5
 20
258.0
 30
0.0
 11
342.0
 21
258.0
 31
0.0
  0
LINE
  8
L-ZISSEN
 10
311.5
 20
310.0
 30
0.0
 11
256.0
 21
310.0
 31
0.0
  0
LINE
  8
L-ZISSEN
 10
311.5
 20
206.0
 30
0.0
 11
256.0
 21
206.0
 31
0.0
  0
ARC
  8
L-ZISSEN
 10
257.5
 20
230.0
 30
0.0
 40
6.0
 50
180.0
 51
255.522488
  0
LINE
  8
L-ZISSEN
 10
256.0
 20
206.0
 30
0.0
 11
256.0
 21
224.190525
 31
0.0
  0
ARC
  8
L-ZISSEN
 10
257.5
 20
286.0
 30
0.0
 40
6.0
 50
104.477512
 51
180.0
  0
LINE
  8
L-ZISSEN
 10
256.0
 20
310.0
 30
0.0
 11
256.0
 21
291.809475
 31
0.0
  0
LINE
  8
L-ZISSEN
 10
257.0
 20
310.0
 30
0.0
 11
257.0
 21
314.0
 31
0.0
  0
LINE
  8
L-ZISSEN
 10
303.0
 20
310.0
 30
0.0
 11
303.0
 21
314.0
 31
0.0
  0
LINE
  8
L-ZISSEN
 10
248.0
 20
210.0
 30
0.0
 11
244.2
 21
210.0
 31
0.0
  0
LINE
  8
L-ZISSEN
 10
244.2
 20
218.5
 30
0.0
 11
248.0
 21
218.5
 31
0.0
  0
LINE
  8
L-ZISSEN
 10
244.2
 20
210.0
 30
0.0
 11
244.2
 21
218.5
 31
0.0
  0
LINE
  8
L-ZISSEN
 10
248.0
 20
209.5
 30
0.0
 11
248.0
 21
250.5
 31
0.0
  0
LINE
  8
L-ZISSEN
 10
255.0
 20
209.5
 30
0.0
 11
255.0
 21
224.545644
 31
0.0
  0
LINE
  8
L-ZISSEN
 10
248.0
 20
209.5
 30
0.0
 11
256.0
 21
209.5
 31
0.0
  0
LINE
  8
L-ZISSEN
 10
244.2
 20
246.0
 30
0.0
 11
237.0
 21
246.0
 31
0.0
  0
LINE
  8
L-ZISSEN
 10
244.2
 20
270.0
 30
0.0
 11
237.0
 21
270.0
 31
0.0
  0
LINE
  8
L-ZISSEN
 10
248.0
 20
306.5
 30
0.0
 11
248.0
 21
265.5
 31
0.0
  0
LINE
  8
L-ZISSEN
 10
237.0
 20
270.0
 30
0.0
 11
237.0
 21
302.0
 31
0.0
  0
LINE
  8
L-ZISSEN
 10
248.0
 20
306.5
 30
0.0
 11
256.0
 21
306.5
 31
0.0
  0
LINE
  8
L-ZISSEN
 10
244.2
 20
306.0
 30
0.0
 11
244.2
 21
297.5
 31
0.0
  0
LINE
  8
L-ZISSEN
 10
244.2
 20
297.5
 30
0.0
 11
248.0
 21
297.5
 31
0.0
  0
LINE
  8
L-ZISSEN
 10
248.0
 20
306.0
 30
0.0
 11
244.2
 21
306.0
 31
0.0
  0
LINE
  8
L-ZISSEN
 10
244.2
 20
302.0
 30
0.0
 11
237.0
 21
302.0
 31
0.0
  0
LINE
  8
L-ZISSEN
 10
255.0
 20
306.5
 30
0.0
 11
255.0
 21
291.454356
 31
0.0
  0
LINE
  8
L-TYUSIN
 10
280.0
 20
322.2
 30
0.0
 11
280.0
 21
179.0
 31
0.0
  0
LINE
  8
L-ZISSEN
 10
311.5
 20
206.0
 30
0.0
 11
311.5
 21
310.0
 31
0.0
  0
LINE
  8
L-TYUSIN
 10
458.0
 20
134.0
 30
0.0
 11
482.0
 21
134.0
 31
0.0
  0
CIRCLE
  8
L-ZISSEN
 10
470.0
 20
134.0
 30
0.0
 40
4.283
  0
ARC
  8
L-ZISSEN
 10
470.0
 20
134.0
 30
0.0
 40
10.0
 50
0.0
 51
180.0
  0
LINE
  8
L-ZISSEN
 10
460.0
 20
134.0
 30
0.0
 11
460.0
 21
124.0
 31
0.0
  0
LINE
  8
L-ZISSEN
 10
480.0
 20
134.0
 30
0.0
 11
480.0
 21
124.0
 31
0.0
  0
LINE
  8
L-ZISSEN
 10
316.3
 20
210.0
 30
0.0
 11
311.5
 21
210.0
 31
0.0
  0
LINE
  8
L-ZISSEN
 10
316.3
 20
218.5
 30
0.0
 11
316.3
 21
210.0
 31
0.0
  0
LINE
  8
L-ZISSEN
 10
311.5
 20
218.5
 30
0.0
 11
316.3
 21
218.5
 31
0.0
  0
LINE
  8
L-ZISSEN
 10
311.5
 20
297.5
 30
0.0
 11
316.3
 21
297.5
 31
0.0
  0
LINE
  8
L-ZISSEN
 10
316.3
 20
297.5
 30
0.0
 11
316.3
 21
306.0
 31
0.0
  0
LINE
  8
L-ZISSEN
 10
316.3
 20
306.0
 30
0.0
 11
311.5
 21
306.0
 31
0.0
  0
LINE
  8
L-ZISSEN
 10
94.0
 20
148.5
 30
0.0
 11
150.0
 21
148.5
 31
0.0
  0
LINE
  8
L-ZISSEN
 10
82.5
 20
146.3
 30
0.0
 11
82.5
 21
140.0
 31
0.0
  0
LINE
  8
L-ZISSEN
 10
74.0
 20
140.0
 30
0.0
 11
74.0
 21
146.3
 31
0.0
  0
LINE
  8
L-ZISSEN
 10
74.0
 20
146.3
 30
0.0
 11
82.5
 21
146.3
 31
0.0
  0
LINE
  8
L-ZISSEN
 10
424.0
 20
146.3
 30
0.0
 11
432.5
 21
146.3
 31
0.0
  0
LINE
  8
L-ZISSEN
 10
424.0
 20
140.0
 30
0.0
 11
424.0
 21
146.3
 31
0.0
  0
LINE
  8
L-ZISSEN
 10
432.5
 20
146.3
 30
0.0
 11
432.5
 21
140.0
 31
0.0
  0
LINE
  8
L-ZISSEN
 10
520.0
 20
146.3
 30
0.0
 11
520.0
 21
140.0
 31
0.0
  0
LINE
  8
L-ZISSEN
 10
511.5
 20
140.0
 30
0.0
 11
511.5
 21
146.3
 31
0.0
  0
LINE
  8
L-ZISSEN
 10
511.5
 20
146.3
 30
0.0
 11
520.0
 21
146.3
 31
0.0
  0
LINE
  8
L-ZISSEN
 10
161.5
 20
146.3
 30
0.0
 11
170.0
 21
146.3
 31
0.0
  0
LINE
  8
L-ZISSEN
 10
161.5
 20
140.0
 30
0.0
 11
161.5
 21
146.3
 31
0.0
  0
LINE
  8
L-ZISSEN
 10
170.0
 20
146.3
 30
0.0
 11
170.0
 21
140.0
 31
0.0
  0
LINE
  8
L-ZISSEN
 10
658.5
 20
148.5
 30
0.0
 11
598.5
 21
148.5
 31
0.0
  0
LINE
  8
L-ZISSEN
 10
251.5
 20
286.0
 30
0.0
 11
251.5
 21
230.0
 31
0.0
  0
LINE
  8
L-ZISSEN
 10
244.2
 20
250.0
 30
0.0
 11
244.2
 21
241.5
 31
0.0
  0
LINE
  8
L-ZISSEN
 10
244.2
 20
241.5
 30
0.0
 11
248.0
 21
241.5
 31
0.0
  0
LINE
  8
L-ZISSEN
 10
248.0
 20
250.0
 30
0.0
 11
244.2
 21
250.0
 31
0.0
  0
LINE
  8
L-ZISSEN
 10
248.0
 20
250.5
 30
0.0
 11
251.5
 21
250.5
 31
0.0
  0
LINE
  8
L-ZISSEN
 10
248.0
 20
266.0
 30
0.0
 11
244.2
 21
266.0
 31
0.0
  0
LINE
  8
L-ZISSEN
 10
244.2
 20
274.5
 30
0.0
 11
248.0
 21
274.5
 31
0.0
  0
LINE
  8
L-ZISSEN
 10
244.2
 20
266.0
 30
0.0
 11
244.2
 21
274.5
 31
0.0
  0
LINE
  8
L-ZISSEN
 10
248.0
 20
265.5
 30
0.0
 11
251.5
 21
265.5
 31
0.0
  0
LINE
  8
L-ZISSEN
 10
316.0
 20
266.0
 30
0.0
 11
316.0
 21
246.0
 31
0.0
  0
LINE
  8
L-ZISSEN
 10
316.0
 20
246.0
 30
0.0
 11
311.5
 21
246.0
 31
0.0
  0
LINE
  8
L-ZISSEN
 10
316.0
 20
266.0
 30
0.0
 11
311.5
 21
266.0
 31
0.0
  0
LINE
  8
L-TYUSIN
  6
CENTER
 62
     1
 10
306.5
 20
256.0
 30
0.0
 11
321.0
 21
256.0
 31
0.0
  0
LINE
  8
L-ZISSEN
 10
316.3
 20
241.5
 30
0.0
 11
311.5
 21
241.5
 31
0.0
  0
LINE
  8
L-ZISSEN
 10
316.3
 20
250.0
 30
0.0
 11
316.3
 21
241.5
 31
0.0
  0
LINE
  8
L-ZISSEN
 10
316.0
 20
250.0
 30
0.0
 11
316.3
 21
250.0
 31
0.0
  0
LINE
  8
L-ZISSEN
 10
316.0
 20
266.0
 30
0.0
 11
316.3
 21
266.0
 31
0.0
  0
LINE
  8
L-ZISSEN
 10
316.3
 20
274.5
 30
0.0
 11
311.5
 21
274.5
 31
0.0
  0
LINE
  8
L-ZISSEN
 10
316.3
 20
266.0
 30
0.0
 11
316.3
 21
274.5
 31
0.0
  0
LINE
  8
L-ZISSEN
 10
337.0
 20
273.0
 30
0.0
 11
337.0
 21
243.0
 31
0.0
  0
LINE
  8
L-ZISSEN
 10
327.0
 20
243.0
 30
0.0
 11
337.0
 21
243.0
 31
0.0
  0
LINE
  8
L-ZISSEN
 10
327.0
 20
273.0
 30
0.0
 11
337.0
 21
273.0
 31
0.0
  0
LINE
  8
L-ZISSEN
 10
327.0
 20
248.36932
 30
0.0
 11
327.0
 21
238.944864
 31
0.0
  0
LINE
  8
L-ZISSEN
 10
315.196152
 20
218.5
 30
0.0
 11
327.0
 21
238.944864
 31
0.0
  0
LINE
  8
L-ZISSEN
 10
315.196152
 20
297.5
 30
0.0
 11
327.0
 21
277.055136
 31
0.0
  0
LINE
  8
L-ZISSEN
 10
327.0
 20
267.63068
 30
0.0
 11
327.0
 21
277.055136
 31
0.0
  0
LINE
  8
L-ZISSEN
 10
452.944864
 20
90.5
 30
0.0
 11
452.944864
 21
67.5
 31
0.0
  0
LINE
  8
L-ZISSEN
 10
491.055136
 20
90.5
 30
0.0
 11
491.055136
 21
67.5
 31
0.0
  0
LINE
  8
L-ZISSEN
 10
327.0
 20
248.36932
 30
0.0
 11
316.3
 21
248.36932
 31
0.0
  0
LINE
  8
L-ZISSEN
 10
327.0
 20
267.63068
 30
0.0
 11
316.3
 21
267.63068
 31
0.0
  0
CIRCLE
  8
L-ZISSEN
 10
262.25
 20
214.25
 30
0.0
 40
4.25
  0
CIRCLE
  8
L-ZISSEN
 10
297.75
 20
214.25
 30
0.0
 40
4.25
  0
CIRCLE
  8
L-ZISSEN
 10
262.25
 20
245.75
 30
0.0
 40
4.25
  0
CIRCLE
  8
L-ZISSEN
 10
297.75
 20
245.75
 30
0.0
 40
4.25
  0
CIRCLE
  8
L-ZISSEN
 10
297.75
 20
270.25
 30
0.0
 40
4.25
  0
CIRCLE
  8
L-ZISSEN
 10
262.25
 20
270.25
 30
0.0
 40
4.25
  0
CIRCLE
  8
L-ZISSEN
 10
297.75
 20
301.75
 30
0.0
 40
4.25
  0
CIRCLE
  8
L-ZISSEN
 10
262.25
 20
301.75
 30
0.0
 40
4.25
  0
LINE
  8
L-ZISSEN
 10
311.5
 20
286.0
 30
0.0
 11
251.5
 21
286.0
 31
0.0
  0
LINE
  8
L-ZISSEN
 10
311.5
 20
230.0
 30
0.0
 11
251.5
 21
230.0
 31
0.0
  0
LINE
  8
L-TYUSIN
 10
125.0
 20
79.0
 30
0.0
 11
175.0
 21
79.0
 31
0.0
  0
TEXT
  8
L-ZISSEN
 10
131.0
 20
347.0
 30
0.0
 40
4.5
  1
2
  0
TEXT
  8
L-ZISSEN
 10
131.0
 20
333.0
 30
0.0
 40
4.5
  1
4
  0
SOLID
  8
L-ZISSEN
 10
338.116638
 20
77.307596
 30
0.0
 11
338.605167
 21
77.76123
 31
0.0
 12
337.0
 22
79.0
 32
0.0
 13
337.0
 23
79.0
 33
0.0
  0
LINE
  8
L-ZISSEN
 10
338.360902
 20
77.534413
 30
0.0
 11
350.0
 21
65.0
 31
0.0
  0
LINE
  8
L-ZISSEN
 10
350.0
 20
65.0
 30
0.0
 11
352.0
 21
65.0
 31
0.0
  0
TEXT
  8
L-ZISSEN
 10
354.0
 20
62.75
 30
0.0
 40
4.5
  1
IN
  0
TEXT
  8
L-ZISSEN
 10
355.0
 20
55.0
 30
0.0
 40
4.5
  1
Rc 1/4
  0
TEXT
  8
L-ZISSEN
 10
355.0
 20
45.0
 30
0.0
 40
4.5
  1
Rc 3/8
  0
TEXT
  8
L-ZISSEN
 10
355.0
 20
35.0
 30
0.0
 40
4.5
  1
Rc 1/2
  0
ENDSEC
  0
EOF
