  0
SECTION
  2
HEADER
  9
$ACADVER
  1
AC1006
  9
$INSBASE
 10
0.0
 20
0.0
 30
0.0
  9
$EXTMIN
 10
70.0
 20
47.75
  9
$EXTMAX
 10
1971.5
 20
1160.0
  9
$LIMMIN
 10
0.0
 20
0.0
  9
$LIMMAX
 10
2100.0
 20
1485.0
  9
$ORTHOMODE
 70
     0
  9
$REGENMODE
 70
     1
  9
$FILLMODE
 70
     1
  9
$QTEXTMODE
 70
     0
  9
$MIRRTEXT
 70
     1
  9
$DRAGMODE
 70
     2
  9
$LTSCALE
 40
1.0
  9
$OSMODE
 70
     0
  9
$ATTMODE
 70
     1
  9
$TEXTSIZE
 40
4.5
  9
$TRACEWID
 40
0.05
  9
$TEXTSTYLE
  7
STANDARD
  9
$CLAYER
  8
L-ZISSEN
  9
$CELTYPE
  6
BYLAYER
  9
$CECOLOR
 62
   256
  9
$DIMSCALE
 40
1.0
  9
$DIMASZ
 40
2.0
  9
$DIMEXO
 40
1.0
  9
$DIMDLI
 40
0.38
  9
$DIMRND
 40
0.0
  9
$DIMDLE
 40
1.0
  9
$DIMEXE
 40
1.0
  9
$DIMTP
 40
0.0
  9
$DIMTM
 40
0.0
  9
$DIMTXT
 40
4.5
  9
$DIMCEN
 40
0.09
  9
$DIMTSZ
 40
0.0
  9
$DIMTOL
 70
     0
  9
$DIMLIM
 70
     0
  9
$DIMTIH
 70
     0
  9
$DIMTOH
 70
     0
  9
$DIMSE1
 70
     0
  9
$DIMSE2
 70
     0
  9
$DIMTAD
 70
     1
  9
$DIMZIN
 70
     0
  9
$DIMBLK
  1

  9
$DIMASO
 70
     0
  9
$DIMSHO
 70
     0
  9
$DIMPOST
  1

  9
$DIMAPOST
  1

  9
$DIMALT
 70
     0
  9
$DIMALTD
 70
     2
  9
$DIMALTF
 40
25.4
  9
$DIMLFAC
 40
1.0
  9
$DIMTOFL
 70
     1
  9
$DIMTVP
 40
0.0
  9
$DIMTIX
 70
     0
  9
$DIMSOXD
 70
     0
  9
$DIMSAH
 70
     0
  9
$DIMBLK1
  1

  9
$DIMBLK2
  1

  9
$LUNITS
 70
     2
  9
$LUPREC
 70
     4
  9
$AXISMODE
 70
     0
  9
$AXISUNIT
 10
0.0
 20
0.0
  9
$SKETCHINC
 40
0.1
  9
$FILLETRAD
 40
0.0
  9
$AUNITS
 70
     0
  9
$AUPREC
 70
     0
  9
$MENU
  1
acad
  9
$ELEVATION
 40
0.0
  9
$THICKNESS
 40
0.0
  9
$LIMCHECK
 70
     0
  9
$BLIPMODE
 70
     1
  9
$CHAMFERA
 40
0.0
  9
$CHAMFERB
 40
0.0
  9
$SKPOLY
 70
     0
  9
$TDCREATE
 40
2449251.3959535882
  9
$TDUPDATE
 40
2449251.3959535882
  9
$TDINDWG
 40
0.0000000000
  9
$TDUSRTIMER
 40
0.0000000000
  9
$USRTIMER
 70
     1
  9
$ANGBASE
 50
0.0
  9
$ANGDIR
 70
     0
  9
$PDMODE
 70
     0
  9
$PDSIZE
 40
0.0
  9
$PLINEWID
 40
0.0
  9
$COORDS
 70
     2
  9
$SPLFRAME
 70
     0
  9
$SPLINETYPE
 70
     6
  9
$SPLINESEGS
 70
     8
  9
$ATTDIA
 70
     0
  9
$ATTREQ
 70
     1
  9
$HANDLING
 70
     0
  9
$HANDSEED
  5
0
  9
$SURFTAB1
 70
     6
  9
$SURFTAB2
 70
     6
  9
$SURFTYPE
 70
     6
  9
$SURFU
 70
     6
  9
$SURFV
 70
     6
  9
$FLATLAND
 70
     0
  9
$UCSNAME
  2

  9
$UCSORG
 10
0.0
 20
0.0
 30
0.0
  9
$UCSXDIR
 10
1.0
 20
0.0
 30
0.0
  9
$UCSYDIR
 10
0.0
 20
1.0
 30
0.0
  9
$USERI1
 70
     0
  9
$USERI2
 70
     0
  9
$USERI3
 70
     0
  9
$USERI4
 70
     0
  9
$USERI5
 70
     0
  9
$USERR1
 40
0.0
  9
$USERR2
 40
0.0
  9
$USERR3
 40
0.0
  9
$USERR4
 40
0.0
  9
$USERR5
 40
0.0
  9
$WORLDVIEW
 70
     1
  0
ENDSEC
  0
SECTION
  2
TABLES
  0
TABLE
  2
VPORT
 70
     2
  0
VPORT
  2
*ACTIVE
 70
     0
 10
0.0
 20
0.0
 11
1.0
 21
1.0
 12
1191.139945
 22
769.122594
 13
0.0
 23
0.0
 14
5.0
 24
5.0
 15
0.0
 25
0.0
 16
0.0
 26
0.0
 36
1.0
 17
0.0
 27
0.0
 37
0.0
 40
1538.245188
 41
1.5487
 42
50.0
 43
0.0
 44
0.0
 50
0.0
 51
0.0
 71
     0
 72
   100
 73
     1
 74
     0
 75
     0
 76
     0
 77
     0
 78
     0
  0
ENDTAB
  0
TABLE
  2
LTYPE
 70
     2
  0
LTYPE
  2
CONTINUOUS
 70
    64
  3
Solid line
 72
    65
 73
     0
 40
0.0
  0
LTYPE
  2
CENTER
 70
    64
  3
____ _ ____ _ ____ _ ____ _ 
 72
    65
 73
     4
 40
60.0
 49
45.0
 49
-5.0
 49
5.0
 49
-5.0
  0
ENDTAB
  0
TABLE
  2
LAYER
 70
     3
  0
LAYER
  2
0
 70
     0
 62
     7
  6
CONTINUOUS
  0
LAYER
  2
L-ZISSEN
 70
    64
 62
     7
  6
CONTINUOUS
  0
LAYER
  2
L-TYUSIN
 70
    64
 62
     1
  6
CENTER
  0
ENDTAB
  0
TABLE
  2
STYLE
 70
     1
  0
STYLE
  2
STANDARD
 70
    64
 40
0.0
 41
1.0
 50
0.0
 71
     0
 42
4.5
  3
TXT
  4

  0
ENDTAB
  0
TABLE
  2
VIEW
 70
     0
  0
ENDTAB
  0
TABLE
  2
UCS
 70
     0
  0
ENDTAB
  0
TABLE
  2
DWGMGR
 70
     0
  0
ENDTAB
  0
ENDSEC
  0
SECTION
  2
BLOCKS
  0
ENDSEC
  0
SECTION
  2
ENTITIES
  0
LINE
  8
L-ZISSEN
  6
CONTINUOUS
 62
     7
 10
1737.5
 20
340.0
 30
0.0
 11
1732.0
 21
340.0
 31
0.0
  0
LINE
  8
L-ZISSEN
  6
CONTINUOUS
 62
     7
 10
1750.0
 20
343.5
 30
0.0
 11
1737.5
 21
343.5
 31
0.0
  0
LINE
  8
L-ZISSEN
  6
CONTINUOUS
 62
     7
 10
1737.5
 20
343.5
 30
0.0
 11
1737.5
 21
327.5
 31
0.0
  0
LINE
  8
L-ZISSEN
  6
CONTINUOUS
 62
     7
 10
1737.5
 20
327.5
 30
0.0
 11
1750.0
 21
327.5
 31
0.0
  0
LINE
  8
L-ZISSEN
  6
CONTINUOUS
 62
     7
 10
1760.0
 20
345.0
 30
0.0
 11
1750.0
 21
345.0
 31
0.0
  0
LINE
  8
L-ZISSEN
  6
CONTINUOUS
 62
     7
 10
1750.0
 20
255.0
 30
0.0
 11
1750.0
 21
345.0
 31
0.0
  0
LINE
  8
L-ZISSEN
  6
CONTINUOUS
 62
     7
 10
1732.0
 20
260.0
 30
0.0
 11
1732.0
 21
340.0
 31
0.0
  0
LINE
  8
L-ZISSEN
  6
CONTINUOUS
 62
     7
 10
1737.5
 20
260.0
 30
0.0
 11
1732.0
 21
260.0
 31
0.0
  0
LINE
  8
L-ZISSEN
  6
CONTINUOUS
 62
     7
 10
1760.0
 20
255.0
 30
0.0
 11
1750.0
 21
255.0
 31
0.0
  0
LINE
  8
L-ZISSEN
  6
CONTINUOUS
 62
     7
 10
1737.5
 20
272.5
 30
0.0
 11
1750.0
 21
272.5
 31
0.0
  0
LINE
  8
L-ZISSEN
  6
CONTINUOUS
 62
     7
 10
1737.5
 20
256.5
 30
0.0
 11
1737.5
 21
272.5
 31
0.0
  0
LINE
  8
L-ZISSEN
  6
CONTINUOUS
 62
     7
 10
1750.0
 20
256.5
 30
0.0
 11
1737.5
 21
256.5
 31
0.0
  0
LINE
  8
L-TYUSIN
  6
CENTER
 62
     1
 10
420.0
 20
600.0
 30
0.0
 11
385.0
 21
600.0
 31
0.0
  0
LINE
  8
L-ZISSEN
  6
CONTINUOUS
 62
     7
 10
415.0
 20
450.0
 30
0.0
 11
505.0
 21
450.0
 31
0.0
  0
LINE
  8
L-ZISSEN
  6
CONTINUOUS
 62
     7
 10
420.0
 20
427.5
 30
0.0
 11
420.0
 21
422.0
 31
0.0
  0
LINE
  8
L-ZISSEN
  6
CONTINUOUS
 62
     7
 10
416.5
 20
440.0
 30
0.0
 11
416.5
 21
427.5
 31
0.0
  0
LINE
  8
L-ZISSEN
  6
CONTINUOUS
 62
     7
 10
416.5
 20
427.5
 30
0.0
 11
432.5
 21
427.5
 31
0.0
  0
LINE
  8
L-ZISSEN
  6
CONTINUOUS
 62
     7
 10
432.5
 20
427.5
 30
0.0
 11
432.5
 21
440.0
 31
0.0
  0
LINE
  8
L-ZISSEN
  6
CONTINUOUS
 62
     7
 10
505.0
 20
440.0
 30
0.0
 11
415.0
 21
440.0
 31
0.0
  0
LINE
  8
L-ZISSEN
  6
CONTINUOUS
 62
     7
 10
500.0
 20
422.0
 30
0.0
 11
420.0
 21
422.0
 31
0.0
  0
LINE
  8
L-ZISSEN
  6
CONTINUOUS
 62
     7
 10
500.0
 20
427.5
 30
0.0
 11
500.0
 21
422.0
 31
0.0
  0
LINE
  8
L-ZISSEN
  6
CONTINUOUS
 62
     7
 10
487.5
 20
427.5
 30
0.0
 11
487.5
 21
440.0
 31
0.0
  0
LINE
  8
L-ZISSEN
  6
CONTINUOUS
 62
     7
 10
503.5
 20
427.5
 30
0.0
 11
487.5
 21
427.5
 31
0.0
  0
LINE
  8
L-ZISSEN
  6
CONTINUOUS
 62
     7
 10
503.5
 20
440.0
 30
0.0
 11
503.5
 21
427.5
 31
0.0
  0
LINE
  8
L-ZISSEN
  6
CONTINUOUS
 62
     7
 10
415.0
 20
650.0
 30
0.0
 11
415.0
 21
440.0
 31
0.0
  0
LINE
  8
L-ZISSEN
 10
513.0
 20
650.0
 30
0.0
 11
407.0
 21
650.0
 31
0.0
  0
LINE
  8
L-ZISSEN
  6
CONTINUOUS
 62
     7
 10
392.5
 20
640.0
 30
0.0
 11
390.0
 21
640.0
 31
0.0
  0
LINE
  8
L-ZISSEN
  6
CONTINUOUS
 62
     7
 10
405.0
 20
643.5
 30
0.0
 11
392.5
 21
643.5
 31
0.0
  0
LINE
  8
L-ZISSEN
  6
CONTINUOUS
 62
     7
 10
392.5
 20
643.5
 30
0.0
 11
392.5
 21
627.5
 31
0.0
  0
LINE
  8
L-ZISSEN
  6
CONTINUOUS
 62
     7
 10
392.5
 20
627.5
 30
0.0
 11
405.0
 21
627.5
 31
0.0
  0
LINE
  8
L-ZISSEN
  6
CONTINUOUS
 62
     7
 10
405.0
 20
555.0
 30
0.0
 11
405.0
 21
645.0
 31
0.0
  0
LINE
  8
L-ZISSEN
  6
CONTINUOUS
 62
     7
 10
390.0
 20
560.0
 30
0.0
 11
390.0
 21
640.0
 31
0.0
  0
LINE
  8
L-ZISSEN
  6
CONTINUOUS
 62
     7
 10
392.5
 20
560.0
 30
0.0
 11
390.0
 21
560.0
 31
0.0
  0
LINE
  8
L-ZISSEN
  6
CONTINUOUS
 62
     7
 10
392.5
 20
572.5
 30
0.0
 11
405.0
 21
572.5
 31
0.0
  0
LINE
  8
L-ZISSEN
  6
CONTINUOUS
 62
     7
 10
392.5
 20
556.5
 30
0.0
 11
392.5
 21
572.5
 31
0.0
  0
LINE
  8
L-ZISSEN
  6
CONTINUOUS
 62
     7
 10
405.0
 20
556.5
 30
0.0
 11
392.5
 21
556.5
 31
0.0
  0
LINE
  8
L-ZISSEN
  6
CONTINUOUS
 62
     7
 10
515.0
 20
645.0
 30
0.0
 11
405.0
 21
645.0
 31
0.0
  0
LINE
  8
L-ZISSEN
  6
CONTINUOUS
 62
     7
 10
415.0
 20
555.0
 30
0.0
 11
405.0
 21
555.0
 31
0.0
  0
LINE
  8
L-ZISSEN
 10
555.0
 20
671.0
 30
0.0
 11
508.5
 21
671.0
 31
0.0
  0
LINE
  8
L-ZISSEN
 10
555.0
 20
666.5
 30
0.0
 11
555.0
 21
671.0
 31
0.0
  0
LINE
  8
L-ZISSEN
 10
555.0
 20
666.5
 30
0.0
 11
513.0
 21
666.5
 31
0.0
  0
ARC
  8
L-ZISSEN
  6
CONTINUOUS
 62
     7
 10
424.5
 20
564.5
 30
0.0
 40
8.0
 50
74.781545
 51
312.45415
  0
CIRCLE
  8
L-ZISSEN
  6
CONTINUOUS
 62
     7
 10
495.5
 20
635.5
 30
0.0
 40
8.0
  0
CIRCLE
  8
L-ZISSEN
  6
CONTINUOUS
 62
     7
 10
424.5
 20
635.5
 30
0.0
 40
8.0
  0
LINE
  8
L-ZISSEN
 10
513.0
 20
650.0
 30
0.0
 11
513.0
 21
666.5
 31
0.0
  0
LINE
  8
L-ZISSEN
 10
508.5
 20
654.5
 30
0.0
 11
411.5
 21
654.5
 31
0.0
  0
LINE
  8
L-ZISSEN
 10
508.5
 20
654.5
 30
0.0
 11
508.5
 21
671.0
 31
0.0
  0
LINE
  8
L-ZISSEN
 10
411.5
 20
654.5
 30
0.0
 11
411.5
 21
671.0
 31
0.0
  0
LINE
  8
L-ZISSEN
 10
407.0
 20
650.0
 30
0.0
 11
407.0
 21
666.5
 31
0.0
  0
LINE
  8
L-ZISSEN
 10
365.0
 20
666.5
 30
0.0
 11
407.0
 21
666.5
 31
0.0
  0
LINE
  8
L-ZISSEN
 10
365.0
 20
666.5
 30
0.0
 11
365.0
 21
671.0
 31
0.0
  0
LINE
  8
L-ZISSEN
 10
365.0
 20
671.0
 30
0.0
 11
411.5
 21
671.0
 31
0.0
  0
LINE
  8
L-TYUSIN
  6
CENTER
 62
     1
 10
535.0
 20
676.0
 30
0.0
 11
535.0
 21
661.5
 31
0.0
  0
LINE
  8
L-TYUSIN
  6
CENTER
 62
     1
 10
385.0
 20
676.0
 30
0.0
 11
385.0
 21
661.5
 31
0.0
  0
LINE
  8
L-ZISSEN
  6
CONTINUOUS
 62
     7
 10
416.5
 20
667.0
 30
0.0
 11
416.5
 21
654.5
 31
0.0
  0
LINE
  8
L-ZISSEN
  6
CONTINUOUS
 62
     7
 10
432.5
 20
667.0
 30
0.0
 11
416.5
 21
667.0
 31
0.0
  0
LINE
  8
L-ZISSEN
  6
CONTINUOUS
 62
     7
 10
432.5
 20
654.5
 30
0.0
 11
432.5
 21
667.0
 31
0.0
  0
LINE
  8
L-ZISSEN
  6
CONTINUOUS
 62
     7
 10
503.5
 20
667.0
 30
0.0
 11
487.5
 21
667.0
 31
0.0
  0
LINE
  8
L-ZISSEN
  6
CONTINUOUS
 62
     7
 10
487.5
 20
667.0
 30
0.0
 11
487.5
 21
654.5
 31
0.0
  0
LINE
  8
L-ZISSEN
  6
CONTINUOUS
 62
     7
 10
503.5
 20
654.5
 30
0.0
 11
503.5
 21
667.0
 31
0.0
  0
TEXT
  8
L-ZISSEN
 10
1735.0
 20
615.0
 30
0.0
 40
4.5
  1
MODEL NO. : 46B-C00-****
  0
TEXT
  8
L-ZISSEN
 10
1735.0
 20
625.0
 30
0.0
 40
4.5
  1
FLANGE
  0
LINE
  8
L-ZISSEN
 10
1556.7
 20
739.0
 30
0.0
 11
1556.7
 21
701.0
 31
0.0
  0
LINE
  8
L-ZISSEN
 10
1546.1
 20
746.0
 30
0.0
 11
1546.1
 21
694.0
 31
0.0
  0
LINE
  8
L-ZISSEN
 10
1472.0
 20
746.0
 30
0.0
 11
1546.1
 21
746.0
 31
0.0
  0
LINE
  8
L-ZISSEN
 10
1327.9
 20
694.0
 30
0.0
 11
1546.1
 21
694.0
 31
0.0
  0
LINE
  8
L-ZISSEN
 10
1550.74282
 20
739.0
 30
0.0
 11
1556.7
 21
739.0
 31
0.0
  0
LINE
  8
L-ZISSEN
 10
1550.74282
 20
701.0
 30
0.0
 11
1556.7
 21
701.0
 31
0.0
  0
LINE
  8
L-ZISSEN
 10
1550.74282
 20
744.49995
 30
0.0
 11
1546.1
 21
744.49995
 31
0.0
  0
LINE
  8
L-ZISSEN
 10
1556.7
 20
731.0
 30
0.0
 11
1557.7
 21
731.0
 31
0.0
  0
LINE
  8
L-ZISSEN
 10
1557.7
 20
709.0
 30
0.0
 11
1556.7
 21
709.0
 31
0.0
  0
LINE
  8
L-ZISSEN
 10
1557.7
 20
731.0
 30
0.0
 11
1557.7
 21
709.0
 31
0.0
  0
LINE
  8
L-ZISSEN
  6
CONTINUOUS
 62
     7
 10
1474.1
 20
694.0
 30
0.0
 11
1474.1
 21
746.0
 31
0.0
  0
LINE
  8
L-ZISSEN
 10
1550.74282
 20
735.50005
 30
0.0
 11
1550.74282
 21
744.49995
 31
0.0
  0
LINE
  8
L-ZISSEN
 10
1550.74282
 20
735.50005
 30
0.0
 11
1546.1
 21
735.50005
 31
0.0
  0
LINE
  8
L-ZISSEN
 10
1550.74282
 20
704.49995
 30
0.0
 11
1546.1
 21
704.49995
 31
0.0
  0
LINE
  8
L-ZISSEN
 10
1550.74282
 20
704.49995
 30
0.0
 11
1550.74282
 21
695.50005
 31
0.0
  0
LINE
  8
L-ZISSEN
 10
1550.74282
 20
695.50005
 30
0.0
 11
1546.1
 21
695.50005
 31
0.0
  0
CIRCLE
  8
L-ZISSEN
 10
1437.0
 20
741.0
 30
0.0
 40
9.3155
  0
LINE
  8
L-ZISSEN
  6
CONTINUOUS
 62
     7
 10
1409.5
 20
759.1
 30
0.0
 11
1402.5
 21
759.1
 31
0.0
  0
LINE
  8
L-ZISSEN
  6
CONTINUOUS
 62
     7
 10
1409.5
 20
755.5
 30
0.0
 11
1409.5
 21
759.1
 31
0.0
  0
LINE
  8
L-ZISSEN
  6
CONTINUOUS
 62
     7
 10
1402.5
 20
755.5
 30
0.0
 11
1402.5
 21
759.1
 31
0.0
  0
LINE
  8
L-ZISSEN
  6
CONTINUOUS
 62
     7
 10
1402.0
 20
755.5
 30
0.0
 11
1402.0
 21
746.0
 31
0.0
  0
LINE
  8
L-ZISSEN
  6
CONTINUOUS
 62
     7
 10
1471.5
 20
755.5
 30
0.0
 11
1471.5
 21
759.1
 31
0.0
  0
LINE
  8
L-ZISSEN
  6
CONTINUOUS
 62
     7
 10
1464.5
 20
755.5
 30
0.0
 11
1464.5
 21
759.1
 31
0.0
  0
LINE
  8
L-ZISSEN
  6
CONTINUOUS
 62
     7
 10
1464.5
 20
759.1
 30
0.0
 11
1471.5
 21
759.1
 31
0.0
  0
LINE
  8
L-ZISSEN
  6
CONTINUOUS
 62
     7
 10
1429.5
 20
754.0
 30
0.0
 11
1429.5
 21
751.618381
 31
0.0
  0
LINE
  8
L-ZISSEN
  6
CONTINUOUS
 62
     7
 10
1444.5
 20
754.0
 30
0.0
 11
1444.5
 21
751.618381
 31
0.0
  0
ARC
  8
L-ZISSEN
  6
CONTINUOUS
 62
     7
 10
1437.0
 20
741.0
 30
0.0
 40
13.0
 50
125.234418
 51
54.765582
  0
LINE
  8
L-ZISSEN
  6
CONTINUOUS
 62
     7
 10
1474.1
 20
694.0
 30
0.0
 11
1474.1
 21
746.0
 31
0.0
  0
LINE
  8
L-ZISSEN
  6
CONTINUOUS
 62
     7
 10
1402.0
 20
755.5
 30
0.0
 11
1471.9
 21
755.5
 31
0.0
  0
LINE
  8
L-ZISSEN
  6
CONTINUOUS
 62
     7
 10
1472.0
 20
755.5
 30
0.0
 11
1472.0
 21
746.0
 31
0.0
  0
LINE
  8
L-ZISSEN
  6
CONTINUOUS
 62
     7
 10
1471.9
 20
754.0
 30
0.0
 11
1402.0
 21
754.0
 31
0.0
  0
LINE
  8
L-ZISSEN
 10
473.0
 20
522.0
 30
0.0
 11
447.0
 21
522.0
 31
0.0
  0
LINE
  8
L-ZISSEN
 10
473.0
 20
524.0
 30
0.0
 11
473.0
 21
522.0
 31
0.0
  0
LINE
  8
L-ZISSEN
 10
473.0
 20
578.0
 30
0.0
 11
447.0
 21
578.0
 31
0.0
  0
LINE
  8
L-ZISSEN
 10
473.0
 20
578.0
 30
0.0
 11
473.0
 21
576.0
 31
0.0
  0
LINE
  8
L-ZISSEN
 10
447.0
 20
578.0
 30
0.0
 11
447.0
 21
576.0
 31
0.0
  0
LINE
  8
L-ZISSEN
 10
447.0
 20
524.0
 30
0.0
 11
447.0
 21
522.0
 31
0.0
  0
LINE
  8
L-ZISSEN
  6
CONTINUOUS
 62
     7
 10
431.9
 20
524.0
 30
0.0
 11
431.9
 21
576.0
 31
0.0
  0
LINE
  8
L-ZISSEN
  6
CONTINUOUS
 62
     7
 10
429.9
 20
576.0
 30
0.0
 11
429.9
 21
524.0
 31
0.0
  0
LINE
  8
L-ZISSEN
  6
CONTINUOUS
 62
     7
 10
426.6
 20
574.5
 30
0.0
 11
426.6
 21
565.5
 31
0.0
  0
LINE
  8
L-ZISSEN
  6
CONTINUOUS
 62
     7
 10
429.9
 20
565.5
 30
0.0
 11
426.6
 21
565.5
 31
0.0
  0
LINE
  8
L-ZISSEN
  6
CONTINUOUS
 62
     7
 10
429.9
 20
574.5
 30
0.0
 11
426.6
 21
574.5
 31
0.0
  0
LINE
  8
L-ZISSEN
  6
CONTINUOUS
 62
     7
 10
429.9
 20
534.5
 30
0.0
 11
426.6
 21
534.5
 31
0.0
  0
LINE
  8
L-ZISSEN
  6
CONTINUOUS
 62
     7
 10
429.9
 20
525.5
 30
0.0
 11
426.6
 21
525.5
 31
0.0
  0
LINE
  8
L-ZISSEN
  6
CONTINUOUS
 62
     7
 10
426.6
 20
534.5
 30
0.0
 11
426.6
 21
525.5
 31
0.0
  0
LINE
  8
L-ZISSEN
  6
CONTINUOUS
 62
     7
 10
488.1
 20
524.0
 30
0.0
 11
488.1
 21
576.0
 31
0.0
  0
LINE
  8
L-ZISSEN
  6
CONTINUOUS
 62
     7
 10
498.1
 20
576.0
 30
0.0
 11
544.1
 21
574.393644
 31
0.0
  0
LINE
  8
L-ZISSEN
  6
CONTINUOUS
 62
     7
 10
545.1
 20
539.0
 30
0.0
 11
544.1
 21
539.0
 31
0.0
  0
LINE
  8
L-ZISSEN
  6
CONTINUOUS
 62
     7
 10
545.1
 20
561.0
 30
0.0
 11
545.1
 21
539.0
 31
0.0
  0
LINE
  8
L-ZISSEN
  6
CONTINUOUS
 62
     7
 10
545.1
 20
561.0
 30
0.0
 11
544.1
 21
561.0
 31
0.0
  0
LINE
  8
L-ZISSEN
  6
CONTINUOUS
 62
     7
 10
544.1
 20
525.606356
 30
0.0
 11
544.1
 21
574.393644
 31
0.0
  0
LINE
  8
L-ZISSEN
  6
CONTINUOUS
 62
     7
 10
498.1
 20
524.0
 30
0.0
 11
544.1
 21
525.606356
 31
0.0
  0
LINE
  8
L-ZISSEN
 10
488.1
 20
524.0
 30
0.0
 11
488.1
 21
576.0
 31
0.0
  0
LINE
  8
L-ZISSEN
 10
498.1
 20
576.0
 30
0.0
 11
429.9
 21
576.0
 31
0.0
  0
LINE
  8
L-ZISSEN
 10
498.1
 20
524.0
 30
0.0
 11
429.9
 21
524.0
 31
0.0
  0
LINE
  8
L-ZISSEN
 10
434.0
 20
524.0
 30
0.0
 11
434.0
 21
576.0
 31
0.0
  0
LINE
  8
L-ZISSEN
 10
486.0
 20
524.0
 30
0.0
 11
486.0
 21
576.0
 31
0.0
  0
LINE
  8
L-ZISSEN
 10
1546.1
 20
784.0
 30
0.0
 11
1327.9
 21
784.0
 31
0.0
  0
LINE
  8
L-ZISSEN
 10
1472.0
 20
784.0
 30
0.0
 11
1472.0
 21
836.0
 31
0.0
  0
LINE
  8
L-ZISSEN
  6
CONTINUOUS
 62
     7
 10
1474.1
 20
784.0
 30
0.0
 11
1474.1
 21
836.0
 31
0.0
  0
LINE
  8
L-ZISSEN
 10
1424.0
 20
782.0
 30
0.0
 11
1424.0
 21
784.0
 31
0.0
  0
LINE
  8
L-ZISSEN
 10
1450.0
 20
782.0
 30
0.0
 11
1424.0
 21
782.0
 31
0.0
  0
LINE
  8
L-ZISSEN
 10
1450.0
 20
782.0
 30
0.0
 11
1450.0
 21
784.0
 31
0.0
  0
LINE
  8
L-ZISSEN
 10
1546.1
 20
836.0
 30
0.0
 11
1327.9
 21
836.0
 31
0.0
  0
LINE
  8
L-ZISSEN
 10
1450.0
 20
838.0
 30
0.0
 11
1450.0
 21
836.0
 31
0.0
  0
LINE
  8
L-ZISSEN
 10
1450.0
 20
838.0
 30
0.0
 11
1424.0
 21
838.0
 31
0.0
  0
LINE
  8
L-ZISSEN
 10
1424.0
 20
838.0
 30
0.0
 11
1424.0
 21
836.0
 31
0.0
  0
LINE
  8
L-ZISSEN
 10
1550.74282
 20
785.50005
 30
0.0
 11
1546.1
 21
785.50005
 31
0.0
  0
LINE
  8
L-ZISSEN
 10
1550.74282
 20
794.49995
 30
0.0
 11
1550.74282
 21
785.50005
 31
0.0
  0
LINE
  8
L-ZISSEN
 10
1550.74282
 20
794.49995
 30
0.0
 11
1546.1
 21
794.49995
 31
0.0
  0
LINE
  8
L-ZISSEN
 10
1550.74282
 20
825.50005
 30
0.0
 11
1546.1
 21
825.50005
 31
0.0
  0
LINE
  8
L-ZISSEN
 10
1550.74282
 20
825.50005
 30
0.0
 11
1550.74282
 21
834.49995
 31
0.0
  0
LINE
  8
L-ZISSEN
 10
1557.7
 20
821.0
 30
0.0
 11
1557.7
 21
799.0
 31
0.0
  0
LINE
  8
L-ZISSEN
 10
1557.7
 20
799.0
 30
0.0
 11
1556.7
 21
799.0
 31
0.0
  0
LINE
  8
L-ZISSEN
 10
1556.7
 20
821.0
 30
0.0
 11
1557.7
 21
821.0
 31
0.0
  0
LINE
  8
L-ZISSEN
 10
1550.74282
 20
834.49995
 30
0.0
 11
1546.1
 21
834.49995
 31
0.0
  0
LINE
  8
L-ZISSEN
 10
1550.74282
 20
791.0
 30
0.0
 11
1556.7
 21
791.0
 31
0.0
  0
LINE
  8
L-ZISSEN
 10
1550.74282
 20
829.0
 30
0.0
 11
1556.7
 21
829.0
 31
0.0
  0
LINE
  8
L-ZISSEN
 10
1546.1
 20
836.0
 30
0.0
 11
1546.1
 21
784.0
 31
0.0
  0
LINE
  8
L-ZISSEN
 10
1556.7
 20
829.0
 30
0.0
 11
1556.7
 21
791.0
 31
0.0
  0
CIRCLE
  8
L-ZISSEN
 10
1640.0
 20
720.0
 30
0.0
 40
11.0
  0
LINE
  8
L-ZISSEN
  6
CONTINUOUS
 62
     7
 10
1665.5
 20
755.5
 30
0.0
 11
1665.5
 21
759.1
 31
0.0
  0
LINE
  8
L-ZISSEN
  6
CONTINUOUS
 62
     7
 10
1658.5
 20
755.5
 30
0.0
 11
1658.5
 21
759.1
 31
0.0
  0
LINE
  8
L-ZISSEN
  6
CONTINUOUS
 62
     7
 10
1658.5
 20
759.1
 30
0.0
 11
1665.5
 21
759.1
 31
0.0
  0
LINE
  8
L-ZISSEN
 10
1666.0
 20
728.0
 30
0.0
 11
1668.0
 21
728.0
 31
0.0
  0
LINE
  8
L-ZISSEN
 10
1612.0
 20
728.0
 30
0.0
 11
1614.0
 21
728.0
 31
0.0
  0
LINE
  8
L-ZISSEN
  6
CONTINUOUS
 62
     7
 10
1621.5
 20
759.1
 30
0.0
 11
1614.5
 21
759.1
 31
0.0
  0
LINE
  8
L-ZISSEN
  6
CONTINUOUS
 62
     7
 10
1621.5
 20
755.5
 30
0.0
 11
1621.5
 21
759.1
 31
0.0
  0
LINE
  8
L-ZISSEN
  6
CONTINUOUS
 62
     7
 10
1614.5
 20
755.5
 30
0.0
 11
1614.5
 21
759.1
 31
0.0
  0
LINE
  8
L-ZISSEN
 10
1668.0
 20
728.0
 30
0.0
 11
1668.0
 21
754.0
 31
0.0
  0
LINE
  8
L-ZISSEN
 10
1614.0
 20
755.5
 30
0.0
 11
1666.0
 21
755.5
 31
0.0
  0
LINE
  8
L-ZISSEN
 10
1612.0
 20
754.0
 30
0.0
 11
1668.0
 21
754.0
 31
0.0
  0
LINE
  8
L-ZISSEN
 10
1666.0
 20
755.5
 30
0.0
 11
1666.0
 21
694.0
 31
0.0
  0
LINE
  8
L-ZISSEN
 10
1612.0
 20
728.0
 30
0.0
 11
1612.0
 21
754.0
 31
0.0
  0
LINE
  8
L-ZISSEN
 10
1614.0
 20
746.0
 30
0.0
 11
1666.0
 21
746.0
 31
0.0
  0
LINE
  8
L-ZISSEN
 10
1614.0
 20
694.0
 30
0.0
 11
1614.0
 21
755.5
 31
0.0
  0
LINE
  8
L-ZISSEN
 10
1614.0
 20
694.0
 30
0.0
 11
1666.0
 21
694.0
 31
0.0
  0
CIRCLE
  8
L-ZISSEN
 10
1640.0
 20
720.0
 30
0.0
 40
19.0
  0
CIRCLE
  8
L-ZISSEN
 10
1620.0
 20
740.0
 30
0.0
 40
4.49995
  0
CIRCLE
  8
L-ZISSEN
 10
1660.0
 20
740.0
 30
0.0
 40
4.49995
  0
CIRCLE
  8
L-ZISSEN
 10
1620.0
 20
700.0
 30
0.0
 40
4.49995
  0
CIRCLE
  8
L-ZISSEN
 10
1660.0
 20
700.0
 30
0.0
 40
4.49995
  0
LINE
  8
L-ZISSEN
 10
1864.0
 20
694.0
 30
0.0
 11
1864.0
 21
759.6
 31
0.0
  0
LINE
  8
L-ZISSEN
 10
1916.0
 20
759.6
 30
0.0
 11
1916.0
 21
694.0
 31
0.0
  0
LINE
  8
L-ZISSEN
 10
1862.0
 20
754.0
 30
0.0
 11
1918.0
 21
754.0
 31
0.0
  0
LINE
  8
L-ZISSEN
 10
1864.0
 20
759.6
 30
0.0
 11
1916.0
 21
759.6
 31
0.0
  0
LINE
  8
L-ZISSEN
  6
CONTINUOUS
 62
     7
 10
1864.5
 20
759.6
 30
0.0
 11
1864.5
 21
763.2
 31
0.0
  0
LINE
  8
L-ZISSEN
  6
CONTINUOUS
 62
     7
 10
1871.5
 20
759.6
 30
0.0
 11
1871.5
 21
763.2
 31
0.0
  0
LINE
  8
L-ZISSEN
  6
CONTINUOUS
 62
     7
 10
1871.5
 20
763.2
 30
0.0
 11
1864.5
 21
763.2
 31
0.0
  0
LINE
  8
L-ZISSEN
  6
CONTINUOUS
 62
     7
 10
1908.5
 20
763.2
 30
0.0
 11
1915.5
 21
763.2
 31
0.0
  0
LINE
  8
L-ZISSEN
  6
CONTINUOUS
 62
     7
 10
1908.5
 20
759.6
 30
0.0
 11
1908.5
 21
763.2
 31
0.0
  0
LINE
  8
L-ZISSEN
  6
CONTINUOUS
 62
     7
 10
1915.5
 20
759.6
 30
0.0
 11
1915.5
 21
763.2
 31
0.0
  0
LINE
  8
L-ZISSEN
  6
CONTINUOUS
 62
     7
 10
1822.0
 20
754.0
 30
0.0
 11
1752.0
 21
754.0
 31
0.0
  0
LINE
  8
L-ZISSEN
  6
CONTINUOUS
 62
     7
 10
1822.0
 20
759.6
 30
0.0
 11
1822.0
 21
746.0
 31
0.0
  0
LINE
  8
L-ZISSEN
  6
CONTINUOUS
 62
     7
 10
1752.0
 20
759.6
 30
0.0
 11
1822.0
 21
759.6
 31
0.0
  0
LINE
  8
L-ZISSEN
  6
CONTINUOUS
 62
     7
 10
1814.5
 20
763.2
 30
0.0
 11
1821.5
 21
763.2
 31
0.0
  0
LINE
  8
L-ZISSEN
  6
CONTINUOUS
 62
     7
 10
1814.5
 20
759.6
 30
0.0
 11
1814.5
 21
763.2
 31
0.0
  0
LINE
  8
L-ZISSEN
  6
CONTINUOUS
 62
     7
 10
1821.5
 20
759.6
 30
0.0
 11
1821.5
 21
763.2
 31
0.0
  0
LINE
  8
L-ZISSEN
  6
CONTINUOUS
 62
     7
 10
1752.0
 20
759.6
 30
0.0
 11
1752.0
 21
746.0
 31
0.0
  0
LINE
  8
L-ZISSEN
  6
CONTINUOUS
 62
     7
 10
1752.5
 20
759.6
 30
0.0
 11
1752.5
 21
763.2
 31
0.0
  0
LINE
  8
L-ZISSEN
  6
CONTINUOUS
 62
     7
 10
1759.5
 20
759.6
 30
0.0
 11
1759.5
 21
763.2
 31
0.0
  0
LINE
  8
L-ZISSEN
  6
CONTINUOUS
 62
     7
 10
1759.5
 20
763.2
 30
0.0
 11
1752.5
 21
763.2
 31
0.0
  0
LINE
  8
L-ZISSEN
 10
1806.0
 20
759.6
 30
0.0
 11
1806.0
 21
766.1
 31
0.0
  0
LINE
  8
L-ZISSEN
 10
1798.0
 20
766.1
 30
0.0
 11
1798.0
 21
759.6
 31
0.0
  0
CIRCLE
  8
L-ZISSEN
 10
1802.0
 20
828.0
 30
0.0
 40
4.0
  0
LINE
  8
L-ZISSEN
  6
CONTINUOUS
 62
     7
 10
1798.0
 20
766.1
 30
0.0
 11
1806.0
 21
766.1
 31
0.0
  0
LINE
  8
L-ZISSEN
  6
CONTINUOUS
 62
     7
 10
1912.0
 20
766.1
 30
0.0
 11
1904.0
 21
766.1
 31
0.0
  0
LINE
  8
L-ZISSEN
 10
1912.0
 20
766.1
 30
0.0
 11
1912.0
 21
763.2
 31
0.0
  0
LINE
  8
L-ZISSEN
 10
1904.0
 20
759.6
 30
0.0
 11
1904.0
 21
766.1
 31
0.0
  0
TEXT
  8
L-ZISSEN
 10
1750.0
 20
880.0
 30
0.0
 40
4.5
  1
PILOT LAMP
  0
LINE
  8
L-TYUSIN
 10
1265.0
 20
1160.0
 30
0.0
 11
1265.0
 21
160.0
 31
0.0
  0
LINE
  8
L-TYUSIN
 10
925.0
 20
660.0
 30
0.0
 11
1955.0
 21
660.0
 31
0.0
  0
LINE
  8
L-ZISSEN
 10
1317.3
 20
829.0
 30
0.0
 11
1317.3
 21
791.0
 31
0.0
  0
LINE
  8
L-ZISSEN
 10
1327.9
 20
836.0
 30
0.0
 11
1327.9
 21
784.0
 31
0.0
  0
LINE
  8
L-ZISSEN
 10
1323.25718
 20
829.0
 30
0.0
 11
1317.3
 21
829.0
 31
0.0
  0
LINE
  8
L-ZISSEN
 10
1323.25718
 20
791.0
 30
0.0
 11
1317.3
 21
791.0
 31
0.0
  0
LINE
  8
L-ZISSEN
 10
1323.25718
 20
834.49995
 30
0.0
 11
1327.9
 21
834.49995
 31
0.0
  0
LINE
  8
L-ZISSEN
 10
1317.3
 20
821.0
 30
0.0
 11
1316.3
 21
821.0
 31
0.0
  0
LINE
  8
L-ZISSEN
 10
1316.3
 20
799.0
 30
0.0
 11
1317.3
 21
799.0
 31
0.0
  0
LINE
  8
L-ZISSEN
 10
1316.3
 20
821.0
 30
0.0
 11
1316.3
 21
799.0
 31
0.0
  0
LINE
  8
L-ZISSEN
 10
1323.25718
 20
825.50005
 30
0.0
 11
1323.25718
 21
834.49995
 31
0.0
  0
LINE
  8
L-ZISSEN
 10
1323.25718
 20
825.50005
 30
0.0
 11
1327.9
 21
825.50005
 31
0.0
  0
LINE
  8
L-ZISSEN
 10
1323.25718
 20
794.49995
 30
0.0
 11
1327.9
 21
794.49995
 31
0.0
  0
LINE
  8
L-ZISSEN
 10
1323.25718
 20
794.49995
 30
0.0
 11
1323.25718
 21
785.50005
 31
0.0
  0
LINE
  8
L-ZISSEN
 10
1323.25718
 20
785.50005
 30
0.0
 11
1327.9
 21
785.50005
 31
0.0
  0
LINE
  8
L-ZISSEN
  6
CONTINUOUS
 62
     7
 10
1399.9
 20
784.0
 30
0.0
 11
1399.9
 21
836.0
 31
0.0
  0
LINE
  8
L-ZISSEN
 10
1402.0
 20
784.0
 30
0.0
 11
1402.0
 21
836.0
 31
0.0
  0
LINE
  8
L-ZISSEN
  6
CONTINUOUS
 62
     7
 10
1399.9
 20
694.0
 30
0.0
 11
1399.9
 21
746.0
 31
0.0
  0
LINE
  8
L-ZISSEN
 10
1323.25718
 20
695.50005
 30
0.0
 11
1327.9
 21
695.50005
 31
0.0
  0
LINE
  8
L-ZISSEN
 10
1323.25718
 20
704.49995
 30
0.0
 11
1323.25718
 21
695.50005
 31
0.0
  0
LINE
  8
L-ZISSEN
 10
1323.25718
 20
704.49995
 30
0.0
 11
1327.9
 21
704.49995
 31
0.0
  0
LINE
  8
L-ZISSEN
 10
1323.25718
 20
735.50005
 30
0.0
 11
1327.9
 21
735.50005
 31
0.0
  0
LINE
  8
L-ZISSEN
 10
1323.25718
 20
735.50005
 30
0.0
 11
1323.25718
 21
744.49995
 31
0.0
  0
LINE
  8
L-ZISSEN
  6
CONTINUOUS
 62
     7
 10
1399.9
 20
694.0
 30
0.0
 11
1399.9
 21
746.0
 31
0.0
  0
LINE
  8
L-ZISSEN
 10
1316.3
 20
731.0
 30
0.0
 11
1316.3
 21
709.0
 31
0.0
  0
LINE
  8
L-ZISSEN
 10
1316.3
 20
709.0
 30
0.0
 11
1317.3
 21
709.0
 31
0.0
  0
LINE
  8
L-ZISSEN
 10
1317.3
 20
731.0
 30
0.0
 11
1316.3
 21
731.0
 31
0.0
  0
LINE
  8
L-ZISSEN
 10
1323.25718
 20
744.49995
 30
0.0
 11
1327.9
 21
744.49995
 31
0.0
  0
LINE
  8
L-ZISSEN
 10
1323.25718
 20
701.0
 30
0.0
 11
1317.3
 21
701.0
 31
0.0
  0
LINE
  8
L-ZISSEN
 10
1323.25718
 20
739.0
 30
0.0
 11
1317.3
 21
739.0
 31
0.0
  0
LINE
  8
L-ZISSEN
 10
1402.0
 20
746.0
 30
0.0
 11
1327.9
 21
746.0
 31
0.0
  0
LINE
  8
L-ZISSEN
 10
1327.9
 20
746.0
 30
0.0
 11
1327.9
 21
694.0
 31
0.0
  0
LINE
  8
L-ZISSEN
 10
1317.3
 20
739.0
 30
0.0
 11
1317.3
 21
701.0
 31
0.0
  0
CIRCLE
  8
L-ZISSEN
 10
1468.0
 20
788.0
 30
0.0
 40
3.5
  0
CIRCLE
  8
L-ZISSEN
 10
1406.0
 20
788.0
 30
0.0
 40
3.5
  0
CIRCLE
  8
L-ZISSEN
 10
1406.0
 20
832.0
 30
0.0
 40
3.5
  0
CIRCLE
  8
L-ZISSEN
 10
1468.0
 20
832.0
 30
0.0
 40
3.5
  0
LINE
  8
L-TYUSIN
 10
925.0
 20
910.0
 30
0.0
 11
1955.0
 21
910.0
 31
0.0
  0
LINE
  8
L-TYUSIN
 10
1705.0
 20
1160.0
 30
0.0
 11
1705.0
 21
160.0
 31
0.0
  0
CIRCLE
  8
L-ZISSEN
 10
1468.0
 20
582.0
 30
0.0
 40
3.5
  0
CIRCLE
  8
L-ZISSEN
 10
1406.0
 20
582.0
 30
0.0
 40
3.5
  0
CIRCLE
  8
L-ZISSEN
 10
1406.0
 20
538.0
 30
0.0
 40
3.5
  0
CIRCLE
  8
L-ZISSEN
 10
1468.0
 20
538.0
 30
0.0
 40
3.5
  0
LINE
  8
L-ZISSEN
  6
CONTINUOUS
 62
     7
 10
1399.9
 20
444.0
 30
0.0
 11
1399.9
 21
496.0
 31
0.0
  0
LINE
  8
L-ZISSEN
  6
CONTINUOUS
 62
     7
 10
1399.9
 20
444.0
 30
0.0
 11
1399.9
 21
496.0
 31
0.0
  0
LINE
  8
L-ZISSEN
 10
1402.0
 20
534.0
 30
0.0
 11
1402.0
 21
586.0
 31
0.0
  0
LINE
  8
L-ZISSEN
  6
CONTINUOUS
 62
     7
 10
1399.9
 20
534.0
 30
0.0
 11
1399.9
 21
586.0
 31
0.0
  0
LINE
  8
L-TYUSIN
 10
925.0
 20
410.0
 30
0.0
 11
1705.0
 21
410.0
 31
0.0
  0
LINE
  8
L-ZISSEN
 10
1614.0
 20
444.0
 30
0.0
 11
1666.0
 21
444.0
 31
0.0
  0
LINE
  8
L-ZISSEN
 10
1614.0
 20
444.0
 30
0.0
 11
1614.0
 21
505.5
 31
0.0
  0
LINE
  8
L-ZISSEN
 10
1614.0
 20
496.0
 30
0.0
 11
1666.0
 21
496.0
 31
0.0
  0
LINE
  8
L-ZISSEN
 10
1612.0
 20
478.0
 30
0.0
 11
1612.0
 21
504.0
 31
0.0
  0
LINE
  8
L-ZISSEN
 10
1666.0
 20
505.5
 30
0.0
 11
1666.0
 21
444.0
 31
0.0
  0
LINE
  8
L-ZISSEN
 10
1612.0
 20
504.0
 30
0.0
 11
1668.0
 21
504.0
 31
0.0
  0
LINE
  8
L-ZISSEN
 10
1614.0
 20
505.5
 30
0.0
 11
1666.0
 21
505.5
 31
0.0
  0
LINE
  8
L-ZISSEN
 10
1668.0
 20
478.0
 30
0.0
 11
1668.0
 21
504.0
 31
0.0
  0
LINE
  8
L-ZISSEN
  6
CONTINUOUS
 62
     7
 10
1614.5
 20
505.5
 30
0.0
 11
1614.5
 21
509.1
 31
0.0
  0
LINE
  8
L-ZISSEN
  6
CONTINUOUS
 62
     7
 10
1621.5
 20
505.5
 30
0.0
 11
1621.5
 21
509.1
 31
0.0
  0
LINE
  8
L-ZISSEN
  6
CONTINUOUS
 62
     7
 10
1621.5
 20
509.1
 30
0.0
 11
1614.5
 21
509.1
 31
0.0
  0
LINE
  8
L-ZISSEN
 10
1612.0
 20
478.0
 30
0.0
 11
1614.0
 21
478.0
 31
0.0
  0
LINE
  8
L-ZISSEN
 10
1666.0
 20
478.0
 30
0.0
 11
1668.0
 21
478.0
 31
0.0
  0
LINE
  8
L-ZISSEN
  6
CONTINUOUS
 62
     7
 10
1658.5
 20
509.1
 30
0.0
 11
1665.5
 21
509.1
 31
0.0
  0
LINE
  8
L-ZISSEN
  6
CONTINUOUS
 62
     7
 10
1658.5
 20
505.5
 30
0.0
 11
1658.5
 21
509.1
 31
0.0
  0
LINE
  8
L-ZISSEN
  6
CONTINUOUS
 62
     7
 10
1665.5
 20
505.5
 30
0.0
 11
1665.5
 21
509.1
 31
0.0
  0
LINE
  8
L-ZISSEN
 10
1424.0
 20
588.0
 30
0.0
 11
1424.0
 21
586.0
 31
0.0
  0
LINE
  8
L-ZISSEN
 10
1450.0
 20
588.0
 30
0.0
 11
1424.0
 21
588.0
 31
0.0
  0
LINE
  8
L-ZISSEN
 10
1450.0
 20
588.0
 30
0.0
 11
1450.0
 21
586.0
 31
0.0
  0
LINE
  8
L-ZISSEN
 10
1484.1
 20
586.0
 30
0.0
 11
1389.9
 21
586.0
 31
0.0
  0
LINE
  8
L-ZISSEN
 10
1450.0
 20
532.0
 30
0.0
 11
1450.0
 21
534.0
 31
0.0
  0
LINE
  8
L-ZISSEN
 10
1450.0
 20
532.0
 30
0.0
 11
1424.0
 21
532.0
 31
0.0
  0
LINE
  8
L-ZISSEN
 10
1424.0
 20
532.0
 30
0.0
 11
1424.0
 21
534.0
 31
0.0
  0
LINE
  8
L-ZISSEN
  6
CONTINUOUS
 62
     7
 10
1474.1
 20
534.0
 30
0.0
 11
1474.1
 21
586.0
 31
0.0
  0
LINE
  8
L-ZISSEN
 10
1472.0
 20
534.0
 30
0.0
 11
1472.0
 21
586.0
 31
0.0
  0
LINE
  8
L-ZISSEN
 10
1484.1
 20
534.0
 30
0.0
 11
1389.9
 21
534.0
 31
0.0
  0
LINE
  8
L-ZISSEN
  6
CONTINUOUS
 62
     7
 10
1471.9
 20
504.0
 30
0.0
 11
1402.0
 21
504.0
 31
0.0
  0
LINE
  8
L-ZISSEN
  6
CONTINUOUS
 62
     7
 10
1472.0
 20
505.5
 30
0.0
 11
1472.0
 21
496.0
 31
0.0
  0
LINE
  8
L-ZISSEN
  6
CONTINUOUS
 62
     7
 10
1402.0
 20
505.5
 30
0.0
 11
1471.9
 21
505.5
 31
0.0
  0
LINE
  8
L-ZISSEN
  6
CONTINUOUS
 62
     7
 10
1474.1
 20
444.0
 30
0.0
 11
1474.1
 21
496.0
 31
0.0
  0
ARC
  8
L-ZISSEN
  6
CONTINUOUS
 62
     7
 10
1437.0
 20
491.0
 30
0.0
 40
13.0
 50
125.234418
 51
54.765582
  0
LINE
  8
L-ZISSEN
  6
CONTINUOUS
 62
     7
 10
1444.5
 20
504.0
 30
0.0
 11
1444.5
 21
501.618381
 31
0.0
  0
LINE
  8
L-ZISSEN
  6
CONTINUOUS
 62
     7
 10
1429.5
 20
504.0
 30
0.0
 11
1429.5
 21
501.618381
 31
0.0
  0
LINE
  8
L-ZISSEN
  6
CONTINUOUS
 62
     7
 10
1464.5
 20
509.1
 30
0.0
 11
1471.5
 21
509.1
 31
0.0
  0
LINE
  8
L-ZISSEN
  6
CONTINUOUS
 62
     7
 10
1464.5
 20
505.5
 30
0.0
 11
1464.5
 21
509.1
 31
0.0
  0
LINE
  8
L-ZISSEN
  6
CONTINUOUS
 62
     7
 10
1471.5
 20
505.5
 30
0.0
 11
1471.5
 21
509.1
 31
0.0
  0
LINE
  8
L-ZISSEN
  6
CONTINUOUS
 62
     7
 10
1402.0
 20
505.5
 30
0.0
 11
1402.0
 21
496.0
 31
0.0
  0
LINE
  8
L-ZISSEN
  6
CONTINUOUS
 62
     7
 10
1402.5
 20
505.5
 30
0.0
 11
1402.5
 21
509.1
 31
0.0
  0
LINE
  8
L-ZISSEN
  6
CONTINUOUS
 62
     7
 10
1409.5
 20
505.5
 30
0.0
 11
1409.5
 21
509.1
 31
0.0
  0
LINE
  8
L-ZISSEN
  6
CONTINUOUS
 62
     7
 10
1409.5
 20
509.1
 30
0.0
 11
1402.5
 21
509.1
 31
0.0
  0
CIRCLE
  8
L-ZISSEN
 10
1437.0
 20
491.0
 30
0.0
 40
9.3155
  0
LINE
  8
L-ZISSEN
  6
CONTINUOUS
 62
     7
 10
1474.1
 20
444.0
 30
0.0
 11
1474.1
 21
496.0
 31
0.0
  0
LINE
  8
L-ZISSEN
 10
1389.9
 20
444.0
 30
0.0
 11
1484.1
 21
444.0
 31
0.0
  0
LINE
  8
L-ZISSEN
 10
1472.0
 20
496.0
 30
0.0
 11
1484.1
 21
496.0
 31
0.0
  0
LINE
  8
L-ZISSEN
  6
CONTINUOUS
 62
     7
 10
1484.1
 20
444.0
 30
0.0
 11
1530.1
 21
445.606356
 31
0.0
  0
LINE
  8
L-ZISSEN
  6
CONTINUOUS
 62
     7
 10
1530.1
 20
445.606356
 30
0.0
 11
1530.1
 21
494.393644
 31
0.0
  0
LINE
  8
L-ZISSEN
 10
1530.1
 20
481.0
 30
0.0
 11
1543.1
 21
481.0
 31
0.0
  0
LINE
  8
L-ZISSEN
  6
CONTINUOUS
 62
     7
 10
1543.1
 20
479.0
 30
0.0
 11
1549.1
 21
479.0
 31
0.0
  0
LINE
  8
L-ZISSEN
  6
CONTINUOUS
 62
     7
 10
1549.1
 20
477.25
 30
0.0
 11
1556.1
 21
477.25
 31
0.0
  0
LINE
  8
L-ZISSEN
 10
1530.1
 20
459.0
 30
0.0
 11
1543.1
 21
459.0
 31
0.0
  0
LINE
  8
L-ZISSEN
  6
CONTINUOUS
 62
     7
 10
1549.1
 20
479.0
 30
0.0
 11
1549.1
 21
461.0
 31
0.0
  0
LINE
  8
L-ZISSEN
  6
CONTINUOUS
 62
     7
 10
1543.1
 20
461.0
 30
0.0
 11
1549.1
 21
461.0
 31
0.0
  0
LINE
  8
L-ZISSEN
  6
CONTINUOUS
 62
     7
 10
1549.1
 20
462.75
 30
0.0
 11
1556.1
 21
462.75
 31
0.0
  0
LINE
  8
L-ZISSEN
  6
CONTINUOUS
 62
     7
 10
1556.1
 20
477.25
 30
0.0
 11
1556.1
 21
462.75
 31
0.0
  0
LINE
  8
L-ZISSEN
  6
CONTINUOUS
 62
     7
 10
1543.1
 20
481.0
 30
0.0
 11
1543.1
 21
459.0
 31
0.0
  0
LINE
  8
L-ZISSEN
  6
CONTINUOUS
 62
     7
 10
1484.1
 20
496.0
 30
0.0
 11
1530.1
 21
494.393644
 31
0.0
  0
CIRCLE
  8
L-ZISSEN
 10
1640.0
 20
470.0
 30
0.0
 40
7.25
  0
CIRCLE
  8
L-ZISSEN
 10
1640.0
 20
470.0
 30
0.0
 40
9.0
  0
CIRCLE
  8
L-ZISSEN
 10
1640.0
 20
470.0
 30
0.0
 40
11.0
  0
LINE
  8
L-ZISSEN
  6
CONTINUOUS
 62
     7
 10
1389.9
 20
496.0
 30
0.0
 11
1343.9
 21
494.393644
 31
0.0
  0
LINE
  8
L-ZISSEN
  6
CONTINUOUS
 62
     7
 10
1330.9
 20
481.0
 30
0.0
 11
1330.9
 21
459.0
 31
0.0
  0
LINE
  8
L-ZISSEN
  6
CONTINUOUS
 62
     7
 10
1317.9
 20
477.25
 30
0.0
 11
1317.9
 21
462.75
 31
0.0
  0
LINE
  8
L-ZISSEN
  6
CONTINUOUS
 62
     7
 10
1324.9
 20
462.75
 30
0.0
 11
1317.9
 21
462.75
 31
0.0
  0
LINE
  8
L-ZISSEN
  6
CONTINUOUS
 62
     7
 10
1330.9
 20
461.0
 30
0.0
 11
1324.9
 21
461.0
 31
0.0
  0
LINE
  8
L-ZISSEN
  6
CONTINUOUS
 62
     7
 10
1324.9
 20
479.0
 30
0.0
 11
1324.9
 21
461.0
 31
0.0
  0
LINE
  8
L-ZISSEN
 10
1343.9
 20
459.0
 30
0.0
 11
1330.9
 21
459.0
 31
0.0
  0
LINE
  8
L-ZISSEN
  6
CONTINUOUS
 62
     7
 10
1324.9
 20
477.25
 30
0.0
 11
1317.9
 21
477.25
 31
0.0
  0
LINE
  8
L-ZISSEN
  6
CONTINUOUS
 62
     7
 10
1330.9
 20
479.0
 30
0.0
 11
1324.9
 21
479.0
 31
0.0
  0
LINE
  8
L-ZISSEN
 10
1343.9
 20
481.0
 30
0.0
 11
1330.9
 21
481.0
 31
0.0
  0
LINE
  8
L-ZISSEN
  6
CONTINUOUS
 62
     7
 10
1343.9
 20
445.606356
 30
0.0
 11
1343.9
 21
494.393644
 31
0.0
  0
LINE
  8
L-ZISSEN
  6
CONTINUOUS
 62
     7
 10
1389.9
 20
444.0
 30
0.0
 11
1343.9
 21
445.606356
 31
0.0
  0
LINE
  8
L-ZISSEN
 10
1402.0
 20
496.0
 30
0.0
 11
1389.9
 21
496.0
 31
0.0
  0
LINE
  8
L-ZISSEN
  6
CONTINUOUS
 62
     7
 10
1399.9
 20
444.0
 30
0.0
 11
1399.9
 21
496.0
 31
0.0
  0
LINE
  8
L-ZISSEN
  6
CONTINUOUS
 62
     7
 10
1399.9
 20
444.0
 30
0.0
 11
1399.9
 21
496.0
 31
0.0
  0
LINE
  8
L-ZISSEN
  6
CONTINUOUS
 62
     7
 10
1484.1
 20
586.0
 30
0.0
 11
1530.1
 21
584.393644
 31
0.0
  0
LINE
  8
L-ZISSEN
  6
CONTINUOUS
 62
     7
 10
1543.1
 20
571.0
 30
0.0
 11
1543.1
 21
549.0
 31
0.0
  0
LINE
  8
L-ZISSEN
  6
CONTINUOUS
 62
     7
 10
1556.1
 20
567.25
 30
0.0
 11
1556.1
 21
552.75
 31
0.0
  0
LINE
  8
L-ZISSEN
  6
CONTINUOUS
 62
     7
 10
1549.1
 20
552.75
 30
0.0
 11
1556.1
 21
552.75
 31
0.0
  0
LINE
  8
L-ZISSEN
  6
CONTINUOUS
 62
     7
 10
1543.1
 20
551.0
 30
0.0
 11
1549.1
 21
551.0
 31
0.0
  0
LINE
  8
L-ZISSEN
  6
CONTINUOUS
 62
     7
 10
1549.1
 20
569.0
 30
0.0
 11
1549.1
 21
551.0
 31
0.0
  0
LINE
  8
L-ZISSEN
 10
1530.1
 20
549.0
 30
0.0
 11
1543.1
 21
549.0
 31
0.0
  0
LINE
  8
L-ZISSEN
  6
CONTINUOUS
 62
     7
 10
1549.1
 20
567.25
 30
0.0
 11
1556.1
 21
567.25
 31
0.0
  0
LINE
  8
L-ZISSEN
  6
CONTINUOUS
 62
     7
 10
1543.1
 20
569.0
 30
0.0
 11
1549.1
 21
569.0
 31
0.0
  0
LINE
  8
L-ZISSEN
 10
1530.1
 20
571.0
 30
0.0
 11
1543.1
 21
571.0
 31
0.0
  0
LINE
  8
L-ZISSEN
  6
CONTINUOUS
 62
     7
 10
1530.1
 20
535.606356
 30
0.0
 11
1530.1
 21
584.393644
 31
0.0
  0
LINE
  8
L-ZISSEN
  6
CONTINUOUS
 62
     7
 10
1484.1
 20
534.0
 30
0.0
 11
1530.1
 21
535.606356
 31
0.0
  0
LINE
  8
L-ZISSEN
  6
CONTINUOUS
 62
     7
 10
1389.9
 20
534.0
 30
0.0
 11
1343.9
 21
535.606356
 31
0.0
  0
LINE
  8
L-ZISSEN
  6
CONTINUOUS
 62
     7
 10
1343.9
 20
535.606356
 30
0.0
 11
1343.9
 21
584.393644
 31
0.0
  0
LINE
  8
L-ZISSEN
 10
1343.9
 20
571.0
 30
0.0
 11
1330.9
 21
571.0
 31
0.0
  0
LINE
  8
L-ZISSEN
  6
CONTINUOUS
 62
     7
 10
1330.9
 20
569.0
 30
0.0
 11
1324.9
 21
569.0
 31
0.0
  0
LINE
  8
L-ZISSEN
  6
CONTINUOUS
 62
     7
 10
1324.9
 20
567.25
 30
0.0
 11
1317.9
 21
567.25
 31
0.0
  0
LINE
  8
L-ZISSEN
 10
1343.9
 20
549.0
 30
0.0
 11
1330.9
 21
549.0
 31
0.0
  0
LINE
  8
L-ZISSEN
  6
CONTINUOUS
 62
     7
 10
1324.9
 20
569.0
 30
0.0
 11
1324.9
 21
551.0
 31
0.0
  0
LINE
  8
L-ZISSEN
  6
CONTINUOUS
 62
     7
 10
1330.9
 20
551.0
 30
0.0
 11
1324.9
 21
551.0
 31
0.0
  0
LINE
  8
L-ZISSEN
  6
CONTINUOUS
 62
     7
 10
1324.9
 20
552.75
 30
0.0
 11
1317.9
 21
552.75
 31
0.0
  0
LINE
  8
L-ZISSEN
  6
CONTINUOUS
 62
     7
 10
1317.9
 20
567.25
 30
0.0
 11
1317.9
 21
552.75
 31
0.0
  0
LINE
  8
L-ZISSEN
  6
CONTINUOUS
 62
     7
 10
1330.9
 20
571.0
 30
0.0
 11
1330.9
 21
549.0
 31
0.0
  0
LINE
  8
L-ZISSEN
  6
CONTINUOUS
 62
     7
 10
1389.9
 20
586.0
 30
0.0
 11
1343.9
 21
584.393644
 31
0.0
  0
CIRCLE
  8
L-ZISSEN
 10
1468.0
 20
332.0
 30
0.0
 40
3.5
  0
CIRCLE
  8
L-ZISSEN
 10
1406.0
 20
332.0
 30
0.0
 40
3.5
  0
CIRCLE
  8
L-ZISSEN
 10
1406.0
 20
288.0
 30
0.0
 40
3.5
  0
CIRCLE
  8
L-ZISSEN
 10
1468.0
 20
288.0
 30
0.0
 40
3.5
  0
LINE
  8
L-ZISSEN
 10
1317.3
 20
239.0
 30
0.0
 11
1317.3
 21
201.0
 31
0.0
  0
LINE
  8
L-ZISSEN
 10
1327.9
 20
246.0
 30
0.0
 11
1327.9
 21
194.0
 31
0.0
  0
LINE
  8
L-ZISSEN
 10
1402.0
 20
246.0
 30
0.0
 11
1327.9
 21
246.0
 31
0.0
  0
LINE
  8
L-ZISSEN
 10
1323.25718
 20
239.0
 30
0.0
 11
1317.3
 21
239.0
 31
0.0
  0
LINE
  8
L-ZISSEN
 10
1323.25718
 20
201.0
 30
0.0
 11
1317.3
 21
201.0
 31
0.0
  0
LINE
  8
L-ZISSEN
 10
1323.25718
 20
244.49995
 30
0.0
 11
1327.9
 21
244.49995
 31
0.0
  0
LINE
  8
L-ZISSEN
  6
CONTINUOUS
 62
     7
 10
1399.9
 20
194.0
 30
0.0
 11
1399.9
 21
246.0
 31
0.0
  0
LINE
  8
L-ZISSEN
 10
1323.25718
 20
235.50005
 30
0.0
 11
1323.25718
 21
244.49995
 31
0.0
  0
LINE
  8
L-ZISSEN
 10
1323.25718
 20
235.50005
 30
0.0
 11
1327.9
 21
235.50005
 31
0.0
  0
LINE
  8
L-ZISSEN
 10
1323.25718
 20
204.49995
 30
0.0
 11
1327.9
 21
204.49995
 31
0.0
  0
LINE
  8
L-ZISSEN
 10
1323.25718
 20
204.49995
 30
0.0
 11
1323.25718
 21
195.50005
 31
0.0
  0
LINE
  8
L-ZISSEN
 10
1323.25718
 20
195.50005
 30
0.0
 11
1327.9
 21
195.50005
 31
0.0
  0
LINE
  8
L-ZISSEN
  6
CONTINUOUS
 62
     7
 10
1399.9
 20
194.0
 30
0.0
 11
1399.9
 21
246.0
 31
0.0
  0
LINE
  8
L-ZISSEN
 10
1402.0
 20
284.0
 30
0.0
 11
1402.0
 21
336.0
 31
0.0
  0
LINE
  8
L-ZISSEN
  6
CONTINUOUS
 62
     7
 10
1399.9
 20
284.0
 30
0.0
 11
1399.9
 21
336.0
 31
0.0
  0
LINE
  8
L-ZISSEN
 10
1323.25718
 20
285.50005
 30
0.0
 11
1327.9
 21
285.50005
 31
0.0
  0
LINE
  8
L-ZISSEN
 10
1323.25718
 20
294.49995
 30
0.0
 11
1323.25718
 21
285.50005
 31
0.0
  0
LINE
  8
L-ZISSEN
 10
1323.25718
 20
294.49995
 30
0.0
 11
1327.9
 21
294.49995
 31
0.0
  0
LINE
  8
L-ZISSEN
 10
1323.25718
 20
325.50005
 30
0.0
 11
1327.9
 21
325.50005
 31
0.0
  0
LINE
  8
L-ZISSEN
 10
1323.25718
 20
325.50005
 30
0.0
 11
1323.25718
 21
334.49995
 31
0.0
  0
LINE
  8
L-ZISSEN
 10
1323.25718
 20
334.49995
 30
0.0
 11
1327.9
 21
334.49995
 31
0.0
  0
LINE
  8
L-ZISSEN
 10
1323.25718
 20
291.0
 30
0.0
 11
1317.3
 21
291.0
 31
0.0
  0
LINE
  8
L-ZISSEN
 10
1323.25718
 20
329.0
 30
0.0
 11
1317.3
 21
329.0
 31
0.0
  0
LINE
  8
L-ZISSEN
 10
1327.9
 20
336.0
 30
0.0
 11
1327.9
 21
284.0
 31
0.0
  0
LINE
  8
L-ZISSEN
 10
1317.3
 20
329.0
 30
0.0
 11
1317.3
 21
291.0
 31
0.0
  0
CIRCLE
  8
L-ZISSEN
 10
1660.0
 20
200.0
 30
0.0
 40
4.49995
  0
CIRCLE
  8
L-ZISSEN
 10
1620.0
 20
200.0
 30
0.0
 40
4.49995
  0
CIRCLE
  8
L-ZISSEN
 10
1660.0
 20
240.0
 30
0.0
 40
4.49995
  0
CIRCLE
  8
L-ZISSEN
 10
1620.0
 20
240.0
 30
0.0
 40
4.49995
  0
CIRCLE
  8
L-ZISSEN
 10
1640.0
 20
220.0
 30
0.0
 40
19.0
  0
LINE
  8
L-ZISSEN
 10
1614.0
 20
194.0
 30
0.0
 11
1666.0
 21
194.0
 31
0.0
  0
LINE
  8
L-ZISSEN
 10
1614.0
 20
194.0
 30
0.0
 11
1614.0
 21
255.5
 31
0.0
  0
LINE
  8
L-ZISSEN
 10
1614.0
 20
246.0
 30
0.0
 11
1666.0
 21
246.0
 31
0.0
  0
LINE
  8
L-ZISSEN
 10
1612.0
 20
228.0
 30
0.0
 11
1612.0
 21
254.0
 31
0.0
  0
LINE
  8
L-ZISSEN
 10
1666.0
 20
255.5
 30
0.0
 11
1666.0
 21
194.0
 31
0.0
  0
LINE
  8
L-ZISSEN
 10
1612.0
 20
254.0
 30
0.0
 11
1668.0
 21
254.0
 31
0.0
  0
LINE
  8
L-ZISSEN
 10
1614.0
 20
255.5
 30
0.0
 11
1666.0
 21
255.5
 31
0.0
  0
LINE
  8
L-ZISSEN
 10
1668.0
 20
228.0
 30
0.0
 11
1668.0
 21
254.0
 31
0.0
  0
LINE
  8
L-ZISSEN
  6
CONTINUOUS
 62
     7
 10
1614.5
 20
255.5
 30
0.0
 11
1614.5
 21
259.1
 31
0.0
  0
LINE
  8
L-ZISSEN
  6
CONTINUOUS
 62
     7
 10
1621.5
 20
255.5
 30
0.0
 11
1621.5
 21
259.1
 31
0.0
  0
LINE
  8
L-ZISSEN
  6
CONTINUOUS
 62
     7
 10
1621.5
 20
259.1
 30
0.0
 11
1614.5
 21
259.1
 31
0.0
  0
LINE
  8
L-ZISSEN
 10
1612.0
 20
228.0
 30
0.0
 11
1614.0
 21
228.0
 31
0.0
  0
LINE
  8
L-ZISSEN
 10
1666.0
 20
228.0
 30
0.0
 11
1668.0
 21
228.0
 31
0.0
  0
LINE
  8
L-ZISSEN
  6
CONTINUOUS
 62
     7
 10
1658.5
 20
259.1
 30
0.0
 11
1665.5
 21
259.1
 31
0.0
  0
LINE
  8
L-ZISSEN
  6
CONTINUOUS
 62
     7
 10
1658.5
 20
255.5
 30
0.0
 11
1658.5
 21
259.1
 31
0.0
  0
LINE
  8
L-ZISSEN
  6
CONTINUOUS
 62
     7
 10
1665.5
 20
255.5
 30
0.0
 11
1665.5
 21
259.1
 31
0.0
  0
LINE
  8
L-ZISSEN
 10
1556.7
 20
329.0
 30
0.0
 11
1556.7
 21
291.0
 31
0.0
  0
LINE
  8
L-ZISSEN
 10
1546.1
 20
336.0
 30
0.0
 11
1546.1
 21
284.0
 31
0.0
  0
LINE
  8
L-ZISSEN
 10
1550.74282
 20
329.0
 30
0.0
 11
1556.7
 21
329.0
 31
0.0
  0
LINE
  8
L-ZISSEN
 10
1550.74282
 20
291.0
 30
0.0
 11
1556.7
 21
291.0
 31
0.0
  0
LINE
  8
L-ZISSEN
 10
1550.74282
 20
334.49995
 30
0.0
 11
1546.1
 21
334.49995
 31
0.0
  0
LINE
  8
L-ZISSEN
 10
1550.74282
 20
325.50005
 30
0.0
 11
1550.74282
 21
334.49995
 31
0.0
  0
LINE
  8
L-ZISSEN
 10
1550.74282
 20
325.50005
 30
0.0
 11
1546.1
 21
325.50005
 31
0.0
  0
LINE
  8
L-ZISSEN
 10
1550.74282
 20
294.49995
 30
0.0
 11
1546.1
 21
294.49995
 31
0.0
  0
LINE
  8
L-ZISSEN
 10
1550.74282
 20
294.49995
 30
0.0
 11
1550.74282
 21
285.50005
 31
0.0
  0
LINE
  8
L-ZISSEN
 10
1550.74282
 20
285.50005
 30
0.0
 11
1546.1
 21
285.50005
 31
0.0
  0
LINE
  8
L-ZISSEN
 10
1424.0
 20
338.0
 30
0.0
 11
1424.0
 21
336.0
 31
0.0
  0
LINE
  8
L-ZISSEN
 10
1450.0
 20
338.0
 30
0.0
 11
1424.0
 21
338.0
 31
0.0
  0
LINE
  8
L-ZISSEN
 10
1450.0
 20
338.0
 30
0.0
 11
1450.0
 21
336.0
 31
0.0
  0
LINE
  8
L-ZISSEN
 10
1546.1
 20
336.0
 30
0.0
 11
1327.9
 21
336.0
 31
0.0
  0
LINE
  8
L-ZISSEN
 10
1450.0
 20
282.0
 30
0.0
 11
1450.0
 21
284.0
 31
0.0
  0
LINE
  8
L-ZISSEN
 10
1450.0
 20
282.0
 30
0.0
 11
1424.0
 21
282.0
 31
0.0
  0
LINE
  8
L-ZISSEN
 10
1424.0
 20
282.0
 30
0.0
 11
1424.0
 21
284.0
 31
0.0
  0
LINE
  8
L-ZISSEN
  6
CONTINUOUS
 62
     7
 10
1474.1
 20
284.0
 30
0.0
 11
1474.1
 21
336.0
 31
0.0
  0
LINE
  8
L-ZISSEN
 10
1472.0
 20
284.0
 30
0.0
 11
1472.0
 21
336.0
 31
0.0
  0
LINE
  8
L-ZISSEN
 10
1546.1
 20
284.0
 30
0.0
 11
1327.9
 21
284.0
 31
0.0
  0
LINE
  8
L-ZISSEN
  6
CONTINUOUS
 62
     7
 10
1471.9
 20
254.0
 30
0.0
 11
1402.0
 21
254.0
 31
0.0
  0
LINE
  8
L-ZISSEN
  6
CONTINUOUS
 62
     7
 10
1472.0
 20
255.5
 30
0.0
 11
1472.0
 21
246.0
 31
0.0
  0
LINE
  8
L-ZISSEN
  6
CONTINUOUS
 62
     7
 10
1402.0
 20
255.5
 30
0.0
 11
1471.9
 21
255.5
 31
0.0
  0
LINE
  8
L-ZISSEN
  6
CONTINUOUS
 62
     7
 10
1474.1
 20
194.0
 30
0.0
 11
1474.1
 21
246.0
 31
0.0
  0
ARC
  8
L-ZISSEN
  6
CONTINUOUS
 62
     7
 10
1437.0
 20
241.0
 30
0.0
 40
13.0
 50
125.234418
 51
54.765582
  0
LINE
  8
L-ZISSEN
  6
CONTINUOUS
 62
     7
 10
1444.5
 20
254.0
 30
0.0
 11
1444.5
 21
251.618381
 31
0.0
  0
LINE
  8
L-ZISSEN
  6
CONTINUOUS
 62
     7
 10
1429.5
 20
254.0
 30
0.0
 11
1429.5
 21
251.618381
 31
0.0
  0
LINE
  8
L-ZISSEN
  6
CONTINUOUS
 62
     7
 10
1464.5
 20
259.1
 30
0.0
 11
1471.5
 21
259.1
 31
0.0
  0
LINE
  8
L-ZISSEN
  6
CONTINUOUS
 62
     7
 10
1464.5
 20
255.5
 30
0.0
 11
1464.5
 21
259.1
 31
0.0
  0
LINE
  8
L-ZISSEN
  6
CONTINUOUS
 62
     7
 10
1471.5
 20
255.5
 30
0.0
 11
1471.5
 21
259.1
 31
0.0
  0
LINE
  8
L-ZISSEN
  6
CONTINUOUS
 62
     7
 10
1402.0
 20
255.5
 30
0.0
 11
1402.0
 21
246.0
 31
0.0
  0
LINE
  8
L-ZISSEN
  6
CONTINUOUS
 62
     7
 10
1402.5
 20
255.5
 30
0.0
 11
1402.5
 21
259.1
 31
0.0
  0
LINE
  8
L-ZISSEN
  6
CONTINUOUS
 62
     7
 10
1409.5
 20
255.5
 30
0.0
 11
1409.5
 21
259.1
 31
0.0
  0
LINE
  8
L-ZISSEN
  6
CONTINUOUS
 62
     7
 10
1409.5
 20
259.1
 30
0.0
 11
1402.5
 21
259.1
 31
0.0
  0
CIRCLE
  8
L-ZISSEN
 10
1437.0
 20
241.0
 30
0.0
 40
9.3155
  0
LINE
  8
L-ZISSEN
 10
1550.74282
 20
195.50005
 30
0.0
 11
1546.1
 21
195.50005
 31
0.0
  0
LINE
  8
L-ZISSEN
 10
1550.74282
 20
204.49995
 30
0.0
 11
1550.74282
 21
195.50005
 31
0.0
  0
LINE
  8
L-ZISSEN
 10
1550.74282
 20
204.49995
 30
0.0
 11
1546.1
 21
204.49995
 31
0.0
  0
LINE
  8
L-ZISSEN
 10
1550.74282
 20
235.50005
 30
0.0
 11
1546.1
 21
235.50005
 31
0.0
  0
LINE
  8
L-ZISSEN
 10
1550.74282
 20
235.50005
 30
0.0
 11
1550.74282
 21
244.49995
 31
0.0
  0
LINE
  8
L-ZISSEN
  6
CONTINUOUS
 62
     7
 10
1474.1
 20
194.0
 30
0.0
 11
1474.1
 21
246.0
 31
0.0
  0
LINE
  8
L-ZISSEN
 10
1550.74282
 20
244.49995
 30
0.0
 11
1546.1
 21
244.49995
 31
0.0
  0
LINE
  8
L-ZISSEN
 10
1550.74282
 20
201.0
 30
0.0
 11
1556.7
 21
201.0
 31
0.0
  0
LINE
  8
L-ZISSEN
 10
1550.74282
 20
239.0
 30
0.0
 11
1556.7
 21
239.0
 31
0.0
  0
LINE
  8
L-ZISSEN
 10
1327.9
 20
194.0
 30
0.0
 11
1546.1
 21
194.0
 31
0.0
  0
LINE
  8
L-ZISSEN
 10
1472.0
 20
246.0
 30
0.0
 11
1546.1
 21
246.0
 31
0.0
  0
LINE
  8
L-ZISSEN
 10
1546.1
 20
246.0
 30
0.0
 11
1546.1
 21
194.0
 31
0.0
  0
LINE
  8
L-ZISSEN
 10
1556.7
 20
239.0
 30
0.0
 11
1556.7
 21
201.0
 31
0.0
  0
LINE
  8
L-ZISSEN
  6
CONTINUOUS
 62
     7
 10
1569.7
 20
321.0
 30
0.0
 11
1569.7
 21
299.0
 31
0.0
  0
LINE
  8
L-ZISSEN
  6
CONTINUOUS
 62
     7
 10
1583.0
 20
317.25
 30
0.0
 11
1583.0
 21
302.75
 31
0.0
  0
LINE
  8
L-ZISSEN
  6
CONTINUOUS
 62
     7
 10
1575.7
 20
302.75
 30
0.0
 11
1583.0
 21
302.75
 31
0.0
  0
LINE
  8
L-ZISSEN
  6
CONTINUOUS
 62
     7
 10
1569.7
 20
301.0
 30
0.0
 11
1575.7
 21
301.0
 31
0.0
  0
LINE
  8
L-ZISSEN
  6
CONTINUOUS
 62
     7
 10
1575.7
 20
319.0
 30
0.0
 11
1575.7
 21
301.0
 31
0.0
  0
LINE
  8
L-ZISSEN
 10
1556.7
 20
299.0
 30
0.0
 11
1569.7
 21
299.0
 31
0.0
  0
LINE
  8
L-ZISSEN
  6
CONTINUOUS
 62
     7
 10
1575.7
 20
317.25
 30
0.0
 11
1583.0
 21
317.25
 31
0.0
  0
LINE
  8
L-ZISSEN
  6
CONTINUOUS
 62
     7
 10
1569.7
 20
319.0
 30
0.0
 11
1575.7
 21
319.0
 31
0.0
  0
LINE
  8
L-ZISSEN
 10
1556.7
 20
321.0
 30
0.0
 11
1569.7
 21
321.0
 31
0.0
  0
LINE
  8
L-ZISSEN
 10
1317.3
 20
321.0
 30
0.0
 11
1304.3
 21
321.0
 31
0.0
  0
LINE
  8
L-ZISSEN
  6
CONTINUOUS
 62
     7
 10
1304.3
 20
319.0
 30
0.0
 11
1298.3
 21
319.0
 31
0.0
  0
LINE
  8
L-ZISSEN
  6
CONTINUOUS
 62
     7
 10
1298.3
 20
317.25
 30
0.0
 11
1291.0
 21
317.25
 31
0.0
  0
LINE
  8
L-ZISSEN
 10
1317.3
 20
299.0
 30
0.0
 11
1304.3
 21
299.0
 31
0.0
  0
LINE
  8
L-ZISSEN
  6
CONTINUOUS
 62
     7
 10
1298.3
 20
319.0
 30
0.0
 11
1298.3
 21
301.0
 31
0.0
  0
LINE
  8
L-ZISSEN
  6
CONTINUOUS
 62
     7
 10
1304.3
 20
301.0
 30
0.0
 11
1298.3
 21
301.0
 31
0.0
  0
LINE
  8
L-ZISSEN
  6
CONTINUOUS
 62
     7
 10
1298.3
 20
302.75
 30
0.0
 11
1291.0
 21
302.75
 31
0.0
  0
LINE
  8
L-ZISSEN
  6
CONTINUOUS
 62
     7
 10
1291.0
 20
317.25
 30
0.0
 11
1291.0
 21
302.75
 31
0.0
  0
LINE
  8
L-ZISSEN
  6
CONTINUOUS
 62
     7
 10
1304.3
 20
321.0
 30
0.0
 11
1304.3
 21
299.0
 31
0.0
  0
LINE
  8
L-ZISSEN
 10
1556.7
 20
231.0
 30
0.0
 11
1569.7
 21
231.0
 31
0.0
  0
LINE
  8
L-ZISSEN
  6
CONTINUOUS
 62
     7
 10
1569.7
 20
229.0
 30
0.0
 11
1575.7
 21
229.0
 31
0.0
  0
LINE
  8
L-ZISSEN
  6
CONTINUOUS
 62
     7
 10
1575.7
 20
227.25
 30
0.0
 11
1583.0
 21
227.25
 31
0.0
  0
LINE
  8
L-ZISSEN
 10
1556.7
 20
209.0
 30
0.0
 11
1569.7
 21
209.0
 31
0.0
  0
LINE
  8
L-ZISSEN
  6
CONTINUOUS
 62
     7
 10
1575.7
 20
229.0
 30
0.0
 11
1575.7
 21
211.0
 31
0.0
  0
LINE
  8
L-ZISSEN
  6
CONTINUOUS
 62
     7
 10
1569.7
 20
211.0
 30
0.0
 11
1575.7
 21
211.0
 31
0.0
  0
LINE
  8
L-ZISSEN
  6
CONTINUOUS
 62
     7
 10
1575.7
 20
212.75
 30
0.0
 11
1583.0
 21
212.75
 31
0.0
  0
LINE
  8
L-ZISSEN
  6
CONTINUOUS
 62
     7
 10
1583.0
 20
227.25
 30
0.0
 11
1583.0
 21
212.75
 31
0.0
  0
LINE
  8
L-ZISSEN
  6
CONTINUOUS
 62
     7
 10
1569.7
 20
231.0
 30
0.0
 11
1569.7
 21
209.0
 31
0.0
  0
LINE
  8
L-ZISSEN
  6
CONTINUOUS
 62
     7
 10
1304.3
 20
231.0
 30
0.0
 11
1304.3
 21
209.0
 31
0.0
  0
LINE
  8
L-ZISSEN
  6
CONTINUOUS
 62
     7
 10
1291.0
 20
227.25
 30
0.0
 11
1291.0
 21
212.75
 31
0.0
  0
LINE
  8
L-ZISSEN
  6
CONTINUOUS
 62
     7
 10
1298.3
 20
212.75
 30
0.0
 11
1291.0
 21
212.75
 31
0.0
  0
LINE
  8
L-ZISSEN
  6
CONTINUOUS
 62
     7
 10
1304.3
 20
211.0
 30
0.0
 11
1298.3
 21
211.0
 31
0.0
  0
LINE
  8
L-ZISSEN
  6
CONTINUOUS
 62
     7
 10
1298.3
 20
229.0
 30
0.0
 11
1298.3
 21
211.0
 31
0.0
  0
LINE
  8
L-ZISSEN
 10
1317.3
 20
209.0
 30
0.0
 11
1304.3
 21
209.0
 31
0.0
  0
LINE
  8
L-ZISSEN
  6
CONTINUOUS
 62
     7
 10
1298.3
 20
227.25
 30
0.0
 11
1291.0
 21
227.25
 31
0.0
  0
LINE
  8
L-ZISSEN
  6
CONTINUOUS
 62
     7
 10
1304.3
 20
229.0
 30
0.0
 11
1298.3
 21
229.0
 31
0.0
  0
LINE
  8
L-ZISSEN
 10
1317.3
 20
231.0
 30
0.0
 11
1304.3
 21
231.0
 31
0.0
  0
CIRCLE
  8
L-ZISSEN
 10
1640.0
 20
220.0
 30
0.0
 40
7.25
  0
CIRCLE
  8
L-ZISSEN
 10
1640.0
 20
220.0
 30
0.0
 40
9.0
  0
CIRCLE
  8
L-ZISSEN
 10
1640.0
 20
220.0
 30
0.0
 40
11.0
  0
LINE
  8
L-ZISSEN
  6
CONTINUOUS
 62
     7
 10
1776.0
 20
766.1
 30
0.0
 11
1768.0
 21
766.1
 31
0.0
  0
LINE
  8
L-ZISSEN
 10
1776.0
 20
766.1
 30
0.0
 11
1776.0
 21
759.6
 31
0.0
  0
LINE
  8
L-ZISSEN
 10
1768.0
 20
759.6
 30
0.0
 11
1768.0
 21
766.1
 31
0.0
  0
CIRCLE
  8
L-ZISSEN
 10
1772.0
 20
828.0
 30
0.0
 40
4.0
  0
TEXT
  8
L-ZISSEN
 10
1750.0
 20
870.0
 30
0.0
 40
4.5
  1
MODEL NO. : 46B-*00-2**2
  0
LINE
  8
L-TYUSIN
 10
925.0
 20
1160.0
 30
0.0
 11
925.0
 21
410.0
 31
0.0
  0
CIRCLE
  8
L-ZISSEN
 10
1220.0
 20
950.0
 30
0.0
 40
4.49995
  0
CIRCLE
  8
L-ZISSEN
 10
1180.0
 20
950.0
 30
0.0
 40
4.49995
  0
CIRCLE
  8
L-ZISSEN
 10
1220.0
 20
990.0
 30
0.0
 40
4.49995
  0
CIRCLE
  8
L-ZISSEN
 10
1180.0
 20
990.0
 30
0.0
 40
4.49995
  0
CIRCLE
  8
L-ZISSEN
 10
1200.0
 20
970.0
 30
0.0
 40
19.0
  0
LINE
  8
L-ZISSEN
 10
1174.0
 20
944.0
 30
0.0
 11
1226.0
 21
944.0
 31
0.0
  0
LINE
  8
L-ZISSEN
 10
1174.0
 20
944.0
 30
0.0
 11
1174.0
 21
1005.5
 31
0.0
  0
LINE
  8
L-ZISSEN
 10
1174.0
 20
996.0
 30
0.0
 11
1226.0
 21
996.0
 31
0.0
  0
LINE
  8
L-ZISSEN
 10
1172.0
 20
978.0
 30
0.0
 11
1172.0
 21
1004.0
 31
0.0
  0
LINE
  8
L-ZISSEN
 10
1226.0
 20
1005.5
 30
0.0
 11
1226.0
 21
944.0
 31
0.0
  0
LINE
  8
L-ZISSEN
 10
1172.0
 20
1004.0
 30
0.0
 11
1228.0
 21
1004.0
 31
0.0
  0
LINE
  8
L-ZISSEN
 10
1174.0
 20
1005.5
 30
0.0
 11
1226.0
 21
1005.5
 31
0.0
  0
LINE
  8
L-ZISSEN
 10
1228.0
 20
978.0
 30
0.0
 11
1228.0
 21
1004.0
 31
0.0
  0
LINE
  8
L-ZISSEN
  6
CONTINUOUS
 62
     7
 10
1174.5
 20
1005.5
 30
0.0
 11
1174.5
 21
1009.1
 31
0.0
  0
LINE
  8
L-ZISSEN
  6
CONTINUOUS
 62
     7
 10
1181.5
 20
1005.5
 30
0.0
 11
1181.5
 21
1009.1
 31
0.0
  0
LINE
  8
L-ZISSEN
  6
CONTINUOUS
 62
     7
 10
1181.5
 20
1009.1
 30
0.0
 11
1174.5
 21
1009.1
 31
0.0
  0
LINE
  8
L-ZISSEN
 10
1172.0
 20
978.0
 30
0.0
 11
1174.0
 21
978.0
 31
0.0
  0
LINE
  8
L-ZISSEN
 10
1226.0
 20
978.0
 30
0.0
 11
1228.0
 21
978.0
 31
0.0
  0
LINE
  8
L-ZISSEN
  6
CONTINUOUS
 62
     7
 10
1218.5
 20
1009.1
 30
0.0
 11
1225.5
 21
1009.1
 31
0.0
  0
LINE
  8
L-ZISSEN
  6
CONTINUOUS
 62
     7
 10
1218.5
 20
1005.5
 30
0.0
 11
1218.5
 21
1009.1
 31
0.0
  0
LINE
  8
L-ZISSEN
  6
CONTINUOUS
 62
     7
 10
1225.5
 20
1005.5
 30
0.0
 11
1225.5
 21
1009.1
 31
0.0
  0
CIRCLE
  8
L-ZISSEN
 10
1200.0
 20
970.0
 30
0.0
 40
11.0
  0
LINE
  8
L-ZISSEN
  6
CONTINUOUS
 62
     7
 10
1022.5
 20
1009.1
 30
0.0
 11
1015.5
 21
1009.1
 31
0.0
  0
LINE
  8
L-ZISSEN
  6
CONTINUOUS
 62
     7
 10
1022.5
 20
1005.5
 30
0.0
 11
1022.5
 21
1009.1
 31
0.0
  0
LINE
  8
L-ZISSEN
  6
CONTINUOUS
 62
     7
 10
1015.5
 20
1005.5
 30
0.0
 11
1015.5
 21
1009.1
 31
0.0
  0
LINE
  8
L-ZISSEN
  6
CONTINUOUS
 62
     7
 10
963.6
 20
954.5
 30
0.0
 11
963.6
 21
945.5
 31
0.0
  0
LINE
  8
L-ZISSEN
  6
CONTINUOUS
 62
     7
 10
966.9
 20
945.5
 30
0.0
 11
963.6
 21
945.5
 31
0.0
  0
LINE
  8
L-ZISSEN
  6
CONTINUOUS
 62
     7
 10
966.9
 20
954.5
 30
0.0
 11
963.6
 21
954.5
 31
0.0
  0
LINE
  8
L-ZISSEN
  6
CONTINUOUS
 62
     7
 10
966.9
 20
994.5
 30
0.0
 11
963.6
 21
994.5
 31
0.0
  0
LINE
  8
L-ZISSEN
  6
CONTINUOUS
 62
     7
 10
966.9
 20
985.5
 30
0.0
 11
963.6
 21
985.5
 31
0.0
  0
LINE
  8
L-ZISSEN
  6
CONTINUOUS
 62
     7
 10
963.6
 20
994.5
 30
0.0
 11
963.6
 21
985.5
 31
0.0
  0
LINE
  8
L-ZISSEN
  6
CONTINUOUS
 62
     7
 10
971.5
 20
1005.5
 30
0.0
 11
971.5
 21
1009.1
 31
0.0
  0
LINE
  8
L-ZISSEN
  6
CONTINUOUS
 62
     7
 10
978.5
 20
1005.5
 30
0.0
 11
978.5
 21
1009.1
 31
0.0
  0
LINE
  8
L-ZISSEN
  6
CONTINUOUS
 62
     7
 10
978.5
 20
1009.1
 30
0.0
 11
971.5
 21
1009.1
 31
0.0
  0
LINE
  8
L-ZISSEN
 10
971.0
 20
1005.5
 30
0.0
 11
1023.0
 21
1005.5
 31
0.0
  0
LINE
  8
L-ZISSEN
 10
1023.0
 20
996.0
 30
0.0
 11
1097.1
 21
996.0
 31
0.0
  0
LINE
  8
L-ZISSEN
 10
966.9
 20
996.0
 30
0.0
 11
971.0
 21
996.0
 31
0.0
  0
LINE
  8
L-ZISSEN
 10
971.0
 20
1005.5
 30
0.0
 11
971.0
 21
996.0
 31
0.0
  0
LINE
  8
L-ZISSEN
 10
1023.0
 20
1005.5
 30
0.0
 11
1023.0
 21
996.0
 31
0.0
  0
LINE
  8
L-ZISSEN
 10
989.5
 20
1004.0
 30
0.0
 11
989.5
 21
1001.618381
 31
0.0
  0
LINE
  8
L-ZISSEN
 10
1004.5
 20
1004.0
 30
0.0
 11
1004.5
 21
1001.618381
 31
0.0
  0
CIRCLE
  8
L-ZISSEN
 10
997.0
 20
991.0
 30
0.0
 40
9.3
  0
ARC
  8
L-ZISSEN
 10
997.0
 20
991.0
 30
0.0
 40
13.0
 50
125.234418
 51
54.765582
  0
LINE
  8
L-ZISSEN
 10
1023.0
 20
1004.0
 30
0.0
 11
971.0
 21
1004.0
 31
0.0
  0
LINE
  8
L-ZISSEN
 10
1025.1
 20
996.0
 30
0.0
 11
1025.1
 21
944.0
 31
0.0
  0
LINE
  8
L-ZISSEN
 10
968.9
 20
996.0
 30
0.0
 11
968.9
 21
944.0
 31
0.0
  0
LINE
  8
L-ZISSEN
 10
966.9
 20
996.0
 30
0.0
 11
966.9
 21
944.0
 31
0.0
  0
LINE
  8
L-ZISSEN
 10
966.9
 20
944.0
 30
0.0
 11
1097.1
 21
944.0
 31
0.0
  0
CIRCLE
  8
L-ZISSEN
 10
482.0
 20
528.0
 30
0.0
 40
3.5
  0
CIRCLE
  8
L-ZISSEN
 10
482.0
 20
572.0
 30
0.0
 40
3.5
  0
CIRCLE
  8
L-ZISSEN
 10
438.0
 20
572.0
 30
0.0
 40
3.5
  0
CIRCLE
  8
L-ZISSEN
 10
438.0
 20
528.0
 30
0.0
 40
3.5
  0
CIRCLE
  8
L-ZISSEN
 10
975.0
 20
1038.0
 30
0.0
 40
3.5
  0
CIRCLE
  8
L-ZISSEN
 10
975.0
 20
1082.0
 30
0.0
 40
3.5
  0
CIRCLE
  8
L-ZISSEN
 10
1019.0
 20
1082.0
 30
0.0
 40
3.5
  0
CIRCLE
  8
L-ZISSEN
 10
1019.0
 20
1038.0
 30
0.0
 40
3.5
  0
LINE
  8
L-ZISSEN
 10
1023.0
 20
1034.0
 30
0.0
 11
1023.0
 21
1086.0
 31
0.0
  0
LINE
  8
L-ZISSEN
 10
971.0
 20
1034.0
 30
0.0
 11
971.0
 21
1086.0
 31
0.0
  0
LINE
  8
L-ZISSEN
 10
1097.1
 20
1034.0
 30
0.0
 11
966.9
 21
1034.0
 31
0.0
  0
LINE
  8
L-ZISSEN
 10
1097.1
 20
1086.0
 30
0.0
 11
966.9
 21
1086.0
 31
0.0
  0
LINE
  8
L-ZISSEN
 10
1025.1
 20
1034.0
 30
0.0
 11
1025.1
 21
1086.0
 31
0.0
  0
LINE
  8
L-ZISSEN
  6
CONTINUOUS
 62
     7
 10
1025.1
 20
1034.0
 30
0.0
 11
1025.1
 21
1086.0
 31
0.0
  0
LINE
  8
L-ZISSEN
  6
CONTINUOUS
 62
     7
 10
963.6
 20
1044.5
 30
0.0
 11
963.6
 21
1035.5
 31
0.0
  0
LINE
  8
L-ZISSEN
  6
CONTINUOUS
 62
     7
 10
966.9
 20
1035.5
 30
0.0
 11
963.6
 21
1035.5
 31
0.0
  0
LINE
  8
L-ZISSEN
  6
CONTINUOUS
 62
     7
 10
966.9
 20
1044.5
 30
0.0
 11
963.6
 21
1044.5
 31
0.0
  0
LINE
  8
L-ZISSEN
  6
CONTINUOUS
 62
     7
 10
966.9
 20
1084.5
 30
0.0
 11
963.6
 21
1084.5
 31
0.0
  0
LINE
  8
L-ZISSEN
  6
CONTINUOUS
 62
     7
 10
966.9
 20
1075.5
 30
0.0
 11
963.6
 21
1075.5
 31
0.0
  0
LINE
  8
L-ZISSEN
  6
CONTINUOUS
 62
     7
 10
963.6
 20
1084.5
 30
0.0
 11
963.6
 21
1075.5
 31
0.0
  0
LINE
  8
L-ZISSEN
  6
CONTINUOUS
 62
     7
 10
966.9
 20
1086.0
 30
0.0
 11
966.9
 21
1034.0
 31
0.0
  0
LINE
  8
L-ZISSEN
  6
CONTINUOUS
 62
     7
 10
968.9
 20
1034.0
 30
0.0
 11
968.9
 21
1086.0
 31
0.0
  0
LINE
  8
L-ZISSEN
 10
984.0
 20
1034.0
 30
0.0
 11
984.0
 21
1032.0
 31
0.0
  0
LINE
  8
L-ZISSEN
 10
984.0
 20
1088.0
 30
0.0
 11
984.0
 21
1086.0
 31
0.0
  0
LINE
  8
L-ZISSEN
 10
1010.0
 20
1088.0
 30
0.0
 11
1010.0
 21
1086.0
 31
0.0
  0
LINE
  8
L-ZISSEN
 10
1010.0
 20
1088.0
 30
0.0
 11
984.0
 21
1088.0
 31
0.0
  0
LINE
  8
L-ZISSEN
 10
1010.0
 20
1034.0
 30
0.0
 11
1010.0
 21
1032.0
 31
0.0
  0
LINE
  8
L-ZISSEN
 10
1010.0
 20
1032.0
 30
0.0
 11
984.0
 21
1032.0
 31
0.0
  0
LINE
  8
L-ZISSEN
 10
1010.0
 20
782.0
 30
0.0
 11
984.0
 21
782.0
 31
0.0
  0
LINE
  8
L-ZISSEN
 10
1010.0
 20
784.0
 30
0.0
 11
1010.0
 21
782.0
 31
0.0
  0
LINE
  8
L-ZISSEN
 10
1010.0
 20
838.0
 30
0.0
 11
984.0
 21
838.0
 31
0.0
  0
LINE
  8
L-ZISSEN
 10
1010.0
 20
838.0
 30
0.0
 11
1010.0
 21
836.0
 31
0.0
  0
LINE
  8
L-ZISSEN
 10
984.0
 20
838.0
 30
0.0
 11
984.0
 21
836.0
 31
0.0
  0
LINE
  8
L-ZISSEN
 10
984.0
 20
784.0
 30
0.0
 11
984.0
 21
782.0
 31
0.0
  0
LINE
  8
L-ZISSEN
  6
CONTINUOUS
 62
     7
 10
968.9
 20
784.0
 30
0.0
 11
968.9
 21
836.0
 31
0.0
  0
LINE
  8
L-ZISSEN
  6
CONTINUOUS
 62
     7
 10
966.9
 20
836.0
 30
0.0
 11
966.9
 21
784.0
 31
0.0
  0
LINE
  8
L-ZISSEN
  6
CONTINUOUS
 62
     7
 10
963.6
 20
834.5
 30
0.0
 11
963.6
 21
825.5
 31
0.0
  0
LINE
  8
L-ZISSEN
  6
CONTINUOUS
 62
     7
 10
966.9
 20
825.5
 30
0.0
 11
963.6
 21
825.5
 31
0.0
  0
LINE
  8
L-ZISSEN
  6
CONTINUOUS
 62
     7
 10
966.9
 20
834.5
 30
0.0
 11
963.6
 21
834.5
 31
0.0
  0
LINE
  8
L-ZISSEN
  6
CONTINUOUS
 62
     7
 10
966.9
 20
794.5
 30
0.0
 11
963.6
 21
794.5
 31
0.0
  0
LINE
  8
L-ZISSEN
  6
CONTINUOUS
 62
     7
 10
966.9
 20
785.5
 30
0.0
 11
963.6
 21
785.5
 31
0.0
  0
LINE
  8
L-ZISSEN
  6
CONTINUOUS
 62
     7
 10
963.6
 20
794.5
 30
0.0
 11
963.6
 21
785.5
 31
0.0
  0
LINE
  8
L-ZISSEN
  6
CONTINUOUS
 62
     7
 10
1025.1
 20
784.0
 30
0.0
 11
1025.1
 21
836.0
 31
0.0
  0
LINE
  8
L-ZISSEN
  6
CONTINUOUS
 62
     7
 10
1035.1
 20
836.0
 30
0.0
 11
1081.1
 21
834.393644
 31
0.0
  0
LINE
  8
L-ZISSEN
  6
CONTINUOUS
 62
     7
 10
1081.1
 20
785.606356
 30
0.0
 11
1081.1
 21
834.393644
 31
0.0
  0
LINE
  8
L-ZISSEN
  6
CONTINUOUS
 62
     7
 10
1035.1
 20
784.0
 30
0.0
 11
1081.1
 21
785.606356
 31
0.0
  0
LINE
  8
L-ZISSEN
 10
1025.1
 20
784.0
 30
0.0
 11
1025.1
 21
836.0
 31
0.0
  0
LINE
  8
L-ZISSEN
 10
1035.1
 20
836.0
 30
0.0
 11
966.9
 21
836.0
 31
0.0
  0
LINE
  8
L-ZISSEN
 10
1035.1
 20
784.0
 30
0.0
 11
966.9
 21
784.0
 31
0.0
  0
LINE
  8
L-ZISSEN
 10
971.0
 20
784.0
 30
0.0
 11
971.0
 21
836.0
 31
0.0
  0
LINE
  8
L-ZISSEN
 10
1023.0
 20
784.0
 30
0.0
 11
1023.0
 21
836.0
 31
0.0
  0
CIRCLE
  8
L-ZISSEN
 10
1019.0
 20
788.0
 30
0.0
 40
3.5
  0
CIRCLE
  8
L-ZISSEN
 10
1019.0
 20
832.0
 30
0.0
 40
3.5
  0
CIRCLE
  8
L-ZISSEN
 10
975.0
 20
832.0
 30
0.0
 40
3.5
  0
CIRCLE
  8
L-ZISSEN
 10
975.0
 20
788.0
 30
0.0
 40
3.5
  0
LINE
  8
L-ZISSEN
 10
966.9
 20
694.0
 30
0.0
 11
1035.1
 21
694.0
 31
0.0
  0
LINE
  8
L-ZISSEN
 10
966.9
 20
746.0
 30
0.0
 11
966.9
 21
694.0
 31
0.0
  0
LINE
  8
L-ZISSEN
 10
968.9
 20
746.0
 30
0.0
 11
968.9
 21
694.0
 31
0.0
  0
LINE
  8
L-ZISSEN
  6
CONTINUOUS
 62
     7
 10
1035.1
 20
694.0
 30
0.0
 11
1081.1
 21
695.606356
 31
0.0
  0
LINE
  8
L-ZISSEN
 10
1025.1
 20
746.0
 30
0.0
 11
1025.1
 21
694.0
 31
0.0
  0
LINE
  8
L-ZISSEN
 10
1023.0
 20
754.0
 30
0.0
 11
971.0
 21
754.0
 31
0.0
  0
ARC
  8
L-ZISSEN
 10
997.0
 20
741.0
 30
0.0
 40
13.0
 50
125.234418
 51
54.765582
  0
CIRCLE
  8
L-ZISSEN
 10
997.0
 20
741.0
 30
0.0
 40
9.3
  0
LINE
  8
L-ZISSEN
 10
1004.5
 20
754.0
 30
0.0
 11
1004.5
 21
751.618381
 31
0.0
  0
LINE
  8
L-ZISSEN
 10
989.5
 20
754.0
 30
0.0
 11
989.5
 21
751.618381
 31
0.0
  0
LINE
  8
L-ZISSEN
 10
1023.0
 20
755.5
 30
0.0
 11
1023.0
 21
746.0
 31
0.0
  0
LINE
  8
L-ZISSEN
 10
971.0
 20
755.5
 30
0.0
 11
971.0
 21
746.0
 31
0.0
  0
LINE
  8
L-ZISSEN
 10
966.9
 20
746.0
 30
0.0
 11
971.0
 21
746.0
 31
0.0
  0
LINE
  8
L-ZISSEN
 10
1023.0
 20
746.0
 30
0.0
 11
1035.1
 21
746.0
 31
0.0
  0
LINE
  8
L-ZISSEN
 10
971.0
 20
755.5
 30
0.0
 11
1023.0
 21
755.5
 31
0.0
  0
LINE
  8
L-ZISSEN
  6
CONTINUOUS
 62
     7
 10
978.5
 20
759.1
 30
0.0
 11
971.5
 21
759.1
 31
0.0
  0
LINE
  8
L-ZISSEN
  6
CONTINUOUS
 62
     7
 10
978.5
 20
755.5
 30
0.0
 11
978.5
 21
759.1
 31
0.0
  0
LINE
  8
L-ZISSEN
  6
CONTINUOUS
 62
     7
 10
971.5
 20
755.5
 30
0.0
 11
971.5
 21
759.1
 31
0.0
  0
LINE
  8
L-ZISSEN
  6
CONTINUOUS
 62
     7
 10
963.6
 20
744.5
 30
0.0
 11
963.6
 21
735.5
 31
0.0
  0
LINE
  8
L-ZISSEN
  6
CONTINUOUS
 62
     7
 10
966.9
 20
735.5
 30
0.0
 11
963.6
 21
735.5
 31
0.0
  0
LINE
  8
L-ZISSEN
  6
CONTINUOUS
 62
     7
 10
966.9
 20
744.5
 30
0.0
 11
963.6
 21
744.5
 31
0.0
  0
LINE
  8
L-ZISSEN
  6
CONTINUOUS
 62
     7
 10
966.9
 20
704.5
 30
0.0
 11
963.6
 21
704.5
 31
0.0
  0
LINE
  8
L-ZISSEN
  6
CONTINUOUS
 62
     7
 10
966.9
 20
695.5
 30
0.0
 11
963.6
 21
695.5
 31
0.0
  0
LINE
  8
L-ZISSEN
  6
CONTINUOUS
 62
     7
 10
963.6
 20
704.5
 30
0.0
 11
963.6
 21
695.5
 31
0.0
  0
LINE
  8
L-ZISSEN
  6
CONTINUOUS
 62
     7
 10
1035.1
 20
746.0
 30
0.0
 11
1081.1
 21
744.393644
 31
0.0
  0
LINE
  8
L-ZISSEN
  6
CONTINUOUS
 62
     7
 10
1081.1
 20
695.606356
 30
0.0
 11
1081.1
 21
744.393644
 31
0.0
  0
LINE
  8
L-ZISSEN
  6
CONTINUOUS
 62
     7
 10
1015.5
 20
755.5
 30
0.0
 11
1015.5
 21
759.1
 31
0.0
  0
LINE
  8
L-ZISSEN
  6
CONTINUOUS
 62
     7
 10
1022.5
 20
755.5
 30
0.0
 11
1022.5
 21
759.1
 31
0.0
  0
LINE
  8
L-ZISSEN
  6
CONTINUOUS
 62
     7
 10
1022.5
 20
759.1
 30
0.0
 11
1015.5
 21
759.1
 31
0.0
  0
LINE
  8
L-ZISSEN
 10
1101.74282
 20
945.50005
 30
0.0
 11
1097.1
 21
945.50005
 31
0.0
  0
LINE
  8
L-ZISSEN
 10
1101.74282
 20
954.49995
 30
0.0
 11
1101.74282
 21
945.50005
 31
0.0
  0
LINE
  8
L-ZISSEN
 10
1101.74282
 20
954.49995
 30
0.0
 11
1097.1
 21
954.49995
 31
0.0
  0
LINE
  8
L-ZISSEN
 10
1101.74282
 20
985.50005
 30
0.0
 11
1097.1
 21
985.50005
 31
0.0
  0
LINE
  8
L-ZISSEN
 10
1101.74282
 20
985.50005
 30
0.0
 11
1101.74282
 21
994.49995
 31
0.0
  0
LINE
  8
L-ZISSEN
 10
1108.7
 20
981.0
 30
0.0
 11
1108.7
 21
959.0
 31
0.0
  0
LINE
  8
L-ZISSEN
 10
1108.7
 20
959.0
 30
0.0
 11
1107.7
 21
959.0
 31
0.0
  0
LINE
  8
L-ZISSEN
 10
1107.7
 20
981.0
 30
0.0
 11
1108.7
 21
981.0
 31
0.0
  0
LINE
  8
L-ZISSEN
 10
1101.74282
 20
994.49995
 30
0.0
 11
1097.1
 21
994.49995
 31
0.0
  0
LINE
  8
L-ZISSEN
 10
1101.74282
 20
951.0
 30
0.0
 11
1107.7
 21
951.0
 31
0.0
  0
LINE
  8
L-ZISSEN
 10
1101.74282
 20
989.0
 30
0.0
 11
1107.7
 21
989.0
 31
0.0
  0
LINE
  8
L-ZISSEN
 10
1097.1
 20
996.0
 30
0.0
 11
1097.1
 21
944.0
 31
0.0
  0
LINE
  8
L-ZISSEN
 10
1107.7
 20
989.0
 30
0.0
 11
1107.7
 21
951.0
 31
0.0
  0
LINE
  8
L-ZISSEN
 10
1107.7
 20
1079.0
 30
0.0
 11
1107.7
 21
1041.0
 31
0.0
  0
LINE
  8
L-ZISSEN
 10
1097.1
 20
1086.0
 30
0.0
 11
1097.1
 21
1034.0
 31
0.0
  0
LINE
  8
L-ZISSEN
 10
1101.74282
 20
1079.0
 30
0.0
 11
1107.7
 21
1079.0
 31
0.0
  0
LINE
  8
L-ZISSEN
 10
1101.74282
 20
1041.0
 30
0.0
 11
1107.7
 21
1041.0
 31
0.0
  0
LINE
  8
L-ZISSEN
 10
1101.74282
 20
1084.49995
 30
0.0
 11
1097.1
 21
1084.49995
 31
0.0
  0
LINE
  8
L-ZISSEN
 10
1107.7
 20
1071.0
 30
0.0
 11
1108.7
 21
1071.0
 31
0.0
  0
LINE
  8
L-ZISSEN
 10
1108.7
 20
1049.0
 30
0.0
 11
1107.7
 21
1049.0
 31
0.0
  0
LINE
  8
L-ZISSEN
 10
1108.7
 20
1071.0
 30
0.0
 11
1108.7
 21
1049.0
 31
0.0
  0
LINE
  8
L-ZISSEN
 10
1101.74282
 20
1075.50005
 30
0.0
 11
1101.74282
 21
1084.49995
 31
0.0
  0
LINE
  8
L-ZISSEN
 10
1101.74282
 20
1075.50005
 30
0.0
 11
1097.1
 21
1075.50005
 31
0.0
  0
LINE
  8
L-ZISSEN
 10
1101.74282
 20
1044.49995
 30
0.0
 11
1097.1
 21
1044.49995
 31
0.0
  0
LINE
  8
L-ZISSEN
 10
1101.74282
 20
1044.49995
 30
0.0
 11
1101.74282
 21
1035.50005
 31
0.0
  0
LINE
  8
L-ZISSEN
 10
1101.74282
 20
1035.50005
 30
0.0
 11
1097.1
 21
1035.50005
 31
0.0
  0
CIRCLE
  8
L-ZISSEN
 10
1200.0
 20
720.0
 30
0.0
 40
11.0
  0
CIRCLE
  8
L-ZISSEN
 10
1200.0
 20
720.0
 30
0.0
 40
9.0
  0
CIRCLE
  8
L-ZISSEN
 10
1200.0
 20
720.0
 30
0.0
 40
7.25
  0
LINE
  8
L-ZISSEN
  6
CONTINUOUS
 62
     7
 10
1225.5
 20
755.5
 30
0.0
 11
1225.5
 21
759.1
 31
0.0
  0
LINE
  8
L-ZISSEN
  6
CONTINUOUS
 62
     7
 10
1218.5
 20
755.5
 30
0.0
 11
1218.5
 21
759.1
 31
0.0
  0
LINE
  8
L-ZISSEN
  6
CONTINUOUS
 62
     7
 10
1218.5
 20
759.1
 30
0.0
 11
1225.5
 21
759.1
 31
0.0
  0
LINE
  8
L-ZISSEN
 10
1226.0
 20
728.0
 30
0.0
 11
1228.0
 21
728.0
 31
0.0
  0
LINE
  8
L-ZISSEN
 10
1172.0
 20
728.0
 30
0.0
 11
1174.0
 21
728.0
 31
0.0
  0
LINE
  8
L-ZISSEN
  6
CONTINUOUS
 62
     7
 10
1181.5
 20
759.1
 30
0.0
 11
1174.5
 21
759.1
 31
0.0
  0
LINE
  8
L-ZISSEN
  6
CONTINUOUS
 62
     7
 10
1181.5
 20
755.5
 30
0.0
 11
1181.5
 21
759.1
 31
0.0
  0
LINE
  8
L-ZISSEN
  6
CONTINUOUS
 62
     7
 10
1174.5
 20
755.5
 30
0.0
 11
1174.5
 21
759.1
 31
0.0
  0
LINE
  8
L-ZISSEN
 10
1228.0
 20
728.0
 30
0.0
 11
1228.0
 21
754.0
 31
0.0
  0
LINE
  8
L-ZISSEN
 10
1174.0
 20
755.5
 30
0.0
 11
1226.0
 21
755.5
 31
0.0
  0
LINE
  8
L-ZISSEN
 10
1172.0
 20
754.0
 30
0.0
 11
1228.0
 21
754.0
 31
0.0
  0
LINE
  8
L-ZISSEN
 10
1226.0
 20
755.5
 30
0.0
 11
1226.0
 21
694.0
 31
0.0
  0
LINE
  8
L-ZISSEN
 10
1172.0
 20
728.0
 30
0.0
 11
1172.0
 21
754.0
 31
0.0
  0
LINE
  8
L-ZISSEN
 10
1174.0
 20
746.0
 30
0.0
 11
1226.0
 21
746.0
 31
0.0
  0
LINE
  8
L-ZISSEN
 10
1174.0
 20
694.0
 30
0.0
 11
1174.0
 21
755.5
 31
0.0
  0
LINE
  8
L-ZISSEN
 10
1174.0
 20
694.0
 30
0.0
 11
1226.0
 21
694.0
 31
0.0
  0
LINE
  8
L-ZISSEN
 10
1081.1
 20
821.0
 30
0.0
 11
1094.1
 21
821.0
 31
0.0
  0
LINE
  8
L-ZISSEN
  6
CONTINUOUS
 62
     7
 10
1094.1
 20
819.0
 30
0.0
 11
1100.1
 21
819.0
 31
0.0
  0
LINE
  8
L-ZISSEN
  6
CONTINUOUS
 62
     7
 10
1100.1
 20
817.25
 30
0.0
 11
1107.1
 21
817.25
 31
0.0
  0
LINE
  8
L-ZISSEN
 10
1081.1
 20
799.0
 30
0.0
 11
1094.1
 21
799.0
 31
0.0
  0
LINE
  8
L-ZISSEN
  6
CONTINUOUS
 62
     7
 10
1100.1
 20
819.0
 30
0.0
 11
1100.1
 21
801.0
 31
0.0
  0
LINE
  8
L-ZISSEN
  6
CONTINUOUS
 62
     7
 10
1094.1
 20
801.0
 30
0.0
 11
1100.1
 21
801.0
 31
0.0
  0
LINE
  8
L-ZISSEN
  6
CONTINUOUS
 62
     7
 10
1100.1
 20
802.75
 30
0.0
 11
1107.1
 21
802.75
 31
0.0
  0
LINE
  8
L-ZISSEN
  6
CONTINUOUS
 62
     7
 10
1107.1
 20
817.25
 30
0.0
 11
1107.1
 21
802.75
 31
0.0
  0
LINE
  8
L-ZISSEN
  6
CONTINUOUS
 62
     7
 10
1094.1
 20
821.0
 30
0.0
 11
1094.1
 21
799.0
 31
0.0
  0
LINE
  8
L-ZISSEN
  6
CONTINUOUS
 62
     7
 10
1094.1
 20
731.0
 30
0.0
 11
1094.1
 21
709.0
 31
0.0
  0
LINE
  8
L-ZISSEN
  6
CONTINUOUS
 62
     7
 10
1107.1
 20
727.25
 30
0.0
 11
1107.1
 21
712.75
 31
0.0
  0
LINE
  8
L-ZISSEN
  6
CONTINUOUS
 62
     7
 10
1100.1
 20
712.75
 30
0.0
 11
1107.1
 21
712.75
 31
0.0
  0
LINE
  8
L-ZISSEN
  6
CONTINUOUS
 62
     7
 10
1094.1
 20
711.0
 30
0.0
 11
1100.1
 21
711.0
 31
0.0
  0
LINE
  8
L-ZISSEN
  6
CONTINUOUS
 62
     7
 10
1100.1
 20
729.0
 30
0.0
 11
1100.1
 21
711.0
 31
0.0
  0
LINE
  8
L-ZISSEN
 10
1081.1
 20
709.0
 30
0.0
 11
1094.1
 21
709.0
 31
0.0
  0
LINE
  8
L-ZISSEN
  6
CONTINUOUS
 62
     7
 10
1100.1
 20
727.25
 30
0.0
 11
1107.1
 21
727.25
 31
0.0
  0
LINE
  8
L-ZISSEN
  6
CONTINUOUS
 62
     7
 10
1094.1
 20
729.0
 30
0.0
 11
1100.1
 21
729.0
 31
0.0
  0
LINE
  8
L-ZISSEN
 10
1081.1
 20
731.0
 30
0.0
 11
1094.1
 21
731.0
 31
0.0
  0
LINE
  8
L-ZISSEN
  6
CONTINUOUS
 62
     7
 10
1022.5
 20
509.1
 30
0.0
 11
1015.5
 21
509.1
 31
0.0
  0
LINE
  8
L-ZISSEN
  6
CONTINUOUS
 62
     7
 10
1022.5
 20
505.5
 30
0.0
 11
1022.5
 21
509.1
 31
0.0
  0
LINE
  8
L-ZISSEN
  6
CONTINUOUS
 62
     7
 10
1015.5
 20
505.5
 30
0.0
 11
1015.5
 21
509.1
 31
0.0
  0
LINE
  8
L-ZISSEN
  6
CONTINUOUS
 62
     7
 10
963.6
 20
454.5
 30
0.0
 11
963.6
 21
445.5
 31
0.0
  0
LINE
  8
L-ZISSEN
  6
CONTINUOUS
 62
     7
 10
966.9
 20
445.5
 30
0.0
 11
963.6
 21
445.5
 31
0.0
  0
LINE
  8
L-ZISSEN
  6
CONTINUOUS
 62
     7
 10
966.9
 20
454.5
 30
0.0
 11
963.6
 21
454.5
 31
0.0
  0
LINE
  8
L-ZISSEN
  6
CONTINUOUS
 62
     7
 10
966.9
 20
494.5
 30
0.0
 11
963.6
 21
494.5
 31
0.0
  0
LINE
  8
L-ZISSEN
  6
CONTINUOUS
 62
     7
 10
966.9
 20
485.5
 30
0.0
 11
963.6
 21
485.5
 31
0.0
  0
LINE
  8
L-ZISSEN
  6
CONTINUOUS
 62
     7
 10
963.6
 20
494.5
 30
0.0
 11
963.6
 21
485.5
 31
0.0
  0
LINE
  8
L-ZISSEN
  6
CONTINUOUS
 62
     7
 10
971.5
 20
505.5
 30
0.0
 11
971.5
 21
509.1
 31
0.0
  0
LINE
  8
L-ZISSEN
  6
CONTINUOUS
 62
     7
 10
978.5
 20
505.5
 30
0.0
 11
978.5
 21
509.1
 31
0.0
  0
LINE
  8
L-ZISSEN
  6
CONTINUOUS
 62
     7
 10
978.5
 20
509.1
 30
0.0
 11
971.5
 21
509.1
 31
0.0
  0
LINE
  8
L-ZISSEN
 10
971.0
 20
505.5
 30
0.0
 11
1023.0
 21
505.5
 31
0.0
  0
LINE
  8
L-ZISSEN
 10
1023.0
 20
496.0
 30
0.0
 11
1097.1
 21
496.0
 31
0.0
  0
LINE
  8
L-ZISSEN
 10
966.9
 20
496.0
 30
0.0
 11
971.0
 21
496.0
 31
0.0
  0
LINE
  8
L-ZISSEN
 10
971.0
 20
505.5
 30
0.0
 11
971.0
 21
496.0
 31
0.0
  0
LINE
  8
L-ZISSEN
 10
1023.0
 20
505.5
 30
0.0
 11
1023.0
 21
496.0
 31
0.0
  0
LINE
  8
L-ZISSEN
 10
989.5
 20
504.0
 30
0.0
 11
989.5
 21
501.618381
 31
0.0
  0
LINE
  8
L-ZISSEN
 10
1004.5
 20
504.0
 30
0.0
 11
1004.5
 21
501.618381
 31
0.0
  0
CIRCLE
  8
L-ZISSEN
 10
997.0
 20
491.0
 30
0.0
 40
9.3
  0
ARC
  8
L-ZISSEN
 10
997.0
 20
491.0
 30
0.0
 40
13.0
 50
125.234418
 51
54.765582
  0
LINE
  8
L-ZISSEN
 10
1023.0
 20
504.0
 30
0.0
 11
971.0
 21
504.0
 31
0.0
  0
LINE
  8
L-ZISSEN
 10
1025.1
 20
496.0
 30
0.0
 11
1025.1
 21
444.0
 31
0.0
  0
LINE
  8
L-ZISSEN
 10
968.9
 20
496.0
 30
0.0
 11
968.9
 21
444.0
 31
0.0
  0
LINE
  8
L-ZISSEN
 10
966.9
 20
496.0
 30
0.0
 11
966.9
 21
444.0
 31
0.0
  0
LINE
  8
L-ZISSEN
 10
966.9
 20
444.0
 30
0.0
 11
1097.1
 21
444.0
 31
0.0
  0
CIRCLE
  8
L-ZISSEN
 10
975.0
 20
538.0
 30
0.0
 40
3.5
  0
CIRCLE
  8
L-ZISSEN
 10
975.0
 20
582.0
 30
0.0
 40
3.5
  0
CIRCLE
  8
L-ZISSEN
 10
1019.0
 20
582.0
 30
0.0
 40
3.5
  0
CIRCLE
  8
L-ZISSEN
 10
1019.0
 20
538.0
 30
0.0
 40
3.5
  0
LINE
  8
L-ZISSEN
 10
1023.0
 20
534.0
 30
0.0
 11
1023.0
 21
586.0
 31
0.0
  0
LINE
  8
L-ZISSEN
 10
971.0
 20
534.0
 30
0.0
 11
971.0
 21
586.0
 31
0.0
  0
LINE
  8
L-ZISSEN
 10
1097.1
 20
534.0
 30
0.0
 11
966.9
 21
534.0
 31
0.0
  0
LINE
  8
L-ZISSEN
 10
1097.1
 20
586.0
 30
0.0
 11
966.9
 21
586.0
 31
0.0
  0
LINE
  8
L-ZISSEN
 10
1025.1
 20
534.0
 30
0.0
 11
1025.1
 21
586.0
 31
0.0
  0
LINE
  8
L-ZISSEN
  6
CONTINUOUS
 62
     7
 10
1025.1
 20
534.0
 30
0.0
 11
1025.1
 21
586.0
 31
0.0
  0
LINE
  8
L-ZISSEN
  6
CONTINUOUS
 62
     7
 10
963.6
 20
544.5
 30
0.0
 11
963.6
 21
535.5
 31
0.0
  0
LINE
  8
L-ZISSEN
  6
CONTINUOUS
 62
     7
 10
966.9
 20
535.5
 30
0.0
 11
963.6
 21
535.5
 31
0.0
  0
LINE
  8
L-ZISSEN
  6
CONTINUOUS
 62
     7
 10
966.9
 20
544.5
 30
0.0
 11
963.6
 21
544.5
 31
0.0
  0
LINE
  8
L-ZISSEN
  6
CONTINUOUS
 62
     7
 10
966.9
 20
584.5
 30
0.0
 11
963.6
 21
584.5
 31
0.0
  0
LINE
  8
L-ZISSEN
  6
CONTINUOUS
 62
     7
 10
966.9
 20
575.5
 30
0.0
 11
963.6
 21
575.5
 31
0.0
  0
LINE
  8
L-ZISSEN
  6
CONTINUOUS
 62
     7
 10
963.6
 20
584.5
 30
0.0
 11
963.6
 21
575.5
 31
0.0
  0
LINE
  8
L-ZISSEN
  6
CONTINUOUS
 62
     7
 10
966.9
 20
586.0
 30
0.0
 11
966.9
 21
534.0
 31
0.0
  0
LINE
  8
L-ZISSEN
  6
CONTINUOUS
 62
     7
 10
968.9
 20
534.0
 30
0.0
 11
968.9
 21
586.0
 31
0.0
  0
LINE
  8
L-ZISSEN
 10
984.0
 20
534.0
 30
0.0
 11
984.0
 21
532.0
 31
0.0
  0
LINE
  8
L-ZISSEN
 10
984.0
 20
588.0
 30
0.0
 11
984.0
 21
586.0
 31
0.0
  0
LINE
  8
L-ZISSEN
 10
1010.0
 20
588.0
 30
0.0
 11
1010.0
 21
586.0
 31
0.0
  0
LINE
  8
L-ZISSEN
 10
1010.0
 20
588.0
 30
0.0
 11
984.0
 21
588.0
 31
0.0
  0
LINE
  8
L-ZISSEN
 10
1010.0
 20
534.0
 30
0.0
 11
1010.0
 21
532.0
 31
0.0
  0
LINE
  8
L-ZISSEN
 10
1010.0
 20
532.0
 30
0.0
 11
984.0
 21
532.0
 31
0.0
  0
CIRCLE
  8
L-ZISSEN
 10
1200.0
 20
470.0
 30
0.0
 40
11.0
  0
CIRCLE
  8
L-ZISSEN
 10
1200.0
 20
470.0
 30
0.0
 40
9.0
  0
CIRCLE
  8
L-ZISSEN
 10
1200.0
 20
470.0
 30
0.0
 40
7.25
  0
LINE
  8
L-ZISSEN
  6
CONTINUOUS
 62
     7
 10
1225.5
 20
505.5
 30
0.0
 11
1225.5
 21
509.1
 31
0.0
  0
LINE
  8
L-ZISSEN
  6
CONTINUOUS
 62
     7
 10
1218.5
 20
505.5
 30
0.0
 11
1218.5
 21
509.1
 31
0.0
  0
LINE
  8
L-ZISSEN
  6
CONTINUOUS
 62
     7
 10
1218.5
 20
509.1
 30
0.0
 11
1225.5
 21
509.1
 31
0.0
  0
LINE
  8
L-ZISSEN
 10
1226.0
 20
478.0
 30
0.0
 11
1228.0
 21
478.0
 31
0.0
  0
LINE
  8
L-ZISSEN
 10
1172.0
 20
478.0
 30
0.0
 11
1174.0
 21
478.0
 31
0.0
  0
LINE
  8
L-ZISSEN
  6
CONTINUOUS
 62
     7
 10
1181.5
 20
509.1
 30
0.0
 11
1174.5
 21
509.1
 31
0.0
  0
LINE
  8
L-ZISSEN
  6
CONTINUOUS
 62
     7
 10
1181.5
 20
505.5
 30
0.0
 11
1181.5
 21
509.1
 31
0.0
  0
LINE
  8
L-ZISSEN
  6
CONTINUOUS
 62
     7
 10
1174.5
 20
505.5
 30
0.0
 11
1174.5
 21
509.1
 31
0.0
  0
LINE
  8
L-ZISSEN
 10
1228.0
 20
478.0
 30
0.0
 11
1228.0
 21
504.0
 31
0.0
  0
LINE
  8
L-ZISSEN
 10
1174.0
 20
505.5
 30
0.0
 11
1226.0
 21
505.5
 31
0.0
  0
LINE
  8
L-ZISSEN
 10
1172.0
 20
504.0
 30
0.0
 11
1228.0
 21
504.0
 31
0.0
  0
LINE
  8
L-ZISSEN
 10
1226.0
 20
505.5
 30
0.0
 11
1226.0
 21
444.0
 31
0.0
  0
LINE
  8
L-ZISSEN
 10
1172.0
 20
478.0
 30
0.0
 11
1172.0
 21
504.0
 31
0.0
  0
LINE
  8
L-ZISSEN
 10
1174.0
 20
496.0
 30
0.0
 11
1226.0
 21
496.0
 31
0.0
  0
LINE
  8
L-ZISSEN
 10
1174.0
 20
444.0
 30
0.0
 11
1174.0
 21
505.5
 31
0.0
  0
LINE
  8
L-ZISSEN
 10
1174.0
 20
444.0
 30
0.0
 11
1226.0
 21
444.0
 31
0.0
  0
CIRCLE
  8
L-ZISSEN
 10
1200.0
 20
470.0
 30
0.0
 40
19.0
  0
CIRCLE
  8
L-ZISSEN
 10
1180.0
 20
490.0
 30
0.0
 40
4.49995
  0
CIRCLE
  8
L-ZISSEN
 10
1220.0
 20
490.0
 30
0.0
 40
4.49995
  0
CIRCLE
  8
L-ZISSEN
 10
1180.0
 20
450.0
 30
0.0
 40
4.49995
  0
CIRCLE
  8
L-ZISSEN
 10
1220.0
 20
450.0
 30
0.0
 40
4.49995
  0
LINE
  8
L-ZISSEN
  6
CONTINUOUS
 62
     7
 10
1120.7
 20
481.0
 30
0.0
 11
1120.7
 21
459.0
 31
0.0
  0
LINE
  8
L-ZISSEN
  6
CONTINUOUS
 62
     7
 10
1134.0
 20
477.25
 30
0.0
 11
1134.0
 21
462.75
 31
0.0
  0
LINE
  8
L-ZISSEN
  6
CONTINUOUS
 62
     7
 10
1126.7
 20
462.75
 30
0.0
 11
1134.0
 21
462.75
 31
0.0
  0
LINE
  8
L-ZISSEN
  6
CONTINUOUS
 62
     7
 10
1120.7
 20
461.0
 30
0.0
 11
1126.7
 21
461.0
 31
0.0
  0
LINE
  8
L-ZISSEN
  6
CONTINUOUS
 62
     7
 10
1126.7
 20
479.0
 30
0.0
 11
1126.7
 21
461.0
 31
0.0
  0
LINE
  8
L-ZISSEN
 10
1107.7
 20
459.0
 30
0.0
 11
1120.7
 21
459.0
 31
0.0
  0
LINE
  8
L-ZISSEN
  6
CONTINUOUS
 62
     7
 10
1126.7
 20
477.25
 30
0.0
 11
1134.0
 21
477.25
 31
0.0
  0
LINE
  8
L-ZISSEN
  6
CONTINUOUS
 62
     7
 10
1120.7
 20
479.0
 30
0.0
 11
1126.7
 21
479.0
 31
0.0
  0
LINE
  8
L-ZISSEN
 10
1107.7
 20
481.0
 30
0.0
 11
1120.7
 21
481.0
 31
0.0
  0
LINE
  8
L-ZISSEN
 10
1107.7
 20
571.0
 30
0.0
 11
1120.7
 21
571.0
 31
0.0
  0
LINE
  8
L-ZISSEN
  6
CONTINUOUS
 62
     7
 10
1120.7
 20
569.0
 30
0.0
 11
1126.7
 21
569.0
 31
0.0
  0
LINE
  8
L-ZISSEN
  6
CONTINUOUS
 62
     7
 10
1126.7
 20
567.25
 30
0.0
 11
1134.0
 21
567.25
 31
0.0
  0
LINE
  8
L-ZISSEN
 10
1107.7
 20
549.0
 30
0.0
 11
1120.7
 21
549.0
 31
0.0
  0
LINE
  8
L-ZISSEN
  6
CONTINUOUS
 62
     7
 10
1126.7
 20
569.0
 30
0.0
 11
1126.7
 21
551.0
 31
0.0
  0
LINE
  8
L-ZISSEN
  6
CONTINUOUS
 62
     7
 10
1120.7
 20
551.0
 30
0.0
 11
1126.7
 21
551.0
 31
0.0
  0
LINE
  8
L-ZISSEN
  6
CONTINUOUS
 62
     7
 10
1126.7
 20
552.75
 30
0.0
 11
1134.0
 21
552.75
 31
0.0
  0
LINE
  8
L-ZISSEN
  6
CONTINUOUS
 62
     7
 10
1134.0
 20
567.25
 30
0.0
 11
1134.0
 21
552.75
 31
0.0
  0
LINE
  8
L-ZISSEN
  6
CONTINUOUS
 62
     7
 10
1120.7
 20
571.0
 30
0.0
 11
1120.7
 21
549.0
 31
0.0
  0
LINE
  8
L-ZISSEN
 10
1107.7
 20
489.0
 30
0.0
 11
1107.7
 21
451.0
 31
0.0
  0
LINE
  8
L-ZISSEN
 10
1097.1
 20
496.0
 30
0.0
 11
1097.1
 21
444.0
 31
0.0
  0
LINE
  8
L-ZISSEN
 10
1101.74282
 20
489.0
 30
0.0
 11
1107.7
 21
489.0
 31
0.0
  0
LINE
  8
L-ZISSEN
 10
1101.74282
 20
451.0
 30
0.0
 11
1107.7
 21
451.0
 31
0.0
  0
LINE
  8
L-ZISSEN
 10
1101.74282
 20
494.49995
 30
0.0
 11
1097.1
 21
494.49995
 31
0.0
  0
LINE
  8
L-ZISSEN
 10
1101.74282
 20
485.50005
 30
0.0
 11
1101.74282
 21
494.49995
 31
0.0
  0
LINE
  8
L-ZISSEN
 10
1101.74282
 20
485.50005
 30
0.0
 11
1097.1
 21
485.50005
 31
0.0
  0
LINE
  8
L-ZISSEN
 10
1101.74282
 20
454.49995
 30
0.0
 11
1097.1
 21
454.49995
 31
0.0
  0
LINE
  8
L-ZISSEN
 10
1101.74282
 20
454.49995
 30
0.0
 11
1101.74282
 21
445.50005
 31
0.0
  0
LINE
  8
L-ZISSEN
 10
1101.74282
 20
445.50005
 30
0.0
 11
1097.1
 21
445.50005
 31
0.0
  0
LINE
  8
L-ZISSEN
 10
1101.74282
 20
535.50005
 30
0.0
 11
1097.1
 21
535.50005
 31
0.0
  0
LINE
  8
L-ZISSEN
 10
1101.74282
 20
544.49995
 30
0.0
 11
1101.74282
 21
535.50005
 31
0.0
  0
LINE
  8
L-ZISSEN
 10
1101.74282
 20
544.49995
 30
0.0
 11
1097.1
 21
544.49995
 31
0.0
  0
LINE
  8
L-ZISSEN
 10
1101.74282
 20
575.50005
 30
0.0
 11
1097.1
 21
575.50005
 31
0.0
  0
LINE
  8
L-ZISSEN
 10
1101.74282
 20
575.50005
 30
0.0
 11
1101.74282
 21
584.49995
 31
0.0
  0
LINE
  8
L-ZISSEN
 10
1101.74282
 20
584.49995
 30
0.0
 11
1097.1
 21
584.49995
 31
0.0
  0
LINE
  8
L-ZISSEN
 10
1101.74282
 20
541.0
 30
0.0
 11
1107.7
 21
541.0
 31
0.0
  0
LINE
  8
L-ZISSEN
 10
1101.74282
 20
579.0
 30
0.0
 11
1107.7
 21
579.0
 31
0.0
  0
LINE
  8
L-ZISSEN
 10
1097.1
 20
586.0
 30
0.0
 11
1097.1
 21
534.0
 31
0.0
  0
LINE
  8
L-ZISSEN
 10
1107.7
 20
579.0
 30
0.0
 11
1107.7
 21
541.0
 31
0.0
  0
LINE
  8
L-ZISSEN
 10
1813.0
 20
1004.0
 30
0.0
 11
1761.0
 21
1004.0
 31
0.0
  0
LINE
  8
L-ZISSEN
 10
1813.0
 20
1009.6
 30
0.0
 11
1813.0
 21
996.0
 31
0.0
  0
LINE
  8
L-ZISSEN
 10
1761.0
 20
1009.6
 30
0.0
 11
1761.0
 21
996.0
 31
0.0
  0
LINE
  8
L-ZISSEN
 10
1761.0
 20
1009.6
 30
0.0
 11
1813.0
 21
1009.6
 31
0.0
  0
LINE
  8
L-ZISSEN
  6
CONTINUOUS
 62
     7
 10
1768.5
 20
1013.2
 30
0.0
 11
1761.5
 21
1013.2
 31
0.0
  0
LINE
  8
L-ZISSEN
  6
CONTINUOUS
 62
     7
 10
1768.5
 20
1009.6
 30
0.0
 11
1768.5
 21
1013.2
 31
0.0
  0
LINE
  8
L-ZISSEN
  6
CONTINUOUS
 62
     7
 10
1761.5
 20
1009.6
 30
0.0
 11
1761.5
 21
1013.2
 31
0.0
  0
LINE
  8
L-ZISSEN
  6
CONTINUOUS
 62
     7
 10
1805.5
 20
1009.6
 30
0.0
 11
1805.5
 21
1013.2
 31
0.0
  0
LINE
  8
L-ZISSEN
  6
CONTINUOUS
 62
     7
 10
1812.5
 20
1009.6
 30
0.0
 11
1812.5
 21
1013.2
 31
0.0
  0
LINE
  8
L-ZISSEN
  6
CONTINUOUS
 62
     7
 10
1812.5
 20
1013.2
 30
0.0
 11
1805.5
 21
1013.2
 31
0.0
  0
LINE
  8
L-ZISSEN
 10
1904.0
 20
1009.6
 30
0.0
 11
1904.0
 21
1016.1
 31
0.0
  0
LINE
  8
L-ZISSEN
 10
1912.0
 20
1016.1
 30
0.0
 11
1912.0
 21
1013.2
 31
0.0
  0
LINE
  8
L-ZISSEN
  6
CONTINUOUS
 62
     7
 10
1912.0
 20
1016.1
 30
0.0
 11
1904.0
 21
1016.1
 31
0.0
  0
LINE
  8
L-ZISSEN
  6
CONTINUOUS
 62
     7
 10
1915.5
 20
1009.6
 30
0.0
 11
1915.5
 21
1013.2
 31
0.0
  0
LINE
  8
L-ZISSEN
  6
CONTINUOUS
 62
     7
 10
1908.5
 20
1009.6
 30
0.0
 11
1908.5
 21
1013.2
 31
0.0
  0
LINE
  8
L-ZISSEN
  6
CONTINUOUS
 62
     7
 10
1908.5
 20
1013.2
 30
0.0
 11
1915.5
 21
1013.2
 31
0.0
  0
LINE
  8
L-ZISSEN
  6
CONTINUOUS
 62
     7
 10
1871.5
 20
1013.2
 30
0.0
 11
1864.5
 21
1013.2
 31
0.0
  0
LINE
  8
L-ZISSEN
  6
CONTINUOUS
 62
     7
 10
1871.5
 20
1009.6
 30
0.0
 11
1871.5
 21
1013.2
 31
0.0
  0
LINE
  8
L-ZISSEN
  6
CONTINUOUS
 62
     7
 10
1864.5
 20
1009.6
 30
0.0
 11
1864.5
 21
1013.2
 31
0.0
  0
LINE
  8
L-ZISSEN
 10
1864.0
 20
1009.6
 30
0.0
 11
1916.0
 21
1009.6
 31
0.0
  0
LINE
  8
L-ZISSEN
 10
1862.0
 20
1004.0
 30
0.0
 11
1918.0
 21
1004.0
 31
0.0
  0
LINE
  8
L-ZISSEN
 10
1916.0
 20
1009.6
 30
0.0
 11
1916.0
 21
944.0
 31
0.0
  0
LINE
  8
L-ZISSEN
 10
1864.0
 20
944.0
 30
0.0
 11
1864.0
 21
1009.6
 31
0.0
  0
TEXT
  8
L-ZISSEN
 10
1750.0
 20
1130.0
 30
0.0
 40
4.5
  1
PILOT LAMP
  0
CIRCLE
  8
L-ZISSEN
 10
1802.0
 20
1078.0
 30
0.0
 40
4.0
  0
LINE
  8
L-ZISSEN
  6
CONTINUOUS
 62
     7
 10
1798.0
 20
1016.1
 30
0.0
 11
1806.0
 21
1016.1
 31
0.0
  0
LINE
  8
L-ZISSEN
 10
1798.0
 20
1016.1
 30
0.0
 11
1798.0
 21
1009.6
 31
0.0
  0
LINE
  8
L-ZISSEN
 10
1806.0
 20
1013.2
 30
0.0
 11
1806.0
 21
1016.1
 31
0.0
  0
TEXT
  8
L-ZISSEN
 10
965.0
 20
1130.0
 30
0.0
 40
4.5
  1
PILOT VALVE
  0
TEXT
  8
L-ZISSEN
 10
1065.0
 20
1125.0
 30
0.0
 40
4.5
  1
DC-24V
  0
TEXT
  8
L-ZISSEN
 10
1065.0
 20
1115.0
 30
0.0
 40
4.5
  1
DC-100V
  0
TEXT
  8
L-ZISSEN
 10
1320.0
 20
880.0
 30
0.0
 40
4.5
  1
PILOT VALVE
  0
TEXT
  8
L-ZISSEN
 10
1320.0
 20
870.0
 30
0.0
 40
4.5
  1
MODEL NO. : 46B-*00-2*B0
  0
TEXT
  8
L-ZISSEN
 10
1425.0
 20
875.0
 30
0.0
 40
4.5
  1
DC-24V
  0
TEXT
  8
L-ZISSEN
 10
1425.0
 20
865.0
 30
0.0
 40
4.5
  1
DC-100V
  0
TEXT
  8
L-ZISSEN
 10
1320.0
 20
620.0
 30
0.0
 40
4.5
  1
MODEL NO. : 46B-*00-2*R0
  0
TEXT
  8
L-ZISSEN
 10
1320.0
 20
630.0
 30
0.0
 40
4.5
  1
PILOT VALVE
  0
TEXT
  8
L-ZISSEN
 10
1425.0
 20
625.0
 30
0.0
 40
4.5
  1
AC-100V
  0
TEXT
  8
L-ZISSEN
 10
1425.0
 20
615.0
 30
0.0
 40
4.5
  1
AC-200V
  0
TEXT
  8
L-ZISSEN
 10
965.0
 20
880.0
 30
0.0
 40
4.5
  1
PILOT VALVE
  0
TEXT
  8
L-ZISSEN
 10
965.0
 20
870.0
 30
0.0
 40
4.5
  1
MODEL NO. : 46B-*00-1*R0
  0
TEXT
  8
L-ZISSEN
 10
1065.0
 20
875.0
 30
0.0
 40
4.5
  1
AC-100V
  0
TEXT
  8
L-ZISSEN
 10
1065.0
 20
865.0
 30
0.0
 40
4.5
  1
AC-200V
  0
TEXT
  8
L-ZISSEN
 10
965.0
 20
1120.0
 30
0.0
 40
4.5
  1
MODEL NO. : 46B-*00-1*B0
  0
TEXT
  8
L-ZISSEN
 10
965.0
 20
625.0
 30
0.0
 40
4.5
  1
MODEL NO. : 46B-*00-1*R0
  0
TEXT
  8
L-ZISSEN
 10
1065.0
 20
620.0
 30
0.0
 40
4.5
  1
DC-100V
  0
TEXT
  8
L-ZISSEN
 10
1065.0
 20
630.0
 30
0.0
 40
4.5
  1
DC-24V
  0
TEXT
  8
L-ZISSEN
 10
965.0
 20
635.0
 30
0.0
 40
4.5
  1
PILOT VALVE
  0
TEXT
  8
L-ZISSEN
 10
1425.0
 20
365.0
 30
0.0
 40
4.5
  1
DC-100V
  0
TEXT
  8
L-ZISSEN
 10
1425.0
 20
375.0
 30
0.0
 40
4.5
  1
DC-24V
  0
TEXT
  8
L-ZISSEN
 10
1320.0
 20
380.0
 30
0.0
 40
4.5
  1
PILOT VALVE
  0
TEXT
  8
L-ZISSEN
 10
1750.0
 20
1120.0
 30
0.0
 40
4.5
  1
MODEL NO. : 46B-*00-1**2
  0
SOLID
  8
L-ZISSEN
 10
997.707973
 20
1058.10003
 30
0.0
 11
998.285911
 21
1058.432344
 31
0.0
 12
997.0
 22
1060.0
 32
0.0
 13
997.0
 23
1060.0
 33
0.0
  0
LINE
  8
L-ZISSEN
 10
997.996942
 20
1058.266187
 30
0.0
 11
1020.0
 21
1020.0
 31
0.0
  0
LINE
  8
L-ZISSEN
 10
1020.0
 20
1020.0
 30
0.0
 11
1022.0
 21
1020.0
 31
0.0
  0
TEXT
  8
L-ZISSEN
 10
1024.0
 20
1017.75
 30
0.0
 40
4.5
  1
P.P
  0
SOLID
  8
L-ZISSEN
 10
998.133505
 20
942.318846
 30
0.0
 11
998.617474
 21
942.777343
 31
0.0
 12
997.0
 22
944.0
 32
0.0
 13
997.0
 23
944.0
 33
0.0
  0
LINE
  8
L-ZISSEN
 10
998.375489
 20
942.548095
 30
0.0
 11
1015.0
 21
925.0
 31
0.0
  0
LINE
  8
L-ZISSEN
 10
1015.0
 20
925.0
 30
0.0
 11
1017.0
 21
925.0
 31
0.0
  0
TEXT
  8
L-ZISSEN
 10
1019.0
 20
922.75
 30
0.0
 40
4.5
  1
P.P
  0
SOLID
  8
L-ZISSEN
 10
1200.977661
 20
942.223686
 30
0.0
 11
1201.500916
 21
942.636783
 31
0.0
 12
1200.0
 22
944.0
 32
0.0
 13
1200.0
 23
944.0
 33
0.0
  0
LINE
  8
L-ZISSEN
 10
1201.239289
 20
942.430234
 30
0.0
 11
1215.0
 21
925.0
 31
0.0
  0
LINE
  8
L-ZISSEN
 10
1215.0
 20
925.0
 30
0.0
 11
1217.0
 21
925.0
 31
0.0
  0
TEXT
  8
L-ZISSEN
 10
1219.0
 20
922.75
 30
0.0
 40
4.5
  1
P.P
  0
TEXT
  8
L-ZISSEN
 10
1019.0
 20
672.75
 30
0.0
 40
4.5
  1
P.P
  0
LINE
  8
L-ZISSEN
 10
1015.0
 20
675.0
 30
0.0
 11
1017.0
 21
675.0
 31
0.0
  0
LINE
  8
L-ZISSEN
 10
998.375489
 20
692.548095
 30
0.0
 11
1015.0
 21
675.0
 31
0.0
  0
SOLID
  8
L-ZISSEN
 10
998.133505
 20
692.318846
 30
0.0
 11
998.617474
 21
692.777343
 31
0.0
 12
997.0
 22
694.0
 32
0.0
 13
997.0
 23
694.0
 33
0.0
  0
TEXT
  8
L-ZISSEN
 10
1219.0
 20
672.75
 30
0.0
 40
4.5
  1
P.P
  0
LINE
  8
L-ZISSEN
 10
1215.0
 20
675.0
 30
0.0
 11
1217.0
 21
675.0
 31
0.0
  0
LINE
  8
L-ZISSEN
 10
1201.239289
 20
692.430234
 30
0.0
 11
1215.0
 21
675.0
 31
0.0
  0
SOLID
  8
L-ZISSEN
 10
1200.977661
 20
692.223686
 30
0.0
 11
1201.500916
 21
692.636783
 31
0.0
 12
1200.0
 22
694.0
 32
0.0
 13
1200.0
 23
694.0
 33
0.0
  0
SOLID
  8
L-ZISSEN
 10
997.707973
 20
808.10003
 30
0.0
 11
998.285911
 21
808.432344
 31
0.0
 12
997.0
 22
810.0
 32
0.0
 13
997.0
 23
810.0
 33
0.0
  0
LINE
  8
L-ZISSEN
 10
997.996942
 20
808.266187
 30
0.0
 11
1020.0
 21
770.0
 31
0.0
  0
TEXT
  8
L-ZISSEN
 10
1024.0
 20
767.75
 30
0.0
 40
4.5
  1
P.P
  0
LINE
  8
L-ZISSEN
 10
1020.0
 20
770.0
 30
0.0
 11
1022.0
 21
770.0
 31
0.0
  0
SOLID
  8
L-ZISSEN
 10
998.133505
 20
442.318846
 30
0.0
 11
998.617474
 21
442.777343
 31
0.0
 12
997.0
 22
444.0
 32
0.0
 13
997.0
 23
444.0
 33
0.0
  0
LINE
  8
L-ZISSEN
 10
998.375489
 20
442.548095
 30
0.0
 11
1015.0
 21
425.0
 31
0.0
  0
LINE
  8
L-ZISSEN
 10
1015.0
 20
425.0
 30
0.0
 11
1017.0
 21
425.0
 31
0.0
  0
TEXT
  8
L-ZISSEN
 10
1019.0
 20
422.75
 30
0.0
 40
4.5
  1
P.P
  0
SOLID
  8
L-ZISSEN
 10
1200.977661
 20
442.223686
 30
0.0
 11
1201.500916
 21
442.636783
 31
0.0
 12
1200.0
 22
444.0
 32
0.0
 13
1200.0
 23
444.0
 33
0.0
  0
LINE
  8
L-ZISSEN
 10
1201.239289
 20
442.430234
 30
0.0
 11
1215.0
 21
425.0
 31
0.0
  0
LINE
  8
L-ZISSEN
 10
1215.0
 20
425.0
 30
0.0
 11
1217.0
 21
425.0
 31
0.0
  0
TEXT
  8
L-ZISSEN
 10
1219.0
 20
422.75
 30
0.0
 40
4.5
  1
P.P
  0
SOLID
  8
L-ZISSEN
 10
997.707973
 20
558.10003
 30
0.0
 11
998.285911
 21
558.432344
 31
0.0
 12
997.0
 22
560.0
 32
0.0
 13
997.0
 23
560.0
 33
0.0
  0
LINE
  8
L-ZISSEN
 10
997.996942
 20
558.266187
 30
0.0
 11
1020.0
 21
520.0
 31
0.0
  0
LINE
  8
L-ZISSEN
 10
1020.0
 20
520.0
 30
0.0
 11
1022.0
 21
520.0
 31
0.0
  0
TEXT
  8
L-ZISSEN
 10
1024.0
 20
517.75
 30
0.0
 40
4.5
  1
P.P
  0
TEXT
  8
L-ZISSEN
 10
1659.0
 20
672.75
 30
0.0
 40
4.5
  1
P.P
  0
LINE
  8
L-ZISSEN
 10
1655.0
 20
675.0
 30
0.0
 11
1657.0
 21
675.0
 31
0.0
  0
LINE
  8
L-ZISSEN
 10
1641.239289
 20
692.430234
 30
0.0
 11
1655.0
 21
675.0
 31
0.0
  0
SOLID
  8
L-ZISSEN
 10
1640.977661
 20
692.223686
 30
0.0
 11
1641.500916
 21
692.636783
 31
0.0
 12
1640.0
 22
694.0
 32
0.0
 13
1640.0
 23
694.0
 33
0.0
  0
SOLID
  8
L-ZISSEN
 10
1437.707973
 20
808.10003
 30
0.0
 11
1438.285911
 21
808.432344
 31
0.0
 12
1437.0
 22
810.0
 32
0.0
 13
1437.0
 23
810.0
 33
0.0
  0
LINE
  8
L-ZISSEN
 10
1437.996942
 20
808.266187
 30
0.0
 11
1460.0
 21
770.0
 31
0.0
  0
TEXT
  8
L-ZISSEN
 10
1464.0
 20
767.75
 30
0.0
 40
4.5
  1
P.P
  0
LINE
  8
L-ZISSEN
 10
1460.0
 20
770.0
 30
0.0
 11
1462.0
 21
770.0
 31
0.0
  0
TEXT
  8
L-ZISSEN
 10
1459.0
 20
672.75
 30
0.0
 40
4.5
  1
P.P
  0
LINE
  8
L-ZISSEN
 10
1455.0
 20
675.0
 30
0.0
 11
1457.0
 21
675.0
 31
0.0
  0
LINE
  8
L-ZISSEN
 10
1438.375489
 20
692.548095
 30
0.0
 11
1455.0
 21
675.0
 31
0.0
  0
SOLID
  8
L-ZISSEN
 10
1438.133505
 20
692.318846
 30
0.0
 11
1438.617474
 21
692.777343
 31
0.0
 12
1437.0
 22
694.0
 32
0.0
 13
1437.0
 23
694.0
 33
0.0
  0
SOLID
  8
L-ZISSEN
 10
1640.977661
 20
442.223686
 30
0.0
 11
1641.500916
 21
442.636783
 31
0.0
 12
1640.0
 22
444.0
 32
0.0
 13
1640.0
 23
444.0
 33
0.0
  0
LINE
  8
L-ZISSEN
 10
1641.239289
 20
442.430234
 30
0.0
 11
1655.0
 21
425.0
 31
0.0
  0
LINE
  8
L-ZISSEN
 10
1655.0
 20
425.0
 30
0.0
 11
1657.0
 21
425.0
 31
0.0
  0
TEXT
  8
L-ZISSEN
 10
1659.0
 20
422.75
 30
0.0
 40
4.5
  1
P.P
  0
SOLID
  8
L-ZISSEN
 10
1438.133505
 20
442.318846
 30
0.0
 11
1438.617474
 21
442.777343
 31
0.0
 12
1437.0
 22
444.0
 32
0.0
 13
1437.0
 23
444.0
 33
0.0
  0
LINE
  8
L-ZISSEN
 10
1438.375489
 20
442.548095
 30
0.0
 11
1455.0
 21
425.0
 31
0.0
  0
LINE
  8
L-ZISSEN
 10
1455.0
 20
425.0
 30
0.0
 11
1457.0
 21
425.0
 31
0.0
  0
TEXT
  8
L-ZISSEN
 10
1459.0
 20
422.75
 30
0.0
 40
4.5
  1
P.P
  0
SOLID
  8
L-ZISSEN
 10
1437.707973
 20
558.10003
 30
0.0
 11
1438.285911
 21
558.432344
 31
0.0
 12
1437.0
 22
560.0
 32
0.0
 13
1437.0
 23
560.0
 33
0.0
  0
LINE
  8
L-ZISSEN
 10
1437.996942
 20
558.266187
 30
0.0
 11
1460.0
 21
520.0
 31
0.0
  0
LINE
  8
L-ZISSEN
 10
1460.0
 20
520.0
 30
0.0
 11
1462.0
 21
520.0
 31
0.0
  0
TEXT
  8
L-ZISSEN
 10
1464.0
 20
517.75
 30
0.0
 40
4.5
  1
P.P
  0
TEXT
  8
L-ZISSEN
 10
1459.0
 20
172.75
 30
0.0
 40
4.5
  1
P.P
  0
LINE
  8
L-ZISSEN
 10
1455.0
 20
175.0
 30
0.0
 11
1457.0
 21
175.0
 31
0.0
  0
LINE
  8
L-ZISSEN
 10
1438.375489
 20
192.548095
 30
0.0
 11
1455.0
 21
175.0
 31
0.0
  0
SOLID
  8
L-ZISSEN
 10
1438.133505
 20
192.318846
 30
0.0
 11
1438.617474
 21
192.777343
 31
0.0
 12
1437.0
 22
194.0
 32
0.0
 13
1437.0
 23
194.0
 33
0.0
  0
TEXT
  8
L-ZISSEN
 10
1659.0
 20
172.75
 30
0.0
 40
4.5
  1
P.P
  0
LINE
  8
L-ZISSEN
 10
1655.0
 20
175.0
 30
0.0
 11
1657.0
 21
175.0
 31
0.0
  0
LINE
  8
L-ZISSEN
 10
1641.239289
 20
192.430234
 30
0.0
 11
1655.0
 21
175.0
 31
0.0
  0
SOLID
  8
L-ZISSEN
 10
1640.977661
 20
192.223686
 30
0.0
 11
1641.500916
 21
192.636783
 31
0.0
 12
1640.0
 22
194.0
 32
0.0
 13
1640.0
 23
194.0
 33
0.0
  0
TEXT
  8
L-ZISSEN
 10
1464.0
 20
267.75
 30
0.0
 40
4.5
  1
P.P
  0
LINE
  8
L-ZISSEN
 10
1460.0
 20
270.0
 30
0.0
 11
1462.0
 21
270.0
 31
0.0
  0
LINE
  8
L-ZISSEN
 10
1437.996942
 20
308.266187
 30
0.0
 11
1460.0
 21
270.0
 31
0.0
  0
SOLID
  8
L-ZISSEN
 10
1437.707973
 20
308.10003
 30
0.0
 11
1438.285911
 21
308.432344
 31
0.0
 12
1437.0
 22
310.0
 32
0.0
 13
1437.0
 23
310.0
 33
0.0
  0
SOLID
  8
L-ZISSEN
 10
1787.935184
 20
811.799039
 30
0.0
 11
1787.301161
 21
812.005097
 31
0.0
 12
1787.0
 22
810.0
 32
0.0
 13
1787.0
 23
810.0
 33
0.0
  0
LINE
  8
L-ZISSEN
 10
1787.618172
 20
811.902068
 30
0.0
 11
1800.0
 21
850.0
 31
0.0
  0
LINE
  8
L-ZISSEN
 10
1800.0
 20
850.0
 30
0.0
 11
1802.0
 21
850.0
 31
0.0
  0
TEXT
  8
L-ZISSEN
 10
1804.0
 20
847.75
 30
0.0
 40
4.5
  1
P.P
  0
SOLID
  8
L-ZISSEN
 10
1787.935184
 20
1061.799039
 30
0.0
 11
1787.301161
 21
1062.005097
 31
0.0
 12
1787.0
 22
1060.0
 32
0.0
 13
1787.0
 23
1060.0
 33
0.0
  0
LINE
  8
L-ZISSEN
 10
1787.618172
 20
1061.902068
 30
0.0
 11
1800.0
 21
1100.0
 31
0.0
  0
TEXT
  8
L-ZISSEN
 10
1804.0
 20
1097.75
 30
0.0
 40
4.5
  1
P.P
  0
LINE
  8
L-ZISSEN
 10
1800.0
 20
1100.0
 30
0.0
 11
1802.0
 21
1100.0
 31
0.0
  0
TEXT
  8
L-ZISSEN
 10
1464.0
 20
1017.75
 30
0.0
 40
4.5
  1
P.P
  0
LINE
  8
L-ZISSEN
 10
1460.0
 20
1020.0
 30
0.0
 11
1462.0
 21
1020.0
 31
0.0
  0
LINE
  8
L-ZISSEN
 10
1437.996942
 20
1058.266187
 30
0.0
 11
1460.0
 21
1020.0
 31
0.0
  0
SOLID
  8
L-ZISSEN
 10
1437.707973
 20
1058.10003
 30
0.0
 11
1438.285911
 21
1058.432344
 31
0.0
 12
1437.0
 22
1060.0
 32
0.0
 13
1437.0
 23
1060.0
 33
0.0
  0
TEXT
  8
L-ZISSEN
 10
1459.0
 20
922.75
 30
0.0
 40
4.5
  1
P.P
  0
LINE
  8
L-ZISSEN
 10
1455.0
 20
925.0
 30
0.0
 11
1457.0
 21
925.0
 31
0.0
  0
LINE
  8
L-ZISSEN
 10
1438.375489
 20
942.548095
 30
0.0
 11
1455.0
 21
925.0
 31
0.0
  0
SOLID
  8
L-ZISSEN
 10
1438.133505
 20
942.318846
 30
0.0
 11
1438.617474
 21
942.777343
 31
0.0
 12
1437.0
 22
944.0
 32
0.0
 13
1437.0
 23
944.0
 33
0.0
  0
TEXT
  8
L-ZISSEN
 10
1659.0
 20
922.75
 30
0.0
 40
4.5
  1
P.P
  0
LINE
  8
L-ZISSEN
 10
1655.0
 20
925.0
 30
0.0
 11
1657.0
 21
925.0
 31
0.0
  0
LINE
  8
L-ZISSEN
 10
1641.239289
 20
942.430234
 30
0.0
 11
1655.0
 21
925.0
 31
0.0
  0
SOLID
  8
L-ZISSEN
 10
1640.977661
 20
942.223686
 30
0.0
 11
1641.500916
 21
942.636783
 31
0.0
 12
1640.0
 22
944.0
 32
0.0
 13
1640.0
 23
944.0
 33
0.0
  0
TEXT
  8
L-ZISSEN
 10
1425.0
 20
1115.0
 30
0.0
 40
4.5
  1
AC-200V
  0
TEXT
  8
L-ZISSEN
 10
1425.0
 20
1125.0
 30
0.0
 40
4.5
  1
AC-100V
  0
TEXT
  8
L-ZISSEN
 10
1320.0
 20
1130.0
 30
0.0
 40
4.5
  1
PILOT VALVE
  0
TEXT
  8
L-ZISSEN
 10
1320.0
 20
1120.0
 30
0.0
 40
4.5
  1
MODEL NO. : 46B-*00-2*B0
  0
LINE
  8
L-ZISSEN
  6
CONTINUOUS
 62
     7
 10
1389.9
 20
1086.0
 30
0.0
 11
1343.9
 21
1084.393644
 31
0.0
  0
LINE
  8
L-ZISSEN
  6
CONTINUOUS
 62
     7
 10
1343.9
 20
1035.606356
 30
0.0
 11
1343.9
 21
1084.393644
 31
0.0
  0
LINE
  8
L-ZISSEN
  6
CONTINUOUS
 62
     7
 10
1389.9
 20
1034.0
 30
0.0
 11
1343.9
 21
1035.606356
 31
0.0
  0
LINE
  8
L-ZISSEN
  6
CONTINUOUS
 62
     7
 10
1484.1
 20
1034.0
 30
0.0
 11
1530.1
 21
1035.606356
 31
0.0
  0
LINE
  8
L-ZISSEN
  6
CONTINUOUS
 62
     7
 10
1530.1
 20
1035.606356
 30
0.0
 11
1530.1
 21
1084.393644
 31
0.0
  0
LINE
  8
L-ZISSEN
  6
CONTINUOUS
 62
     7
 10
1484.1
 20
1086.0
 30
0.0
 11
1530.1
 21
1084.393644
 31
0.0
  0
LINE
  8
L-ZISSEN
  6
CONTINUOUS
 62
     7
 10
1399.9
 20
944.0
 30
0.0
 11
1399.9
 21
996.0
 31
0.0
  0
LINE
  8
L-ZISSEN
  6
CONTINUOUS
 62
     7
 10
1399.9
 20
944.0
 30
0.0
 11
1399.9
 21
996.0
 31
0.0
  0
LINE
  8
L-ZISSEN
 10
1402.0
 20
996.0
 30
0.0
 11
1389.9
 21
996.0
 31
0.0
  0
LINE
  8
L-ZISSEN
  6
CONTINUOUS
 62
     7
 10
1389.9
 20
944.0
 30
0.0
 11
1343.9
 21
945.606356
 31
0.0
  0
LINE
  8
L-ZISSEN
  6
CONTINUOUS
 62
     7
 10
1343.9
 20
945.606356
 30
0.0
 11
1343.9
 21
994.393644
 31
0.0
  0
LINE
  8
L-ZISSEN
  6
CONTINUOUS
 62
     7
 10
1389.9
 20
996.0
 30
0.0
 11
1343.9
 21
994.393644
 31
0.0
  0
LINE
  8
L-ZISSEN
  6
CONTINUOUS
 62
     7
 10
1484.1
 20
996.0
 30
0.0
 11
1530.1
 21
994.393644
 31
0.0
  0
LINE
  8
L-ZISSEN
  6
CONTINUOUS
 62
     7
 10
1530.1
 20
945.606356
 30
0.0
 11
1530.1
 21
994.393644
 31
0.0
  0
LINE
  8
L-ZISSEN
  6
CONTINUOUS
 62
     7
 10
1484.1
 20
944.0
 30
0.0
 11
1530.1
 21
945.606356
 31
0.0
  0
LINE
  8
L-ZISSEN
 10
1472.0
 20
996.0
 30
0.0
 11
1484.1
 21
996.0
 31
0.0
  0
LINE
  8
L-ZISSEN
 10
1389.9
 20
944.0
 30
0.0
 11
1484.1
 21
944.0
 31
0.0
  0
LINE
  8
L-ZISSEN
  6
CONTINUOUS
 62
     7
 10
1474.1
 20
944.0
 30
0.0
 11
1474.1
 21
996.0
 31
0.0
  0
CIRCLE
  8
L-ZISSEN
 10
1437.0
 20
991.0
 30
0.0
 40
9.3155
  0
LINE
  8
L-ZISSEN
  6
CONTINUOUS
 62
     7
 10
1409.5
 20
1009.1
 30
0.0
 11
1402.5
 21
1009.1
 31
0.0
  0
LINE
  8
L-ZISSEN
  6
CONTINUOUS
 62
     7
 10
1409.5
 20
1005.5
 30
0.0
 11
1409.5
 21
1009.1
 31
0.0
  0
LINE
  8
L-ZISSEN
  6
CONTINUOUS
 62
     7
 10
1402.5
 20
1005.5
 30
0.0
 11
1402.5
 21
1009.1
 31
0.0
  0
LINE
  8
L-ZISSEN
  6
CONTINUOUS
 62
     7
 10
1402.0
 20
1005.5
 30
0.0
 11
1402.0
 21
996.0
 31
0.0
  0
LINE
  8
L-ZISSEN
  6
CONTINUOUS
 62
     7
 10
1471.5
 20
1005.5
 30
0.0
 11
1471.5
 21
1009.1
 31
0.0
  0
LINE
  8
L-ZISSEN
  6
CONTINUOUS
 62
     7
 10
1464.5
 20
1005.5
 30
0.0
 11
1464.5
 21
1009.1
 31
0.0
  0
LINE
  8
L-ZISSEN
  6
CONTINUOUS
 62
     7
 10
1464.5
 20
1009.1
 30
0.0
 11
1471.5
 21
1009.1
 31
0.0
  0
LINE
  8
L-ZISSEN
  6
CONTINUOUS
 62
     7
 10
1429.5
 20
1004.0
 30
0.0
 11
1429.5
 21
1001.618381
 31
0.0
  0
LINE
  8
L-ZISSEN
  6
CONTINUOUS
 62
     7
 10
1444.5
 20
1004.0
 30
0.0
 11
1444.5
 21
1001.618381
 31
0.0
  0
ARC
  8
L-ZISSEN
  6
CONTINUOUS
 62
     7
 10
1437.0
 20
991.0
 30
0.0
 40
13.0
 50
125.234418
 51
54.765582
  0
LINE
  8
L-ZISSEN
  6
CONTINUOUS
 62
     7
 10
1474.1
 20
944.0
 30
0.0
 11
1474.1
 21
996.0
 31
0.0
  0
LINE
  8
L-ZISSEN
  6
CONTINUOUS
 62
     7
 10
1402.0
 20
1005.5
 30
0.0
 11
1471.9
 21
1005.5
 31
0.0
  0
LINE
  8
L-ZISSEN
  6
CONTINUOUS
 62
     7
 10
1472.0
 20
1005.5
 30
0.0
 11
1472.0
 21
996.0
 31
0.0
  0
LINE
  8
L-ZISSEN
  6
CONTINUOUS
 62
     7
 10
1471.9
 20
1004.0
 30
0.0
 11
1402.0
 21
1004.0
 31
0.0
  0
LINE
  8
L-ZISSEN
 10
1484.1
 20
1034.0
 30
0.0
 11
1389.9
 21
1034.0
 31
0.0
  0
LINE
  8
L-ZISSEN
 10
1472.0
 20
1034.0
 30
0.0
 11
1472.0
 21
1086.0
 31
0.0
  0
LINE
  8
L-ZISSEN
  6
CONTINUOUS
 62
     7
 10
1474.1
 20
1034.0
 30
0.0
 11
1474.1
 21
1086.0
 31
0.0
  0
LINE
  8
L-ZISSEN
 10
1424.0
 20
1032.0
 30
0.0
 11
1424.0
 21
1034.0
 31
0.0
  0
LINE
  8
L-ZISSEN
 10
1450.0
 20
1032.0
 30
0.0
 11
1424.0
 21
1032.0
 31
0.0
  0
LINE
  8
L-ZISSEN
 10
1450.0
 20
1032.0
 30
0.0
 11
1450.0
 21
1034.0
 31
0.0
  0
LINE
  8
L-ZISSEN
 10
1484.1
 20
1086.0
 30
0.0
 11
1389.9
 21
1086.0
 31
0.0
  0
LINE
  8
L-ZISSEN
 10
1450.0
 20
1088.0
 30
0.0
 11
1450.0
 21
1086.0
 31
0.0
  0
LINE
  8
L-ZISSEN
 10
1450.0
 20
1088.0
 30
0.0
 11
1424.0
 21
1088.0
 31
0.0
  0
LINE
  8
L-ZISSEN
 10
1424.0
 20
1088.0
 30
0.0
 11
1424.0
 21
1086.0
 31
0.0
  0
LINE
  8
L-ZISSEN
  6
CONTINUOUS
 62
     7
 10
1665.5
 20
1005.5
 30
0.0
 11
1665.5
 21
1009.1
 31
0.0
  0
LINE
  8
L-ZISSEN
  6
CONTINUOUS
 62
     7
 10
1658.5
 20
1005.5
 30
0.0
 11
1658.5
 21
1009.1
 31
0.0
  0
LINE
  8
L-ZISSEN
  6
CONTINUOUS
 62
     7
 10
1658.5
 20
1009.1
 30
0.0
 11
1665.5
 21
1009.1
 31
0.0
  0
LINE
  8
L-ZISSEN
 10
1666.0
 20
978.0
 30
0.0
 11
1668.0
 21
978.0
 31
0.0
  0
LINE
  8
L-ZISSEN
 10
1612.0
 20
978.0
 30
0.0
 11
1614.0
 21
978.0
 31
0.0
  0
LINE
  8
L-ZISSEN
  6
CONTINUOUS
 62
     7
 10
1621.5
 20
1009.1
 30
0.0
 11
1614.5
 21
1009.1
 31
0.0
  0
LINE
  8
L-ZISSEN
  6
CONTINUOUS
 62
     7
 10
1621.5
 20
1005.5
 30
0.0
 11
1621.5
 21
1009.1
 31
0.0
  0
LINE
  8
L-ZISSEN
  6
CONTINUOUS
 62
     7
 10
1614.5
 20
1005.5
 30
0.0
 11
1614.5
 21
1009.1
 31
0.0
  0
LINE
  8
L-ZISSEN
 10
1668.0
 20
978.0
 30
0.0
 11
1668.0
 21
1004.0
 31
0.0
  0
LINE
  8
L-ZISSEN
 10
1614.0
 20
1005.5
 30
0.0
 11
1666.0
 21
1005.5
 31
0.0
  0
LINE
  8
L-ZISSEN
 10
1612.0
 20
1004.0
 30
0.0
 11
1668.0
 21
1004.0
 31
0.0
  0
LINE
  8
L-ZISSEN
 10
1666.0
 20
1005.5
 30
0.0
 11
1666.0
 21
944.0
 31
0.0
  0
LINE
  8
L-ZISSEN
 10
1612.0
 20
978.0
 30
0.0
 11
1612.0
 21
1004.0
 31
0.0
  0
LINE
  8
L-ZISSEN
 10
1614.0
 20
996.0
 30
0.0
 11
1666.0
 21
996.0
 31
0.0
  0
LINE
  8
L-ZISSEN
 10
1614.0
 20
944.0
 30
0.0
 11
1614.0
 21
1005.5
 31
0.0
  0
LINE
  8
L-ZISSEN
 10
1614.0
 20
944.0
 30
0.0
 11
1666.0
 21
944.0
 31
0.0
  0
LINE
  8
L-ZISSEN
  6
CONTINUOUS
 62
     7
 10
1399.9
 20
1034.0
 30
0.0
 11
1399.9
 21
1086.0
 31
0.0
  0
LINE
  8
L-ZISSEN
 10
1402.0
 20
1034.0
 30
0.0
 11
1402.0
 21
1086.0
 31
0.0
  0
LINE
  8
L-ZISSEN
  6
CONTINUOUS
 62
     7
 10
1399.9
 20
944.0
 30
0.0
 11
1399.9
 21
996.0
 31
0.0
  0
LINE
  8
L-ZISSEN
  6
CONTINUOUS
 62
     7
 10
1399.9
 20
944.0
 30
0.0
 11
1399.9
 21
996.0
 31
0.0
  0
CIRCLE
  8
L-ZISSEN
 10
1468.0
 20
1038.0
 30
0.0
 40
3.5
  0
CIRCLE
  8
L-ZISSEN
 10
1406.0
 20
1038.0
 30
0.0
 40
3.5
  0
CIRCLE
  8
L-ZISSEN
 10
1406.0
 20
1082.0
 30
0.0
 40
3.5
  0
CIRCLE
  8
L-ZISSEN
 10
1468.0
 20
1082.0
 30
0.0
 40
3.5
  0
LINE
  8
L-ZISSEN
  6
CONTINUOUS
 62
     7
 10
1531.1
 20
1071.0
 30
0.0
 11
1530.1
 21
1071.0
 31
0.0
  0
LINE
  8
L-ZISSEN
  6
CONTINUOUS
 62
     7
 10
1531.1
 20
1071.0
 30
0.0
 11
1531.1
 21
1049.0
 31
0.0
  0
LINE
  8
L-ZISSEN
  6
CONTINUOUS
 62
     7
 10
1531.1
 20
1049.0
 30
0.0
 11
1530.1
 21
1049.0
 31
0.0
  0
CIRCLE
  8
L-ZISSEN
 10
1640.0
 20
970.0
 30
0.0
 40
11.0
  0
LINE
  8
L-ZISSEN
  6
CONTINUOUS
 62
     7
 10
1342.9
 20
1049.0
 30
0.0
 11
1343.9
 21
1049.0
 31
0.0
  0
LINE
  8
L-ZISSEN
  6
CONTINUOUS
 62
     7
 10
1342.9
 20
1071.0
 30
0.0
 11
1342.9
 21
1049.0
 31
0.0
  0
LINE
  8
L-ZISSEN
  6
CONTINUOUS
 62
     7
 10
1342.9
 20
1071.0
 30
0.0
 11
1343.9
 21
1071.0
 31
0.0
  0
LINE
  8
L-ZISSEN
  6
CONTINUOUS
 62
     7
 10
1342.9
 20
981.0
 30
0.0
 11
1343.9
 21
981.0
 31
0.0
  0
LINE
  8
L-ZISSEN
  6
CONTINUOUS
 62
     7
 10
1342.9
 20
981.0
 30
0.0
 11
1342.9
 21
959.0
 31
0.0
  0
LINE
  8
L-ZISSEN
  6
CONTINUOUS
 62
     7
 10
1342.9
 20
959.0
 30
0.0
 11
1343.9
 21
959.0
 31
0.0
  0
LINE
  8
L-ZISSEN
  6
CONTINUOUS
 62
     7
 10
1531.1
 20
959.0
 30
0.0
 11
1530.1
 21
959.0
 31
0.0
  0
LINE
  8
L-ZISSEN
  6
CONTINUOUS
 62
     7
 10
1531.1
 20
981.0
 30
0.0
 11
1531.1
 21
959.0
 31
0.0
  0
LINE
  8
L-ZISSEN
  6
CONTINUOUS
 62
     7
 10
1531.1
 20
981.0
 30
0.0
 11
1530.1
 21
981.0
 31
0.0
  0
LINE
  8
L-ZISSEN
  6
CONTINUOUS
 62
     7
 10
505.0
 20
650.0
 30
0.0
 11
505.0
 21
575.759047
 31
0.0
  0
LINE
  8
L-ZISSEN
  6
CONTINUOUS
 62
     7
 10
1009.5
 20
364.6
 30
0.0
 11
1016.5
 21
364.6
 31
0.0
  0
LINE
  8
L-ZISSEN
  6
CONTINUOUS
 62
     7
 10
1009.5
 20
361.0
 30
0.0
 11
1009.5
 21
364.6
 31
0.0
  0
LINE
  8
L-ZISSEN
  6
CONTINUOUS
 62
     7
 10
1016.5
 20
361.0
 30
0.0
 11
1016.5
 21
364.6
 31
0.0
  0
LINE
  8
L-ZISSEN
  6
CONTINUOUS
 62
     7
 10
950.9
 20
301.106356
 30
0.0
 11
950.9
 21
349.893644
 31
0.0
  0
LINE
  8
L-ZISSEN
  6
CONTINUOUS
 62
     7
 10
949.9
 20
336.5
 30
0.0
 11
950.9
 21
336.5
 31
0.0
  0
LINE
  8
L-ZISSEN
  6
CONTINUOUS
 62
     7
 10
949.9
 20
336.5
 30
0.0
 11
949.9
 21
314.5
 31
0.0
  0
LINE
  8
L-ZISSEN
  6
CONTINUOUS
 62
     7
 10
949.9
 20
314.5
 30
0.0
 11
950.9
 21
314.5
 31
0.0
  0
LINE
  8
L-ZISSEN
  6
CONTINUOUS
 62
     7
 10
996.9
 20
351.5
 30
0.0
 11
950.9
 21
349.893644
 31
0.0
  0
LINE
  8
L-ZISSEN
  6
CONTINUOUS
 62
     7
 10
991.5
 20
299.688572
 30
0.0
 11
950.9
 21
301.106356
 31
0.0
  0
LINE
  8
L-ZISSEN
  6
CONTINUOUS
 62
     7
 10
1065.1
 20
350.0
 30
0.0
 11
1068.4
 21
350.0
 31
0.0
  0
LINE
  8
L-ZISSEN
  6
CONTINUOUS
 62
     7
 10
1065.1
 20
341.0
 30
0.0
 11
1068.4
 21
341.0
 31
0.0
  0
LINE
  8
L-ZISSEN
  6
CONTINUOUS
 62
     7
 10
1068.4
 20
350.0
 30
0.0
 11
1068.4
 21
341.0
 31
0.0
  0
LINE
  8
L-ZISSEN
  6
CONTINUOUS
 62
     7
 10
1060.5
 20
361.0
 30
0.0
 11
1060.5
 21
364.6
 31
0.0
  0
LINE
  8
L-ZISSEN
  6
CONTINUOUS
 62
     7
 10
1053.5
 20
361.0
 30
0.0
 11
1053.5
 21
364.6
 31
0.0
  0
LINE
  8
L-ZISSEN
  6
CONTINUOUS
 62
     7
 10
1053.5
 20
364.6
 30
0.0
 11
1060.5
 21
364.6
 31
0.0
  0
LINE
  8
L-ZISSEN
 10
1061.0
 20
361.0
 30
0.0
 11
1009.0
 21
361.0
 31
0.0
  0
LINE
  8
L-ZISSEN
 10
1063.1
 20
351.5
 30
0.0
 11
1063.1
 21
299.5
 31
0.0
  0
LINE
  8
L-ZISSEN
 10
1065.1
 20
351.5
 30
0.0
 11
1065.1
 21
299.5
 31
0.0
  0
LINE
  8
L-ZISSEN
 10
1006.9
 20
351.5
 30
0.0
 11
1006.9
 21
299.5
 31
0.0
  0
LINE
  8
L-ZISSEN
 10
1009.0
 20
351.5
 30
0.0
 11
996.9
 21
351.5
 31
0.0
  0
LINE
  8
L-ZISSEN
 10
1065.1
 20
351.5
 30
0.0
 11
1061.0
 21
351.5
 31
0.0
  0
LINE
  8
L-ZISSEN
 10
1061.0
 20
361.0
 30
0.0
 11
1061.0
 21
351.5
 31
0.0
  0
LINE
  8
L-ZISSEN
 10
1009.0
 20
361.0
 30
0.0
 11
1009.0
 21
351.5
 31
0.0
  0
LINE
  8
L-ZISSEN
 10
1042.5
 20
359.5
 30
0.0
 11
1042.5
 21
357.118381
 31
0.0
  0
LINE
  8
L-ZISSEN
 10
1027.5
 20
359.5
 30
0.0
 11
1027.5
 21
357.118381
 31
0.0
  0
CIRCLE
  8
L-ZISSEN
 10
1035.0
 20
346.5
 30
0.0
 40
9.3
  0
ARC
  8
L-ZISSEN
 10
1035.0
 20
346.5
 30
0.0
 40
13.0
 50
125.234418
 51
54.765582
  0
LINE
  8
L-ZISSEN
 10
1009.0
 20
359.5
 30
0.0
 11
1061.0
 21
359.5
 31
0.0
  0
LINE
  8
L-TYUSIN
  6
CENTER
 62
     1
 10
960.0
 20
246.5
 30
0.0
 11
960.0
 21
226.5
 31
0.0
  0
LINE
  8
L-TYUSIN
  6
CENTER
 62
     1
 10
945.0
 20
236.5
 30
0.0
 11
975.0
 21
236.5
 31
0.0
  0
LINE
  8
L-TYUSIN
  6
CENTER
 62
     1
 10
1110.0
 20
246.5
 30
0.0
 11
1110.0
 21
226.5
 31
0.0
  0
LINE
  8
L-TYUSIN
  6
CENTER
 62
     1
 10
1125.0
 20
236.5
 30
0.0
 11
1095.0
 21
236.5
 31
0.0
  0
LINE
  8
L-TYUSIN
  6
CENTER
 62
     1
 10
960.0
 20
106.5
 30
0.0
 11
960.0
 21
86.5
 31
0.0
  0
LINE
  8
L-TYUSIN
  6
CENTER
 62
     1
 10
945.0
 20
96.5
 30
0.0
 11
975.0
 21
96.5
 31
0.0
  0
LINE
  8
L-TYUSIN
  6
CENTER
 62
     1
 10
1110.0
 20
106.5
 30
0.0
 11
1110.0
 21
86.5
 31
0.0
  0
ARC
  8
L-ZISSEN
  6
CONTINUOUS
 62
     7
 10
965.0
 20
96.5
 30
0.0
 40
5.6
 50
270.0
 51
90.0
  0
LINE
  8
L-ZISSEN
  6
CONTINUOUS
 62
     7
 10
940.0
 20
81.5
 30
0.0
 11
1130.0
 21
81.5
 31
0.0
  0
LINE
  8
L-TYUSIN
  6
CENTER
 62
     1
 10
1125.0
 20
96.5
 30
0.0
 11
1095.0
 21
96.5
 31
0.0
  0
ARC
  8
L-ZISSEN
  6
CONTINUOUS
 62
     7
 10
1105.0
 20
236.5
 30
0.0
 40
5.6
 50
90.0
 51
270.0
  0
ARC
  8
L-ZISSEN
  6
CONTINUOUS
 62
     7
 10
1115.0
 20
236.5
 30
0.0
 40
5.6
 50
270.0
 51
90.0
  0
LINE
  8
L-ZISSEN
  6
CONTINUOUS
 62
     7
 10
1105.0
 20
242.1
 30
0.0
 11
1115.0
 21
242.1
 31
0.0
  0
LINE
  8
L-ZISSEN
  6
CONTINUOUS
 62
     7
 10
1105.0
 20
230.9
 30
0.0
 11
1115.0
 21
230.9
 31
0.0
  0
LINE
  8
L-ZISSEN
  6
CONTINUOUS
 62
     7
 10
1105.0
 20
90.9
 30
0.0
 11
1115.0
 21
90.9
 31
0.0
  0
LINE
  8
L-ZISSEN
  6
CONTINUOUS
 62
     7
 10
1105.0
 20
102.1
 30
0.0
 11
1115.0
 21
102.1
 31
0.0
  0
ARC
  8
L-ZISSEN
  6
CONTINUOUS
 62
     7
 10
1115.0
 20
96.5
 30
0.0
 40
5.6
 50
270.0
 51
90.0
  0
ARC
  8
L-ZISSEN
  6
CONTINUOUS
 62
     7
 10
1105.0
 20
96.5
 30
0.0
 40
5.6
 50
90.0
 51
270.0
  0
ARC
  8
L-ZISSEN
  6
CONTINUOUS
 62
     7
 10
955.0
 20
96.5
 30
0.0
 40
5.6
 50
90.0
 51
270.0
  0
LINE
  8
L-ZISSEN
  6
CONTINUOUS
 62
     7
 10
965.0
 20
102.1
 30
0.0
 11
955.0
 21
102.1
 31
0.0
  0
LINE
  8
L-ZISSEN
  6
CONTINUOUS
 62
     7
 10
965.0
 20
90.9
 30
0.0
 11
955.0
 21
90.9
 31
0.0
  0
LINE
  8
L-ZISSEN
  6
CONTINUOUS
 62
     7
 10
965.0
 20
230.9
 30
0.0
 11
955.0
 21
230.9
 31
0.0
  0
LINE
  8
L-ZISSEN
  6
CONTINUOUS
 62
     7
 10
965.0
 20
242.1
 30
0.0
 11
955.0
 21
242.1
 31
0.0
  0
ARC
  8
L-ZISSEN
  6
CONTINUOUS
 62
     7
 10
955.0
 20
236.5
 30
0.0
 40
5.6
 50
90.0
 51
270.0
  0
ARC
  8
L-ZISSEN
  6
CONTINUOUS
 62
     7
 10
965.0
 20
236.5
 30
0.0
 40
5.6
 50
270.0
 51
90.0
  0
LINE
  8
L-ZISSEN
  6
CONTINUOUS
 62
     7
 10
1130.0
 20
261.5
 30
0.0
 11
1130.0
 21
81.5
 31
0.0
  0
LINE
  8
L-ZISSEN
  6
CONTINUOUS
 62
     7
 10
940.0
 20
261.5
 30
0.0
 11
940.0
 21
81.5
 31
0.0
  0
LINE
  8
L-ZISSEN
  6
CONTINUOUS
 62
     7
 10
1130.0
 20
261.5
 30
0.0
 11
940.0
 21
261.5
 31
0.0
  0
LINE
  8
L-ZISSEN
  6
CONTINUOUS
 62
     7
 10
1062.5
 20
74.5
 30
0.0
 11
1062.5
 21
62.0
 31
0.0
  0
LINE
  8
L-ZISSEN
  6
CONTINUOUS
 62
     7
 10
1062.5
 20
62.0
 30
0.0
 11
1078.5
 21
62.0
 31
0.0
  0
LINE
  8
L-ZISSEN
  6
CONTINUOUS
 62
     7
 10
1078.5
 20
62.0
 30
0.0
 11
1078.5
 21
74.5
 31
0.0
  0
LINE
  8
L-ZISSEN
  6
CONTINUOUS
 62
     7
 10
991.5
 20
62.0
 30
0.0
 11
991.5
 21
74.5
 31
0.0
  0
LINE
  8
L-ZISSEN
  6
CONTINUOUS
 62
     7
 10
1007.5
 20
62.0
 30
0.0
 11
991.5
 21
62.0
 31
0.0
  0
LINE
  8
L-ZISSEN
  6
CONTINUOUS
 62
     7
 10
1007.5
 20
74.5
 30
0.0
 11
1007.5
 21
62.0
 31
0.0
  0
LINE
  8
L-ZISSEN
  6
CONTINUOUS
 62
     7
 10
1080.0
 20
74.5
 30
0.0
 11
1080.0
 21
79.0
 31
0.0
  0
LINE
  8
L-ZISSEN
  6
CONTINUOUS
 62
     7
 10
990.0
 20
74.5
 30
0.0
 11
1080.0
 21
74.5
 31
0.0
  0
LINE
  8
L-ZISSEN
  6
CONTINUOUS
 62
     7
 10
990.0
 20
79.0
 30
0.0
 11
990.0
 21
74.5
 31
0.0
  0
CIRCLE
  8
L-ZISSEN
  6
CONTINUOUS
 62
     7
 10
1070.5
 20
241.5
 30
0.0
 40
8.0
  0
CIRCLE
  8
L-ZISSEN
  6
CONTINUOUS
 62
     7
 10
999.5
 20
241.5
 30
0.0
 40
8.0
  0
LINE
  8
L-ZISSEN
  6
CONTINUOUS
 62
     7
 10
990.0
 20
264.0
 30
0.0
 11
1080.0
 21
264.0
 31
0.0
  0
LINE
  8
L-ZISSEN
  6
CONTINUOUS
 62
     7
 10
1080.0
 20
79.0
 30
0.0
 11
990.0
 21
79.0
 31
0.0
  0
LINE
  8
L-ZISSEN
  6
CONTINUOUS
 62
     7
 10
1080.0
 20
299.5
 30
0.0
 11
1080.0
 21
261.5
 31
0.0
  0
LINE
  8
L-ZISSEN
  6
CONTINUOUS
 62
     7
 10
990.0
 20
79.0
 30
0.0
 11
990.0
 21
81.5
 31
0.0
  0
LINE
  8
L-TYUSIN
  6
CENTER
 62
     1
 10
1035.0
 20
366.0
 30
0.0
 11
1035.0
 21
66.682303
 31
0.0
  0
CIRCLE
  8
L-ZISSEN
 10
1047.0
 20
320.5
 30
0.0
 40
5.7225
  0
LINE
  8
L-TYUSIN
  6
CENTER
 62
     1
 10
1047.0
 20
311.5
 30
0.0
 11
1047.0
 21
329.5
 31
0.0
  0
LINE
  8
L-TYUSIN
  6
CENTER
 62
     1
 10
1056.0
 20
320.5
 30
0.0
 11
1038.0
 21
320.5
 31
0.0
  0
CIRCLE
  8
L-ZISSEN
  6
CONTINUOUS
 62
     7
 10
1070.5
 20
170.5
 30
0.0
 40
8.0
  0
CIRCLE
  8
L-ZISSEN
  6
CONTINUOUS
 62
     7
 10
999.5
 20
170.5
 30
0.0
 40
8.0
  0
LINE
  8
L-ZISSEN
  6
CONTINUOUS
 62
     7
 10
1080.0
 20
81.5
 30
0.0
 11
1080.0
 21
79.0
 31
0.0
  0
LINE
  8
L-ZISSEN
 10
986.5
 20
261.5
 30
0.0
 11
986.5
 21
81.5
 31
0.0
  0
LINE
  8
L-ZISSEN
 10
1083.5
 20
261.5
 30
0.0
 11
1083.5
 21
81.5
 31
0.0
  0
LINE
  8
L-TYUSIN
  6
CENTER
 62
     1
 10
100.0
 20
150.0
 30
0.0
 11
300.0
 21
150.0
 31
0.0
  0
LINE
  8
L-TYUSIN
  6
CENTER
 62
     1
 10
74.0
 20
236.5
 30
0.0
 11
88.5
 21
236.5
 31
0.0
  0
LINE
  8
L-TYUSIN
  6
CENTER
 62
     1
 10
74.0
 20
96.5
 30
0.0
 11
88.5
 21
96.5
 31
0.0
  0
CIRCLE
  8
L-ZISSEN
  6
CONTINUOUS
 62
     7
 10
185.5
 20
114.5
 30
0.0
 40
8.0
  0
CIRCLE
  8
L-ZISSEN
  6
CONTINUOUS
 62
     7
 10
185.5
 20
185.5
 30
0.0
 40
8.0
  0
CIRCLE
  8
L-ZISSEN
  6
CONTINUOUS
 62
     7
 10
114.5
 20
185.5
 30
0.0
 40
8.0
  0
CIRCLE
  8
L-ZISSEN
  6
CONTINUOUS
 62
     7
 10
114.5
 20
114.5
 30
0.0
 40
8.0
  0
LINE
  8
L-ZISSEN
  6
CONTINUOUS
 62
     7
 10
106.5
 20
74.5
 30
0.0
 11
106.5
 21
62.0
 31
0.0
  0
LINE
  8
L-ZISSEN
  6
CONTINUOUS
 62
     7
 10
106.5
 20
62.0
 30
0.0
 11
122.5
 21
62.0
 31
0.0
  0
LINE
  8
L-ZISSEN
  6
CONTINUOUS
 62
     7
 10
122.5
 20
62.0
 30
0.0
 11
122.5
 21
74.5
 31
0.0
  0
LINE
  8
L-ZISSEN
  6
CONTINUOUS
 62
     7
 10
193.5
 20
62.0
 30
0.0
 11
193.5
 21
74.5
 31
0.0
  0
LINE
  8
L-ZISSEN
  6
CONTINUOUS
 62
     7
 10
177.5
 20
62.0
 30
0.0
 11
193.5
 21
62.0
 31
0.0
  0
LINE
  8
L-ZISSEN
  6
CONTINUOUS
 62
     7
 10
177.5
 20
74.5
 30
0.0
 11
177.5
 21
62.0
 31
0.0
  0
CIRCLE
  8
L-ZISSEN
 10
150.0
 20
150.0
 30
0.0
 40
22.4225
  0
LINE
  8
L-ZISSEN
  6
CONTINUOUS
 62
     7
 10
310.0
 20
162.5
 30
0.0
 11
322.5
 21
162.5
 31
0.0
  0
LINE
  8
L-ZISSEN
  6
CONTINUOUS
 62
     7
 10
322.5
 20
162.5
 30
0.0
 11
322.5
 21
178.5
 31
0.0
  0
LINE
  8
L-ZISSEN
  6
CONTINUOUS
 62
     7
 10
322.5
 20
178.5
 30
0.0
 11
310.0
 21
178.5
 31
0.0
  0
LINE
  8
L-ZISSEN
  6
CONTINUOUS
 62
     7
 10
322.5
 20
166.0
 30
0.0
 11
328.0
 21
166.0
 31
0.0
  0
LINE
  8
L-ZISSEN
  6
CONTINUOUS
 62
     7
 10
328.0
 20
166.0
 30
0.0
 11
328.0
 21
246.0
 31
0.0
  0
LINE
  8
L-ZISSEN
  6
CONTINUOUS
 62
     7
 10
310.0
 20
161.0
 30
0.0
 11
310.0
 21
251.0
 31
0.0
  0
LINE
  8
L-ZISSEN
  6
CONTINUOUS
 62
     7
 10
322.5
 20
233.5
 30
0.0
 11
310.0
 21
233.5
 31
0.0
  0
LINE
  8
L-ZISSEN
  6
CONTINUOUS
 62
     7
 10
322.5
 20
249.5
 30
0.0
 11
322.5
 21
233.5
 31
0.0
  0
LINE
  8
L-ZISSEN
  6
CONTINUOUS
 62
     7
 10
310.0
 20
249.5
 30
0.0
 11
322.5
 21
249.5
 31
0.0
  0
LINE
  8
L-ZISSEN
  6
CONTINUOUS
 62
     7
 10
322.5
 20
246.0
 30
0.0
 11
328.0
 21
246.0
 31
0.0
  0
LINE
  8
L-ZISSEN
  6
CONTINUOUS
 62
     7
 10
105.0
 20
195.0
 30
0.0
 11
105.0
 21
74.5
 31
0.0
  0
LINE
  8
L-ZISSEN
  6
CONTINUOUS
 62
     7
 10
122.5
 20
298.0
 30
0.0
 11
122.5
 21
285.5
 31
0.0
  0
LINE
  8
L-ZISSEN
  6
CONTINUOUS
 62
     7
 10
106.5
 20
298.0
 30
0.0
 11
122.5
 21
298.0
 31
0.0
  0
LINE
  8
L-ZISSEN
  6
CONTINUOUS
 62
     7
 10
106.5
 20
285.5
 30
0.0
 11
106.5
 21
298.0
 31
0.0
  0
LINE
  8
L-ZISSEN
  6
CONTINUOUS
 62
     7
 10
177.5
 20
285.5
 30
0.0
 11
177.5
 21
298.0
 31
0.0
  0
LINE
  8
L-ZISSEN
  6
CONTINUOUS
 62
     7
 10
177.5
 20
298.0
 30
0.0
 11
193.5
 21
298.0
 31
0.0
  0
LINE
  8
L-ZISSEN
  6
CONTINUOUS
 62
     7
 10
193.5
 20
298.0
 30
0.0
 11
193.5
 21
285.5
 31
0.0
  0
LINE
  8
L-TYUSIN
  6
CENTER
 62
     1
 10
150.0
 20
200.0
 30
0.0
 11
150.0
 21
100.0
 31
0.0
  0
LINE
  8
L-ZISSEN
  6
CONTINUOUS
 62
     7
 10
100.0
 20
161.0
 30
0.0
 11
105.0
 21
161.0
 31
0.0
  0
LINE
  8
L-ZISSEN
  6
CONTINUOUS
 62
     7
 10
83.5
 20
81.5
 30
0.0
 11
83.5
 21
261.5
 31
0.0
  0
LINE
  8
L-ZISSEN
  6
CONTINUOUS
 62
     7
 10
100.0
 20
261.5
 30
0.0
 11
100.0
 21
81.5
 31
0.0
  0
LINE
  8
L-ZISSEN
  6
CONTINUOUS
 62
     7
 10
79.0
 20
261.5
 30
0.0
 11
100.0
 21
261.5
 31
0.0
  0
LINE
  8
L-ZISSEN
  6
CONTINUOUS
 62
     7
 10
79.0
 20
81.5
 30
0.0
 11
79.0
 21
261.5
 31
0.0
  0
LINE
  8
L-ZISSEN
  6
CONTINUOUS
 62
     7
 10
100.0
 20
81.5
 30
0.0
 11
79.0
 21
81.5
 31
0.0
  0
LINE
  8
L-ZISSEN
  6
CONTINUOUS
 62
     7
 10
195.0
 20
79.0
 30
0.0
 11
105.0
 21
79.0
 31
0.0
  0
LINE
  8
L-ZISSEN
  6
CONTINUOUS
 62
     7
 10
105.0
 20
74.5
 30
0.0
 11
195.0
 21
74.5
 31
0.0
  0
LINE
  8
L-ZISSEN
  6
CONTINUOUS
 62
     7
 10
144.0
 20
79.0
 30
0.0
 11
105.0
 21
79.0
 31
0.0
  0
LINE
  8
L-ZISSEN
  6
CONTINUOUS
 62
     7
 10
195.0
 20
195.0
 30
0.0
 11
195.0
 21
74.5
 31
0.0
  0
LINE
  8
L-ZISSEN
  6
CONTINUOUS
 62
     7
 10
105.0
 20
251.0
 30
0.0
 11
105.0
 21
299.5
 31
0.0
  0
LINE
  8
L-ZISSEN
  6
CONTINUOUS
 62
     7
 10
300.0
 20
251.0
 30
0.0
 11
300.0
 21
161.0
 31
0.0
  0
LINE
  8
L-ZISSEN
  6
CONTINUOUS
 62
     7
 10
100.0
 20
251.0
 30
0.0
 11
105.0
 21
251.0
 31
0.0
  0
LINE
  8
L-ZISSEN
  6
CONTINUOUS
 62
     7
 10
100.0
 20
251.0
 30
0.0
 11
100.0
 21
161.0
 31
0.0
  0
LINE
  8
L-ZISSEN
  6
CONTINUOUS
 62
     7
 10
195.0
 20
264.0
 30
0.0
 11
195.0
 21
251.0
 31
0.0
  0
LINE
  8
L-ZISSEN
  6
CONTINUOUS
 62
     7
 10
195.0
 20
79.0
 30
0.0
 11
156.0
 21
79.0
 31
0.0
  0
LINE
  8
L-ZISSEN
  6
CONTINUOUS
 62
     7
 10
105.0
 20
264.0
 30
0.0
 11
295.0
 21
264.0
 31
0.0
  0
LINE
  8
L-TYUSIN
  6
CENTER
 62
     1
 10
295.0
 20
206.0
 30
0.0
 11
333.0
 21
206.0
 31
0.0
  0
LINE
  8
L-ZISSEN
  6
CONTINUOUS
 62
     7
 10
105.0
 20
195.0
 30
0.0
 11
195.0
 21
195.0
 31
0.0
  0
LINE
  8
L-ZISSEN
  6
CONTINUOUS
 62
     7
 10
295.0
 20
105.0
 30
0.0
 11
105.0
 21
105.0
 31
0.0
  0
CIRCLE
  8
L-ZISSEN
  6
CONTINUOUS
 62
     7
 10
150.0
 20
150.0
 30
0.0
 40
40.0
  0
LINE
  8
L-ZISSEN
  6
CONTINUOUS
 62
     7
 10
295.0
 20
161.0
 30
0.0
 11
310.0
 21
161.0
 31
0.0
  0
LINE
  8
L-ZISSEN
  6
CONTINUOUS
 62
     7
 10
295.0
 20
251.0
 30
0.0
 11
310.0
 21
251.0
 31
0.0
  0
CIRCLE
  8
L-ZISSEN
  6
CONTINUOUS
 62
     7
 10
250.0
 20
150.0
 30
0.0
 40
40.0
  0
LINE
  8
L-ZISSEN
  6
CONTINUOUS
 62
     7
 10
205.0
 20
195.0
 30
0.0
 11
295.0
 21
195.0
 31
0.0
  0
LINE
  8
L-ZISSEN
  6
CONTINUOUS
 62
     7
 10
295.0
 20
79.0
 30
0.0
 11
256.0
 21
79.0
 31
0.0
  0
LINE
  8
L-ZISSEN
  6
CONTINUOUS
 62
     7
 10
295.0
 20
299.5
 30
0.0
 11
295.0
 21
251.0
 31
0.0
  0
LINE
  8
L-ZISSEN
  6
CONTINUOUS
 62
     7
 10
205.0
 20
251.0
 30
0.0
 11
205.0
 21
264.0
 31
0.0
  0
LINE
  8
L-ZISSEN
  6
CONTINUOUS
 62
     7
 10
295.0
 20
195.0
 30
0.0
 11
295.0
 21
74.5
 31
0.0
  0
LINE
  8
L-ZISSEN
  6
CONTINUOUS
 62
     7
 10
244.0
 20
79.0
 30
0.0
 11
205.0
 21
79.0
 31
0.0
  0
LINE
  8
L-ZISSEN
  6
CONTINUOUS
 62
     7
 10
205.0
 20
74.5
 30
0.0
 11
295.0
 21
74.5
 31
0.0
  0
LINE
  8
L-ZISSEN
  6
CONTINUOUS
 62
     7
 10
295.0
 20
79.0
 30
0.0
 11
205.0
 21
79.0
 31
0.0
  0
LINE
  8
L-ZISSEN
  6
CONTINUOUS
 62
     7
 10
293.5
 20
298.0
 30
0.0
 11
293.5
 21
285.5
 31
0.0
  0
LINE
  8
L-ZISSEN
  6
CONTINUOUS
 62
     7
 10
277.5
 20
298.0
 30
0.0
 11
293.5
 21
298.0
 31
0.0
  0
LINE
  8
L-ZISSEN
  6
CONTINUOUS
 62
     7
 10
277.5
 20
285.5
 30
0.0
 11
277.5
 21
298.0
 31
0.0
  0
LINE
  8
L-ZISSEN
  6
CONTINUOUS
 62
     7
 10
206.5
 20
285.5
 30
0.0
 11
206.5
 21
298.0
 31
0.0
  0
LINE
  8
L-ZISSEN
  6
CONTINUOUS
 62
     7
 10
206.5
 20
298.0
 30
0.0
 11
222.5
 21
298.0
 31
0.0
  0
LINE
  8
L-ZISSEN
  6
CONTINUOUS
 62
     7
 10
222.5
 20
298.0
 30
0.0
 11
222.5
 21
285.5
 31
0.0
  0
LINE
  8
L-ZISSEN
  6
CONTINUOUS
 62
     7
 10
205.0
 20
195.0
 30
0.0
 11
205.0
 21
74.5
 31
0.0
  0
CIRCLE
  8
L-ZISSEN
 10
250.0
 20
150.0
 30
0.0
 40
22.4225
  0
LINE
  8
L-ZISSEN
  6
CONTINUOUS
 62
     7
 10
277.5
 20
74.5
 30
0.0
 11
277.5
 21
62.0
 31
0.0
  0
LINE
  8
L-ZISSEN
  6
CONTINUOUS
 62
     7
 10
277.5
 20
62.0
 30
0.0
 11
293.5
 21
62.0
 31
0.0
  0
LINE
  8
L-ZISSEN
  6
CONTINUOUS
 62
     7
 10
293.5
 20
62.0
 30
0.0
 11
293.5
 21
74.5
 31
0.0
  0
LINE
  8
L-ZISSEN
  6
CONTINUOUS
 62
     7
 10
222.5
 20
62.0
 30
0.0
 11
222.5
 21
74.5
 31
0.0
  0
LINE
  8
L-ZISSEN
  6
CONTINUOUS
 62
     7
 10
206.5
 20
62.0
 30
0.0
 11
222.5
 21
62.0
 31
0.0
  0
LINE
  8
L-ZISSEN
  6
CONTINUOUS
 62
     7
 10
206.5
 20
74.5
 30
0.0
 11
206.5
 21
62.0
 31
0.0
  0
CIRCLE
  8
L-ZISSEN
  6
CONTINUOUS
 62
     7
 10
214.5
 20
114.5
 30
0.0
 40
8.0
  0
CIRCLE
  8
L-ZISSEN
  6
CONTINUOUS
 62
     7
 10
214.5
 20
185.5
 30
0.0
 40
8.0
  0
CIRCLE
  8
L-ZISSEN
  6
CONTINUOUS
 62
     7
 10
285.5
 20
185.5
 30
0.0
 40
8.0
  0
CIRCLE
  8
L-ZISSEN
  6
CONTINUOUS
 62
     7
 10
285.5
 20
114.5
 30
0.0
 40
8.0
  0
LINE
  8
L-TYUSIN
  6
CENTER
 62
     1
 10
250.0
 20
200.0
 30
0.0
 11
250.0
 21
100.0
 31
0.0
  0
LINE
  8
L-ZISSEN
 10
205.0
 20
161.0
 30
0.0
 11
195.0
 21
161.0
 31
0.0
  0
LINE
  8
L-ZISSEN
 10
205.0
 20
251.0
 30
0.0
 11
195.0
 21
251.0
 31
0.0
  0
LINE
  8
L-ZISSEN
 10
200.0
 20
251.0
 30
0.0
 11
200.0
 21
161.0
 31
0.0
  0
LINE
  8
L-ZISSEN
 10
295.0
 20
299.5
 30
0.0
 11
105.0
 21
299.5
 31
0.0
  0
LINE
  8
L-ZISSEN
 10
295.0
 20
285.5
 30
0.0
 11
275.0
 21
285.5
 31
0.0
  0
LINE
  8
L-ZISSEN
  6
CONTINUOUS
 62
     7
 10
275.0
 20
299.5
 30
0.0
 11
275.0
 21
285.5
 31
0.0
  0
LINE
  8
L-ZISSEN
 10
225.0
 20
299.5
 30
0.0
 11
225.0
 21
285.5
 31
0.0
  0
LINE
  8
L-ZISSEN
 10
175.0
 20
299.5
 30
0.0
 11
175.0
 21
285.5
 31
0.0
  0
LINE
  8
L-ZISSEN
  6
CONTINUOUS
 62
     7
 10
125.0
 20
285.5
 30
0.0
 11
125.0
 21
299.5
 31
0.0
  0
LINE
  8
L-ZISSEN
 10
125.0
 20
285.5
 30
0.0
 11
105.0
 21
285.5
 31
0.0
  0
LINE
  8
L-ZISSEN
 10
225.0
 20
285.5
 30
0.0
 11
175.0
 21
285.5
 31
0.0
  0
LINE
  8
L-ZISSEN
 10
174.0
 20
351.5
 30
0.0
 11
226.0
 21
351.5
 31
0.0
  0
LINE
  8
L-ZISSEN
 10
172.0
 20
333.5
 30
0.0
 11
172.0
 21
359.5
 31
0.0
  0
LINE
  8
L-ZISSEN
 10
172.0
 20
359.5
 30
0.0
 11
228.0
 21
359.5
 31
0.0
  0
LINE
  8
L-ZISSEN
 10
174.0
 20
361.0
 30
0.0
 11
226.0
 21
361.0
 31
0.0
  0
LINE
  8
L-ZISSEN
 10
228.0
 20
333.5
 30
0.0
 11
228.0
 21
359.5
 31
0.0
  0
LINE
  8
L-ZISSEN
  6
CONTINUOUS
 62
     7
 10
174.5
 20
361.0
 30
0.0
 11
174.5
 21
364.6
 31
0.0
  0
LINE
  8
L-ZISSEN
  6
CONTINUOUS
 62
     7
 10
181.5
 20
361.0
 30
0.0
 11
181.5
 21
364.6
 31
0.0
  0
LINE
  8
L-ZISSEN
  6
CONTINUOUS
 62
     7
 10
181.5
 20
364.6
 30
0.0
 11
174.5
 21
364.6
 31
0.0
  0
LINE
  8
L-ZISSEN
 10
172.0
 20
333.5
 30
0.0
 11
174.0
 21
333.5
 31
0.0
  0
LINE
  8
L-ZISSEN
 10
226.0
 20
333.5
 30
0.0
 11
228.0
 21
333.5
 31
0.0
  0
LINE
  8
L-ZISSEN
  6
CONTINUOUS
 62
     7
 10
218.5
 20
364.6
 30
0.0
 11
225.5
 21
364.6
 31
0.0
  0
LINE
  8
L-ZISSEN
  6
CONTINUOUS
 62
     7
 10
218.5
 20
361.0
 30
0.0
 11
218.5
 21
364.6
 31
0.0
  0
LINE
  8
L-ZISSEN
  6
CONTINUOUS
 62
     7
 10
225.5
 20
361.0
 30
0.0
 11
225.5
 21
364.6
 31
0.0
  0
LINE
  8
L-ZISSEN
  6
CONTINUOUS
 62
     7
 10
226.0
 20
299.5
 30
0.0
 11
226.0
 21
361.0
 31
0.0
  0
LINE
  8
L-ZISSEN
  6
CONTINUOUS
 62
     7
 10
174.0
 20
299.5
 30
0.0
 11
174.0
 21
361.0
 31
0.0
  0
LINE
  8
L-TYUSIN
  6
CENTER
 62
     1
 10
200.0
 20
366.0
 30
0.0
 11
200.0
 21
100.0
 31
0.0
  0
CIRCLE
  8
L-ZISSEN
 10
180.0
 20
345.5
 30
0.0
 40
4.5
  0
CIRCLE
  8
L-ZISSEN
 10
220.0
 20
345.5
 30
0.0
 40
4.5
  0
CIRCLE
  8
L-ZISSEN
 10
180.0
 20
305.5
 30
0.0
 40
4.5
  0
CIRCLE
  8
L-ZISSEN
 10
220.0
 20
305.5
 30
0.0
 40
4.5
  0
LINE
  8
L-TYUSIN
  6
CENTER
 62
     1
 10
755.0
 20
366.0
 30
0.0
 11
755.0
 21
100.0
 31
0.0
  0
LINE
  8
L-ZISSEN
  6
CONTINUOUS
 62
     7
 10
781.0
 20
299.5
 30
0.0
 11
781.0
 21
361.0
 31
0.0
  0
LINE
  8
L-ZISSEN
  6
CONTINUOUS
 62
     7
 10
729.0
 20
299.5
 30
0.0
 11
729.0
 21
361.0
 31
0.0
  0
LINE
  8
L-ZISSEN
  6
CONTINUOUS
 62
     7
 10
729.5
 20
361.0
 30
0.0
 11
729.5
 21
364.6
 31
0.0
  0
LINE
  8
L-ZISSEN
  6
CONTINUOUS
 62
     7
 10
736.5
 20
361.0
 30
0.0
 11
736.5
 21
364.6
 31
0.0
  0
LINE
  8
L-ZISSEN
  6
CONTINUOUS
 62
     7
 10
736.5
 20
364.6
 30
0.0
 11
729.5
 21
364.6
 31
0.0
  0
LINE
  8
L-ZISSEN
 10
729.0
 20
333.5
 30
0.0
 11
727.0
 21
333.5
 31
0.0
  0
LINE
  8
L-ZISSEN
 10
783.0
 20
333.5
 30
0.0
 11
781.0
 21
333.5
 31
0.0
  0
LINE
  8
L-ZISSEN
  6
CONTINUOUS
 62
     7
 10
773.5
 20
364.6
 30
0.0
 11
780.5
 21
364.6
 31
0.0
  0
LINE
  8
L-ZISSEN
  6
CONTINUOUS
 62
     7
 10
773.5
 20
361.0
 30
0.0
 11
773.5
 21
364.6
 31
0.0
  0
LINE
  8
L-ZISSEN
  6
CONTINUOUS
 62
     7
 10
780.5
 20
361.0
 30
0.0
 11
780.5
 21
364.6
 31
0.0
  0
LINE
  8
L-ZISSEN
 10
727.0
 20
333.5
 30
0.0
 11
727.0
 21
359.5
 31
0.0
  0
LINE
  8
L-ZISSEN
 10
781.0
 20
361.0
 30
0.0
 11
729.0
 21
361.0
 31
0.0
  0
LINE
  8
L-ZISSEN
 10
783.0
 20
359.5
 30
0.0
 11
727.0
 21
359.5
 31
0.0
  0
LINE
  8
L-ZISSEN
 10
783.0
 20
333.5
 30
0.0
 11
783.0
 21
359.5
 31
0.0
  0
LINE
  8
L-ZISSEN
 10
781.0
 20
351.5
 30
0.0
 11
729.0
 21
351.5
 31
0.0
  0
LINE
  8
L-ZISSEN
 10
730.0
 20
285.5
 30
0.0
 11
780.0
 21
285.5
 31
0.0
  0
LINE
  8
L-ZISSEN
 10
830.0
 20
285.5
 30
0.0
 11
850.0
 21
285.5
 31
0.0
  0
LINE
  8
L-ZISSEN
  6
CONTINUOUS
 62
     7
 10
830.0
 20
285.5
 30
0.0
 11
830.0
 21
299.5
 31
0.0
  0
LINE
  8
L-ZISSEN
 10
780.0
 20
299.5
 30
0.0
 11
780.0
 21
285.5
 31
0.0
  0
LINE
  8
L-ZISSEN
 10
730.0
 20
299.5
 30
0.0
 11
730.0
 21
285.5
 31
0.0
  0
LINE
  8
L-ZISSEN
  6
CONTINUOUS
 62
     7
 10
680.0
 20
299.5
 30
0.0
 11
680.0
 21
285.5
 31
0.0
  0
LINE
  8
L-ZISSEN
 10
660.0
 20
285.5
 30
0.0
 11
680.0
 21
285.5
 31
0.0
  0
LINE
  8
L-ZISSEN
 10
660.0
 20
299.5
 30
0.0
 11
850.0
 21
299.5
 31
0.0
  0
LINE
  8
L-ZISSEN
 10
755.0
 20
251.0
 30
0.0
 11
755.0
 21
195.0
 31
0.0
  0
LINE
  8
L-ZISSEN
 10
750.0
 20
251.0
 30
0.0
 11
760.0
 21
251.0
 31
0.0
  0
CIRCLE
  8
L-ZISSEN
  6
CONTINUOUS
 62
     7
 10
669.5
 20
114.5
 30
0.0
 40
8.0
  0
CIRCLE
  8
L-ZISSEN
  6
CONTINUOUS
 62
     7
 10
669.5
 20
185.5
 30
0.0
 40
8.0
  0
LINE
  8
L-ZISSEN
  6
CONTINUOUS
 62
     7
 10
748.5
 20
74.5
 30
0.0
 11
748.5
 21
62.0
 31
0.0
  0
LINE
  8
L-ZISSEN
  6
CONTINUOUS
 62
     7
 10
748.5
 20
62.0
 30
0.0
 11
732.5
 21
62.0
 31
0.0
  0
LINE
  8
L-ZISSEN
  6
CONTINUOUS
 62
     7
 10
732.5
 20
62.0
 30
0.0
 11
732.5
 21
74.5
 31
0.0
  0
LINE
  8
L-ZISSEN
  6
CONTINUOUS
 62
     7
 10
661.5
 20
62.0
 30
0.0
 11
661.5
 21
74.5
 31
0.0
  0
LINE
  8
L-ZISSEN
  6
CONTINUOUS
 62
     7
 10
677.5
 20
62.0
 30
0.0
 11
661.5
 21
62.0
 31
0.0
  0
LINE
  8
L-ZISSEN
  6
CONTINUOUS
 62
     7
 10
677.5
 20
74.5
 30
0.0
 11
677.5
 21
62.0
 31
0.0
  0
CIRCLE
  8
L-ZISSEN
 10
755.0
 20
150.0
 30
0.0
 40
22.4225
  0
LINE
  8
L-ZISSEN
  6
CONTINUOUS
 62
     7
 10
732.5
 20
298.0
 30
0.0
 11
732.5
 21
285.5
 31
0.0
  0
LINE
  8
L-ZISSEN
  6
CONTINUOUS
 62
     7
 10
748.5
 20
298.0
 30
0.0
 11
732.5
 21
298.0
 31
0.0
  0
LINE
  8
L-ZISSEN
  6
CONTINUOUS
 62
     7
 10
748.5
 20
285.5
 30
0.0
 11
748.5
 21
298.0
 31
0.0
  0
LINE
  8
L-ZISSEN
  6
CONTINUOUS
 62
     7
 10
677.5
 20
285.5
 30
0.0
 11
677.5
 21
298.0
 31
0.0
  0
LINE
  8
L-ZISSEN
  6
CONTINUOUS
 62
     7
 10
677.5
 20
298.0
 30
0.0
 11
661.5
 21
298.0
 31
0.0
  0
LINE
  8
L-ZISSEN
  6
CONTINUOUS
 62
     7
 10
661.5
 20
298.0
 30
0.0
 11
661.5
 21
285.5
 31
0.0
  0
CIRCLE
  8
L-ZISSEN
 10
805.0
 20
285.5
 30
0.0
 40
4.283
  0
LINE
  8
L-TYUSIN
  6
CENTER
 62
     1
 10
813.0
 20
285.5
 30
0.0
 11
797.0
 21
285.5
 31
0.0
  0
LINE
  8
L-ZISSEN
  6
CONTINUOUS
 62
     7
 10
660.0
 20
79.0
 30
0.0
 11
750.0
 21
79.0
 31
0.0
  0
LINE
  8
L-ZISSEN
  6
CONTINUOUS
 62
     7
 10
750.0
 20
74.5
 30
0.0
 11
660.0
 21
74.5
 31
0.0
  0
LINE
  8
L-ZISSEN
  6
CONTINUOUS
 62
     7
 10
711.0
 20
79.0
 30
0.0
 11
750.0
 21
79.0
 31
0.0
  0
LINE
  8
L-ZISSEN
  6
CONTINUOUS
 62
     7
 10
660.0
 20
195.0
 30
0.0
 11
660.0
 21
74.5
 31
0.0
  0
LINE
  8
L-ZISSEN
  6
CONTINUOUS
 62
     7
 10
750.0
 20
251.0
 30
0.0
 11
750.0
 21
264.0
 31
0.0
  0
LINE
  8
L-ZISSEN
  6
CONTINUOUS
 62
     7
 10
660.0
 20
299.5
 30
0.0
 11
660.0
 21
251.0
 31
0.0
  0
LINE
  8
L-ZISSEN
  6
CONTINUOUS
 62
     7
 10
660.0
 20
79.0
 30
0.0
 11
699.0
 21
79.0
 31
0.0
  0
LINE
  8
L-ZISSEN
  6
CONTINUOUS
 62
     7
 10
850.0
 20
195.0
 30
0.0
 11
660.0
 21
195.0
 31
0.0
  0
CIRCLE
  8
L-ZISSEN
  6
CONTINUOUS
 62
     7
 10
755.0
 20
150.0
 30
0.0
 40
40.0
  0
LINE
  8
L-ZISSEN
  6
CONTINUOUS
 62
     7
 10
660.0
 20
251.0
 30
0.0
 11
645.0
 21
251.0
 31
0.0
  0
LINE
  8
L-ZISSEN
  6
CONTINUOUS
 62
     7
 10
660.0
 20
161.0
 30
0.0
 11
645.0
 21
161.0
 31
0.0
  0
LINE
  8
L-ZISSEN
  6
CONTINUOUS
 62
     7
 10
660.0
 20
105.0
 30
0.0
 11
850.0
 21
105.0
 31
0.0
  0
LINE
  8
L-TYUSIN
  6
CENTER
 62
     1
 10
660.0
 20
206.0
 30
0.0
 11
622.0
 21
206.0
 31
0.0
  0
LINE
  8
L-ZISSEN
  6
CONTINUOUS
 62
     7
 10
850.0
 20
264.0
 30
0.0
 11
660.0
 21
264.0
 31
0.0
  0
LINE
  8
L-ZISSEN
  6
CONTINUOUS
 62
     7
 10
760.0
 20
79.0
 30
0.0
 11
799.0
 21
79.0
 31
0.0
  0
LINE
  8
L-ZISSEN
  6
CONTINUOUS
 62
     7
 10
760.0
 20
264.0
 30
0.0
 11
760.0
 21
251.0
 31
0.0
  0
LINE
  8
L-ZISSEN
  6
CONTINUOUS
 62
     7
 10
855.0
 20
251.0
 30
0.0
 11
855.0
 21
161.0
 31
0.0
  0
LINE
  8
L-ZISSEN
  6
CONTINUOUS
 62
     7
 10
855.0
 20
251.0
 30
0.0
 11
850.0
 21
251.0
 31
0.0
  0
LINE
  8
L-ZISSEN
  6
CONTINUOUS
 62
     7
 10
655.0
 20
251.0
 30
0.0
 11
655.0
 21
161.0
 31
0.0
  0
LINE
  8
L-ZISSEN
  6
CONTINUOUS
 62
     7
 10
850.0
 20
251.0
 30
0.0
 11
850.0
 21
299.5
 31
0.0
  0
LINE
  8
L-ZISSEN
  6
CONTINUOUS
 62
     7
 10
811.0
 20
79.0
 30
0.0
 11
850.0
 21
79.0
 31
0.0
  0
LINE
  8
L-ZISSEN
  6
CONTINUOUS
 62
     7
 10
850.0
 20
74.5
 30
0.0
 11
760.0
 21
74.5
 31
0.0
  0
LINE
  8
L-ZISSEN
  6
CONTINUOUS
 62
     7
 10
760.0
 20
79.0
 30
0.0
 11
850.0
 21
79.0
 31
0.0
  0
LINE
  8
L-ZISSEN
  6
CONTINUOUS
 62
     7
 10
855.0
 20
81.5
 30
0.0
 11
876.0
 21
81.5
 31
0.0
  0
LINE
  8
L-ZISSEN
  6
CONTINUOUS
 62
     7
 10
876.0
 20
81.5
 30
0.0
 11
876.0
 21
261.5
 31
0.0
  0
LINE
  8
L-ZISSEN
  6
CONTINUOUS
 62
     7
 10
876.0
 20
261.5
 30
0.0
 11
855.0
 21
261.5
 31
0.0
  0
LINE
  8
L-ZISSEN
  6
CONTINUOUS
 62
     7
 10
855.0
 20
261.5
 30
0.0
 11
855.0
 21
81.5
 31
0.0
  0
LINE
  8
L-ZISSEN
  6
CONTINUOUS
 62
     7
 10
871.5
 20
81.5
 30
0.0
 11
871.5
 21
261.5
 31
0.0
  0
LINE
  8
L-ZISSEN
  6
CONTINUOUS
 62
     7
 10
855.0
 20
161.0
 30
0.0
 11
850.0
 21
161.0
 31
0.0
  0
LINE
  8
L-ZISSEN
  6
CONTINUOUS
 62
     7
 10
761.5
 20
298.0
 30
0.0
 11
761.5
 21
285.5
 31
0.0
  0
LINE
  8
L-ZISSEN
  6
CONTINUOUS
 62
     7
 10
777.5
 20
298.0
 30
0.0
 11
761.5
 21
298.0
 31
0.0
  0
LINE
  8
L-ZISSEN
  6
CONTINUOUS
 62
     7
 10
777.5
 20
285.5
 30
0.0
 11
777.5
 21
298.0
 31
0.0
  0
LINE
  8
L-ZISSEN
  6
CONTINUOUS
 62
     7
 10
848.5
 20
285.5
 30
0.0
 11
848.5
 21
298.0
 31
0.0
  0
LINE
  8
L-ZISSEN
  6
CONTINUOUS
 62
     7
 10
848.5
 20
298.0
 30
0.0
 11
832.5
 21
298.0
 31
0.0
  0
LINE
  8
L-ZISSEN
  6
CONTINUOUS
 62
     7
 10
832.5
 20
298.0
 30
0.0
 11
832.5
 21
285.5
 31
0.0
  0
LINE
  8
L-ZISSEN
  6
CONTINUOUS
 62
     7
 10
850.0
 20
195.0
 30
0.0
 11
850.0
 21
74.5
 31
0.0
  0
LINE
  8
L-ZISSEN
  6
CONTINUOUS
 62
     7
 10
632.5
 20
246.0
 30
0.0
 11
627.0
 21
246.0
 31
0.0
  0
LINE
  8
L-ZISSEN
  6
CONTINUOUS
 62
     7
 10
645.0
 20
249.5
 30
0.0
 11
632.5
 21
249.5
 31
0.0
  0
LINE
  8
L-ZISSEN
  6
CONTINUOUS
 62
     7
 10
632.5
 20
249.5
 30
0.0
 11
632.5
 21
233.5
 31
0.0
  0
LINE
  8
L-ZISSEN
  6
CONTINUOUS
 62
     7
 10
632.5
 20
233.5
 30
0.0
 11
645.0
 21
233.5
 31
0.0
  0
LINE
  8
L-ZISSEN
  6
CONTINUOUS
 62
     7
 10
645.0
 20
161.0
 30
0.0
 11
645.0
 21
251.0
 31
0.0
  0
LINE
  8
L-ZISSEN
  6
CONTINUOUS
 62
     7
 10
627.0
 20
166.0
 30
0.0
 11
627.0
 21
246.0
 31
0.0
  0
LINE
  8
L-ZISSEN
  6
CONTINUOUS
 62
     7
 10
632.5
 20
166.0
 30
0.0
 11
627.0
 21
166.0
 31
0.0
  0
LINE
  8
L-ZISSEN
  6
CONTINUOUS
 62
     7
 10
632.5
 20
178.5
 30
0.0
 11
645.0
 21
178.5
 31
0.0
  0
LINE
  8
L-ZISSEN
  6
CONTINUOUS
 62
     7
 10
632.5
 20
162.5
 30
0.0
 11
632.5
 21
178.5
 31
0.0
  0
LINE
  8
L-ZISSEN
  6
CONTINUOUS
 62
     7
 10
645.0
 20
162.5
 30
0.0
 11
632.5
 21
162.5
 31
0.0
  0
LINE
  8
L-ZISSEN
  6
CONTINUOUS
 62
     7
 10
777.5
 20
74.5
 30
0.0
 11
777.5
 21
62.0
 31
0.0
  0
LINE
  8
L-ZISSEN
  6
CONTINUOUS
 62
     7
 10
777.5
 20
62.0
 30
0.0
 11
761.5
 21
62.0
 31
0.0
  0
LINE
  8
L-ZISSEN
  6
CONTINUOUS
 62
     7
 10
761.5
 20
62.0
 30
0.0
 11
761.5
 21
74.5
 31
0.0
  0
LINE
  8
L-ZISSEN
  6
CONTINUOUS
 62
     7
 10
832.5
 20
62.0
 30
0.0
 11
832.5
 21
74.5
 31
0.0
  0
LINE
  8
L-ZISSEN
  6
CONTINUOUS
 62
     7
 10
848.5
 20
62.0
 30
0.0
 11
832.5
 21
62.0
 31
0.0
  0
LINE
  8
L-ZISSEN
  6
CONTINUOUS
 62
     7
 10
848.5
 20
74.5
 30
0.0
 11
848.5
 21
62.0
 31
0.0
  0
CIRCLE
  8
L-ZISSEN
  6
CONTINUOUS
 62
     7
 10
840.5
 20
114.5
 30
0.0
 40
8.0
  0
CIRCLE
  8
L-ZISSEN
  6
CONTINUOUS
 62
     7
 10
840.5
 20
185.5
 30
0.0
 40
8.0
  0
LINE
  8
L-TYUSIN
  6
CENTER
 62
     1
 10
881.0
 20
96.5
 30
0.0
 11
866.5
 21
96.5
 31
0.0
  0
LINE
  8
L-TYUSIN
  6
CENTER
 62
     1
 10
881.0
 20
236.5
 30
0.0
 11
866.5
 21
236.5
 31
0.0
  0
LINE
  8
L-TYUSIN
  6
CENTER
 62
     1
 10
805.0
 20
150.0
 30
0.0
 11
705.0
 21
150.0
 31
0.0
  0
CIRCLE
  8
L-ZISSEN
 10
755.0
 20
325.5
 30
0.0
 40
11.0
  0
LINE
  8
L-ZISSEN
  6
CONTINUOUS
 62
     7
 10
760.0
 20
105.0
 30
0.0
 11
760.0
 21
74.5
 31
0.0
  0
LINE
  8
L-ZISSEN
  6
CONTINUOUS
 62
     7
 10
750.0
 20
105.0
 30
0.0
 11
750.0
 21
74.5
 31
0.0
  0
LINE
  8
L-ZISSEN
 10
800.0
 20
195.0
 30
0.0
 11
800.0
 21
105.0
 31
0.0
  0
LINE
  8
L-ZISSEN
 10
710.0
 20
195.0
 30
0.0
 11
710.0
 21
105.0
 31
0.0
  0
CIRCLE
  8
L-ZISSEN
  6
CONTINUOUS
 62
     7
 10
790.5
 20
114.5
 30
0.0
 40
8.0
  0
CIRCLE
  8
L-ZISSEN
  6
CONTINUOUS
 62
     7
 10
790.5
 20
185.5
 30
0.0
 40
8.0
  0
CIRCLE
  8
L-ZISSEN
  6
CONTINUOUS
 62
     7
 10
719.5
 20
114.5
 30
0.0
 40
8.0
  0
CIRCLE
  8
L-ZISSEN
  6
CONTINUOUS
 62
     7
 10
719.5
 20
185.5
 30
0.0
 40
8.0
  0
LINE
  8
L-ZISSEN
  6
CONTINUOUS
 62
     7
 10
485.5
 20
364.6
 30
0.0
 11
478.5
 21
364.6
 31
0.0
  0
LINE
  8
L-ZISSEN
  6
CONTINUOUS
 62
     7
 10
485.5
 20
361.0
 30
0.0
 11
485.5
 21
364.6
 31
0.0
  0
LINE
  8
L-ZISSEN
  6
CONTINUOUS
 62
     7
 10
478.5
 20
361.0
 30
0.0
 11
478.5
 21
364.6
 31
0.0
  0
LINE
  8
L-ZISSEN
  6
CONTINUOUS
 62
     7
 10
544.1
 20
301.106356
 30
0.0
 11
544.1
 21
349.893644
 31
0.0
  0
LINE
  8
L-ZISSEN
  6
CONTINUOUS
 62
     7
 10
545.1
 20
336.5
 30
0.0
 11
544.1
 21
336.5
 31
0.0
  0
LINE
  8
L-ZISSEN
  6
CONTINUOUS
 62
     7
 10
545.1
 20
336.5
 30
0.0
 11
545.1
 21
314.5
 31
0.0
  0
LINE
  8
L-ZISSEN
  6
CONTINUOUS
 62
     7
 10
545.1
 20
314.5
 30
0.0
 11
544.1
 21
314.5
 31
0.0
  0
LINE
  8
L-ZISSEN
  6
CONTINUOUS
 62
     7
 10
498.1
 20
351.5
 30
0.0
 11
544.1
 21
349.893644
 31
0.0
  0
LINE
  8
L-ZISSEN
  6
CONTINUOUS
 62
     7
 10
503.5
 20
299.688572
 30
0.0
 11
544.1
 21
301.106356
 31
0.0
  0
LINE
  8
L-ZISSEN
  6
CONTINUOUS
 62
     7
 10
429.9
 20
350.0
 30
0.0
 11
426.6
 21
350.0
 31
0.0
  0
LINE
  8
L-ZISSEN
  6
CONTINUOUS
 62
     7
 10
429.9
 20
341.0
 30
0.0
 11
426.6
 21
341.0
 31
0.0
  0
LINE
  8
L-ZISSEN
  6
CONTINUOUS
 62
     7
 10
426.6
 20
350.0
 30
0.0
 11
426.6
 21
341.0
 31
0.0
  0
LINE
  8
L-ZISSEN
  6
CONTINUOUS
 62
     7
 10
434.5
 20
361.0
 30
0.0
 11
434.5
 21
364.6
 31
0.0
  0
LINE
  8
L-ZISSEN
  6
CONTINUOUS
 62
     7
 10
441.5
 20
361.0
 30
0.0
 11
441.5
 21
364.6
 31
0.0
  0
LINE
  8
L-ZISSEN
  6
CONTINUOUS
 62
     7
 10
441.5
 20
364.6
 30
0.0
 11
434.5
 21
364.6
 31
0.0
  0
LINE
  8
L-ZISSEN
 10
434.0
 20
361.0
 30
0.0
 11
486.0
 21
361.0
 31
0.0
  0
LINE
  8
L-ZISSEN
 10
431.9
 20
351.5
 30
0.0
 11
431.9
 21
299.5
 31
0.0
  0
LINE
  8
L-ZISSEN
 10
429.9
 20
351.5
 30
0.0
 11
429.9
 21
299.5
 31
0.0
  0
LINE
  8
L-ZISSEN
 10
488.1
 20
351.5
 30
0.0
 11
488.1
 21
299.5
 31
0.0
  0
LINE
  8
L-ZISSEN
 10
486.0
 20
351.5
 30
0.0
 11
498.1
 21
351.5
 31
0.0
  0
LINE
  8
L-ZISSEN
 10
429.9
 20
351.5
 30
0.0
 11
434.0
 21
351.5
 31
0.0
  0
LINE
  8
L-ZISSEN
 10
434.0
 20
361.0
 30
0.0
 11
434.0
 21
351.5
 31
0.0
  0
LINE
  8
L-ZISSEN
 10
486.0
 20
361.0
 30
0.0
 11
486.0
 21
351.5
 31
0.0
  0
LINE
  8
L-ZISSEN
 10
452.5
 20
359.5
 30
0.0
 11
452.5
 21
357.118381
 31
0.0
  0
LINE
  8
L-ZISSEN
 10
467.5
 20
359.5
 30
0.0
 11
467.5
 21
357.118381
 31
0.0
  0
CIRCLE
  8
L-ZISSEN
 10
460.0
 20
346.5
 30
0.0
 40
9.3
  0
ARC
  8
L-ZISSEN
 10
460.0
 20
346.5
 30
0.0
 40
13.0
 50
125.234418
 51
54.765582
  0
LINE
  8
L-ZISSEN
 10
486.0
 20
359.5
 30
0.0
 11
434.0
 21
359.5
 31
0.0
  0
CIRCLE
  8
L-ZISSEN
 10
460.0
 20
206.0
 30
0.0
 40
28.328
  0
LINE
  8
L-ZISSEN
  6
CONTINUOUS
 62
     7
 10
503.5
 20
285.5
 30
0.0
 11
503.5
 21
298.0
 31
0.0
  0
LINE
  8
L-ZISSEN
  6
CONTINUOUS
 62
     7
 10
487.5
 20
298.0
 30
0.0
 11
487.5
 21
285.5
 31
0.0
  0
LINE
  8
L-ZISSEN
  6
CONTINUOUS
 62
     7
 10
503.5
 20
298.0
 30
0.0
 11
487.5
 21
298.0
 31
0.0
  0
LINE
  8
L-TYUSIN
  6
CENTER
 62
     1
 10
535.0
 20
246.5
 30
0.0
 11
535.0
 21
226.5
 31
0.0
  0
LINE
  8
L-TYUSIN
  6
CENTER
 62
     1
 10
550.0
 20
236.5
 30
0.0
 11
520.0
 21
236.5
 31
0.0
  0
LINE
  8
L-TYUSIN
  6
CENTER
 62
     1
 10
385.0
 20
246.5
 30
0.0
 11
385.0
 21
226.5
 31
0.0
  0
LINE
  8
L-TYUSIN
  6
CENTER
 62
     1
 10
370.0
 20
236.5
 30
0.0
 11
400.0
 21
236.5
 31
0.0
  0
LINE
  8
L-TYUSIN
  6
CENTER
 62
     1
 10
535.0
 20
106.5
 30
0.0
 11
535.0
 21
86.5
 31
0.0
  0
LINE
  8
L-TYUSIN
  6
CENTER
 62
     1
 10
550.0
 20
96.5
 30
0.0
 11
520.0
 21
96.5
 31
0.0
  0
LINE
  8
L-ZISSEN
  6
CONTINUOUS
 62
     7
 10
560.0
 20
106.5
 30
0.0
 11
572.5
 21
106.5
 31
0.0
  0
LINE
  8
L-ZISSEN
  6
CONTINUOUS
 62
     7
 10
572.5
 20
106.5
 30
0.0
 11
572.5
 21
122.5
 31
0.0
  0
LINE
  8
L-ZISSEN
  6
CONTINUOUS
 62
     7
 10
572.5
 20
122.5
 30
0.0
 11
560.0
 21
122.5
 31
0.0
  0
LINE
  8
L-ZISSEN
  6
CONTINUOUS
 62
     7
 10
505.0
 20
105.0
 30
0.0
 11
560.0
 21
105.0
 31
0.0
  0
LINE
  8
L-ZISSEN
  6
CONTINUOUS
 62
     7
 10
572.5
 20
110.0
 30
0.0
 11
575.0
 21
110.0
 31
0.0
  0
LINE
  8
L-ZISSEN
  6
CONTINUOUS
 62
     7
 10
575.0
 20
110.0
 30
0.0
 11
575.0
 21
190.0
 31
0.0
  0
LINE
  8
L-ZISSEN
  6
CONTINUOUS
 62
     7
 10
560.0
 20
105.0
 30
0.0
 11
560.0
 21
195.0
 31
0.0
  0
LINE
  8
L-ZISSEN
  6
CONTINUOUS
 62
     7
 10
505.0
 20
195.0
 30
0.0
 11
560.0
 21
195.0
 31
0.0
  0
LINE
  8
L-ZISSEN
  6
CONTINUOUS
 62
     7
 10
572.5
 20
177.5
 30
0.0
 11
560.0
 21
177.5
 31
0.0
  0
LINE
  8
L-ZISSEN
  6
CONTINUOUS
 62
     7
 10
572.5
 20
193.5
 30
0.0
 11
572.5
 21
177.5
 31
0.0
  0
LINE
  8
L-ZISSEN
  6
CONTINUOUS
 62
     7
 10
560.0
 20
193.5
 30
0.0
 11
572.5
 21
193.5
 31
0.0
  0
LINE
  8
L-ZISSEN
  6
CONTINUOUS
 62
     7
 10
572.5
 20
190.0
 30
0.0
 11
575.0
 21
190.0
 31
0.0
  0
LINE
  8
L-ZISSEN
  6
CONTINUOUS
 62
     7
 10
392.5
 20
190.0
 30
0.0
 11
390.0
 21
190.0
 31
0.0
  0
LINE
  8
L-ZISSEN
  6
CONTINUOUS
 62
     7
 10
405.0
 20
193.5
 30
0.0
 11
392.5
 21
193.5
 31
0.0
  0
LINE
  8
L-ZISSEN
  6
CONTINUOUS
 62
     7
 10
392.5
 20
193.5
 30
0.0
 11
392.5
 21
177.5
 31
0.0
  0
LINE
  8
L-ZISSEN
  6
CONTINUOUS
 62
     7
 10
392.5
 20
177.5
 30
0.0
 11
405.0
 21
177.5
 31
0.0
  0
LINE
  8
L-ZISSEN
  6
CONTINUOUS
 62
     7
 10
415.0
 20
195.0
 30
0.0
 11
405.0
 21
195.0
 31
0.0
  0
LINE
  8
L-ZISSEN
  6
CONTINUOUS
 62
     7
 10
405.0
 20
105.0
 30
0.0
 11
405.0
 21
195.0
 31
0.0
  0
LINE
  8
L-ZISSEN
  6
CONTINUOUS
 62
     7
 10
407.0
 20
105.0
 30
0.0
 11
407.0
 21
81.5
 31
0.0
  0
LINE
  8
L-ZISSEN
  6
CONTINUOUS
 62
     7
 10
390.0
 20
110.0
 30
0.0
 11
390.0
 21
190.0
 31
0.0
  0
LINE
  8
L-TYUSIN
  6
CENTER
 62
     1
 10
385.0
 20
106.5
 30
0.0
 11
385.0
 21
86.5
 31
0.0
  0
ARC
  8
L-ZISSEN
  6
CONTINUOUS
 62
     7
 10
530.0
 20
96.5
 30
0.0
 40
5.6
 50
90.0
 51
270.0
  0
LINE
  8
L-TYUSIN
  6
CENTER
 62
     1
 10
510.0
 20
206.0
 30
0.0
 11
410.0
 21
206.0
 31
0.0
  0
LINE
  8
L-ZISSEN
  6
CONTINUOUS
 62
     7
 10
513.0
 20
105.0
 30
0.0
 11
513.0
 21
81.5
 31
0.0
  0
LINE
  8
L-ZISSEN
  6
CONTINUOUS
 62
     7
 10
415.0
 20
81.5
 30
0.0
 11
365.0
 21
81.5
 31
0.0
  0
LINE
  8
L-ZISSEN
  6
CONTINUOUS
 62
     7
 10
505.0
 20
261.5
 30
0.0
 11
555.0
 21
261.5
 31
0.0
  0
LINE
  8
L-TYUSIN
  6
CENTER
 62
     1
 10
370.0
 20
96.5
 30
0.0
 11
400.0
 21
96.5
 31
0.0
  0
ARC
  8
L-ZISSEN
  6
CONTINUOUS
 62
     7
 10
390.0
 20
236.5
 30
0.0
 40
5.6
 50
270.0
 51
90.0
  0
ARC
  8
L-ZISSEN
  6
CONTINUOUS
 62
     7
 10
380.0
 20
236.5
 30
0.0
 40
5.6
 50
90.0
 51
270.0
  0
LINE
  8
L-ZISSEN
  6
CONTINUOUS
 62
     7
 10
390.0
 20
242.1
 30
0.0
 11
380.0
 21
242.1
 31
0.0
  0
LINE
  8
L-ZISSEN
  6
CONTINUOUS
 62
     7
 10
390.0
 20
230.9
 30
0.0
 11
380.0
 21
230.9
 31
0.0
  0
LINE
  8
L-ZISSEN
  6
CONTINUOUS
 62
     7
 10
390.0
 20
90.9
 30
0.0
 11
380.0
 21
90.9
 31
0.0
  0
LINE
  8
L-ZISSEN
  6
CONTINUOUS
 62
     7
 10
390.0
 20
102.1
 30
0.0
 11
380.0
 21
102.1
 31
0.0
  0
ARC
  8
L-ZISSEN
  6
CONTINUOUS
 62
     7
 10
380.0
 20
96.5
 30
0.0
 40
5.6
 50
90.0
 51
270.0
  0
ARC
  8
L-ZISSEN
  6
CONTINUOUS
 62
     7
 10
390.0
 20
96.5
 30
0.0
 40
5.6
 50
270.0
 51
90.0
  0
ARC
  8
L-ZISSEN
  6
CONTINUOUS
 62
     7
 10
540.0
 20
96.5
 30
0.0
 40
5.6
 50
270.0
 51
90.0
  0
LINE
  8
L-ZISSEN
  6
CONTINUOUS
 62
     7
 10
530.0
 20
102.1
 30
0.0
 11
540.0
 21
102.1
 31
0.0
  0
LINE
  8
L-ZISSEN
  6
CONTINUOUS
 62
     7
 10
530.0
 20
90.9
 30
0.0
 11
540.0
 21
90.9
 31
0.0
  0
LINE
  8
L-ZISSEN
  6
CONTINUOUS
 62
     7
 10
530.0
 20
230.9
 30
0.0
 11
540.0
 21
230.9
 31
0.0
  0
LINE
  8
L-ZISSEN
  6
CONTINUOUS
 62
     7
 10
530.0
 20
242.1
 30
0.0
 11
540.0
 21
242.1
 31
0.0
  0
ARC
  8
L-ZISSEN
  6
CONTINUOUS
 62
     7
 10
540.0
 20
236.5
 30
0.0
 40
5.6
 50
270.0
 51
90.0
  0
ARC
  8
L-ZISSEN
  6
CONTINUOUS
 62
     7
 10
530.0
 20
236.5
 30
0.0
 40
5.6
 50
90.0
 51
270.0
  0
LINE
  8
L-ZISSEN
  6
CONTINUOUS
 62
     7
 10
365.0
 20
261.5
 30
0.0
 11
365.0
 21
81.5
 31
0.0
  0
LINE
  8
L-ZISSEN
  6
CONTINUOUS
 62
     7
 10
407.0
 20
261.5
 30
0.0
 11
407.0
 21
195.0
 31
0.0
  0
LINE
  8
L-ZISSEN
  6
CONTINUOUS
 62
     7
 10
513.0
 20
261.5
 30
0.0
 11
513.0
 21
195.0
 31
0.0
  0
LINE
  8
L-ZISSEN
  6
CONTINUOUS
 62
     7
 10
555.0
 20
81.5
 30
0.0
 11
505.0
 21
81.5
 31
0.0
  0
LINE
  8
L-ZISSEN
  6
CONTINUOUS
 62
     7
 10
555.0
 20
261.5
 30
0.0
 11
555.0
 21
195.0
 31
0.0
  0
LINE
  8
L-ZISSEN
  6
CONTINUOUS
 62
     7
 10
365.0
 20
261.5
 30
0.0
 11
415.0
 21
261.5
 31
0.0
  0
LINE
  8
L-ZISSEN
  6
CONTINUOUS
 62
     7
 10
392.5
 20
110.0
 30
0.0
 11
390.0
 21
110.0
 31
0.0
  0
LINE
  8
L-TYUSIN
  6
CENTER
 62
     1
 10
510.0
 20
285.5
 30
0.0
 11
500.0
 21
285.5
 31
0.0
  0
LINE
  8
L-ZISSEN
  6
CONTINUOUS
 62
     7
 10
416.5
 20
298.0
 30
0.0
 11
416.5
 21
285.5
 31
0.0
  0
LINE
  8
L-ZISSEN
  6
CONTINUOUS
 62
     7
 10
432.5
 20
298.0
 30
0.0
 11
416.5
 21
298.0
 31
0.0
  0
LINE
  8
L-ZISSEN
  6
CONTINUOUS
 62
     7
 10
432.5
 20
285.5
 30
0.0
 11
432.5
 21
298.0
 31
0.0
  0
LINE
  8
L-ZISSEN
  6
CONTINUOUS
 62
     7
 10
432.5
 20
74.5
 30
0.0
 11
432.5
 21
62.0
 31
0.0
  0
LINE
  8
L-ZISSEN
  6
CONTINUOUS
 62
     7
 10
432.5
 20
62.0
 30
0.0
 11
416.5
 21
62.0
 31
0.0
  0
LINE
  8
L-ZISSEN
  6
CONTINUOUS
 62
     7
 10
416.5
 20
62.0
 30
0.0
 11
416.5
 21
74.5
 31
0.0
  0
LINE
  8
L-ZISSEN
  6
CONTINUOUS
 62
     7
 10
503.5
 20
62.0
 30
0.0
 11
503.5
 21
74.5
 31
0.0
  0
LINE
  8
L-ZISSEN
  6
CONTINUOUS
 62
     7
 10
487.5
 20
62.0
 30
0.0
 11
503.5
 21
62.0
 31
0.0
  0
LINE
  8
L-ZISSEN
  6
CONTINUOUS
 62
     7
 10
487.5
 20
74.5
 30
0.0
 11
487.5
 21
62.0
 31
0.0
  0
LINE
  8
L-ZISSEN
  6
CONTINUOUS
 62
     7
 10
415.0
 20
74.5
 30
0.0
 11
415.0
 21
79.0
 31
0.0
  0
LINE
  8
L-ZISSEN
  6
CONTINUOUS
 62
     7
 10
505.0
 20
74.5
 30
0.0
 11
415.0
 21
74.5
 31
0.0
  0
LINE
  8
L-ZISSEN
  6
CONTINUOUS
 62
     7
 10
505.0
 20
79.0
 30
0.0
 11
505.0
 21
74.5
 31
0.0
  0
CIRCLE
  8
L-ZISSEN
  6
CONTINUOUS
 62
     7
 10
495.5
 20
170.5
 30
0.0
 40
8.0
  0
CIRCLE
  8
L-ZISSEN
  6
CONTINUOUS
 62
     7
 10
424.5
 20
170.5
 30
0.0
 40
8.0
  0
CIRCLE
  8
L-ZISSEN
  6
CONTINUOUS
 62
     7
 10
424.5
 20
241.5
 30
0.0
 40
8.0
  0
LINE
  8
L-ZISSEN
  6
CONTINUOUS
 62
     7
 10
415.0
 20
105.0
 30
0.0
 11
405.0
 21
105.0
 31
0.0
  0
LINE
  8
L-ZISSEN
  6
CONTINUOUS
 62
     7
 10
392.5
 20
122.5
 30
0.0
 11
405.0
 21
122.5
 31
0.0
  0
LINE
  8
L-ZISSEN
  6
CONTINUOUS
 62
     7
 10
392.5
 20
106.5
 30
0.0
 11
392.5
 21
122.5
 31
0.0
  0
LINE
  8
L-ZISSEN
  6
CONTINUOUS
 62
     7
 10
405.0
 20
106.5
 30
0.0
 11
392.5
 21
106.5
 31
0.0
  0
CIRCLE
  8
L-ZISSEN
  6
CONTINUOUS
 62
     7
 10
495.5
 20
241.5
 30
0.0
 40
8.0
  0
LINE
  8
L-TYUSIN
  6
CENTER
 62
     1
 10
580.0
 20
150.0
 30
0.0
 11
385.0
 21
150.0
 31
0.0
  0
CIRCLE
  8
L-ZISSEN
  6
CONTINUOUS
 62
     7
 10
460.0
 20
206.0
 30
0.0
 40
40.0
  0
LINE
  8
L-ZISSEN
  6
CONTINUOUS
 62
     7
 10
425.9
 20
259.0
 30
0.0
 11
425.9
 21
251.0
 31
0.0
  0
LINE
  8
L-ZISSEN
  6
CONTINUOUS
 62
     7
 10
494.1
 20
259.0
 30
0.0
 11
425.9
 21
259.0
 31
0.0
  0
LINE
  8
L-ZISSEN
  6
CONTINUOUS
 62
     7
 10
494.1
 20
259.0
 30
0.0
 11
494.1
 21
251.0
 31
0.0
  0
LINE
  8
L-ZISSEN
  6
CONTINUOUS
 62
     7
 10
415.0
 20
161.0
 30
0.0
 11
505.0
 21
161.0
 31
0.0
  0
LINE
  8
L-ZISSEN
  6
CONTINUOUS
 62
     7
 10
505.0
 20
251.0
 30
0.0
 11
415.0
 21
251.0
 31
0.0
  0
LINE
  8
L-ZISSEN
  6
CONTINUOUS
 62
     7
 10
505.0
 20
264.0
 30
0.0
 11
415.0
 21
264.0
 31
0.0
  0
LINE
  8
L-ZISSEN
  6
CONTINUOUS
 62
     7
 10
415.0
 20
79.0
 30
0.0
 11
505.0
 21
79.0
 31
0.0
  0
LINE
  8
L-ZISSEN
  6
CONTINUOUS
 62
     7
 10
415.0
 20
299.5
 30
0.0
 11
415.0
 21
79.0
 31
0.0
  0
LINE
  8
L-ZISSEN
  6
CONTINUOUS
 62
     7
 10
505.0
 20
79.0
 30
0.0
 11
505.0
 21
299.5
 31
0.0
  0
LINE
  8
L-TYUSIN
  6
CENTER
 62
     1
 10
460.0
 20
366.0
 30
0.0
 11
460.0
 21
66.682303
 31
0.0
  0
LINE
  8
L-ZISSEN
 10
415.0
 20
299.5
 30
0.0
 11
505.0
 21
299.5
 31
0.0
  0
LINE
  8
L-ZISSEN
  6
CONTINUOUS
 62
     7
 10
429.9
 20
310.0
 30
0.0
 11
426.6
 21
310.0
 31
0.0
  0
LINE
  8
L-ZISSEN
  6
CONTINUOUS
 62
     7
 10
426.6
 20
310.0
 30
0.0
 11
426.6
 21
301.0
 31
0.0
  0
LINE
  8
L-ZISSEN
  6
CONTINUOUS
 62
     7
 10
429.9
 20
301.0
 30
0.0
 11
426.6
 21
301.0
 31
0.0
  0
LINE
  8
L-ZISSEN
 10
415.0
 20
285.5
 30
0.0
 11
435.0
 21
285.5
 31
0.0
  0
LINE
  8
L-ZISSEN
  6
CONTINUOUS
 62
     7
 10
435.0
 20
299.5
 30
0.0
 11
435.0
 21
285.5
 31
0.0
  0
LINE
  8
L-ZISSEN
  6
CONTINUOUS
 62
     7
 10
485.0
 20
299.5
 30
0.0
 11
485.0
 21
285.5
 31
0.0
  0
LINE
  8
L-ZISSEN
 10
485.0
 20
285.5
 30
0.0
 11
505.0
 21
285.5
 31
0.0
  0
LINE
  8
L-ZISSEN
  6
CONTINUOUS
 62
     7
 10
550.0
 20
105.0
 30
0.0
 11
550.0
 21
195.0
 31
0.0
  0
LINE
  8
L-ZISSEN
  6
CONTINUOUS
 62
     7
 10
555.0
 20
105.0
 30
0.0
 11
555.0
 21
81.5
 31
0.0
  0
LINE
  8
L-ZISSEN
  6
CONTINUOUS
 62
     7
 10
515.0
 20
105.0
 30
0.0
 11
515.0
 21
195.0
 31
0.0
  0
LINE
  8
L-ZISSEN
  6
CONTINUOUS
 62
     7
 10
546.0
 20
114.5
 30
0.0
 11
546.0
 21
185.5
 31
0.0
  0
LINE
  8
L-ZISSEN
 10
546.0
 20
114.5
 30
0.0
 11
527.5
 21
114.5
 31
0.0
  0
LINE
  8
L-ZISSEN
 10
546.0
 20
185.5
 30
0.0
 11
527.5
 21
185.5
 31
0.0
  0
LINE
  8
L-ZISSEN
  6
CONTINUOUS
 62
     7
 10
527.5
 20
122.5
 30
0.0
 11
515.0
 21
122.5
 31
0.0
  0
LINE
  8
L-ZISSEN
  6
CONTINUOUS
 62
     7
 10
527.5
 20
106.5
 30
0.0
 11
527.5
 21
122.5
 31
0.0
  0
LINE
  8
L-ZISSEN
  6
CONTINUOUS
 62
     7
 10
515.0
 20
106.5
 30
0.0
 11
527.5
 21
106.5
 31
0.0
  0
LINE
  8
L-ZISSEN
  6
CONTINUOUS
 62
     7
 10
515.0
 20
193.5
 30
0.0
 11
527.5
 21
193.5
 31
0.0
  0
LINE
  8
L-ZISSEN
  6
CONTINUOUS
 62
     7
 10
527.5
 20
177.5
 30
0.0
 11
515.0
 21
177.5
 31
0.0
  0
LINE
  8
L-ZISSEN
  6
CONTINUOUS
 62
     7
 10
527.5
 20
193.5
 30
0.0
 11
527.5
 21
177.5
 31
0.0
  0
LINE
  8
L-ZISSEN
 10
990.0
 20
299.5
 30
0.0
 11
1080.0
 21
299.5
 31
0.0
  0
LINE
  8
L-ZISSEN
  6
CONTINUOUS
 62
     7
 10
990.0
 20
299.5
 30
0.0
 11
990.0
 21
261.5
 31
0.0
  0
LINE
  8
L-ZISSEN
  6
CONTINUOUS
 62
     7
 10
1068.4
 20
310.0
 30
0.0
 11
1068.4
 21
301.0
 31
0.0
  0
LINE
  8
L-ZISSEN
  6
CONTINUOUS
 62
     7
 10
1065.1
 20
301.0
 30
0.0
 11
1068.4
 21
301.0
 31
0.0
  0
LINE
  8
L-ZISSEN
  6
CONTINUOUS
 62
     7
 10
1065.1
 20
310.0
 30
0.0
 11
1068.4
 21
310.0
 31
0.0
  0
LINE
  8
L-ZISSEN
  6
CONTINUOUS
 62
     7
 10
991.5
 20
298.0
 30
0.0
 11
991.5
 21
285.5
 31
0.0
  0
LINE
  8
L-ZISSEN
  6
CONTINUOUS
 62
     7
 10
1007.5
 20
298.0
 30
0.0
 11
991.5
 21
298.0
 31
0.0
  0
LINE
  8
L-TYUSIN
  6
CENTER
 62
     1
 10
805.0
 20
293.5
 30
0.0
 11
805.0
 21
277.5
 31
0.0
  0
LINE
  8
L-ZISSEN
  6
CONTINUOUS
 62
     7
 10
1007.5
 20
285.5
 30
0.0
 11
1007.5
 21
298.0
 31
0.0
  0
LINE
  8
L-ZISSEN
 10
990.0
 20
285.5
 30
0.0
 11
1010.0
 21
285.5
 31
0.0
  0
LINE
  8
L-ZISSEN
  6
CONTINUOUS
 62
     7
 10
1010.0
 20
299.5
 30
0.0
 11
1010.0
 21
285.5
 31
0.0
  0
LINE
  8
L-ZISSEN
  6
CONTINUOUS
 62
     7
 10
1062.5
 20
298.0
 30
0.0
 11
1062.5
 21
285.5
 31
0.0
  0
LINE
  8
L-ZISSEN
  6
CONTINUOUS
 62
     7
 10
1060.0
 20
299.5
 30
0.0
 11
1060.0
 21
285.5
 31
0.0
  0
LINE
  8
L-ZISSEN
  6
CONTINUOUS
 62
     7
 10
1078.5
 20
298.0
 30
0.0
 11
1062.5
 21
298.0
 31
0.0
  0
LINE
  8
L-ZISSEN
  6
CONTINUOUS
 62
     7
 10
1078.5
 20
285.5
 30
0.0
 11
1078.5
 21
298.0
 31
0.0
  0
LINE
  8
L-ZISSEN
 10
1060.0
 20
285.5
 30
0.0
 11
1080.0
 21
285.5
 31
0.0
  0
LINE
  8
L-TYUSIN
  6
CENTER
 62
     1
 10
985.0
 20
285.5
 30
0.0
 11
995.0
 21
285.5
 31
0.0
  0
LINE
  8
L-ZISSEN
  6
CONTINUOUS
 62
     7
 10
922.5
 20
190.0
 30
0.0
 11
920.0
 21
190.0
 31
0.0
  0
LINE
  8
L-ZISSEN
  6
CONTINUOUS
 62
     7
 10
935.0
 20
193.5
 30
0.0
 11
922.5
 21
193.5
 31
0.0
  0
LINE
  8
L-ZISSEN
  6
CONTINUOUS
 62
     7
 10
922.5
 20
193.5
 30
0.0
 11
922.5
 21
177.5
 31
0.0
  0
LINE
  8
L-ZISSEN
  6
CONTINUOUS
 62
     7
 10
922.5
 20
177.5
 30
0.0
 11
935.0
 21
177.5
 31
0.0
  0
LINE
  8
L-ZISSEN
  6
CONTINUOUS
 62
     7
 10
935.0
 20
105.0
 30
0.0
 11
935.0
 21
195.0
 31
0.0
  0
LINE
  8
L-ZISSEN
  6
CONTINUOUS
 62
     7
 10
920.0
 20
110.0
 30
0.0
 11
920.0
 21
190.0
 31
0.0
  0
LINE
  8
L-ZISSEN
  6
CONTINUOUS
 62
     7
 10
922.5
 20
110.0
 30
0.0
 11
920.0
 21
110.0
 31
0.0
  0
LINE
  8
L-ZISSEN
  6
CONTINUOUS
 62
     7
 10
922.5
 20
122.5
 30
0.0
 11
935.0
 21
122.5
 31
0.0
  0
LINE
  8
L-ZISSEN
  6
CONTINUOUS
 62
     7
 10
922.5
 20
106.5
 30
0.0
 11
922.5
 21
122.5
 31
0.0
  0
LINE
  8
L-ZISSEN
  6
CONTINUOUS
 62
     7
 10
935.0
 20
106.5
 30
0.0
 11
922.5
 21
106.5
 31
0.0
  0
LINE
  8
L-ZISSEN
  6
CONTINUOUS
 62
     7
 10
940.0
 20
195.0
 30
0.0
 11
935.0
 21
195.0
 31
0.0
  0
LINE
  8
L-ZISSEN
  6
CONTINUOUS
 62
     7
 10
940.0
 20
105.0
 30
0.0
 11
935.0
 21
105.0
 31
0.0
  0
LINE
  8
L-TYUSIN
  6
CENTER
 62
     1
 10
915.0
 20
150.0
 30
0.0
 11
945.0
 21
150.0
 31
0.0
  0
LINE
  8
L-ZISSEN
  6
CONTINUOUS
 62
     7
 10
405.0
 20
456.5
 30
0.0
 11
392.5
 21
456.5
 31
0.0
  0
LINE
  8
L-ZISSEN
  6
CONTINUOUS
 62
     7
 10
392.5
 20
456.5
 30
0.0
 11
392.5
 21
472.5
 31
0.0
  0
LINE
  8
L-ZISSEN
  6
CONTINUOUS
 62
     7
 10
392.5
 20
472.5
 30
0.0
 11
405.0
 21
472.5
 31
0.0
  0
LINE
  8
L-ZISSEN
  6
CONTINUOUS
 62
     7
 10
392.5
 20
460.0
 30
0.0
 11
390.0
 21
460.0
 31
0.0
  0
LINE
  8
L-ZISSEN
  6
CONTINUOUS
 62
     7
 10
390.0
 20
460.0
 30
0.0
 11
390.0
 21
540.0
 31
0.0
  0
LINE
  8
L-ZISSEN
  6
CONTINUOUS
 62
     7
 10
405.0
 20
455.0
 30
0.0
 11
405.0
 21
545.0
 31
0.0
  0
LINE
  8
L-ZISSEN
  6
CONTINUOUS
 62
     7
 10
392.5
 20
527.5
 30
0.0
 11
405.0
 21
527.5
 31
0.0
  0
LINE
  8
L-ZISSEN
  6
CONTINUOUS
 62
     7
 10
392.5
 20
543.5
 30
0.0
 11
392.5
 21
527.5
 31
0.0
  0
LINE
  8
L-ZISSEN
  6
CONTINUOUS
 62
     7
 10
405.0
 20
543.5
 30
0.0
 11
392.5
 21
543.5
 31
0.0
  0
LINE
  8
L-ZISSEN
  6
CONTINUOUS
 62
     7
 10
392.5
 20
540.0
 30
0.0
 11
390.0
 21
540.0
 31
0.0
  0
LINE
  8
L-TYUSIN
  6
CENTER
 62
     1
 10
420.0
 20
500.0
 30
0.0
 11
385.0
 21
500.0
 31
0.0
  0
LINE
  8
L-TYUSIN
  6
CENTER
 62
     1
 10
460.0
 20
659.5
 30
0.0
 11
460.0
 21
417.0
 31
0.0
  0
LINE
  8
L-ZISSEN
  6
CONTINUOUS
 62
     7
 10
515.0
 20
455.0
 30
0.0
 11
405.0
 21
455.0
 31
0.0
  0
LINE
  8
L-ZISSEN
  6
CONTINUOUS
 62
     7
 10
415.0
 20
545.0
 30
0.0
 11
405.0
 21
545.0
 31
0.0
  0
LINE
  8
L-TYUSIN
  6
CENTER
 62
     1
 10
580.0
 20
550.0
 30
0.0
 11
410.0
 21
550.0
 31
0.0
  0
ARC
  8
L-ZISSEN
 10
495.5
 20
635.5
 30
0.0
 40
10.5
 50
180.0
 51
270.0
  0
LINE
  8
L-ZISSEN
 10
495.5
 20
625.0
 30
0.0
 11
505.0
 21
625.0
 31
0.0
  0
LINE
  8
L-ZISSEN
 10
485.0
 20
635.5
 30
0.0
 11
485.0
 21
645.0
 31
0.0
  0
LINE
  8
L-ZISSEN
 10
424.5
 20
625.0
 30
0.0
 11
415.0
 21
625.0
 31
0.0
  0
ARC
  8
L-ZISSEN
 10
424.5
 20
635.5
 30
0.0
 40
10.5
 50
-90.0
 51
0.0
  0
LINE
  8
L-ZISSEN
 10
435.0
 20
635.5
 30
0.0
 11
435.0
 21
645.0
 31
0.0
  0
LINE
  8
L-ZISSEN
 10
435.0
 20
464.5
 30
0.0
 11
435.0
 21
455.0
 31
0.0
  0
ARC
  8
L-ZISSEN
 10
424.5
 20
464.5
 30
0.0
 40
10.5
 50
-0.0
 51
90.0
  0
LINE
  8
L-ZISSEN
 10
424.5
 20
475.0
 30
0.0
 11
415.0
 21
475.0
 31
0.0
  0
CIRCLE
  8
L-ZISSEN
  6
CONTINUOUS
 62
     7
 10
424.5
 20
464.5
 30
0.0
 40
8.0
  0
LINE
  8
L-ZISSEN
 10
485.0
 20
464.5
 30
0.0
 11
485.0
 21
455.0
 31
0.0
  0
LINE
  8
L-ZISSEN
 10
495.5
 20
475.0
 30
0.0
 11
505.0
 21
475.0
 31
0.0
  0
ARC
  8
L-ZISSEN
 10
495.5
 20
464.5
 30
0.0
 40
10.5
 50
90.0
 51
-180.0
  0
CIRCLE
  8
L-ZISSEN
  6
CONTINUOUS
 62
     7
 10
495.5
 20
464.5
 30
0.0
 40
8.0
  0
ARC
  8
L-ZISSEN
 10
424.5
 20
564.5
 30
0.0
 40
10.5
 50
72.24721
 51
90.0
  0
LINE
  8
L-ZISSEN
 10
424.5
 20
575.0
 30
0.0
 11
415.0
 21
575.0
 31
0.0
  0
LINE
  8
L-ZISSEN
 10
424.5
 20
525.0
 30
0.0
 11
415.0
 21
525.0
 31
0.0
  0
ARC
  8
L-ZISSEN
  6
CONTINUOUS
 62
     7
 10
424.5
 20
535.5
 30
0.0
 40
8.0
 50
47.54585
 51
-74.781545
  0
ARC
  8
L-ZISSEN
 10
424.5
 20
535.5
 30
0.0
 40
10.5
 50
-90.0
 51
-72.24721
  0
LINE
  8
L-ZISSEN
  6
CONTINUOUS
 62
     7
 10
505.0
 20
524.240953
 30
0.0
 11
505.0
 21
440.0
 31
0.0
  0
LINE
  8
L-ZISSEN
  6
CONTINUOUS
 62
     7
 10
550.0
 20
595.0
 30
0.0
 11
550.0
 21
505.0
 31
0.0
  0
LINE
  8
L-ZISSEN
  6
CONTINUOUS
 62
     7
 10
515.0
 20
524.590161
 30
0.0
 11
515.0
 21
455.0
 31
0.0
  0
LINE
  8
L-ZISSEN
  6
CONTINUOUS
 62
     7
 10
515.0
 20
472.5
 30
0.0
 11
527.5
 21
472.5
 31
0.0
  0
LINE
  8
L-ZISSEN
  6
CONTINUOUS
 62
     7
 10
527.5
 20
472.5
 30
0.0
 11
527.5
 21
456.5
 31
0.0
  0
LINE
  8
L-ZISSEN
  6
CONTINUOUS
 62
     7
 10
527.5
 20
456.5
 30
0.0
 11
515.0
 21
456.5
 31
0.0
  0
LINE
  8
L-ZISSEN
  6
CONTINUOUS
 62
     7
 10
546.0
 20
505.0
 30
0.0
 11
560.0
 21
505.0
 31
0.0
  0
LINE
  8
L-ZISSEN
  6
CONTINUOUS
 62
     7
 10
546.0
 20
595.0
 30
0.0
 11
560.0
 21
595.0
 31
0.0
  0
LINE
  8
L-ZISSEN
  6
CONTINUOUS
 62
     7
 10
560.0
 20
505.0
 30
0.0
 11
560.0
 21
595.0
 31
0.0
  0
LINE
  8
L-ZISSEN
  6
CONTINUOUS
 62
     7
 10
572.5
 20
590.0
 30
0.0
 11
575.0
 21
590.0
 31
0.0
  0
LINE
  8
L-ZISSEN
  6
CONTINUOUS
 62
     7
 10
560.0
 20
593.5
 30
0.0
 11
572.5
 21
593.5
 31
0.0
  0
LINE
  8
L-ZISSEN
  6
CONTINUOUS
 62
     7
 10
572.5
 20
593.5
 30
0.0
 11
572.5
 21
577.5
 31
0.0
  0
LINE
  8
L-ZISSEN
  6
CONTINUOUS
 62
     7
 10
572.5
 20
577.5
 30
0.0
 11
560.0
 21
577.5
 31
0.0
  0
LINE
  8
L-ZISSEN
  6
CONTINUOUS
 62
     7
 10
575.0
 20
510.0
 30
0.0
 11
575.0
 21
590.0
 31
0.0
  0
LINE
  8
L-ZISSEN
  6
CONTINUOUS
 62
     7
 10
572.5
 20
510.0
 30
0.0
 11
575.0
 21
510.0
 31
0.0
  0
LINE
  8
L-ZISSEN
  6
CONTINUOUS
 62
     7
 10
572.5
 20
522.5
 30
0.0
 11
560.0
 21
522.5
 31
0.0
  0
LINE
  8
L-ZISSEN
  6
CONTINUOUS
 62
     7
 10
572.5
 20
506.5
 30
0.0
 11
572.5
 21
522.5
 31
0.0
  0
LINE
  8
L-ZISSEN
  6
CONTINUOUS
 62
     7
 10
560.0
 20
506.5
 30
0.0
 11
572.5
 21
506.5
 31
0.0
  0
LINE
  8
L-ZISSEN
  6
CONTINUOUS
 62
     7
 10
546.0
 20
595.0
 30
0.0
 11
546.0
 21
505.0
 31
0.0
  0
LINE
  8
L-ZISSEN
  6
CONTINUOUS
 62
     7
 10
515.0
 20
627.5
 30
0.0
 11
527.5
 21
627.5
 31
0.0
  0
LINE
  8
L-ZISSEN
  6
CONTINUOUS
 62
     7
 10
527.5
 20
627.5
 30
0.0
 11
527.5
 21
643.5
 31
0.0
  0
LINE
  8
L-ZISSEN
  6
CONTINUOUS
 62
     7
 10
527.5
 20
643.5
 30
0.0
 11
515.0
 21
643.5
 31
0.0
  0
LINE
  8
L-ZISSEN
  6
CONTINUOUS
 62
     7
 10
515.0
 20
575.409839
 30
0.0
 11
515.0
 21
645.0
 31
0.0
  0
LINE
  8
L-ZISSEN
 10
546.0
 20
505.0
 30
0.0
 11
541.058657
 21
486.558657
 31
0.0
  0
LINE
  8
L-ZISSEN
 10
527.0
 20
472.5
 30
0.0
 11
541.058657
 21
486.558657
 31
0.0
  0
LINE
  8
L-ZISSEN
 10
527.0
 20
627.5
 30
0.0
 11
541.058657
 21
613.441343
 31
0.0
  0
LINE
  8
L-ZISSEN
 10
546.0
 20
595.0
 30
0.0
 11
541.058657
 21
613.441343
 31
0.0
  0
TEXT
  8
L-ZISSEN
 10
70.0
 20
705.0
 30
0.0
 40
4.5
  1
MODEL NO. : 46B- 00-1 B0
  0
TEXT
  8
L-ZISSEN
 10
170.0
 20
709.0
 30
0.0
 40
4.5
  1
AC-100V
  0
TEXT
  8
L-ZISSEN
 10
170.0
 20
701.0
 30
0.0
 40
4.5
  1
AC-200V
  0
SOLID
  8
L-ZISSEN
 10
459.469313
 20
148.043094
 30
0.0
 11
460.132672
 21
147.976758
 31
0.0
 12
460.0
 22
150.0
 32
0.0
 13
460.0
 23
150.0
 33
0.0
  0
LINE
  8
L-ZISSEN
 10
459.800993
 20
148.009926
 30
0.0
 11
450.0
 21
50.0
 31
0.0
  0
LINE
  8
L-ZISSEN
 10
450.0
 20
50.0
 30
0.0
 11
448.0
 21
50.0
 31
0.0
  0
TEXT
  8
L-ZISSEN
 10
437.0
 20
47.75
 30
0.0
 40
4.5
  1
P.P
  0
SOLID
  8
L-ZISSEN
 10
459.222668
 20
551.872663
 30
0.0
 11
458.657336
 21
551.51933
 31
0.0
 12
460.0
 22
550.0
 32
0.0
 13
460.0
 23
550.0
 33
0.0
  0
LINE
  8
L-ZISSEN
 10
458.940002
 20
551.695997
 30
0.0
 11
435.0
 21
590.0
 31
0.0
  0
LINE
  8
L-ZISSEN
 10
435.0
 20
590.0
 30
0.0
 11
433.0
 21
590.0
 31
0.0
  0
TEXT
  8
L-ZISSEN
 10
422.0
 20
587.75
 30
0.0
 40
4.5
  1
P.P
  0
SOLID
  8
L-ZISSEN
 10
458.442701
 20
300.798434
 30
0.0
 11
458.105766
 21
300.223178
 31
0.0
 12
460.0
 22
299.5
 32
0.0
 13
460.0
 23
299.5
 33
0.0
  0
LINE
  8
L-ZISSEN
 10
458.274233
 20
300.510806
 30
0.0
 11
425.0
 21
320.0
 31
0.0
  0
LINE
  8
L-ZISSEN
 10
425.0
 20
320.0
 30
0.0
 11
423.0
 21
320.0
 31
0.0
  0
TEXT
  8
L-ZISSEN
 10
412.0
 20
317.75
 30
0.0
 40
4.5
  1
P.P
  0
SOLID
  8
L-ZISSEN
 10
753.442701
 20
300.798434
 30
0.0
 11
753.105766
 21
300.223178
 31
0.0
 12
755.0
 22
299.5
 32
0.0
 13
755.0
 23
299.5
 33
0.0
  0
LINE
  8
L-ZISSEN
 10
753.274233
 20
300.510806
 30
0.0
 11
720.0
 21
320.0
 31
0.0
  0
LINE
  8
L-ZISSEN
 10
720.0
 20
320.0
 30
0.0
 11
718.0
 21
320.0
 31
0.0
  0
TEXT
  8
L-ZISSEN
 10
707.0
 20
317.75
 30
0.0
 40
4.5
  1
P.P
  0
LINE
  8
L-ZISSEN
  6
CONTINUOUS
 62
     7
 10
1905.5
 20
256.5
 30
0.0
 11
1918.0
 21
256.5
 31
0.0
  0
LINE
  8
L-ZISSEN
  6
CONTINUOUS
 62
     7
 10
1918.0
 20
256.5
 30
0.0
 11
1918.0
 21
272.5
 31
0.0
  0
LINE
  8
L-ZISSEN
  6
CONTINUOUS
 62
     7
 10
1918.0
 20
272.5
 30
0.0
 11
1905.5
 21
272.5
 31
0.0
  0
LINE
  8
L-ZISSEN
  6
CONTINUOUS
 62
     7
 10
1895.0
 20
255.0
 30
0.0
 11
1905.5
 21
255.0
 31
0.0
  0
LINE
  8
L-ZISSEN
  6
CONTINUOUS
 62
     7
 10
1918.0
 20
260.0
 30
0.0
 11
1930.5
 21
260.0
 31
0.0
  0
LINE
  8
L-ZISSEN
  6
CONTINUOUS
 62
     7
 10
1930.5
 20
260.0
 30
0.0
 11
1930.5
 21
340.0
 31
0.0
  0
LINE
  8
L-ZISSEN
  6
CONTINUOUS
 62
     7
 10
1905.5
 20
255.0
 30
0.0
 11
1905.5
 21
345.0
 31
0.0
  0
LINE
  8
L-ZISSEN
  6
CONTINUOUS
 62
     7
 10
1895.0
 20
345.0
 30
0.0
 11
1905.5
 21
345.0
 31
0.0
  0
LINE
  8
L-ZISSEN
  6
CONTINUOUS
 62
     7
 10
1918.0
 20
327.5
 30
0.0
 11
1905.5
 21
327.5
 31
0.0
  0
LINE
  8
L-ZISSEN
  6
CONTINUOUS
 62
     7
 10
1918.0
 20
343.5
 30
0.0
 11
1918.0
 21
327.5
 31
0.0
  0
LINE
  8
L-ZISSEN
  6
CONTINUOUS
 62
     7
 10
1905.5
 20
343.5
 30
0.0
 11
1918.0
 21
343.5
 31
0.0
  0
LINE
  8
L-ZISSEN
  6
CONTINUOUS
 62
     7
 10
1918.0
 20
340.0
 30
0.0
 11
1930.5
 21
340.0
 31
0.0
  0
SOLID
  8
L-ZISSEN
 10
1805.065372
 20
297.973467
 30
0.0
 11
1805.719092
 21
298.104211
 31
0.0
 12
1805.0
 22
300.0
 32
0.0
 13
1805.0
 23
300.0
 33
0.0
  0
LINE
  8
L-ZISSEN
 10
1805.392232
 20
298.038839
 30
0.0
 11
1815.0
 21
250.0
 31
0.0
  0
LINE
  8
L-ZISSEN
 10
1815.0
 20
250.0
 30
0.0
 11
1817.0
 21
250.0
 31
0.0
  0
TEXT
  8
L-ZISSEN
 10
1819.0
 20
247.75
 30
0.0
 40
4.5
  1
P.P
  0
LINE
  8
L-ZISSEN
  6
CONTINUOUS
 62
     7
 10
1750.0
 20
486.5
 30
0.0
 11
1737.5
 21
486.5
 31
0.0
  0
LINE
  8
L-ZISSEN
  6
CONTINUOUS
 62
     7
 10
1737.5
 20
486.5
 30
0.0
 11
1737.5
 21
502.5
 31
0.0
  0
LINE
  8
L-ZISSEN
  6
CONTINUOUS
 62
     7
 10
1737.5
 20
502.5
 30
0.0
 11
1750.0
 21
502.5
 31
0.0
  0
LINE
  8
L-ZISSEN
  6
CONTINUOUS
 62
     7
 10
1760.0
 20
485.0
 30
0.0
 11
1750.0
 21
485.0
 31
0.0
  0
LINE
  8
L-ZISSEN
  6
CONTINUOUS
 62
     7
 10
1737.5
 20
490.0
 30
0.0
 11
1732.0
 21
490.0
 31
0.0
  0
LINE
  8
L-ZISSEN
  6
CONTINUOUS
 62
     7
 10
1732.0
 20
490.0
 30
0.0
 11
1732.0
 21
570.0
 31
0.0
  0
LINE
  8
L-ZISSEN
  6
CONTINUOUS
 62
     7
 10
1750.0
 20
485.0
 30
0.0
 11
1750.0
 21
575.0
 31
0.0
  0
LINE
  8
L-ZISSEN
  6
CONTINUOUS
 62
     7
 10
1760.0
 20
575.0
 30
0.0
 11
1750.0
 21
575.0
 31
0.0
  0
LINE
  8
L-ZISSEN
  6
CONTINUOUS
 62
     7
 10
1737.5
 20
557.5
 30
0.0
 11
1750.0
 21
557.5
 31
0.0
  0
LINE
  8
L-ZISSEN
  6
CONTINUOUS
 62
     7
 10
1737.5
 20
573.5
 30
0.0
 11
1737.5
 21
557.5
 31
0.0
  0
LINE
  8
L-ZISSEN
  6
CONTINUOUS
 62
     7
 10
1750.0
 20
573.5
 30
0.0
 11
1737.5
 21
573.5
 31
0.0
  0
LINE
  8
L-ZISSEN
  6
CONTINUOUS
 62
     7
 10
1737.5
 20
570.0
 30
0.0
 11
1732.0
 21
570.0
 31
0.0
  0
LINE
  8
L-ZISSEN
  6
CONTINUOUS
 62
     7
 10
1737.5
 20
470.0
 30
0.0
 11
1732.0
 21
470.0
 31
0.0
  0
LINE
  8
L-ZISSEN
  6
CONTINUOUS
 62
     7
 10
1750.0
 20
473.5
 30
0.0
 11
1737.5
 21
473.5
 31
0.0
  0
LINE
  8
L-ZISSEN
  6
CONTINUOUS
 62
     7
 10
1737.5
 20
473.5
 30
0.0
 11
1737.5
 21
457.5
 31
0.0
  0
LINE
  8
L-ZISSEN
  6
CONTINUOUS
 62
     7
 10
1737.5
 20
457.5
 30
0.0
 11
1750.0
 21
457.5
 31
0.0
  0
LINE
  8
L-ZISSEN
  6
CONTINUOUS
 62
     7
 10
1760.0
 20
475.0
 30
0.0
 11
1750.0
 21
475.0
 31
0.0
  0
LINE
  8
L-ZISSEN
  6
CONTINUOUS
 62
     7
 10
1750.0
 20
385.0
 30
0.0
 11
1750.0
 21
475.0
 31
0.0
  0
LINE
  8
L-ZISSEN
  6
CONTINUOUS
 62
     7
 10
1732.0
 20
390.0
 30
0.0
 11
1732.0
 21
470.0
 31
0.0
  0
LINE
  8
L-ZISSEN
  6
CONTINUOUS
 62
     7
 10
1737.5
 20
390.0
 30
0.0
 11
1732.0
 21
390.0
 31
0.0
  0
LINE
  8
L-ZISSEN
  6
CONTINUOUS
 62
     7
 10
1760.0
 20
385.0
 30
0.0
 11
1750.0
 21
385.0
 31
0.0
  0
LINE
  8
L-ZISSEN
  6
CONTINUOUS
 62
     7
 10
1737.5
 20
402.5
 30
0.0
 11
1750.0
 21
402.5
 31
0.0
  0
LINE
  8
L-ZISSEN
  6
CONTINUOUS
 62
     7
 10
1737.5
 20
386.5
 30
0.0
 11
1737.5
 21
402.5
 31
0.0
  0
LINE
  8
L-ZISSEN
  6
CONTINUOUS
 62
     7
 10
1750.0
 20
386.5
 30
0.0
 11
1737.5
 21
386.5
 31
0.0
  0
LINE
  8
L-ZISSEN
  6
CONTINUOUS
 62
     7
 10
1918.0
 20
520.0
 30
0.0
 11
1930.5
 21
520.0
 31
0.0
  0
LINE
  8
L-ZISSEN
  6
CONTINUOUS
 62
     7
 10
1905.5
 20
523.5
 30
0.0
 11
1918.0
 21
523.5
 31
0.0
  0
LINE
  8
L-ZISSEN
  6
CONTINUOUS
 62
     7
 10
1918.0
 20
523.5
 30
0.0
 11
1918.0
 21
507.5
 31
0.0
  0
LINE
  8
L-ZISSEN
  6
CONTINUOUS
 62
     7
 10
1918.0
 20
507.5
 30
0.0
 11
1905.5
 21
507.5
 31
0.0
  0
LINE
  8
L-ZISSEN
  6
CONTINUOUS
 62
     7
 10
1895.0
 20
525.0
 30
0.0
 11
1905.5
 21
525.0
 31
0.0
  0
LINE
  8
L-ZISSEN
  6
CONTINUOUS
 62
     7
 10
1905.5
 20
435.0
 30
0.0
 11
1905.5
 21
525.0
 31
0.0
  0
LINE
  8
L-ZISSEN
  6
CONTINUOUS
 62
     7
 10
1930.5
 20
440.0
 30
0.0
 11
1930.5
 21
520.0
 31
0.0
  0
LINE
  8
L-ZISSEN
  6
CONTINUOUS
 62
     7
 10
1918.0
 20
440.0
 30
0.0
 11
1930.5
 21
440.0
 31
0.0
  0
LINE
  8
L-ZISSEN
  6
CONTINUOUS
 62
     7
 10
1895.0
 20
435.0
 30
0.0
 11
1905.5
 21
435.0
 31
0.0
  0
LINE
  8
L-ZISSEN
  6
CONTINUOUS
 62
     7
 10
1918.0
 20
452.5
 30
0.0
 11
1905.5
 21
452.5
 31
0.0
  0
LINE
  8
L-ZISSEN
  6
CONTINUOUS
 62
     7
 10
1918.0
 20
436.5
 30
0.0
 11
1918.0
 21
452.5
 31
0.0
  0
LINE
  8
L-ZISSEN
  6
CONTINUOUS
 62
     7
 10
1905.5
 20
436.5
 30
0.0
 11
1918.0
 21
436.5
 31
0.0
  0
SOLID
  8
L-ZISSEN
 10
1804.066667
 20
481.8
 30
0.0
 11
1803.533333
 21
481.4
 31
0.0
 12
1805.0
 22
480.0
 32
0.0
 13
1805.0
 23
480.0
 33
0.0
  0
LINE
  8
L-ZISSEN
 10
1803.8
 20
481.6
 30
0.0
 11
1790.0
 21
500.0
 31
0.0
  0
LINE
  8
L-ZISSEN
 10
1790.0
 20
500.0
 30
0.0
 11
1788.0
 21
500.0
 31
0.0
  0
TEXT
  8
L-ZISSEN
 10
1777.0
 20
497.75
 30
0.0
 40
4.5
  1
P.P
  0
SOLID
  8
L-ZISSEN
 10
576.178511
 20
148.350084
 30
0.0
 11
576.649916
 21
148.821489
 31
0.0
 12
575.0
 22
150.0
 32
0.0
 13
575.0
 23
150.0
 33
0.0
  0
LINE
  8
L-ZISSEN
 10
576.414214
 20
148.585786
 30
0.0
 11
590.0
 21
135.0
 31
0.0
  0
LINE
  8
L-ZISSEN
 10
590.0
 20
135.0
 30
0.0
 11
592.0
 21
135.0
 31
0.0
  0
TEXT
  8
L-ZISSEN
 10
594.0
 20
132.75
 30
0.0
 40
4.5
  1
IN
  0
TEXT
  8
L-ZISSEN
 10
595.0
 20
125.0
 30
0.0
 40
4.5
  1
Rc 1-1/4
  0
TEXT
  8
L-ZISSEN
 10
595.0
 20
115.0
 30
0.0
 40
4.5
  1
Rc 1-1/2
  0
TEXT
  8
L-ZISSEN
 10
156.0
 20
709.0
 30
0.0
 40
4.5
  1
1
  0
TEXT
  8
L-ZISSEN
 10
156.0
 20
701.0
 30
0.0
 40
4.5
  1
0
  0
TEXT
  8
L-ZISSEN
 10
136.0
 20
709.0
 30
0.0
 40
4.5
  1
A
  0
TEXT
  8
L-ZISSEN
 10
136.0
 20
701.0
 30
0.0
 40
4.5
  1
B
  0
SOLID
  8
L-ZISSEN
 10
1785.442701
 20
695.298434
 30
0.0
 11
1785.105766
 21
694.723178
 31
0.0
 12
1787.0
 22
694.0
 32
0.0
 13
1787.0
 23
694.0
 33
0.0
  0
LINE
  8
L-ZISSEN
 10
1785.274233
 20
695.010806
 30
0.0
 11
1752.0
 21
714.5
 31
0.0
  0
TEXT
  8
L-ZISSEN
 10
1739.0
 20
712.25
 30
0.0
 40
4.5
  1
P.P
  0
LINE
  8
L-ZISSEN
 10
1752.0
 20
714.5
 30
0.0
 11
1750.0
 21
714.5
 31
0.0
  0
SOLID
  8
L-ZISSEN
 10
1888.442701
 20
695.298434
 30
0.0
 11
1888.105766
 21
694.723178
 31
0.0
 12
1890.0
 22
694.0
 32
0.0
 13
1890.0
 23
694.0
 33
0.0
  0
LINE
  8
L-ZISSEN
 10
1888.274233
 20
695.010806
 30
0.0
 11
1855.0
 21
714.5
 31
0.0
  0
LINE
  8
L-ZISSEN
 10
1855.0
 20
714.5
 30
0.0
 11
1853.0
 21
714.5
 31
0.0
  0
TEXT
  8
L-ZISSEN
 10
1842.0
 20
712.25
 30
0.0
 40
4.5
  1
P.P
  0
SOLID
  8
L-ZISSEN
 10
1785.442701
 20
945.298434
 30
0.0
 11
1785.105766
 21
944.723178
 31
0.0
 12
1787.0
 22
944.0
 32
0.0
 13
1787.0
 23
944.0
 33
0.0
  0
LINE
  8
L-ZISSEN
 10
1785.274233
 20
945.010806
 30
0.0
 11
1752.0
 21
964.5
 31
0.0
  0
LINE
  8
L-ZISSEN
 10
1752.0
 20
964.5
 30
0.0
 11
1750.0
 21
964.5
 31
0.0
  0
TEXT
  8
L-ZISSEN
 10
1739.0
 20
962.25
 30
0.0
 40
4.5
  1
P.P
  0
LINE
  8
L-ZISSEN
 10
1888.274233
 20
945.010806
 30
0.0
 11
1855.0
 21
964.5
 31
0.0
  0
SOLID
  8
L-ZISSEN
 10
1888.442701
 20
945.298434
 30
0.0
 11
1888.105766
 21
944.723178
 31
0.0
 12
1890.0
 22
944.0
 32
0.0
 13
1890.0
 23
944.0
 33
0.0
  0
LINE
  8
L-ZISSEN
 10
1855.0
 20
964.5
 30
0.0
 11
1853.0
 21
964.5
 31
0.0
  0
TEXT
  8
L-ZISSEN
 10
1842.0
 20
962.25
 30
0.0
 40
4.5
  1
P.P
  0
SOLID
  8
L-ZISSEN
 10
1931.882011
 20
298.51637
 30
0.0
 11
1932.288485
 21
299.044786
 31
0.0
 12
1930.5
 22
300.0
 32
0.0
 13
1930.5
 23
300.0
 33
0.0
  0
LINE
  8
L-ZISSEN
 10
1932.085248
 20
298.780578
 30
0.0
 11
1950.0
 21
285.0
 31
0.0
  0
LINE
  8
L-ZISSEN
 10
1950.0
 20
285.0
 30
0.0
 11
1952.0
 21
285.0
 31
0.0
  0
TEXT
  8
L-ZISSEN
 10
1954.0
 20
282.75
 30
0.0
 40
4.5
  1
IN
  0
TEXT
  8
L-ZISSEN
 10
1955.0
 20
275.0
 30
0.0
 40
4.5
  1
Rc 2
  0
TEXT
  8
L-ZISSEN
 10
1320.0
 20
370.0
 30
0.0
 40
4.5
  1
MODEL NO. : 46B-*00-2*R0
  0
ENDSEC
  0
EOF
