  0
SECTION
  2
HEADER
  9
$ACADVER
  1
AC1032
  9
$ACADMAINTVER
 90
        4
  9
$DWGCODEPAGE
  3
ANSI_932
  9
$LASTSAVEDBY
  1
k-washino
  9
$REQUIREDVERSIONS
160
                 0
  9
$INSBASE
 10
23.46149442597801
 20
-11.3396435039976
 30
0.0
  9
$EXTMIN
 10
587.1371347598808
 20
-372.2056602957803
 30
0.0
  9
$EXTMAX
 10
1184.537708284554
 20
12.79197039882877
 30
0.0000000000105871
  9
$LIMMIN
 10
0.0
 20
0.0
  9
$LIMMAX
 10
12.0
 20
9.0
  9
$ORTHOMODE
 70
     0
  9
$REGENMODE
 70
     1
  9
$FILLMODE
 70
     1
  9
$QTEXTMODE
 70
     0
  9
$MIRRTEXT
 70
     1
  9
$LTSCALE
 40
1.0
  9
$ATTMODE
 70
     1
  9
$TEXTSIZE
 40
4.5
  9
$TRACEWID
 40
0.05
  9
$TEXTSTYLE
  7
STANDARD
  9
$CLAYER
  8
L-ZISSEN
  9
$CELTYPE
  6
ByLayer
  9
$CECOLOR
 62
   256
  9
$CELTSCALE
 40
1.0
  9
$DISPSILH
 70
     0
  9
$DIMSCALE
 40
1.0
  9
$DIMASZ
 40
2.0
  9
$DIMEXO
 40
1.0
  9
$DIMDLI
 40
0.38
  9
$DIMRND
 40
0.0
  9
$DIMDLE
 40
0.0
  9
$DIMEXE
 40
1.0
  9
$DIMTP
 40
0.0
  9
$DIMTM
 40
0.0
  9
$DIMTXT
 40
4.5
  9
$DIMCEN
 40
0.09
  9
$DIMTSZ
 40
0.0
  9
$DIMTOL
 70
     0
  9
$DIMLIM
 70
     0
  9
$DIMTIH
 70
     0
  9
$DIMTOH
 70
     0
  9
$DIMSE1
 70
     0
  9
$DIMSE2
 70
     0
  9
$DIMTAD
 70
     1
  9
$DIMZIN
 70
     0
  9
$DIMBLK
  1

  9
$DIMASO
 70
     1
  9
$DIMSHO
 70
     0
  9
$DIMPOST
  1

  9
$DIMAPOST
  1

  9
$DIMALT
 70
     0
  9
$DIMALTD
 70
     2
  9
$DIMALTF
 40
25.4
  9
$DIMLFAC
 40
1.0
  9
$DIMTOFL
 70
     1
  9
$DIMTVP
 40
0.0
  9
$DIMTIX
 70
     0
  9
$DIMSOXD
 70
     0
  9
$DIMSAH
 70
     0
  9
$DIMBLK1
  1

  9
$DIMBLK2
  1

  9
$DIMSTYLE
  2
Standard
  9
$DIMCLRD
 70
     0
  9
$DIMCLRE
 70
     0
  9
$DIMCLRT
 70
     0
  9
$DIMTFAC
 40
1.0
  9
$DIMGAP
 40
0.09
  9
$DIMJUST
 70
     0
  9
$DIMSD1
 70
     0
  9
$DIMSD2
 70
     0
  9
$DIMTOLJ
 70
     1
  9
$DIMTZIN
 70
     0
  9
$DIMALTZ
 70
     0
  9
$DIMALTTZ
 70
     0
  9
$DIMUPT
 70
     0
  9
$DIMDEC
 70
     4
  9
$DIMTDEC
 70
     4
  9
$DIMALTU
 70
     2
  9
$DIMALTTD
 70
     2
  9
$DIMTXSTY
  7
STANDARD
  9
$DIMAUNIT
 70
     0
  9
$DIMADEC
 70
     0
  9
$DIMALTRND
 40
0.0
  9
$DIMAZIN
 70
     0
  9
$DIMDSEP
 70
    46
  9
$DIMATFIT
 70
     3
  9
$DIMFRAC
 70
     0
  9
$DIMLDRBLK
  1

  9
$DIMLUNIT
 70
     2
  9
$DIMLWD
 70
    -2
  9
$DIMLWE
 70
    -2
  9
$DIMTMOVE
 70
     2
  9
$DIMFXL
 40
1.0
  9
$DIMFXLON
 70
     0
  9
$DIMJOGANG
 40
0.7853981633974483
  9
$DIMTFILL
 70
     0
  9
$DIMTFILLCLR
 70
     0
  9
$DIMARCSYM
 70
     0
  9
$DIMLTYPE
  6

  9
$DIMLTEX1
  6

  9
$DIMLTEX2
  6

  9
$DIMTXTDIRECTION
 70
     0
  9
$LUNITS
 70
     2
  9
$LUPREC
 70
     4
  9
$SKETCHINC
 40
0.1
  9
$FILLETRAD
 40
0.0
  9
$AUNITS
 70
     0
  9
$AUPREC
 70
     0
  9
$MENU
  1
acad
  9
$ELEVATION
 40
0.0
  9
$PELEVATION
 40
0.0
  9
$THICKNESS
 40
0.0
  9
$LIMCHECK
 70
     0
  9
$CHAMFERA
 40
0.0
  9
$CHAMFERB
 40
0.0
  9
$CHAMFERC
 40
0.0
  9
$CHAMFERD
 40
0.0
  9
$SKPOLY
 70
     0
  9
$TDCREATE
 40
2449238.868303357
  9
$TDUCREATE
 40
2449238.493303357
  9
$TDUPDATE
 40
2459508.343554155
  9
$TDUUPDATE
 40
2459507.968554155
  9
$TDINDWG
 40
0.0052028125
  9
$TDUSRTIMER
 40
0.0006593634
  9
$USRTIMER
 70
     1
  9
$ANGBASE
 50
0.0
  9
$ANGDIR
 70
     0
  9
$PDMODE
 70
     0
  9
$PDSIZE
 40
0.0
  9
$PLINEWID
 40
0.0
  9
$SPLFRAME
 70
     0
  9
$SPLINETYPE
 70
     6
  9
$SPLINESEGS
 70
     8
  9
$HANDSEED
  5
66B
  9
$SURFTAB1
 70
     6
  9
$SURFTAB2
 70
     6
  9
$SURFTYPE
 70
     6
  9
$SURFU
 70
     6
  9
$SURFV
 70
     6
  9
$UCSBASE
  2

  9
$UCSNAME
  2

  9
$UCSORG
 10
0.0
 20
0.0
 30
0.0
  9
$UCSXDIR
 10
1.0
 20
0.0
 30
0.0
  9
$UCSYDIR
 10
0.0
 20
1.0
 30
0.0
  9
$UCSORTHOREF
  2

  9
$UCSORTHOVIEW
 70
     0
  9
$UCSORGTOP
 10
0.0
 20
0.0
 30
0.0
  9
$UCSORGBOTTOM
 10
0.0
 20
0.0
 30
0.0
  9
$UCSORGLEFT
 10
0.0
 20
0.0
 30
0.0
  9
$UCSORGRIGHT
 10
0.0
 20
0.0
 30
0.0
  9
$UCSORGFRONT
 10
0.0
 20
0.0
 30
0.0
  9
$UCSORGBACK
 10
0.0
 20
0.0
 30
0.0
  9
$PUCSBASE
  2

  9
$PUCSNAME
  2

  9
$PUCSORG
 10
0.0
 20
0.0
 30
0.0
  9
$PUCSXDIR
 10
1.0
 20
0.0
 30
0.0
  9
$PUCSYDIR
 10
0.0
 20
1.0
 30
0.0
  9
$PUCSORTHOREF
  2

  9
$PUCSORTHOVIEW
 70
     0
  9
$PUCSORGTOP
 10
0.0
 20
0.0
 30
0.0
  9
$PUCSORGBOTTOM
 10
0.0
 20
0.0
 30
0.0
  9
$PUCSORGLEFT
 10
0.0
 20
0.0
 30
0.0
  9
$PUCSORGRIGHT
 10
0.0
 20
0.0
 30
0.0
  9
$PUCSORGFRONT
 10
0.0
 20
0.0
 30
0.0
  9
$PUCSORGBACK
 10
0.0
 20
0.0
 30
0.0
  9
$USERI1
 70
     0
  9
$USERI2
 70
     0
  9
$USERI3
 70
     0
  9
$USERI4
 70
     0
  9
$USERI5
 70
     0
  9
$USERR1
 40
0.0
  9
$USERR2
 40
0.0
  9
$USERR3
 40
0.0
  9
$USERR4
 40
0.0
  9
$USERR5
 40
0.0
  9
$WORLDVIEW
 70
     1
  9
$SHADEDGE
 70
     3
  9
$SHADEDIF
 70
    70
  9
$TILEMODE
 70
     1
  9
$MAXACTVP
 70
    64
  9
$PINSBASE
 10
0.0
 20
0.0
 30
0.0
  9
$PLIMCHECK
 70
     0
  9
$PEXTMIN
 10
1.000000000000000E+20
 20
1.000000000000000E+20
 30
1.000000000000000E+20
  9
$PEXTMAX
 10
-1.000000000000000E+20
 20
-1.000000000000000E+20
 30
-1.000000000000000E+20
  9
$PLIMMIN
 10
0.0
 20
0.0
  9
$PLIMMAX
 10
0.0
 20
0.0
  9
$UNITMODE
 70
     0
  9
$VISRETAIN
 70
     1
  9
$PLINEGEN
 70
     0
  9
$PSLTSCALE
 70
     0
  9
$TREEDEPTH
 70
  3020
  9
$CMLSTYLE
  2
Standard
  9
$CMLJUST
 70
     0
  9
$CMLSCALE
 40
1.0
  9
$PROXYGRAPHICS
 70
     1
  9
$MEASUREMENT
 70
     0
  9
$CELWEIGHT
370
    -1
  9
$ENDCAPS
280
     0
  9
$JOINSTYLE
280
     0
  9
$LWDISPLAY
290
     0
  9
$INSUNITS
 70
     0
  9
$HYPERLINKBASE
  1

  9
$STYLESHEET
  1

  9
$XEDIT
290
     1
  9
$CEPSNTYPE
380
     0
  9
$PSTYLEMODE
290
     1
  9
$FINGERPRINTGUID
  2
{46dfdf32-c00f-41ca-b0ee-5ef5f9474d94}
  9
$VERSIONGUID
  2
{FAEB1C32-E019-11D5-929B-00C0DF256EC4}
  9
$EXTNAMES
290
     1
  9
$PSVPSCALE
 40
0.0
  9
$OLESTARTUP
290
     0
  9
$SORTENTS
280
   127
  9
$INDEXCTL
280
     0
  9
$HIDETEXT
280
     1
  9
$XCLIPFRAME
280
     2
  9
$HALOGAP
280
     0
  9
$OBSCOLOR
 70
   257
  9
$OBSLTYPE
280
     0
  9
$INTERSECTIONDISPLAY
280
     0
  9
$INTERSECTIONCOLOR
 70
   257
  9
$DIMASSOC
280
     2
  9
$PROJECTNAME
  1

  9
$CAMERADISPLAY
290
     0
  9
$LENSLENGTH
 40
50.0
  9
$CAMERAHEIGHT
 40
0.0
  9
$STEPSPERSEC
 40
2.0
  9
$STEPSIZE
 40
6.0
  9
$3DDWFPREC
 40
2.0
  9
$PSOLWIDTH
 40
0.25
  9
$PSOLHEIGHT
 40
4.0
  9
$LOFTANG1
 40
1.570796326794897
  9
$LOFTANG2
 40
1.570796326794897
  9
$LOFTMAG1
 40
0.0
  9
$LOFTMAG2
 40
0.0
  9
$LOFTPARAM
 70
     7
  9
$LOFTNORMALS
280
     1
  9
$LATITUDE
 40
37.795
  9
$LONGITUDE
 40
-122.394
  9
$NORTHDIRECTION
 40
0.0
  9
$TIMEZONE
 70
 -8000
  9
$LIGHTGLYPHDISPLAY
280
     1
  9
$TILEMODELIGHTSYNCH
280
     1
  9
$SOLIDHIST
280
     0
  9
$SHOWHIST
280
     1
  9
$DWFFRAME
280
     2
  9
$DGNFRAME
280
     2
  9
$REALWORLDSCALE
290
     1
  9
$INTERFERECOLOR
 62
   256
  9
$CSHADOW
280
     0
  9
$SHADOWPLANELOCATION
 40
0.0
  0
ENDSEC
  0
SECTION
  2
CLASSES
  0
CLASS
  1
ACDBDICTIONARYWDFLT
  2
AcDbDictionaryWithDefault
  3
ObjectDBX Classes
 90
        0
 91
        3
280
     0
281
     0
  0
CLASS
  1
SCALE
  2
AcDbScale
  3
ObjectDBX Classes
 90
     1153
 91
        3
280
     0
281
     0
  0
CLASS
  1
VISUALSTYLE
  2
AcDbVisualStyle
  3
ObjectDBX Classes
 90
     4095
 91
        3
280
     0
281
     0
  0
CLASS
  1
MATERIAL
  2
AcDbMaterial
  3
ObjectDBX Classes
 90
     1153
 91
        3
280
     0
281
     0
  0
CLASS
  1
TABLESTYLE
  2
AcDbTableStyle
  3
ObjectDBX Classes
 90
     4095
 91
        3
280
     0
281
     0
  0
CLASS
  1
MLEADERSTYLE
  2
AcDbMLeaderStyle
  3
ACDB_MLEADERSTYLE_CLASS
 90
     4095
 91
        3
280
     0
281
     0
  0
CLASS
  1
SORTENTSTABLE
  2
AcDbSortentsTable
  3
ObjectDBX Classes
 90
        0
 91
        3
280
     0
281
     0
  0
CLASS
  1
DICTIONARYVAR
  2
AcDbDictionaryVar
  3
ObjectDBX Classes
 90
        0
 91
        3
280
     0
281
     0
  0
CLASS
  1
SUN
  2
AcDbSun
  3
SCENEOE
 90
     1153
 91
        3
280
     0
281
     0
  0
CLASS
  1
CELLSTYLEMAP
  2
AcDbCellStyleMap
  3
ObjectDBX Classes
 90
     1152
 91
        3
280
     0
281
     0
  0
ENDSEC
  0
SECTION
  2
TABLES
  0
TABLE
  2
VPORT
  5
8
330
0
100
AcDbSymbolTable
 70
     1
  0
VPORT
  5
22
330
8
100
AcDbSymbolTableRecord
100
AcDbViewportTableRecord
  2
*Active
 70
     0
 10
0.0
 20
0.0
 11
1.0
 21
1.0
 12
904.8507911203411
 22
-217.3816553627206
 13
0.0
 23
0.0
 14
1.0
 24
1.0
 15
0.0
 25
0.0
 16
0.0
 26
0.0
 36
1.0
 17
0.0
 27
0.0
 37
0.0
 40
669.4351308329294
 41
2.01067615658363
 42
50.0
 43
0.0
 44
0.0
 50
0.0
 51
0.0
 71
    16
 72
   100
 73
     1
 74
     0
 75
     0
 76
     0
 77
     0
 78
     0
281
     0
 65
     1
110
0.0
120
0.0
130
0.0
111
1.0
121
0.0
131
0.0
112
0.0
122
1.0
132
0.0
 79
     0
146
0.0
348
FC
 60
     3
 61
     5
292
     1
282
     1
141
0.0
142
0.0
 63
   256
361
62E
  0
ENDTAB
  0
TABLE
  2
LTYPE
  5
5
330
0
100
AcDbSymbolTable
 70
     2
  0
LTYPE
  5
10
330
5
100
AcDbSymbolTableRecord
100
AcDbLinetypeTableRecord
  2
ByBlock
 70
     0
  3

 72
    65
 73
     0
 40
0.0
  0
LTYPE
  5
11
330
5
100
AcDbSymbolTableRecord
100
AcDbLinetypeTableRecord
  2
ByLayer
 70
     0
  3

 72
    65
 73
     0
 40
0.0
  0
LTYPE
  5
1B
330
5
100
AcDbSymbolTableRecord
100
AcDbLinetypeTableRecord
  2
CONTINUOUS
 70
     0
  3
Solid line
 72
    65
 73
     0
 40
0.0
  0
LTYPE
  5
1C
330
5
100
AcDbSymbolTableRecord
100
AcDbLinetypeTableRecord
  2
CENTER
 70
     0
  3
____ _ ____ _ ____
 72
    65
 73
     4
 40
8.0
 49
5.0
 74
     0
 49
-1.0
 74
     0
 49
1.0
 74
     0
 49
-1.0
 74
     0
  0
ENDTAB
  0
TABLE
  2
LAYER
  5
2
102
{ACAD_XDICTIONARY
360
3AA
102
}
330
0
100
AcDbSymbolTable
 70
     5
  0
LAYER
  5
1D
330
2
100
AcDbSymbolTableRecord
100
AcDbLayerTableRecord
  2
0
 70
     0
 62
     7
  6
CONTINUOUS
370
    -3
390
F
347
113
348
0
  0
LAYER
  5
1E
330
2
100
AcDbSymbolTableRecord
100
AcDbLayerTableRecord
  2
L-ZISSEN
 70
     0
 62
     7
  6
CONTINUOUS
370
    -3
390
F
347
113
348
0
  0
LAYER
  5
1F
330
2
100
AcDbSymbolTableRecord
100
AcDbLayerTableRecord
  2
L-TYUSIN
 70
     0
 62
     1
  6
CENTER
370
    -3
390
F
347
113
348
0
  0
LAYER
  5
11A
330
2
100
AcDbSymbolTableRecord
100
AcDbLayerTableRecord
  2
SUNPOU
 70
     0
 62
     3
  6
CONTINUOUS
370
    15
390
F
347
113
348
0
  0
LAYER
  5
633
330
2
100
AcDbSymbolTableRecord
100
AcDbLayerTableRecord
  2
PV
 70
     0
 62
     7
  6
CONTINUOUS
370
    -3
390
F
347
113
348
0
  0
ENDTAB
  0
TABLE
  2
STYLE
  5
3
330
0
100
AcDbSymbolTable
 70
     2
  0
STYLE
  5
20
330
3
100
AcDbSymbolTableRecord
100
AcDbTextStyleTableRecord
  2
STANDARD
 70
     0
 40
0.0
 41
1.0
 50
0.0
 71
     0
 42
4.5
  3
txt
  4

  0
STYLE
  5
637
330
3
100
AcDbSymbolTableRecord
100
AcDbTextStyleTableRecord
  2
FONT1
 70
     0
 40
0.0
 41
1.0
 50
0.0
 71
     0
 42
4.5
  3
MONOTXT
  4

  0
ENDTAB
  0
TABLE
  2
VIEW
  5
6
330
0
100
AcDbSymbolTable
 70
     0
  0
ENDTAB
  0
TABLE
  2
UCS
  5
7
330
0
100
AcDbSymbolTable
 70
     0
  0
ENDTAB
  0
TABLE
  2
APPID
  5
9
330
0
100
AcDbSymbolTable
 70
     2
  0
APPID
  5
21
330
9
100
AcDbSymbolTableRecord
100
AcDbRegAppTableRecord
  2
ACAD
 70
     0
  0
APPID
  5
129
330
9
100
AcDbSymbolTableRecord
100
AcDbRegAppTableRecord
  2
PE_URL
 70
     0
  0
ENDTAB
  0
TABLE
  2
DIMSTYLE
  5
A
330
0
100
AcDbSymbolTable
 70
     3
100
AcDbDimStyleTable
  0
DIMSTYLE
105
23
330
A
100
AcDbSymbolTableRecord
100
AcDbDimStyleTableRecord
  2
Standard
 70
     0
178
     0
340
20
  0
DIMSTYLE
105
121
330
A
100
AcDbSymbolTableRecord
100
AcDbDimStyleTableRecord
  2
ISO-25
 70
     0
 41
2.5
 42
0.625
 43
3.75
 44
1.25
 73
     0
 74
     0
 77
     1
 78
     8
140
2.5
141
2.5
143
0.03937007874016
147
0.625
171
     3
172
     1
178
     0
271
     2
272
     2
274
     3
278
    44
283
     0
284
     8
340
20
  0
DIMSTYLE
105
122
330
A
100
AcDbSymbolTableRecord
100
AcDbDimStyleTableRecord
  2
SLDDIMSTYLE0
 70
     0
 41
2.0
 44
0.0
 45
0.000000001
146
2.0
147
0.0
173
     1
178
     0
271
     0
272
     0
276
     2
340
20
341
123
343
123
344
123
  0
ENDTAB
  0
TABLE
  2
BLOCK_RECORD
  5
1
330
0
100
AcDbSymbolTable
 70
     1
  0
BLOCK_RECORD
  5
18
330
1
100
AcDbSymbolTableRecord
100
AcDbBlockTableRecord
  2
*Model_Space
340
19
 70
     0
280
     1
281
     0
  0
BLOCK_RECORD
  5
16
330
1
100
AcDbSymbolTableRecord
100
AcDbBlockTableRecord
  2
*Paper_Space
340
17
 70
     0
280
     1
281
     0
  0
BLOCK_RECORD
  5
123
330
1
100
AcDbSymbolTableRecord
100
AcDbBlockTableRecord
  2
_Open30
340
0
 70
     0
280
     1
281
     0
  0
ENDTAB
  0
ENDSEC
  0
SECTION
  2
BLOCKS
  0
BLOCK
  5
D3
330
18
100
AcDbEntity
  8
0
100
AcDbBlockBegin
  2
*Model_Space
 70
     0
 10
0.0
 20
0.0
 30
0.0
  3
*Model_Space
  1

  0
ENDBLK
  5
D4
330
18
100
AcDbEntity
  8
0
100
AcDbBlockEnd
  0
BLOCK
  5
D1
330
16
100
AcDbEntity
 67
     1
  8
0
100
AcDbBlockBegin
  2
*Paper_Space
 70
     0
 10
0.0
 20
0.0
 30
0.0
  3
*Paper_Space
  1

  0
ENDBLK
  5
D2
330
16
100
AcDbEntity
 67
     1
  8
0
100
AcDbBlockEnd
  0
BLOCK
  5
124
330
123
100
AcDbEntity
  8
0
100
AcDbBlockBegin
  2
_Open30
 70
     0
 10
0.0
 20
0.0
 30
0.0
  3
_Open30
  1

  0
LINE
  5
125
330
123
100
AcDbEntity
  8
0
  6
ByBlock
 62
     0
370
    -2
100
AcDbLine
 10
-1.0
 20
0.26794919
 30
0.0
 11
0.0
 21
0.0
 31
0.0
  0
LINE
  5
126
330
123
100
AcDbEntity
  8
0
  6
ByBlock
 62
     0
370
    -2
100
AcDbLine
 10
0.0
 20
0.0
 30
0.0
 11
-1.0
 21
-0.26794919
 31
0.0
  0
LINE
  5
127
330
123
100
AcDbEntity
  8
0
  6
ByBlock
 62
     0
370
    -2
100
AcDbLine
 10
0.0
 20
0.0
 30
0.0
 11
-1.0
 21
0.0
 31
0.0
  0
ENDBLK
  5
128
330
123
100
AcDbEntity
  8
0
100
AcDbBlockEnd
  0
ENDSEC
  0
SECTION
  2
ENTITIES
  0
LINE
  5
3AF
330
18
100
AcDbEntity
  8
L-ZISSEN
100
AcDbLine
 10
637.137121646859
 20
-262.3762426303277
 30
0.0
 11
636.6371280841606
 21
-262.3762426303277
 31
0.0
  0
LINE
  5
3B0
330
18
100
AcDbEntity
  8
L-ZISSEN
100
AcDbLine
 10
636.6371280841606
 20
-272.3762405441652
 30
0.0
 11
637.137121646859
 21
-272.3762405441652
 31
0.0
  0
LINE
  5
3B1
330
18
100
AcDbEntity
  8
L-ZISSEN
100
AcDbLine
 10
637.137121646859
 20
-220.3762394712816
 30
0.0
 11
636.6371280841606
 21
-220.3762394712816
 31
0.0
  0
LINE
  5
3B2
330
18
100
AcDbEntity
  8
L-ZISSEN
100
AcDbLine
 10
636.6371280841606
 20
-230.3762448356996
 30
0.0
 11
637.137121646859
 21
-230.3762448356996
 31
0.0
  0
CIRCLE
  5
3B3
330
18
100
AcDbEntity
  8
L-ZISSEN
100
AcDbCircle
 10
627.6371259506625
 20
-246.3811132371019
 30
0.0
 40
17.24999999998516
  0
SPLINE
  5
3B4
330
18
100
AcDbEntity
  8
L-ZISSEN
100
AcDbSpline
210
0.0
220
0.0
230
1.0
 70
    24
 71
     3
 72
     9
 73
     5
 74
     0
 42
0.000000001
 43
0.00000001
 40
0.0
 40
0.0
 40
0.0
 40
0.0
 40
0.7224551545738123
 40
1.0
 40
1.0
 40
1.0
 40
1.0
 10
636.6371280841606
 20
-228.5040703938852
 30
0.0
 10
636.6371280841606
 20
-229.0264234017851
 30
0.0
 10
636.6371280841606
 20
-229.7494482215164
 30
0.0
 10
636.6371280841606
 20
-230.4023540454172
 30
0.0
 10
636.6371280841606
 20
-230.5835646913896
 30
0.0
  0
LINE
  5
3B5
330
18
100
AcDbEntity
  8
L-ZISSEN
100
AcDbLine
 10
636.6371280841606
 20
-225.9247762487779
 30
0.0
 11
636.6371280841606
 21
-228.5040703938852
 31
0.0
  0
LINE
  5
3B6
330
18
100
AcDbEntity
  8
L-ZISSEN
100
AcDbLine
 10
636.6371280841606
 20
-221.6847178862939
 30
0.0
 11
636.6371280841606
 21
-225.9247762487779
 31
0.0
  0
LINE
  5
3B7
330
18
100
AcDbEntity
  8
L-ZISSEN
100
AcDbLine
 10
637.137121646859
 20
-262.3762426303277
 30
0.0
 11
637.137121646859
 21
-272.3762405441652
 31
0.0
  0
LINE
  5
3B8
330
18
100
AcDbEntity
  8
L-ZISSEN
100
AcDbLine
 10
637.137121646859
 20
-220.3762394712816
 30
0.0
 11
637.137121646859
 21
-230.3762448356996
 31
0.0
  0
LINE
  5
3B9
330
18
100
AcDbEntity
  8
L-ZISSEN
100
AcDbLine
 10
636.6371280841606
 20
-214.0536991284738
 30
0.0
 11
636.6371280841606
 21
-221.6847178862939
 31
0.0
  0
LINE
  5
3BA
330
18
100
AcDbEntity
  8
L-ZISSEN
100
AcDbLine
 10
636.6371280841606
 20
-261.0971745850482
 30
0.0
 11
636.6371280841606
 21
-290.9426546117467
 31
0.0
  0
LINE
  5
3BB
330
18
100
AcDbEntity
  8
L-ZISSEN
100
AcDbLine
 10
592.1371347598808
 20
-161.066146955243
 30
0.0
 11
592.1371347598808
 21
-299.0186897443185
 31
0.0
  0
LINE
  5
3BC
330
18
100
AcDbEntity
  8
L-ZISSEN
100
AcDbLine
 10
670.0285012582092
 20
-299.0186897443185
 30
0.0
 11
592.1371347598808
 21
-299.0186897443185
 31
0.0
  0
LINE
  5
3BD
330
18
100
AcDbEntity
  8
L-ZISSEN
100
AcDbLine
 10
900.9183043363739
 20
-243.9090632995343
 30
0.0
 11
900.0957123887727
 21
-243.9090632995343
 31
0.0
  0
LINE
  5
3BE
330
18
100
AcDbEntity
  8
L-ZISSEN
100
AcDbLine
 10
895.261273358589
 20
-243.9090621994386
 30
0.0
 11
894.438799465913
 21
-243.9090621994368
 31
0.0
  0
LINE
  5
3BF
330
18
100
AcDbEntity
  8
L-ZISSEN
100
AcDbLine
 10
777.7351987204904
 20
-249.2306334565761
 30
0.0
 11
778.5913117799867
 21
-249.2306334565761
 31
0.0
  0
LINE
  5
3C0
330
18
100
AcDbEntity
  8
L-ZISSEN
100
AcDbLine
 10
775.810043639585
 20
-243.7128995520701
 30
0.0
 11
774.9252807369196
 21
-243.7128995520701
 31
0.0
  0
LINE
  5
3C1
330
18
100
AcDbEntity
  8
L-ZISSEN
100
AcDbLine
 10
764.256278100295
 20
-243.5956384904749
 30
0.0
 11
764.2068936702979
 21
-243.5669922640151
 31
0.0
  0
ARC
  5
3C2
330
18
100
AcDbEntity
  8
L-ZISSEN
100
AcDbCircle
 10
773.7372580988856
 20
-247.321593927633
 30
0.0
 40
2.017077244133819
100
AcDbArc
 50
178.1171098863588
 51
222.9083859738876
  0
ARC
  5
3C3
330
18
100
AcDbEntity
  8
L-ZISSEN
100
AcDbCircle
 10
773.7266279958883
 20
-247.3196906114723
 30
0.0
 40
2.010588267659108
100
AcDbArc
 50
223.1548167474015
 51
270.9238990704865
  0
ARC
  5
3C4
330
18
100
AcDbEntity
  8
L-ZISSEN
100
AcDbCircle
 10
773.7886972643698
 20
-247.301753132629
 30
0.0
 40
2.028480828974436
100
AcDbArc
 50
269.1629401518419
 51
316.6357763170482
  0
ARC
  5
3C5
330
18
100
AcDbEntity
  8
L-ZISSEN
100
AcDbCircle
 10
773.7705871834285
 20
-247.3163776798468
 30
0.0
 40
2.031747124157234
100
AcDbArc
 50
317.2865768617046
 51
1.720116756592285
  0
LWPOLYLINE
  5
3C6
330
18
100
AcDbEntity
  8
L-ZISSEN
100
AcDbPolyline
 90
        3
 70
   128
 43
0.0
 10
775.8014462840745
 20
-247.2553903376421
 10
775.8020695240109
 20
-245.2848916179031
 10
775.810043639585
 20
-243.7128995520701
  0
LWPOLYLINE
  5
3C7
330
18
100
AcDbEntity
  8
L-ZISSEN
100
AcDbPolyline
 90
        3
 70
   128
 43
0.0
 10
771.7122888945639
 20
-243.7129043021398
 10
771.7217010057836
 20
-245.7067382001934
 10
771.7212436906746
 20
-247.2553193909679
  0
LWPOLYLINE
  5
3C8
330
18
100
AcDbEntity
  8
L-ZISSEN
100
AcDbPolyline
 90
       57
 70
   128
 43
0.0
 10
764.9885676753709
 20
-246.4467882017587
 10
765.002759940128
 20
-246.7688368302321
 10
765.0493307407103
 20
-247.0875962820254
 10
765.1300083357298
 20
-247.3993659639715
 10
765.246713848928
 20
-247.6992267885406
 10
765.3996845292884
 20
-247.982115493924
 10
765.586817185658
 20
-248.2432962682946
 10
765.8034516371597
 20
-248.4806355087691
 10
766.0440961156426
 20
-248.6933772218882
 10
766.3052632156084
 20
-248.8805943411522
 10
766.5844574875771
 20
-249.0400405593037
 10
766.8800665950491
 20
-249.1670267959749
 10
767.1890079834654
 20
-249.2581168140028
 10
767.5066361686074
 20
-249.3118343563609
 10
767.8285438798682
 20
-249.3300517624876
 10
768.1505940584636
 20
-249.3153978460886
 10
768.46912440745
 20
-249.2670093705646
 10
768.7802048648425
 20
-249.1834672341319
 10
769.0790738692774
 20
-249.0641627902327
 10
769.3615612119763
 20
-248.9104734366232
 10
769.6244573242964
 20
-248.7258358046782
 10
769.8663583870464
 20
-248.5143878992072
 10
770.0860144446576
 20
-248.2798789022937
 10
770.2792728341071
 20
-248.0232511755104
 10
770.4414817147197
 20
-247.7456077822231
 10
770.5686233679332
 20
-247.4500549372216
 10
770.6587011376339
 20
-247.1408821242936
 10
770.7119380472429
 20
-246.823210062969
 10
770.7305150428854
 20
-246.5013666984838
 10
770.7165373843989
 20
-246.1792594539635
 10
770.6681813092016
 20
-245.8607047907627
 10
770.5833942678871
 20
-245.5498808396529
 10
770.4618758008744
 20
-245.2517603734703
 10
770.3054549242895
 20
-244.9705802771449
 10
770.1179780404643
 20
-244.7094655134132
 10
769.904024576517
 20
-244.4695121825144
 10
769.6676969846728
 20
-244.2516297899491
 10
769.4099574390227
 20
-244.0597100558329
 10
769.1317872511488
 20
-243.8982392733898
 10
768.8360390167124
 20
-243.7712750205116
 10
768.5267841467319
 20
-243.6811509765849
 10
768.2090217696511
 20
-243.628151793251
 10
767.8871143679387
 20
-243.6100738409242
 10
767.5650392420655
 20
-243.6245428098458
 10
767.2465547322961
 20
-243.6731594428583
 10
766.9357356742419
 20
-243.7577911801376
 10
766.6374162437048
 20
-243.8786582088334
 10
766.3557306619784
 20
-244.0339892156445
 10
766.093764046336
 20
-244.2201369857431
 10
765.8526906912491
 20
-244.4327721147628
 10
765.6335612105838
 20
-244.6680214049931
 10
765.4404195918394
 20
-244.9249592263667
 10
765.2778306858706
 20
-245.2025823257849
 10
765.1497827145383
 20
-245.4979723767893
 10
765.0589258683137
 20
-245.8070541527744
 10
765.0061052268618
 20
-246.1248331801156
 10
764.9885553061765
 20
-246.4467882017587
  0
LINE
  5
3C9
330
18
100
AcDbEntity
  8
L-ZISSEN
100
AcDbLine
 10
756.3604898703286
 20
-229.1311112569223
 30
0.0
 11
752.3617111098954
 21
-229.1311112569223
 31
0.0
  0
LINE
  5
3CA
330
18
100
AcDbEntity
  8
L-ZISSEN
100
AcDbLine
 10
752.3617111098954
 20
-263.6311141179452
 30
0.0
 11
756.3604898703286
 21
-263.6311141179452
 31
0.0
  0
ARC
  5
3CB
330
18
100
AcDbEntity
  8
L-ZISSEN
100
AcDbCircle
 10
752.3617078516124
 20
-230.1311132371169
 30
0.0
 40
1.000000000000085
100
AcDbArc
 50
90.0
 51
180.0
  0
ARC
  5
3CC
330
18
100
AcDbEntity
  8
L-ZISSEN
100
AcDbCircle
 10
752.361707851617
 20
-262.6311132370871
 30
0.0
 40
1.000000000000085
100
AcDbArc
 50
180.000000000013
 51
270.0
  0
LINE
  5
3CD
330
18
100
AcDbEntity
  8
L-ZISSEN
100
AcDbLine
 10
851.3848390382716
 20
-291.0186921583066
 30
0.0
 11
809.3848377418706
 21
-291.0186921583066
 31
0.0
  0
LINE
  5
3CE
330
18
100
AcDbEntity
  8
L-ZISSEN
100
AcDbLine
 10
809.3848377418706
 20
-291.0186921583066
 30
0.0
 11
809.3848377418706
 21
-299.0186897443185
 31
0.0
  0
SPLINE
  5
3CF
330
18
100
AcDbEntity
  8
L-ZISSEN
100
AcDbSpline
210
0.0
220
0.0
230
1.0
 70
     8
 71
     3
 72
    11
 73
     7
 74
     0
 42
0.000000001
 43
0.00000001
 40
0.0
 40
0.0
 40
0.0
 40
0.0
 40
0.257663246284128
 40
0.5153186664019019
 40
0.7731577895798439
 40
1.0
 40
1.0
 40
1.0
 40
1.0
 10
801.8855042708108
 20
-291.4657754228959
 30
0.0
 10
802.1243289411129
 20
-290.8304186304625
 30
0.0
 10
802.6019710277503
 20
-289.5597243436831
 30
0.0
 10
804.0659476499557
 20
-288.1023739894787
 30
0.0
 10
805.8186879738994
 20
-287.1799691777634
 30
0.0
 10
807.0873131700116
 20
-287.0701087531744
 30
0.0
 10
807.6810594600627
 20
-287.0186915026555
 30
0.0
  0
LINE
  5
3D0
330
18
100
AcDbEntity
  8
L-ZISSEN
100
AcDbLine
 10
801.8855042708108
 20
-291.4657754228959
 30
0.0
 11
801.7110172611663
 21
-292.1169747935186
 31
0.0
  0
SPLINE
  5
3D1
330
18
100
AcDbEntity
  8
L-ZISSEN
100
AcDbSpline
210
0.0
220
0.0
230
1.0
 70
    24
 71
     3
 72
     9
 73
     5
 74
     0
 42
0.000000001
 43
0.00000001
 40
0.0
 40
0.0
 40
0.0
 40
0.0
 40
0.4993774286048245
 40
1.0
 40
1.0
 40
1.0
 40
1.0
 10
853.042354802508
 20
-287.0186915026555
 30
0.0
 10
845.4915575032489
 20
-287.0186915026555
 30
0.0
 10
830.3711358206899
 20
-287.0186915026555
 30
0.0
 10
815.2506939499997
 20
-287.0186915026555
 30
0.0
 10
807.6810594600627
 20
-287.0186915026555
 30
0.0
  0
SPLINE
  5
3D2
330
18
100
AcDbEntity
  8
L-ZISSEN
100
AcDbSpline
210
0.0
220
0.0
230
1.0
 70
     8
 71
     3
 72
    18
 73
    14
 74
     0
 42
0.000000001
 43
0.00000001
 40
0.0
 40
0.0
 40
0.0
 40
0.0
 40
0.0017326240338136
 40
0.0041959291252826
 40
0.0367910513119332
 40
0.2116261368020265
 40
0.3445480145746751
 40
0.5219065510717178
 40
0.6395110156671812
 40
0.7298219887839464
 40
0.8037996405172108
 40
0.8969992426297417
 40
1.0
 40
1.0
 40
1.0
 40
1.0
 10
789.3919497680852
 20
-291.2693669424901
 30
0.0
 10
789.3867662009595
 20
-291.2705125019389
 30
0.0
 10
789.3742130562284
 20
-291.2732867254075
 30
0.0
 10
789.2713005455514
 20
-291.2954038056936
 30
0.0
 10
788.762764499909
 20
-291.4133781601369
 30
0.0
 10
787.9769106690699
 20
-291.5787586756536
 30
0.0
 10
786.8775409447132
 20
-291.8129586041103
 30
0.0
 10
785.9240856977956
 20
-292.0209961511931
 30
0.0
 10
785.0758601903815
 20
-292.2078367812172
 30
0.0
 10
784.4589449120301
 20
-292.3398439016952
 30
0.0
 10
783.8997794182476
 20
-292.458043021213
 30
0.0
 10
783.3185303956859
 20
-292.5841829108343
 30
0.0
 10
782.9094583897565
 20
-292.6731778133638
 30
0.0
 10
782.6947048258969
 20
-292.7198981271634
 30
0.0
  0
SPLINE
  5
3D3
330
18
100
AcDbEntity
  8
L-ZISSEN
100
AcDbSpline
210
0.0
220
0.0
230
1.0
 70
     8
 71
     3
 72
    12
 73
     8
 74
     0
 42
0.000000001
 43
0.00000001
 40
0.0
 40
0.0
 40
0.0
 40
0.0
 40
0.004605291528342
 40
0.025992277968487
 40
0.0755051133617641
 40
0.4997905912140443
 40
1.0
 40
1.0
 40
1.0
 40
1.0
 10
782.514471555967
 20
-291.7701353655706
 30
0.0
 10
782.514500863788
 20
-291.7706262390139
 30
0.0
 10
782.5146662772183
 20
-291.7733967300693
 30
0.0
 10
782.5180418239777
 20
-291.7937500417066
 30
0.0
 10
782.543652175648
 20
-291.9350022395143
 30
0.0
 10
782.6051821511417
 20
-292.2568795901499
 30
0.0
 10
782.6630633734319
 20
-292.5566592651027
 30
0.0
 10
782.6943807256409
 20
-292.7188587711702
 30
0.0
  0
SPLINE
  5
3D4
330
18
100
AcDbEntity
  8
L-ZISSEN
100
AcDbSpline
210
0.0
220
0.0
230
1.0
 70
     8
 71
     3
 72
    11
 73
     7
 74
     0
 42
0.000000001
 43
0.00000001
 40
0.0
 40
0.0
 40
0.0
 40
0.0
 40
0.01536765784267
 40
0.0945786780304847
 40
0.2898901567140469
 40
1.0
 40
1.0
 40
1.0
 40
1.0
 10
787.6917831552216
 20
-299.0186897443185
 30
0.0
 10
787.6915236165039
 20
-299.0182483486204
 30
0.0
 10
787.689926312021
 20
-299.0155318239525
 30
0.0
 10
787.6556249941766
 20
-298.9792923468314
 30
0.0
 10
787.5363048216902
 20
-298.8548589027961
 30
0.0
 10
787.4084645812516
 20
-298.7237159407042
 30
0.0
 10
787.3082011890599
 20
-298.6208622680555
 30
0.0
  0
SPLINE
  5
3D5
330
18
100
AcDbEntity
  8
L-ZISSEN
100
AcDbSpline
210
0.0
220
0.0
230
1.0
 70
     8
 71
     3
 72
    27
 73
    23
 74
     0
 42
0.000000001
 43
0.00000001
 40
0.0
 40
0.0
 40
0.0
 40
0.0
 40
0.0022877242623562
 40
0.0168369031489056
 40
0.1568155307294668
 40
0.2796328572407161
 40
0.3725420371398024
 40
0.4999218898453163
 40
0.5821533858228429
 40
0.6515218445628344
 40
0.7072848667162525
 40
0.7498603445983593
 40
0.8179944782500597
 40
0.8748717559788814
 40
0.908462701550892
 40
0.9373727458828317
 40
0.9541724316101176
 40
0.9686414268349678
 40
0.9891902012019584
 40
0.9955359574606998
 40
0.9979588406871646
 40
1.0
 40
1.0
 40
1.0
 40
1.0
 10
790.1326082599351
 20
-292.1169002877126
 30
0.0
 10
790.1295783913499
 20
-292.1235535004515
 30
0.0
 10
790.1072795484631
 20
-292.1725189725395
 30
0.0
 10
789.9220928729208
 20
-292.555515189454
 30
0.0
 10
789.634199314273
 20
-293.1740218873596
 30
0.0
 10
789.2649395602009
 20
-293.959293676484
 30
0.0
 10
788.9162238669021
 20
-294.7053523400112
 30
0.0
 10
788.6216786334714
 20
-295.3599380674301
 30
0.0
 10
788.3539336430792
 20
-295.9586060134874
 30
0.0
 10
788.1581110640943
 20
-296.4013445316554
 30
0.0
 10
787.9986162267548
 20
-296.756887948541
 30
0.0
 10
787.841428589513
 20
-297.1082237594054
 30
0.0
 10
787.6886289785377
 20
-297.4608602197956
 30
0.0
 10
787.5476138486463
 20
-297.7922896596282
 30
0.0
 10
787.4467946745606
 20
-298.0406695465975
 30
0.0
 10
787.3841877700968
 20
-298.2052538759784
 30
0.0
 10
787.340699070455
 20
-298.3300175200119
 30
0.0
 10
787.3091028479664
 20
-298.437680699626
 30
0.0
 10
787.2871238762834
 20
-298.5239418481129
 30
0.0
 10
787.2901869540735
 20
-298.5859159060934
 30
0.0
 10
787.2981616670293
 20
-298.6084846016084
 30
0.0
 10
787.3050510540813
 20
-298.6169784855512
 30
0.0
 10
787.3082011890599
 20
-298.6208622680555
 30
0.0
  0
SPLINE
  5
3D6
330
18
100
AcDbEntity
  8
L-ZISSEN
100
AcDbSpline
210
0.0
220
0.0
230
1.0
 70
     8
 71
     3
 72
    22
 73
    18
 74
     0
 42
0.000000001
 43
0.00000001
 40
0.0
 40
0.0
 40
0.0
 40
0.0
 40
0.0019557350503006
 40
0.0103376981738663
 40
0.0435709343982756
 40
0.0601379326781815
 40
0.1264158673214407
 40
0.3915570639622817
 40
0.6949841439003269
 40
0.8396853178527441
 40
0.9175302783331719
 40
0.9587284214055253
 40
0.9801969897314908
 40
0.9911901102625891
 40
0.9967035494471349
 40
0.9994048573051905
 40
1.0
 40
1.0
 40
1.0
 40
1.0
 10
801.7110172611663
 20
-292.1169747935186
 30
0.0
 10
801.7093366638526
 20
-292.1232463093273
 30
0.0
 10
801.700453299122
 20
-292.156396524391
 30
0.0
 10
801.6680112564243
 20
-292.277476001775
 30
0.0
 10
801.6279986137258
 20
-292.4268025246253
 30
0.0
 10
801.5499024840735
 20
-292.7182684545463
 30
0.0
 10
801.3222770015043
 20
-293.5677677348784
 30
0.0
 10
800.9218812860288
 20
-295.0620666155042
 30
0.0
 10
800.4821401224015
 20
-296.7032119300703
 30
0.0
 10
800.1660092982254
 20
-297.8830201898085
 30
0.0
 10
800.0115092489566
 20
-298.45962877112
 30
0.0
 10
799.9318085582761
 20
-298.7570633714982
 30
0.0
 10
799.8921119603644
 20
-298.9052254559223
 30
0.0
 10
799.8730324576215
 20
-298.9764160502056
 30
0.0
 10
799.8648756244118
 20
-299.0068752833887
 30
0.0
 10
799.8619232113513
 20
-299.0178777910454
 30
0.0
 10
799.86174146396
 20
-299.0185655720248
 30
0.0
 10
799.8617086512038
 20
-299.0186897443185
 30
0.0
  0
LINE
  5
3D7
330
18
100
AcDbEntity
  8
L-ZISSEN
100
AcDbLine
 10
784.1247692656705
 20
-295.192902289475
 30
0.0
 11
782.795581961889
 21
-293.348142258967
 31
0.0
  0
SPLINE
  5
3D8
330
18
100
AcDbEntity
  8
L-ZISSEN
100
AcDbSpline
210
0.0
220
0.0
230
1.0
 70
     8
 71
     3
 72
     9
 73
     5
 74
     0
 42
0.000000001
 43
0.00000001
 40
0.0
 40
0.0
 40
0.0
 40
0.0
 40
0.5000408913295881
 40
1.0
 40
1.0
 40
1.0
 40
1.0
 10
782.694444055576
 20
-292.7191046403299
 30
0.0
 10
782.7106616935114
 20
-292.8251392544249
 30
0.0
 10
782.7430943169545
 20
-293.0371911404485
 30
0.0
 10
782.7780721326078
 20
-293.2444851195108
 30
0.0
 10
782.7955596101472
 20
-293.3481236325155
 30
0.0
  0
CIRCLE
  5
3D9
330
18
100
AcDbEntity
  8
L-ZISSEN
100
AcDbCircle
 10
830.3617078516161
 20
-221.0186910725666
 30
0.0
 40
13.2205
  0
CIRCLE
  5
3DA
330
18
100
AcDbEntity
  8
L-ZISSEN
100
AcDbCircle
 10
830.3617078516161
 20
-221.0186910725666
 30
0.0
 40
12.475
  0
LWPOLYLINE
  5
3DB
330
18
100
AcDbEntity
  8
L-ZISSEN
100
AcDbPolyline
 90
        9
 70
   128
 43
0.0
 10
780.9506393921563
 20
-292.004720620955
 10
780.9496596408078
 20
-292.0087364838968
 10
780.9486836147496
 20
-292.0127523468385
 10
780.9477038634011
 20
-292.0167719350706
 10
780.9467241120526
 20
-292.0207877980123
 10
780.9457480859944
 20
-292.024803660954
 10
780.9447683346459
 20
-292.0288232491861
 10
780.9437885832974
 20
-292.0328391121278
 10
780.9428125572392
 20
-292.0368587003599
  0
SPLINE
  5
3DC
330
18
100
AcDbEntity
  8
L-ZISSEN
100
AcDbSpline
210
0.0
220
0.0
230
1.0
 70
     8
 71
     3
 72
    19
 73
    15
 74
     0
 42
0.000000001
 43
0.00000001
 40
0.0
 40
0.0
 40
0.0
 40
0.0
 40
0.0005554273444965
 40
0.0016479817042818
 40
0.0056583720958406
 40
0.0225023357155477
 40
0.1044795368555908
 40
0.500380275743378
 40
0.8958921357399271
 40
0.9776372470109459
 40
0.9944015995705938
 40
0.9983785105559008
 40
0.9994583129746065
 40
1.0
 40
1.0
 40
1.0
 40
1.0
 10
781.1930403065869
 20
-293.5742673800836
 30
0.0
 10
781.1929301215148
 20
-293.5740007656626
 30
0.0
 10
781.192603196703
 20
-293.5732097068641
 30
0.0
 10
781.1919010121708
 20
-293.5703479181988
 30
0.0
 10
781.1893970785675
 20
-293.5592425056442
 30
0.0
 10
781.1796177795511
 20
-293.5067130128936
 30
0.0
 10
781.1353581491428
 20
-293.2537316427002
 30
0.0
 10
781.0620788494296
 20
-292.8061198828565
 30
0.0
 10
780.9896313109564
 20
-292.3584878402577
 30
0.0
 10
780.9514577692405
 20
-292.1048899196797
 30
0.0
 10
780.9440966927102
 20
-292.052146028917
 30
0.0
 10
780.9429603768037
 20
-292.0408853975558
 30
0.0
 10
780.9427209715748
 20
-292.037979121172
 30
0.0
 10
780.9427840381593
 20
-292.0371392680462
 30
0.0
 10
780.9428051066586
 20
-292.0368587003599
 30
0.0
  0
LINE
  5
3DD
330
18
100
AcDbEntity
  8
L-ZISSEN
100
AcDbLine
 10
781.1930440318772
 20
-293.5742673800836
 30
0.0
 11
782.9690910828301
 21
-296.0942102001558
 31
0.0
  0
LINE
  5
3DE
330
18
100
AcDbEntity
  8
L-ZISSEN
100
AcDbLine
 10
782.9690910828301
 20
-296.0942102001558
 30
0.0
 11
785.606894637365
 21
-299.0186897443185
 31
0.0
  0
LINE
  5
3DF
330
18
100
AcDbEntity
  8
L-ZISSEN
100
AcDbLine
 10
771.6117687475869
 20
-189.0186897443185
 30
0.0
 11
771.6117676382462
 21
-219.000390535739
 31
0.0
  0
LINE
  5
3E0
330
18
100
AcDbEntity
  8
L-ZISSEN
100
AcDbLine
 10
897.2371183288285
 20
-249.019087605318
 30
0.0
 11
896.4139572615625
 21
-249.0190876053224
 31
0.0
  0
LINE
  5
3E1
330
18
100
AcDbEntity
  8
L-ZISSEN
100
AcDbLine
 10
764.2068900120446
 20
-243.5669911430726
 30
0.0
 11
764.2562799108216
 21
-243.5956386254678
 31
0.0
  0
SPLINE
  5
3E2
330
18
100
AcDbEntity
  8
L-ZISSEN
100
AcDbSpline
210
0.0
220
0.0
230
1.0
 70
    11
 71
     3
 72
    26
 73
    22
 74
     0
 42
0.000000001
 43
0.00000001
 40
0.0
 40
0.0
 40
0.0
 40
0.0
 40
0.0541172268952543
 40
0.1085179559077583
 40
0.1585781077797464
 40
0.2156442662637106
 40
0.2652965000828423
 40
0.3238596846973836
 40
0.3749758322148884
 40
0.4276132743325053
 40
0.480543859604965
 40
0.5334797272463432
 40
0.5941341245453188
 40
0.645375639725391
 40
0.7013495246567246
 40
0.7516966891328649
 40
0.8072673455255319
 40
0.8582353911507686
 40
0.9117610106554505
 40
0.9672876305175985
 40
0.9999999999999999
 40
0.9999999999999999
 40
0.9999999999999999
 40
0.9999999999999999
 10
765.8615857315251
 20
-246.4567733333955
 30
0.0
 10
765.8799774524621
 20
-246.2268328758031
 30
0.0
 10
765.9168572424348
 20
-245.7657473791879
 30
0.0
 10
766.2668923288536
 20
-245.1730492751987
 30
0.0
 10
766.7725914030823
 20
-244.7071742378549
 30
0.0
 10
767.4013552737731
 20
-244.4522366354612
 30
0.0
 10
768.105456994979
 20
-244.4208181844386
 30
0.0
 10
768.7717424472428
 20
-244.5976036150067
 30
0.0
 10
769.3220183615156
 20
-245.0226880118042
 30
0.0
 10
769.7125240657467
 20
-245.5697428188697
 30
0.0
 10
769.8781474760588
 20
-246.2301329431626
 30
0.0
 10
769.8529216060795
 20
-246.9410419774157
 30
0.0
 10
769.5816817533002
 20
-247.6007470858236
 30
0.0
 10
769.0919038464833
 20
-248.124823419381
 30
0.0
 10
768.4919811988309
 20
-248.4430059487757
 30
0.0
 10
767.8051622695627
 20
-248.5323329540291
 30
0.0
 10
767.13878660765
 20
-248.4145891657089
 30
0.0
 10
766.5572191702565
 20
-248.0518382239753
 30
0.0
 10
766.1004271114232
 20
-247.5432545811358
 30
0.0
 10
765.8849915460312
 20
-246.9669489550555
 30
0.0
 10
765.8679160419867
 20
-246.5947548624873
 30
0.0
 10
765.8615857315251
 20
-246.4567733333955
 30
0.0
  0
LINE
  5
3E3
330
18
100
AcDbEntity
  8
L-ZISSEN
100
AcDbLine
 10
771.7122888945639
 20
-243.7129043021398
 30
0.0
 11
772.5977078032681
 21
-243.7129043021398
 31
0.0
  0
SPLINE
  5
3E4
330
18
100
AcDbEntity
  8
L-ZISSEN
100
AcDbSpline
210
0.0
220
0.0
230
1.0
 70
     8
 71
     3
 72
    10
 73
     6
 74
     0
 42
0.000000001
 43
0.00000001
 40
0.0
 40
0.0
 40
0.0
 40
0.0
 40
0.3428436327193243
 40
0.6873193633948601
 40
1.0
 40
1.0
 40
1.0
 40
1.0
 10
772.8163786184975
 20
-248.0413926170717
 30
0.0
 10
772.8985425072003
 20
-248.1356634284797
 30
0.0
 10
773.0632614236081
 20
-248.3246538249761
 30
0.0
 10
773.4069510271818
 20
-248.476830435537
 30
0.0
 10
773.6455808273129
 20
-248.4913979338456
 30
0.0
 10
773.7591229331681
 20
-248.4983292745004
 30
0.0
  0
SPLINE
  5
3E5
330
18
100
AcDbEntity
  8
L-ZISSEN
100
AcDbSpline
210
0.0
220
0.0
230
1.0
 70
     8
 71
     3
 72
    11
 73
     7
 74
     0
 42
0.000000001
 43
0.00000001
 40
0.0
 40
0.0
 40
0.0
 40
0.0
 40
0.2458581448839005
 40
0.5935672262824987
 40
0.9329188913449155
 40
1.0
 40
1.0
 40
1.0
 40
1.0
 10
773.7591229331681
 20
-248.4983292745004
 30
0.0
 10
773.8487567829886
 20
-248.4940809868787
 30
0.0
 10
774.0651568361361
 20
-248.4838244859144
 30
0.0
 10
774.3913961784872
 20
-248.3622219272464
 30
0.0
 10
774.6015848656359
 20
-248.1775894749727
 30
0.0
 10
774.6915487921503
 20
-248.0606935599238
 30
0.0
 10
774.7063972008416
 20
-248.0414000676523
 30
0.0
  0
SPLINE
  5
3E6
330
18
100
AcDbEntity
  8
L-ZISSEN
100
AcDbSpline
210
0.0
220
0.0
230
1.0
 70
     8
 71
     3
 72
    10
 73
     6
 74
     0
 42
0.000000001
 43
0.00000001
 40
0.0
 40
0.0
 40
0.0
 40
0.0
 40
0.3841573691117662
 40
0.6894416946018487
 40
1.0
 40
1.0
 40
1.0
 40
1.0
 10
774.7063972008416
 20
-248.0414000676523
 30
0.0
 10
774.7684472803055
 20
-247.9209836751589
 30
0.0
 10
774.8798076637693
 20
-247.7048741107625
 30
0.0
 10
774.9256253813862
 20
-247.3536887151498
 30
0.0
 10
774.9316366932633
 20
-247.1382768066688
 30
0.0
 10
774.9346680891701
 20
-247.029648475493
 30
0.0
  0
SPLINE
  5
3E7
330
18
100
AcDbEntity
  8
L-ZISSEN
100
AcDbSpline
210
0.0
220
0.0
230
1.0
 70
     8
 71
     3
 72
    10
 73
     6
 74
     0
 42
0.000000001
 43
0.00000001
 40
0.0
 40
0.0
 40
0.0
 40
0.0
 40
0.2501445618364321
 40
0.5002889524236236
 40
1.0
 40
1.0
 40
1.0
 40
1.0
 10
774.9346680891701
 20
-247.029648475493
 30
0.0
 10
774.9349830437657
 20
-246.7550312316522
 30
0.0
 10
774.935612952743
 20
-246.2057969319736
 30
0.0
 10
774.9337554819929
 20
-245.1073973131619
 30
0.0
 10
774.9284974887403
 20
-244.2897080049514
 30
0.0
 10
774.9252807369196
 20
-243.7128995520701
 30
0.0
  0
SPLINE
  5
3E8
330
18
100
AcDbEntity
  8
L-ZISSEN
100
AcDbSpline
210
0.0
220
0.0
230
1.0
 70
     8
 71
     3
 72
    10
 73
     6
 74
     0
 42
0.000000001
 43
0.00000001
 40
0.0
 40
0.0
 40
0.0
 40
0.0
 40
0.4075906562378482
 40
0.6972058498509843
 40
1.0
 40
1.0
 40
1.0
 40
1.0
 10
772.5880294990727
 20
-247.0297155307184
 30
0.0
 10
772.5927716659178
 20
-247.172426687728
 30
0.0
 10
772.600883398645
 20
-247.4165418360598
 30
0.0
 10
772.6660038712159
 20
-247.7646397562681
 30
0.0
 10
772.7655157765664
 20
-247.947783568561
 30
0.0
 10
772.8163786184975
 20
-248.0413926170717
 30
0.0
  0
SPLINE
  5
3E9
330
18
100
AcDbEntity
  8
L-ZISSEN
100
AcDbSpline
210
0.0
220
0.0
230
1.0
 70
     8
 71
     3
 72
    10
 73
     6
 74
     0
 42
0.000000001
 43
0.00000001
 40
0.0
 40
0.0
 40
0.0
 40
0.0
 40
0.2501450689034627
 40
0.5002887230488972
 40
1.0
 40
1.0
 40
1.0
 40
1.0
 10
772.5977078032681
 20
-243.7129043021398
 30
0.0
 10
772.5957820942037
 20
-244.0169797300777
 30
0.0
 10
772.5919306869716
 20
-244.5613540539306
 30
0.0
 10
772.5873235723745
 20
-245.6567813754508
 30
0.0
 10
772.5877471934771
 20
-246.4806684490349
 30
0.0
 10
772.5880294990727
 20
-247.0297155307184
 30
0.0
  0
LINE
  5
3EA
330
18
100
AcDbEntity
  8
L-ZISSEN
100
AcDbLine
 10
777.7351987204904
 20
-244.5445669220338
 30
0.0
 11
776.4868011040965
 21
-244.5437033191619
 31
0.0
  0
LINE
  5
3EB
330
18
100
AcDbEntity
  8
L-ZISSEN
100
AcDbLine
 10
776.4868011040965
 20
-243.7129008455155
 30
0.0
 11
779.8397093963811
 21
-243.7129033134828
 31
0.0
  0
LINE
  5
3EC
330
18
100
AcDbEntity
  8
L-ZISSEN
100
AcDbLine
 10
751.3617090833375
 20
-262.6311120913873
 30
0.0
 11
751.3617090833375
 21
-230.1311132834802
 31
0.0
  0
SPLINE
  5
3ED
330
18
100
AcDbEntity
  8
L-ZISSEN
100
AcDbSpline
210
0.0
220
0.0
230
1.0
 70
     8
 71
     3
 72
    13
 73
     9
 74
     0
 42
0.000000001
 43
0.00000001
 40
0.0
 40
0.0
 40
0.0
 40
0.0
 40
0.0102464586948092
 40
0.1417462286359893
 40
0.3564327541577629
 40
0.5709866474739387
 40
0.7854935224030571
 40
1.0
 40
1.0
 40
1.0
 40
1.0
 10
756.3604898703286
 20
-263.6311141179452
 30
0.0
 10
756.3711765202604
 20
-263.631168821153
 30
0.0
 10
756.5190122135507
 20
-263.6319255678176
 30
0.0
 10
756.8907085956769
 20
-263.6767579514484
 30
0.0
 10
757.4433868297481
 20
-263.9032047674212
 30
0.0
 10
757.9507305880431
 20
-264.3583461850884
 30
0.0
 10
758.295411248271
 20
-264.9566475234022
 30
0.0
 10
758.3396093417903
 20
-265.4062053536608
 30
0.0
 10
758.3617083680817
 20
-265.6309840606103
 30
0.0
  0
SPLINE
  5
3EE
330
18
100
AcDbEntity
  8
L-ZISSEN
100
AcDbSpline
210
0.0
220
0.0
230
1.0
 70
     8
 71
     3
 72
    13
 73
     9
 74
     0
 42
0.000000001
 43
0.00000001
 40
0.0
 40
0.0
 40
0.0
 40
0.0
 40
0.0102464535798842
 40
0.1417461578777545
 40
0.3564325762302598
 40
0.5709847789164797
 40
0.7854936294824473
 40
1.0
 40
1.0
 40
1.0
 40
1.0
 10
756.3604898703286
 20
-229.1311112569223
 30
0.0
 10
756.3711765200785
 20
-229.1310565535297
 30
0.0
 10
756.5190122108286
 20
-229.1302998043121
 30
0.0
 10
756.8907088514359
 20
-229.0854676807156
 30
0.0
 10
757.4433837374797
 20
-228.8590197062148
 30
0.0
 10
757.9507354907016
 20
-228.4038858309644
 30
0.0
 10
758.2954093498645
 20
-227.805578943021
 30
0.0
 10
758.3396087805111
 20
-227.3560196575753
 30
0.0
 10
758.3617083680817
 20
-227.1312413142572
 30
0.0
  0
CIRCLE
  5
3EF
330
18
100
AcDbEntity
  8
L-ZISSEN
100
AcDbCircle
 10
765.8617078516133
 20
-225.3762421098132
 30
0.0
 40
3.499999999999943
  0
CIRCLE
  5
3F0
330
18
100
AcDbEntity
  8
L-ZISSEN
100
AcDbCircle
 10
765.8617078516133
 20
-225.3762421098132
 30
0.0
 40
5.0
  0
CIRCLE
  5
3F1
330
18
100
AcDbEntity
  8
L-ZISSEN
100
AcDbCircle
 10
765.8617078516133
 20
-267.3762421098128
 30
0.0
 40
3.499999999999943
  0
CIRCLE
  5
3F2
330
18
100
AcDbEntity
  8
L-ZISSEN
100
AcDbCircle
 10
765.8617078516133
 20
-267.3762421098128
 30
0.0
 40
5.0
  0
ELLIPSE
  5
3F3
330
18
100
AcDbEntity
  8
L-ZISSEN
100
AcDbEllipse
 10
766.3665842060025
 20
-266.6874058912944
 30
0.0
 11
-7.313701173316219
 21
-3.256269558135045
 31
1.058708676282549E-11
210
1.208090823595697E-12
220
5.378766891228128E-13
230
1.0
 40
0.9992702036836119
 41
5.864577491615925
 42
6.701793122743174
  0
LINE
  5
3F4
330
18
100
AcDbEntity
  8
L-ZISSEN
100
AcDbLine
 10
758.3617083680817
 20
-225.8225021289239
 30
0.0
 11
758.3617083680817
 21
-225.8225170300851
 31
0.0
  0
SPLINE
  5
3F5
330
18
100
AcDbEntity
  8
L-ZISSEN
100
AcDbSpline
210
0.0
220
0.0
230
1.0
 70
     8
 71
     3
 72
    10
 73
     6
 74
     0
 42
0.000000001
 43
0.00000001
 40
0.0
 40
0.0
 40
0.0
 40
0.0
 40
0.1414276712832367
 40
0.5707148048240797
 40
1.0
 40
1.0
 40
1.0
 40
1.0
 10
760.7034258496949
 20
-220.1691058801065
 30
0.0
 10
760.5026654714763
 20
-220.3846664401348
 30
0.0
 10
759.6925204762945
 20
-221.2545358357628
 30
0.0
 10
758.6284008201844
 20
-223.1298768825135
 30
0.0
 10
758.450605718315
 20
-224.924961731018
 30
0.0
 10
758.3617083680817
 20
-225.8225021289239
 30
0.0
  0
SPLINE
  5
3F6
330
18
100
AcDbEntity
  8
L-ZISSEN
100
AcDbSpline
210
0.0
220
0.0
230
1.0
 70
     8
 71
     3
 72
    11
 73
     7
 74
     0
 42
0.000000001
 43
0.00000001
 40
0.0
 40
0.0
 40
0.0
 40
0.0
 40
0.3132474602937684
 40
0.6264985971245276
 40
0.9396801187867853
 40
1.0
 40
1.0
 40
1.0
 40
1.0
 10
780.9506393921563
 20
-292.004720620955
 30
0.0
 10
780.9824123475571
 20
-291.781039773433
 30
0.0
 10
781.0459586312779
 20
-291.3336754530816
 30
0.0
 10
780.8522590824966
 20
-290.6720111375981
 30
0.0
 10
780.572175183054
 20
-290.258225016047
 30
0.0
 10
780.3775335896078
 20
-290.075717114055
 30
0.0
 10
780.3460992825219
 20
-290.0462423787961
 30
0.0
  0
LINE
  5
3F7
330
18
100
AcDbEntity
  8
L-ZISSEN
100
AcDbLine
 10
761.0070519101807
 20
-272.633285574759
 30
0.0
 11
780.3460992825219
 21
-290.0462423787961
 31
0.0
  0
LINE
  5
3F8
330
18
100
AcDbEntity
  8
L-ZISSEN
100
AcDbLine
 10
758.3617083680817
 20
-261.0971745850482
 30
0.0
 11
758.3617083680817
 21
-266.6917455719362
 31
0.0
  0
LINE
  5
3F9
330
18
100
AcDbEntity
  8
L-ZISSEN
100
AcDbLine
 10
758.3617083680817
 20
-225.8225170300851
 30
0.0
 11
758.3617083680817
 21
-231.6650518891557
 31
0.0
  0
LINE
  5
3FA
330
18
100
AcDbEntity
  8
L-ZISSEN
100
AcDbLine
 10
760.7034333002755
 20
-220.1690984295259
 30
0.0
 11
771.611767998618
 21
-209.2607637311837
 31
0.0
  0
LINE
  5
3FB
330
18
100
AcDbEntity
  8
L-ZISSEN
100
AcDbLine
 10
771.0261821873517
 20
-209.8463456718254
 30
0.0
 11
771.0263373195401
 21
-209.8461905311314
 31
0.0
  0
LINE
  5
3FC
330
18
100
AcDbEntity
  8
L-ZISSEN
100
AcDbLine
 10
771.6117669062148
 20
-208.4330432407522
 30
0.0
 11
771.6117669122511
 21
-208.4328384776012
 31
0.0
  0
LINE
  5
3FD
330
18
100
AcDbEntity
  8
L-ZISSEN
100
AcDbLine
 10
790.1326082599351
 20
-292.1169002877126
 30
0.0
 11
801.7110172611663
 21
-292.1169747935186
 31
0.0
  0
SPLINE
  5
3FE
330
18
100
AcDbEntity
  8
L-ZISSEN
100
AcDbSpline
210
0.0
220
0.0
230
1.0
 70
     8
 71
     3
 72
     9
 73
     5
 74
     0
 42
0.000000001
 43
0.00000001
 40
0.0
 40
0.0
 40
0.0
 40
0.0
 40
0.4999469582392646
 40
1.0
 40
1.0
 40
1.0
 40
1.0
 10
789.3919758451173
 20
-291.2693930195222
 30
0.0
 10
789.5125584437917
 20
-291.4131204830657
 30
0.0
 10
789.7537492275112
 20
-291.7006059076188
 30
0.0
 10
790.006312984842
 20
-291.9781256809232
 30
0.0
 10
790.1326082599351
 20
-292.1169002877126
 30
0.0
  0
SPLINE
  5
3FF
330
18
100
AcDbEntity
  8
L-ZISSEN
100
AcDbSpline
210
0.0
220
0.0
230
1.0
 70
     8
 71
     3
 72
    11
 73
     7
 74
     0
 42
0.000000001
 43
0.00000001
 40
0.0
 40
0.0
 40
0.0
 40
0.0
 40
0.2500116933954307
 40
0.5001036687462131
 40
0.7500905126673979
 40
1.0
 40
1.0
 40
1.0
 40
1.0
 10
814.3382025835106
 20
-215.1423407123933
 30
0.0
 10
811.8827817667832
 20
-221.3574463560691
 30
0.0
 10
806.9711516662753
 20
-233.7896533934078
 30
0.0
 10
800.4429277198485
 20
-252.7502369594628
 30
0.0
 10
794.4845165256972
 20
-271.8925709485221
 30
0.0
 10
791.0893142748225
 20
-284.8111186905388
 30
0.0
 10
789.3919758451173
 20
-291.2693930195222
 30
0.0
  0
SPLINE
  5
400
330
18
100
AcDbEntity
  8
L-ZISSEN
100
AcDbSpline
210
0.0
220
0.0
230
1.0
 70
     8
 71
     3
 72
    23
 73
    19
 74
     0
 42
0.000000001
 43
0.00000001
 40
0.0
 40
0.0
 40
0.0
 40
0.0
 40
0.0622364128203772
 40
0.124389651136084
 40
0.1870233976512531
 40
0.2492324844629914
 40
0.311974234976905
 40
0.3744240258461375
 40
0.4369690710565975
 40
0.4999715778120292
 40
0.5629769239212236
 40
0.6254236196028525
 40
0.6879907436764137
 40
0.7506306944089874
 40
0.8128684467302312
 40
0.875527465212405
 40
0.9376194734704713
 40
1.0
 40
1.0
 40
1.0
 40
1.0
 10
846.3852126103827
 20
-215.1423407123933
 30
0.0
 10
845.9922996078192
 20
-214.4167936699799
 30
0.0
 10
845.206998702756
 20
-212.9666692267687
 30
0.0
 10
843.6548691323449
 20
-211.0225419684963
 30
0.0
 10
841.8679377296919
 20
-209.3007381250123
 30
0.0
 10
839.8470731209634
 20
-207.8433315010483
 30
0.0
 10
837.6471297218538
 20
-206.6804693092807
 30
0.0
 10
835.3028029185887
 20
-205.8324826065667
 30
0.0
 10
832.8605848061923
 20
-205.3154428398767
 30
0.0
 10
830.3628060073559
 20
-205.1409766058636
 30
0.0
 10
827.8663005462683
 20
-205.3150346461292
 30
0.0
 10
825.4237179490517
 20
-205.8315856403971
 30
0.0
 10
823.0802064126808
 20
-206.6787132960263
 30
0.0
 10
820.8795548367923
 20
-207.8414163325
 30
0.0
 10
818.8587949100818
 20
-209.2979025735111
 30
0.0
 10
817.0715703478161
 20
-211.0192696735402
 30
0.0
 10
815.5180469529685
 20
-212.9641052173205
 30
0.0
 10
814.7320913026513
 20
-214.4151410822125
 30
0.0
 10
814.3382025835106
 20
-215.1423407123933
 30
0.0
  0
SPLINE
  5
401
330
18
100
AcDbEntity
  8
L-ZISSEN
100
AcDbSpline
210
0.0
220
0.0
230
1.0
 70
     8
 71
     3
 72
    11
 73
     7
 74
     0
 42
0.000000001
 43
0.00000001
 40
0.0
 40
0.0
 40
0.0
 40
0.0
 40
0.2588652760978293
 40
0.5117989005258669
 40
0.7588326103794465
 40
1.0
 40
1.0
 40
1.0
 40
1.0
 10
782.514471555967
 20
-291.7701353655706
 30
0.0
 10
784.3054555037859
 20
-284.8027239554486
 30
0.0
 10
787.8463847051487
 20
-271.0275527429757
 30
0.0
 10
794.053843291447
 20
-250.863814429828
 30
0.0
 10
800.7163617964713
 20
-231.3634850752998
 30
0.0
 10
805.6728806557501
 20
-218.7292758627533
 30
0.0
 10
808.1213608336636
 20
-212.4880788253198
 30
0.0
  0
SPLINE
  5
402
330
18
100
AcDbEntity
  8
L-ZISSEN
100
AcDbSpline
210
0.0
220
0.0
230
1.0
 70
     8
 71
     3
 72
    34
 73
    30
 74
     0
 42
0.000000001
 43
0.00000001
 40
0.0
 40
0.0
 40
0.0
 40
0.0
 40
0.0555852987807036
 40
0.115745950113335
 40
0.1337888394933656
 40
0.1522059848330358
 40
0.1709973276632364
 40
0.1901628123850786
 40
0.2097026053251962
 40
0.2296164256895102
 40
0.2499045795262985
 40
0.2873595445663104
 40
0.3415316275890232
 40
0.3869488729625027
 40
0.439794585953981
 40
0.5000650095673912
 40
0.5603473444258669
 40
0.6132057053261156
 40
0.6586362646683712
 40
0.6785701535923477
 40
0.6966446413817559
 40
0.7128597495778158
 40
0.7272153136272939
 40
0.7397112737989998
 40
0.7503475188817498
 40
0.8196404496329288
 40
0.8843480079623636
 40
0.9444683944442013
 40
0.9999999999999999
 40
0.9999999999999999
 40
0.9999999999999999
 40
0.9999999999999999
 10
808.1215135705659
 20
-212.4881458805452
 30
0.0
 10
808.5954380680184
 20
-211.5738279360129
 30
0.0
 10
809.5822968677955
 20
-209.6699324543487
 30
0.0
 10
811.075994207599
 20
-207.6794494848451
 30
0.0
 10
812.258728290615
 20
-206.3387862426624
 30
0.0
 10
812.9671755259894
 20
-205.6010091533432
 30
0.0
 10
813.7206682220656
 20
-204.8791214036663
 30
0.0
 10
814.5200929219461
 20
-204.1764696744007
 30
0.0
 10
815.3655953869682
 20
-203.4963349434214
 30
0.0
 10
816.2573319430337
 20
-202.8422231131555
 30
0.0
 10
817.4537850228896
 20
-202.0453780272186
 30
0.0
 10
819.250679590368
 20
-201.0108331691721
 30
0.0
 10
821.5736474914545
 20
-199.9763901084419
 30
0.0
 10
824.2673833512642
 20
-199.1237833497411
 30
0.0
 10
827.1520045809964
 20
-198.5519820929197
 30
0.0
 10
830.3633633268626
 20
-198.3333136966916
 30
0.0
 10
833.5750141365313
 20
-198.5524320885123
 30
0.0
 10
836.4600325742729
 20
-199.1247459591613
 30
0.0
 10
838.5495833684288
 20
-199.7866206109137
 30
0.0
 10
839.9835902463544
 20
-200.3602315351112
 30
0.0
 10
840.8986910591509
 20
-200.7725852465381
 30
0.0
 10
841.7046605497833
 20
-201.1739812396451
 30
0.0
 10
842.4054905533628
 20
-201.553708861485
 30
0.0
 10
843.0052442788317
 20
-201.9025731992509
 30
0.0
 10
844.4606931722954
 20
-202.8008070365989
 30
0.0
 10
846.614359869043
 20
-204.4128751179368
 30
0.0
 10
849.13280756565
 20
-206.9881060721519
 30
0.0
 10
851.1417086106528
 20
-209.6724345301858
 30
0.0
 10
852.1282186545975
 20
-211.5747349330867
 30
0.0
 10
852.60190255465
 20
-212.4881458805452
 30
0.0
  0
SPLINE
  5
403
330
18
100
AcDbEntity
  8
L-ZISSEN
100
AcDbSpline
210
0.0
220
0.0
230
1.0
 70
     8
 71
     3
 72
     9
 73
     5
 74
     0
 42
0.000000001
 43
0.00000001
 40
0.0
 40
0.0
 40
0.0
 40
0.0
 40
0.4656151167967856
 40
1.0
 40
1.0
 40
1.0
 40
1.0
 10
787.3082011890599
 20
-298.6208622680555
 30
0.0
 10
786.7830653789385
 20
-298.1179425478557
 30
0.0
 10
785.6552329886697
 20
-297.0378235782235
 30
0.0
 10
784.657790942372
 20
-295.8354362018653
 30
0.0
 10
784.1247729909608
 20
-295.1928985641847
 30
0.0
  0
SPLINE
  5
404
330
18
100
AcDbEntity
  8
L-ZISSEN
100
AcDbSpline
210
0.0
220
0.0
230
1.0
 70
     8
 71
     3
 72
    12
 73
     8
 74
     0
 42
0.000000001
 43
0.00000001
 40
0.0
 40
0.0
 40
0.0
 40
0.0
 40
0.2146456347157142
 40
0.4356103673680912
 40
0.650516940361802
 40
0.8717609388461589
 40
1.0
 40
1.0
 40
1.0
 40
1.0
 10
777.0802202302555
 20
-218.945601336802
 30
0.0
 10
777.1168306654051
 20
-219.7013652958937
 30
0.0
 10
777.1911293350583
 20
-221.2351426601507
 30
0.0
 10
777.7884557500699
 20
-223.461870910886
 30
0.0
 10
778.737824916532
 20
-225.5754452148836
 30
0.0
 10
779.8434914552834
 20
-227.2399640902482
 30
0.0
 10
780.6806071716098
 20
-228.1400607852269
 30
0.0
 10
780.9877778071502
 20
-228.4703416155229
 30
0.0
  0
LINE
  5
405
330
18
100
AcDbEntity
  8
L-TYUSIN
100
AcDbLine
 10
810.8617112064219
 20
-221.0186910725666
 30
0.0
 11
849.8617044968103
 21
-221.0186910725666
 31
0.0
1001
PE_URL
1000

  0
LINE
  5
406
330
18
100
AcDbEntity
  8
L-ZISSEN
100
AcDbLine
 10
771.6117687475869
 20
-189.0186897443185
 30
0.0
 11
889.1116492402741
 21
-189.0186897443185
 31
0.0
  0
ARC
  5
407
330
18
100
AcDbEntity
  8
L-ZISSEN
100
AcDbCircle
 10
790.0068709875156
 20
-219.0003912163687
 30
0.0
 40
18.39510334926945
100
AcDbArc
 50
179.9999978800222
 51
227.6016001967729
  0
LINE
  5
408
330
18
100
AcDbEntity
  8
L-ZISSEN
100
AcDbLine
 10
777.6033882665313
 20
-232.5846999444765
 30
0.0
 11
794.4934527598623
 21
-249.8566210736077
 31
0.0
  0
SPLINE
  5
409
330
18
100
AcDbEntity
  8
L-ZISSEN
100
AcDbSpline
210
0.0
220
0.0
230
1.0
 70
     8
 71
     3
 72
    11
 73
     7
 74
     0
 42
0.000000001
 43
0.00000001
 40
0.0
 40
0.0
 40
0.0
 40
0.0
 40
0.1335256788673744
 40
0.4999993881873886
 40
0.8664730728405682
 40
1.0
 40
1.0
 40
1.0
 40
1.0
 10
802.0621676078188
 20
-86.81953252523112
 30
0.0
 10
804.57870057995
 20
-86.960858771321
 30
0.0
 10
814.0020935714163
 20
-87.49006811276627
 30
0.0
 10
830.361672797371
 20
-87.62912896226362
 30
0.0
 10
846.7212752809899
 20
-87.49006450799925
 30
0.0
 10
856.1446916007023
 20
-86.96085878133454
 30
0.0
 10
858.6612481704103
 20
-86.81953252523112
 30
0.0
  0
LINE
  5
40A
330
18
100
AcDbEntity
  8
L-ZISSEN
100
AcDbLine
 10
770.8617076230237
 20
-46.57029951779646
 30
0.0
 11
770.8617076230237
 21
-46.07030595509809
 31
0.0
  0
LINE
  5
40B
330
18
100
AcDbEntity
  8
L-ZISSEN
100
AcDbLine
 10
760.861705983896
 20
-46.07030595509809
 30
0.0
 11
760.861705983896
 21
-46.57029951779646
 31
0.0
  0
LINE
  5
40C
330
18
100
AcDbEntity
  8
L-ZISSEN
100
AcDbLine
 10
758.3617083680817
 20
-19.82030118672651
 30
0.0
 11
752.3617111098954
 21
-19.82030118672651
 31
0.0
  0
LINE
  5
40D
330
18
100
AcDbEntity
  8
L-ZISSEN
100
AcDbLine
 10
752.3617111098954
 20
-54.32030404775014
 30
0.0
 11
772.1824946333447
 21
-54.34473760184744
 31
0.0
  0
ARC
  5
40E
330
18
100
AcDbEntity
  8
L-ZISSEN
100
AcDbCircle
 10
752.3617078516143
 20
-20.82030382161588
 30
0.0
 40
1.000000000000227
100
AcDbArc
 50
90.0
 51
180.0
  0
ARC
  5
40F
330
18
100
AcDbEntity
  8
L-ZISSEN
100
AcDbCircle
 10
752.3617078516143
 20
-53.320303821587
 30
0.0
 40
0.9999999999999432
100
AcDbArc
 50
180.0
 51
270.0
  0
SPLINE
  5
410
330
18
100
AcDbEntity
  8
L-ZISSEN
100
AcDbSpline
210
0.0
220
0.0
230
1.0
 70
     8
 71
     3
 72
    15
 73
    11
 74
     0
 42
0.000000001
 43
0.00000001
 40
0.0
 40
0.0
 40
0.0
 40
0.0
 40
0.1250009289646419
 40
0.2500004724445333
 40
0.375000012143663
 40
0.4999999513762505
 40
0.624999890608838
 40
0.7499994303079677
 40
0.8749989737878591
 40
1.0
 40
1.0
 40
1.0
 40
1.0
 10
791.9958941590974
 20
-6.33644903867048
 30
0.0
 10
791.7637307119346
 20
-5.713672542266977
 30
0.0
 10
791.2994063908652
 20
-4.46812645218597
 30
0.0
 10
789.8883609654174
 20
-3.009420788350326
 30
0.0
 10
788.1235497843161
 20
-2.058469474787444
 30
0.0
 10
786.1367612860793
 20
-1.73160521710156
 30
0.0
 10
784.1499728891611
 20
-2.058469501690297
 30
0.0
 10
782.3851614040993
 20
-3.009420680735502
 30
0.0
 10
780.9741167272612
 20
-4.468127234021722
 30
0.0
 10
780.5097896414125
 20
-5.713672641379162
 30
0.0
 10
780.2776247215459
 20
-6.33644903867048
 30
0.0
  0
SPLINE
  5
411
330
18
100
AcDbEntity
  8
L-ZISSEN
100
AcDbSpline
210
0.0
220
0.0
230
1.0
 70
     8
 71
     3
 72
     9
 73
     5
 74
     0
 42
0.000000001
 43
0.00000001
 40
0.0
 40
0.0
 40
0.0
 40
0.0
 40
0.2916210861614879
 40
1.0
 40
1.0
 40
1.0
 40
1.0
 10
802.0621676078188
 20
-86.81953252523112
 30
0.0
 10
796.2357467094141
 20
-86.57854472209078
 30
0.0
 10
793.4101030721738
 20
-86.44761111987691
 30
0.0
 10
791.0580710803604
 20
-86.17672154360616
 30
0.0
 10
789.3919412126886
 20
-85.98482907979655
 30
0.0
  0
LINE
  5
412
330
18
100
AcDbEntity
  8
L-ZISSEN
100
AcDbLine
 10
771.9091195709423
 20
-46.07030595509809
 30
0.0
 11
758.3617083680817
 21
-46.07030595509809
 31
0.0
  0
SPLINE
  5
413
330
18
100
AcDbEntity
  8
L-ZISSEN
100
AcDbSpline
210
0.0
220
0.0
230
1.0
 70
     8
 71
     3
 72
    18
 73
    14
 74
     0
 42
0.000000001
 43
0.00000001
 40
0.0
 40
0.0
 40
0.0
 40
0.0
 40
0.0017326240338136
 40
0.0041959291252826
 40
0.0367910513119332
 40
0.2116261368020265
 40
0.3445480145746751
 40
0.5219065510717178
 40
0.6395110156671812
 40
0.7298219887839464
 40
0.8037996405172108
 40
0.8969992426297417
 40
1.0
 40
1.0
 40
1.0
 40
1.0
 10
789.3919151356565
 20
-85.98482907979655
 30
0.0
 10
789.3867315685309
 20
-85.98388381554423
 30
0.0
 10
789.3741784237998
 20
-85.98159465082472
 30
0.0
 10
789.2712659131228
 20
-85.93570456731413
 30
0.0
 10
788.7627298674804
 20
-85.53794862278437
 30
0.0
 10
787.9768760366412
 20
-84.85776516142732
 30
0.0
 10
786.8775063122846
 20
-83.85444582109767
 30
0.0
 10
785.9240510653669
 20
-82.95448849130548
 30
0.0
 10
785.0758255579528
 20
-82.13278830773243
 30
0.0
 10
784.4589102796015
 20
-81.52681027021981
 30
0.0
 10
783.8997447858189
 20
-80.96841466583624
 30
0.0
 10
783.3184957632573
 20
-80.37738665147981
 30
0.0
 10
782.9094237573279
 20
-79.93526110019343
 30
0.0
 10
782.6946701934683
 20
-79.70315517156291
 30
0.0
  0
SPLINE
  5
414
330
18
100
AcDbEntity
  8
L-ZISSEN
100
AcDbSpline
210
0.0
220
0.0
230
1.0
 70
     8
 71
     3
 72
    12
 73
     8
 74
     0
 42
0.000000001
 43
0.00000001
 40
0.0
 40
0.0
 40
0.0
 40
0.0
 40
0.004605291528342
 40
0.025992277968487
 40
0.0755051133617641
 40
0.4997905912140443
 40
1.0
 40
1.0
 40
1.0
 40
1.0
 10
782.5144369235384
 20
-79.1754156467216
 30
0.0
 10
782.5144662313594
 20
-79.17704781198336
 30
0.0
 10
782.5146316447897
 20
-79.18625975717828
 30
0.0
 10
782.518007191549
 20
-79.2066791247687
 30
0.0
 10
782.5436175432194
 20
-79.31588054765825
 30
0.0
 10
782.605147518713
 20
-79.47435930854408
 30
0.0
 10
782.6630287410032
 20
-79.62274827441274
 30
0.0
 10
782.6943460932123
 20
-79.70303596227336
 30
0.0
  0
LINE
  5
415
330
18
100
AcDbEntity
  8
L-ZISSEN
100
AcDbLine
 10
762.3636610758492
 20
-46.07030595509809
 30
0.0
 11
760.6073729646394
 21
-46.07030595509809
 31
0.0
  0
LINE
  5
416
330
18
100
AcDbEntity
  8
L-ZISSEN
100
AcDbLine
 10
770.8617076230237
 20
-46.57029951779646
 30
0.0
 11
760.861705983896
 21
-46.57029951779646
 31
0.0
  0
LINE
  5
417
330
18
100
AcDbEntity
  8
L-ZISSEN
100
AcDbLine
 10
751.3617090833375
 20
-53.32031692235273
 30
0.0
 11
751.3617078516143
 21
-20.82030382161588
 31
0.0
  0
LINE
  5
418
330
18
100
AcDbEntity
  8
L-TYUSIN
100
AcDbLine
 10
830.3617078516161
 20
-92.57031263081831
 30
0.0
 11
830.3617078516161
 21
3.429687369181693
 31
0.0
1001
PE_URL
1000

  0
LINE
  5
419
330
18
100
AcDbEntity
  8
L-TYUSIN
100
AcDbLine
 10
830.3617078516161
 20
-304.0186897443185
 30
0.0
 11
830.3617089939305
 21
-104.5186897443185
 31
0.0
  0
LINE
  5
41A
330
18
100
AcDbEntity
  8
L-ZISSEN
100
AcDbLine
 10
758.3617083680817
 20
-46.07030595509809
 30
0.0
 11
758.3617083680817
 21
-1.570312630818307
 31
0.0
  0
LINE
  5
41B
330
18
100
AcDbEntity
  8
L-ZISSEN
100
AcDbLine
 10
902.3617073351504
 20
-1.570312630818307
 30
0.0
 11
758.3617083680817
 21
-1.570312630818307
 31
0.0
  0
LINE
  5
41C
330
18
100
AcDbEntity
  8
L-ZISSEN
100
AcDbLine
 10
773.3553795338091
 20
-70.01447425845572
 30
0.0
 11
771.6117687475869
 21
-37.07018340794912
 31
0.0
  0
LINE
  5
41D
330
18
100
AcDbEntity
  8
L-ZISSEN
100
AcDbLine
 10
772.9126084100005
 20
-9.62072722054154
 30
0.0
 11
771.6117687475869
 21
-37.07018340794912
 31
0.0
  0
LINE
  5
41E
330
18
100
AcDbEntity
  8
L-ZISSEN
100
AcDbLine
 10
773.3553795338087
 20
-70.01447425845572
 30
0.0
 11
773.3553795338087
 21
-14.62072722054154
 31
0.0
  0
LINE
  5
41F
330
18
100
AcDbEntity
  8
L-ZISSEN
100
AcDbLine
 10
818.3553795338087
 20
-70.01447425845572
 30
0.0
 11
818.3553795338087
 21
-14.62072722054154
 31
0.0
  0
ARC
  5
420
330
18
100
AcDbEntity
  8
L-ZISSEN
100
AcDbCircle
 10
785.705379533809
 20
-63.42072722054172
 30
0.0
 40
14.0
100
AcDbArc
 50
208.0980547133734
 51
231.9693588002661
  0
ARC
  5
421
330
18
100
AcDbEntity
  8
L-ZISSEN
100
AcDbCircle
 10
795.8553795338087
 20
63.42927277945864
 30
0.0
 40
139.15
100
AcDbArc
 50
262.2455733774259
 51
277.7544266225741
  0
ARC
  5
422
330
18
100
AcDbEntity
  8
L-ZISSEN
100
AcDbCircle
 10
806.0053795338088
 20
-63.42072722054172
 30
0.0
 40
14.0
100
AcDbArc
 50
308.0306411997339
 51
331.9019452866265
  0
ARC
  5
423
330
18
100
AcDbEntity
  8
L-ZISSEN
100
AcDbCircle
 10
795.8553795338087
 20
64.22927277945837
 30
0.0
 40
139.15
100
AcDbArc
 50
262.2455733774259
 51
277.7544266225741
  0
LINE
  5
424
330
18
100
AcDbEntity
  8
L-ZISSEN
100
AcDbLine
 10
774.0553795338085
 20
-19.22072722054145
 30
0.0
 11
774.0553795338085
 21
-69.99898206750595
 31
0.0
  0
ARC
  5
425
330
18
100
AcDbEntity
  8
L-ZISSEN
100
AcDbCircle
 10
785.705379533809
 20
-63.42072722054172
 30
0.0
 40
13.37893631166594
100
AcDbArc
 50
209.4515520909082
 51
229.858163539764
  0
ARC
  5
426
330
18
100
AcDbEntity
  8
L-ZISSEN
100
AcDbCircle
 10
795.8553795338087
 20
-32.62072722054154
 30
0.0
 40
19.69999999999982
100
AcDbArc
 50
42.85951178757611
 51
137.140488212422
  0
LINE
  5
427
330
18
100
AcDbEntity
  8
L-ZISSEN
100
AcDbLine
 10
818.3553795338087
 20
-19.22072722054145
 30
0.0
 11
810.2959473896792
 21
-19.22072722054145
 31
0.0
  0
LINE
  5
428
330
18
100
AcDbEntity
  8
L-ZISSEN
100
AcDbLine
 10
781.4148116779386
 20
-19.22072722054145
 30
0.0
 11
773.3553795338087
 21
-19.22072722054145
 31
0.0
  0
LINE
  5
429
330
18
100
AcDbEntity
  8
L-ZISSEN
100
AcDbLine
 10
817.6553795338089
 20
-19.22072722054145
 30
0.0
 11
817.6553795338089
 21
-69.99898206750595
 31
0.0
  0
ARC
  5
42A
330
18
100
AcDbEntity
  8
L-ZISSEN
100
AcDbCircle
 10
806.0053795338088
 20
-63.42072722054172
 30
0.0
 40
13.37893631166594
100
AcDbArc
 50
310.1418364602359
 51
330.5484479090919
  0
LINE
  5
42B
330
18
100
AcDbEntity
  8
L-ZISSEN
100
AcDbLine
 10
813.3553795338087
 20
-9.62072722054154
 30
0.0
 11
772.9126084100005
 21
-9.62072722054154
 31
0.0
  0
LINE
  5
42C
330
18
100
AcDbEntity
  8
L-ZISSEN
100
AcDbLine
 10
782.955379533809
 20
-9.62072722054154
 30
0.0
 11
808.7553795338088
 21
-9.62072722054154
 31
0.0
  0
LINE
  5
42D
330
18
100
AcDbEntity
  8
L-ZISSEN
100
AcDbLine
 10
782.955379533809
 20
-9.62072722054154
 30
0.0
 11
782.9553795338086
 21
-17.73180516419416
 31
0.0
  0
LINE
  5
42E
330
18
100
AcDbEntity
  8
L-ZISSEN
100
AcDbLine
 10
808.7553795338088
 20
-9.62072722054154
 30
0.0
 11
808.7553795338092
 21
-17.73180516419416
 31
0.0
  0
ARC
  5
42F
330
18
100
AcDbEntity
  8
L-ZISSEN
100
AcDbCircle
 10
778.3553795338087
 20
-14.62072722054154
 30
0.0
 40
4.999999999999998
100
AcDbArc
 50
90.0
 51
180.0
  0
ARC
  5
430
330
18
100
AcDbEntity
  8
L-ZISSEN
100
AcDbCircle
 10
813.3553795338087
 20
-14.62072722054154
 30
0.0
 40
4.999999999999998
100
AcDbArc
 50
0.0
 51
90.0
  0
ARC
  5
431
330
18
100
AcDbEntity
  8
L-ZISSEN
100
AcDbCircle
 10
778.955379533809
 20
-15.12072722054154
 30
0.0
 40
4.1
100
AcDbArc
 50
12.68038349182838
 51
347.3196165081651
  0
ARC
  5
432
330
18
100
AcDbEntity
  8
L-ZISSEN
100
AcDbCircle
 10
812.7553795338088
 20
-15.12072722054154
 30
0.0
 40
4.1
100
AcDbArc
 50
192.6803834918349
 51
167.3196165081724
  0
LINE
  5
433
330
18
100
AcDbEntity
  8
L-ZISSEN
100
AcDbLine
 10
804.705379533809
 20
-41.32072722054181
 30
0.0
 11
787.0053795338088
 21
-41.32072722054181
 31
0.0
  0
LINE
  5
434
330
18
100
AcDbEntity
  8
L-ZISSEN
100
AcDbLine
 10
786.3053795338085
 20
-63.92072722054172
 30
0.0
 11
805.4053795338089
 21
-63.92072722054172
 31
0.0
  0
LINE
  5
435
330
18
100
AcDbEntity
  8
L-ZISSEN
100
AcDbLine
 10
784.3053795338085
 20
-61.92072722054172
 30
0.0
 11
784.3053795338085
 21
-44.02072722054163
 31
0.0
  0
LINE
  5
436
330
18
100
AcDbEntity
  8
L-ZISSEN
100
AcDbLine
 10
807.4053795338089
 20
-61.92072722054172
 30
0.0
 11
807.4053795338089
 21
-44.02072722054163
 31
0.0
  0
ARC
  5
437
330
18
100
AcDbEntity
  8
L-ZISSEN
100
AcDbCircle
 10
786.3053795338085
 20
-61.92072722054172
 30
0.0
 40
1.999999999999999
100
AcDbArc
 50
180.0
 51
270.0
  0
ARC
  5
438
330
18
100
AcDbEntity
  8
L-ZISSEN
100
AcDbCircle
 10
805.4053795338089
 20
-61.92072722054172
 30
0.0
 40
1.999999999999999
100
AcDbArc
 50
270.0
 51
0.0
  0
ARC
  5
439
330
18
100
AcDbEntity
  8
L-ZISSEN
100
AcDbCircle
 10
787.0053795338088
 20
-44.02072722054163
 30
0.0
 40
2.699999999999999
100
AcDbArc
 50
90.0
 51
180.0
  0
ARC
  5
43A
330
18
100
AcDbEntity
  8
L-ZISSEN
100
AcDbCircle
 10
804.705379533809
 20
-44.02072722054163
 30
0.0
 40
2.699999999999999
100
AcDbArc
 50
0.0
 51
90.0
  0
LINE
  5
43B
330
18
100
AcDbEntity
  8
L-ZISSEN
100
AcDbLine
 10
799.0053788418138
 20
-43.22072709767644
 30
0.0
 11
792.705380230602
 21
-43.22072709767644
 31
0.0
  0
LINE
  5
43C
330
18
100
AcDbEntity
  8
L-ZISSEN
100
AcDbLine
 10
799.0053788418138
 20
-44.02074063985174
 30
0.0
 11
799.0053788418138
 21
-43.22072709767644
 31
0.0
  0
LINE
  5
43D
330
18
100
AcDbEntity
  8
L-ZISSEN
100
AcDbLine
 10
792.705380230602
 20
-44.02074063985174
 30
0.0
 11
799.0053788418138
 21
-44.02074063985174
 31
0.0
  0
LINE
  5
43E
330
18
100
AcDbEntity
  8
L-ZISSEN
100
AcDbLine
 10
792.705380230602
 20
-43.22072709767644
 30
0.0
 11
792.705380230602
 21
-44.02074063985174
 31
0.0
  0
LINE
  5
43F
330
18
100
AcDbEntity
  8
L-ZISSEN
100
AcDbLine
 10
786.4553787404859
 20
-54.02073110310857
 30
0.0
 11
786.4553787404859
 21
-51.22071350781789
 31
0.0
  0
LINE
  5
440
330
18
100
AcDbEntity
  8
L-ZISSEN
100
AcDbLine
 10
787.2553792441452
 20
-54.02073110310857
 30
0.0
 11
787.2553792441452
 21
-51.22071350781789
 31
0.0
  0
ARC
  5
441
330
18
100
AcDbEntity
  8
L-ZISSEN
100
AcDbCircle
 10
787.4553795338009
 20
-51.22072722054054
 30
0.0
 40
0.199999999999676
100
AcDbArc
 50
90.0
 51
180.0
  0
ARC
  5
442
330
18
100
AcDbEntity
  8
L-ZISSEN
100
AcDbCircle
 10
787.4553795338009
 20
-51.22072722054054
 30
0.0
 40
1.000000000000085
100
AcDbArc
 50
90.0
 51
180.0
  0
LINE
  5
443
330
18
100
AcDbEntity
  8
L-ZISSEN
100
AcDbLine
 10
788.2553794080579
 20
-50.22072638242071
 30
0.0
 11
787.4553789043987
 21
-50.22072638242071
 31
0.0
  0
LINE
  5
444
330
18
100
AcDbEntity
  8
L-ZISSEN
100
AcDbLine
 10
787.4553789043987
 20
-51.02073992459646
 30
0.0
 11
788.2553794080579
 21
-51.02073992459646
 31
0.0
  0
LINE
  5
445
330
18
100
AcDbEntity
  8
L-ZISSEN
100
AcDbLine
 10
788.2553794080579
 20
-51.02073992459646
 30
0.0
 11
788.2553794080579
 21
-50.22072638242071
 31
0.0
  0
ARC
  5
446
330
18
100
AcDbEntity
  8
L-ZISSEN
100
AcDbCircle
 10
787.4553795337981
 20
-54.02072722054027
 30
0.0
 40
0.2000000000001023
100
AcDbArc
 50
180.0
 51
270.0
  0
ARC
  5
447
330
18
100
AcDbEntity
  8
L-ZISSEN
100
AcDbCircle
 10
787.4553795337981
 20
-54.02072722054027
 30
0.0
 40
1.000000000000085
100
AcDbArc
 50
180.0
 51
270.0
  0
LINE
  5
448
330
18
100
AcDbEntity
  8
L-ZISSEN
100
AcDbLine
 10
787.4553789043987
 20
-55.02071822850576
 30
0.0
 11
788.2553794080579
 21
-55.02071822850576
 31
0.0
  0
LINE
  5
449
330
18
100
AcDbEntity
  8
L-ZISSEN
100
AcDbLine
 10
788.2553794080579
 20
-55.02071822850576
 30
0.0
 11
788.2553794080579
 21
-54.2207344886524
 31
0.0
  0
LINE
  5
44A
330
18
100
AcDbEntity
  8
L-ZISSEN
100
AcDbLine
 10
788.2553794080579
 20
-54.2207344886524
 30
0.0
 11
787.4553789043987
 21
-54.2207344886524
 31
0.0
  0
LINE
  5
44B
330
18
100
AcDbEntity
  8
L-ZISSEN
100
AcDbLine
 10
805.2553803271314
 20
-54.02073110310857
 30
0.0
 11
805.2553803271314
 21
-51.22071350781789
 31
0.0
  0
LINE
  5
44C
330
18
100
AcDbEntity
  8
L-ZISSEN
100
AcDbLine
 10
804.4553798234722
 20
-54.02073110310857
 30
0.0
 11
804.4553798234722
 21
-51.22071350781789
 31
0.0
  0
ARC
  5
44D
330
18
100
AcDbEntity
  8
L-ZISSEN
100
AcDbCircle
 10
804.2553795338165
 20
-51.22072722054054
 30
0.0
 40
0.199999999999676
100
AcDbArc
 50
0.0
 51
90.0
  0
ARC
  5
44E
330
18
100
AcDbEntity
  8
L-ZISSEN
100
AcDbCircle
 10
804.2553795338165
 20
-51.22072722054054
 30
0.0
 40
1.000000000000085
100
AcDbArc
 50
0.0
 51
90.0
  0
LINE
  5
44F
330
18
100
AcDbEntity
  8
L-ZISSEN
100
AcDbLine
 10
803.4553796595594
 20
-50.22072638242071
 30
0.0
 11
804.2553801632187
 21
-50.22072638242071
 31
0.0
  0
LINE
  5
450
330
18
100
AcDbEntity
  8
L-ZISSEN
100
AcDbLine
 10
804.2553801632187
 20
-51.02073992459646
 30
0.0
 11
803.4553796595594
 21
-51.02073992459646
 31
0.0
  0
LINE
  5
451
330
18
100
AcDbEntity
  8
L-ZISSEN
100
AcDbLine
 10
803.4553796595594
 20
-51.02073992459646
 30
0.0
 11
803.4553796595594
 21
-50.22072638242071
 31
0.0
  0
ARC
  5
452
330
18
100
AcDbEntity
  8
L-ZISSEN
100
AcDbCircle
 10
804.2553795338192
 20
-54.02072722054027
 30
0.0
 40
0.2000000000001023
100
AcDbArc
 50
270.0
 51
0.0
  0
ARC
  5
453
330
18
100
AcDbEntity
  8
L-ZISSEN
100
AcDbCircle
 10
804.2553795338192
 20
-54.02072722054027
 30
0.0
 40
1.000000000000085
100
AcDbArc
 50
270.0
 51
0.0
  0
LINE
  5
454
330
18
100
AcDbEntity
  8
L-ZISSEN
100
AcDbLine
 10
804.2553801632187
 20
-55.02071822850576
 30
0.0
 11
803.4553796595594
 21
-55.02071822850576
 31
0.0
  0
LINE
  5
455
330
18
100
AcDbEntity
  8
L-ZISSEN
100
AcDbLine
 10
803.4553796595594
 20
-55.02071822850576
 30
0.0
 11
803.4553796595594
 21
-54.2207344886524
 31
0.0
  0
LINE
  5
456
330
18
100
AcDbEntity
  8
L-ZISSEN
100
AcDbLine
 10
803.4553796595594
 20
-54.2207344886524
 30
0.0
 11
804.2553801632187
 21
-54.2207344886524
 31
0.0
  0
CIRCLE
  5
457
330
18
100
AcDbEntity
  8
L-ZISSEN
100
AcDbCircle
 10
795.8553795338087
 20
-32.62072722054154
 30
0.0
 40
6.900000000000091
  0
ARC
  5
458
330
18
100
AcDbEntity
  8
L-ZISSEN
100
AcDbCircle
 10
795.8553795338087
 20
-32.62072722054154
 30
0.0
 40
10.19999999999982
100
AcDbArc
 50
301.4669762932641
 51
238.5330237067359
  0
CIRCLE
  5
459
330
18
100
AcDbEntity
  8
L-ZISSEN
100
AcDbCircle
 10
795.8553795338087
 20
-32.62072722054154
 30
0.0
 40
3.0
  0
LINE
  5
45A
330
18
100
AcDbEntity
  8
L-ZISSEN
100
AcDbLine
 10
791.9958941590983
 20
-6.336449038670594
 30
0.0
 11
792.8759185956003
 21
-9.62072722054154
 31
0.0
  0
LINE
  5
45B
330
18
100
AcDbEntity
  8
L-ZISSEN
100
AcDbLine
 10
780.277626901149
 20
-6.336449038670594
 30
0.0
 11
779.397602464647
 21
-9.62072722054154
 31
0.0
  0
LINE
  5
45C
330
18
100
AcDbEntity
  8
L-ZISSEN
100
AcDbLine
 10
889.8617080802085
 20
-46.57029951779646
 30
0.0
 11
889.8617080802085
 21
-46.07030595509809
 31
0.0
  0
LINE
  5
45D
330
18
100
AcDbEntity
  8
L-ZISSEN
100
AcDbLine
 10
899.8617097193362
 20
-46.07030595509809
 30
0.0
 11
899.8617097193362
 21
-46.57029951779646
 31
0.0
  0
LINE
  5
45E
330
18
100
AcDbEntity
  8
L-ZISSEN
100
AcDbLine
 10
902.3617073351504
 20
-19.82030118672651
 30
0.0
 11
908.3617045933368
 21
-19.82030118672651
 31
0.0
  0
LINE
  5
45F
330
18
100
AcDbEntity
  8
L-ZISSEN
100
AcDbLine
 10
908.3617045933368
 20
-54.32030404775014
 30
0.0
 11
888.5409210698874
 21
-54.34473760184744
 31
0.0
  0
ARC
  5
460
330
18
100
AcDbEntity
  8
L-ZISSEN
100
AcDbCircle
 10
908.3617078516179
 20
-20.82030382161588
 30
0.0
 40
1.000000000000227
100
AcDbArc
 50
0.0
 51
90.0
  0
ARC
  5
461
330
18
100
AcDbEntity
  8
L-ZISSEN
100
AcDbCircle
 10
908.3617078516179
 20
-53.320303821587
 30
0.0
 40
0.9999999999999432
100
AcDbArc
 50
270.0
 51
0.0
  0
SPLINE
  5
462
330
18
100
AcDbEntity
  8
L-ZISSEN
100
AcDbSpline
210
0.0
220
0.0
230
1.0
 70
     8
 71
     3
 72
    15
 73
    11
 74
     0
 42
0.000000001
 43
0.00000001
 40
0.0
 40
0.0
 40
0.0
 40
0.0
 40
0.1250009289646419
 40
0.2500004724445333
 40
0.375000012143663
 40
0.4999999513762505
 40
0.624999890608838
 40
0.7499994303079677
 40
0.8749989737878591
 40
1.0
 40
1.0
 40
1.0
 40
1.0
 10
868.7275215441348
 20
-6.33644903867048
 30
0.0
 10
868.9596849912975
 20
-5.713672542266977
 30
0.0
 10
869.4240093123669
 20
-4.46812645218597
 30
0.0
 10
870.8350547378147
 20
-3.009420788350326
 30
0.0
 10
872.5998659189161
 20
-2.058469474787444
 30
0.0
 10
874.5866544171529
 20
-1.73160521710156
 30
0.0
 10
876.5734428140711
 20
-2.058469501690297
 30
0.0
 10
878.3382542991328
 20
-3.009420680735502
 30
0.0
 10
879.749298975971
 20
-4.468127234021722
 30
0.0
 10
880.2136260618197
 20
-5.713672641379162
 30
0.0
 10
880.4457909816863
 20
-6.33644903867048
 30
0.0
  0
SPLINE
  5
463
330
18
100
AcDbEntity
  8
L-ZISSEN
100
AcDbSpline
210
0.0
220
0.0
230
1.0
 70
     8
 71
     3
 72
     9
 73
     5
 74
     0
 42
0.000000001
 43
0.00000001
 40
0.0
 40
0.0
 40
0.0
 40
0.0
 40
0.2916210861614879
 40
1.0
 40
1.0
 40
1.0
 40
1.0
 10
858.6611788305561
 20
-86.81953252523112
 30
0.0
 10
864.4875997289607
 20
-86.57854472209078
 30
0.0
 10
867.313243366201
 20
-86.44761111987691
 30
0.0
 10
869.6652753580145
 20
-86.17672154360616
 30
0.0
 10
871.3314052256862
 20
-85.98482907979655
 30
0.0
  0
LINE
  5
464
330
18
100
AcDbEntity
  8
L-ZISSEN
100
AcDbLine
 10
888.8142961322899
 20
-46.07030595509809
 30
0.0
 11
902.3617073351504
 21
-46.07030595509809
 31
0.0
  0
SPLINE
  5
465
330
18
100
AcDbEntity
  8
L-ZISSEN
100
AcDbSpline
210
0.0
220
0.0
230
1.0
 70
     8
 71
     3
 72
    18
 73
    14
 74
     0
 42
0.000000001
 43
0.00000001
 40
0.0
 40
0.0
 40
0.0
 40
0.0
 40
0.0017326240338136
 40
0.0041959291252826
 40
0.0367910513119332
 40
0.2116261368020265
 40
0.3445480145746751
 40
0.5219065510717178
 40
0.6395110156671812
 40
0.7298219887839464
 40
0.8037996405172108
 40
0.8969992426297417
 40
1.0
 40
1.0
 40
1.0
 40
1.0
 10
871.3314313027183
 20
-85.98482907979655
 30
0.0
 10
871.336614869844
 20
-85.98388381554423
 30
0.0
 10
871.3491680145751
 20
-85.98159465082472
 30
0.0
 10
871.4520805252521
 20
-85.93570456731413
 30
0.0
 10
871.9606165708944
 20
-85.53794862278437
 30
0.0
 10
872.7464704017336
 20
-84.85776516142732
 30
0.0
 10
873.8458401260903
 20
-83.85444582109767
 30
0.0
 10
874.7992953730079
 20
-82.95448849130548
 30
0.0
 10
875.647520880422
 20
-82.13278830773243
 30
0.0
 10
876.2644361587734
 20
-81.52681027021981
 30
0.0
 10
876.8236016525559
 20
-80.96841466583624
 30
0.0
 10
877.4048506751176
 20
-80.37738665147981
 30
0.0
 10
877.813922681047
 20
-79.93526110019343
 30
0.0
 10
878.0286762449066
 20
-79.70315517156291
 30
0.0
  0
SPLINE
  5
466
330
18
100
AcDbEntity
  8
L-ZISSEN
100
AcDbSpline
210
0.0
220
0.0
230
1.0
 70
     8
 71
     3
 72
    12
 73
     8
 74
     0
 42
0.000000001
 43
0.00000001
 40
0.0
 40
0.0
 40
0.0
 40
0.0
 40
0.004605291528342
 40
0.025992277968487
 40
0.0755051133617641
 40
0.4997905912140443
 40
1.0
 40
1.0
 40
1.0
 40
1.0
 10
878.2089095148365
 20
-79.1754156467216
 30
0.0
 10
878.2088802070155
 20
-79.17704781198336
 30
0.0
 10
878.2087147935852
 20
-79.18625975717828
 30
0.0
 10
878.2053392468258
 20
-79.2066791247687
 30
0.0
 10
878.1797288951554
 20
-79.31588054765825
 30
0.0
 10
878.1181989196618
 20
-79.47435930854408
 30
0.0
 10
878.0603176973716
 20
-79.62274827441274
 30
0.0
 10
878.0290003451626
 20
-79.70303596227336
 30
0.0
  0
LINE
  5
467
330
18
100
AcDbEntity
  8
L-ZISSEN
100
AcDbLine
 10
878.3630573752464
 20
-75.06479533414108
 30
0.0
 11
878.2089095148365
 21
-79.1754156467216
 31
0.0
  0
LINE
  5
468
330
18
100
AcDbEntity
  8
L-ZISSEN
100
AcDbLine
 10
898.3597546273829
 20
-46.07030595509809
 30
0.0
 11
900.1160427385928
 21
-46.07030595509809
 31
0.0
  0
LINE
  5
469
330
18
100
AcDbEntity
  8
L-ZISSEN
100
AcDbLine
 10
889.8617080802085
 20
-46.57029951779646
 30
0.0
 11
899.8617097193362
 21
-46.57029951779646
 31
0.0
  0
LINE
  5
46A
330
18
100
AcDbEntity
  8
L-ZISSEN
100
AcDbLine
 10
909.3617066198947
 20
-53.32031692235273
 30
0.0
 11
909.3617078516179
 21
-20.82030382161588
 31
0.0
  0
LINE
  5
46B
330
18
100
AcDbEntity
  8
L-ZISSEN
100
AcDbLine
 10
902.3617073351504
 20
-46.07030595509809
 30
0.0
 11
902.3617073351504
 21
-1.570312630818307
 31
0.0
  0
LINE
  5
46C
330
18
100
AcDbEntity
  8
L-ZISSEN
100
AcDbLine
 10
887.368036169423
 20
-70.01447425845572
 30
0.0
 11
889.1116469556453
 21
-37.07018340794912
 31
0.0
  0
LINE
  5
46D
330
18
100
AcDbEntity
  8
L-ZISSEN
100
AcDbLine
 10
887.8108072932316
 20
-9.62072722054154
 30
0.0
 11
889.1116469556453
 21
-37.07018340794912
 31
0.0
  0
LINE
  5
46E
330
18
100
AcDbEntity
  8
L-ZISSEN
100
AcDbLine
 10
887.3680361694235
 20
-70.01447425845572
 30
0.0
 11
887.3680361694235
 21
-14.62072722054154
 31
0.0
  0
LINE
  5
46F
330
18
100
AcDbEntity
  8
L-ZISSEN
100
AcDbLine
 10
842.3680361694235
 20
-70.01447425845572
 30
0.0
 11
842.3680361694235
 21
-14.62072722054154
 31
0.0
  0
ARC
  5
470
330
18
100
AcDbEntity
  8
L-ZISSEN
100
AcDbCircle
 10
875.0180361694231
 20
-63.42072722054172
 30
0.0
 40
14.0
100
AcDbArc
 50
308.0306411997339
 51
331.9019452866264
  0
ARC
  5
471
330
18
100
AcDbEntity
  8
L-ZISSEN
100
AcDbCircle
 10
864.8680361694235
 20
63.42927277945864
 30
0.0
 40
139.15
100
AcDbArc
 50
262.2455733774259
 51
277.7544266225741
  0
ARC
  5
472
330
18
100
AcDbEntity
  8
L-ZISSEN
100
AcDbCircle
 10
854.7180361694234
 20
-63.42072722054172
 30
0.0
 40
14.0
100
AcDbArc
 50
208.0980547133734
 51
231.9693588002661
  0
ARC
  5
473
330
18
100
AcDbEntity
  8
L-ZISSEN
100
AcDbCircle
 10
864.8680361694235
 20
64.22927277945837
 30
0.0
 40
139.15
100
AcDbArc
 50
262.2455733774259
 51
277.7544266225741
  0
LINE
  5
474
330
18
100
AcDbEntity
  8
L-ZISSEN
100
AcDbLine
 10
886.6680361694237
 20
-19.22072722054145
 30
0.0
 11
886.6680361694237
 21
-69.99898206750595
 31
0.0
  0
ARC
  5
475
330
18
100
AcDbEntity
  8
L-ZISSEN
100
AcDbCircle
 10
875.0180361694231
 20
-63.42072722054172
 30
0.0
 40
13.37893631166594
100
AcDbArc
 50
310.1418364602359
 51
330.5484479090919
  0
ARC
  5
476
330
18
100
AcDbEntity
  8
L-ZISSEN
100
AcDbCircle
 10
864.8680361694235
 20
-32.62072722054154
 30
0.0
 40
19.69999999999982
100
AcDbArc
 50
42.85951178757799
 51
137.1404882124239
  0
LINE
  5
477
330
18
100
AcDbEntity
  8
L-ZISSEN
100
AcDbLine
 10
842.3680361694235
 20
-19.22072722054145
 30
0.0
 11
850.4274683135529
 21
-19.22072722054145
 31
0.0
  0
LINE
  5
478
330
18
100
AcDbEntity
  8
L-ZISSEN
100
AcDbLine
 10
879.3086040252936
 20
-19.22072722054145
 30
0.0
 11
887.3680361694235
 21
-19.22072722054145
 31
0.0
  0
LINE
  5
479
330
18
100
AcDbEntity
  8
L-ZISSEN
100
AcDbLine
 10
843.0680361694233
 20
-19.22072722054145
 30
0.0
 11
843.0680361694233
 21
-69.99898206750595
 31
0.0
  0
ARC
  5
47A
330
18
100
AcDbEntity
  8
L-ZISSEN
100
AcDbCircle
 10
854.7180361694234
 20
-63.42072722054172
 30
0.0
 40
13.37893631166594
100
AcDbArc
 50
209.4515520909082
 51
229.8581635397641
  0
LINE
  5
47B
330
18
100
AcDbEntity
  8
L-ZISSEN
100
AcDbLine
 10
847.3680361694235
 20
-9.62072722054154
 30
0.0
 11
887.8108072932316
 21
-9.62072722054154
 31
0.0
  0
LINE
  5
47C
330
18
100
AcDbEntity
  8
L-ZISSEN
100
AcDbLine
 10
877.7680361694231
 20
-9.62072722054154
 30
0.0
 11
851.9680361694234
 21
-9.62072722054154
 31
0.0
  0
LINE
  5
47D
330
18
100
AcDbEntity
  8
L-ZISSEN
100
AcDbLine
 10
877.7680361694231
 20
-9.62072722054154
 30
0.0
 11
877.7680361694236
 21
-17.73180516419416
 31
0.0
  0
LINE
  5
47E
330
18
100
AcDbEntity
  8
L-ZISSEN
100
AcDbLine
 10
851.9680361694234
 20
-9.62072722054154
 30
0.0
 11
851.9680361694229
 21
-17.73180516419416
 31
0.0
  0
ARC
  5
47F
330
18
100
AcDbEntity
  8
L-ZISSEN
100
AcDbCircle
 10
882.3680361694235
 20
-14.62072722054154
 30
0.0
 40
4.999999999999998
100
AcDbArc
 50
0.0
 51
90.0
  0
ARC
  5
480
330
18
100
AcDbEntity
  8
L-ZISSEN
100
AcDbCircle
 10
847.3680361694235
 20
-14.62072722054154
 30
0.0
 40
4.999999999999998
100
AcDbArc
 50
90.0
 51
180.0
  0
ARC
  5
481
330
18
100
AcDbEntity
  8
L-ZISSEN
100
AcDbCircle
 10
881.7680361694231
 20
-15.12072722054154
 30
0.0
 40
4.1
100
AcDbArc
 50
192.6803834918349
 51
167.3196165081716
  0
ARC
  5
482
330
18
100
AcDbEntity
  8
L-ZISSEN
100
AcDbCircle
 10
847.9680361694234
 20
-15.12072722054154
 30
0.0
 40
4.1
100
AcDbArc
 50
12.68038349182761
 51
347.3196165081651
  0
LINE
  5
483
330
18
100
AcDbEntity
  8
L-ZISSEN
100
AcDbLine
 10
856.0180361694231
 20
-41.32072722054181
 30
0.0
 11
873.7180361694234
 21
-41.32072722054181
 31
0.0
  0
LINE
  5
484
330
18
100
AcDbEntity
  8
L-ZISSEN
100
AcDbLine
 10
874.4180361694237
 20
-63.92072722054172
 30
0.0
 11
855.3180361694233
 21
-63.92072722054172
 31
0.0
  0
LINE
  5
485
330
18
100
AcDbEntity
  8
L-ZISSEN
100
AcDbLine
 10
876.4180361694237
 20
-61.92072722054172
 30
0.0
 11
876.4180361694237
 21
-44.02072722054163
 31
0.0
  0
LINE
  5
486
330
18
100
AcDbEntity
  8
L-ZISSEN
100
AcDbLine
 10
853.3180361694233
 20
-61.92072722054172
 30
0.0
 11
853.3180361694233
 21
-44.02072722054163
 31
0.0
  0
ARC
  5
487
330
18
100
AcDbEntity
  8
L-ZISSEN
100
AcDbCircle
 10
874.4180361694237
 20
-61.92072722054172
 30
0.0
 40
1.999999999999999
100
AcDbArc
 50
270.0
 51
0.0
  0
ARC
  5
488
330
18
100
AcDbEntity
  8
L-ZISSEN
100
AcDbCircle
 10
855.3180361694233
 20
-61.92072722054172
 30
0.0
 40
1.999999999999999
100
AcDbArc
 50
180.0
 51
270.0
  0
ARC
  5
489
330
18
100
AcDbEntity
  8
L-ZISSEN
100
AcDbCircle
 10
873.7180361694234
 20
-44.02072722054163
 30
0.0
 40
2.699999999999999
100
AcDbArc
 50
0.0
 51
90.0
  0
ARC
  5
48A
330
18
100
AcDbEntity
  8
L-ZISSEN
100
AcDbCircle
 10
856.0180361694231
 20
-44.02072722054163
 30
0.0
 40
2.699999999999999
100
AcDbArc
 50
90.0
 51
180.0
  0
LINE
  5
48B
330
18
100
AcDbEntity
  8
L-ZISSEN
100
AcDbLine
 10
861.7180368614183
 20
-43.22072709767644
 30
0.0
 11
868.0180354726301
 21
-43.22072709767644
 31
0.0
  0
LINE
  5
48C
330
18
100
AcDbEntity
  8
L-ZISSEN
100
AcDbLine
 10
861.7180368614183
 20
-44.02074063985174
 30
0.0
 11
861.7180368614183
 21
-43.22072709767644
 31
0.0
  0
LINE
  5
48D
330
18
100
AcDbEntity
  8
L-ZISSEN
100
AcDbLine
 10
868.0180354726301
 20
-44.02074063985174
 30
0.0
 11
861.7180368614183
 21
-44.02074063985174
 31
0.0
  0
LINE
  5
48E
330
18
100
AcDbEntity
  8
L-ZISSEN
100
AcDbLine
 10
868.0180354726301
 20
-43.22072709767644
 30
0.0
 11
868.0180354726301
 21
-44.02074063985174
 31
0.0
  0
LINE
  5
48F
330
18
100
AcDbEntity
  8
L-ZISSEN
100
AcDbLine
 10
874.2680369627462
 20
-54.02073110310857
 30
0.0
 11
874.2680369627462
 21
-51.22071350781789
 31
0.0
  0
LINE
  5
490
330
18
100
AcDbEntity
  8
L-ZISSEN
100
AcDbLine
 10
873.468036459087
 20
-54.02073110310857
 30
0.0
 11
873.468036459087
 21
-51.22071350781789
 31
0.0
  0
ARC
  5
491
330
18
100
AcDbEntity
  8
L-ZISSEN
100
AcDbCircle
 10
873.2680361694313
 20
-51.22072722054054
 30
0.0
 40
0.199999999999676
100
AcDbArc
 50
0.0
 51
90.0
  0
ARC
  5
492
330
18
100
AcDbEntity
  8
L-ZISSEN
100
AcDbCircle
 10
873.2680361694313
 20
-51.22072722054054
 30
0.0
 40
1.000000000000085
100
AcDbArc
 50
0.0
 51
90.0
  0
LINE
  5
493
330
18
100
AcDbEntity
  8
L-ZISSEN
100
AcDbLine
 10
872.4680362951742
 20
-50.22072638242071
 30
0.0
 11
873.2680367988335
 21
-50.22072638242071
 31
0.0
  0
LINE
  5
494
330
18
100
AcDbEntity
  8
L-ZISSEN
100
AcDbLine
 10
873.2680367988335
 20
-51.02073992459646
 30
0.0
 11
872.4680362951742
 21
-51.02073992459646
 31
0.0
  0
LINE
  5
495
330
18
100
AcDbEntity
  8
L-ZISSEN
100
AcDbLine
 10
872.4680362951742
 20
-51.02073992459646
 30
0.0
 11
872.4680362951742
 21
-50.22072638242071
 31
0.0
  0
ARC
  5
496
330
18
100
AcDbEntity
  8
L-ZISSEN
100
AcDbCircle
 10
873.268036169434
 20
-54.02072722054027
 30
0.0
 40
0.2000000000001023
100
AcDbArc
 50
270.0
 51
0.0
  0
ARC
  5
497
330
18
100
AcDbEntity
  8
L-ZISSEN
100
AcDbCircle
 10
873.268036169434
 20
-54.02072722054027
 30
0.0
 40
1.000000000000085
100
AcDbArc
 50
270.0
 51
0.0
  0
LINE
  5
498
330
18
100
AcDbEntity
  8
L-ZISSEN
100
AcDbLine
 10
873.2680367988335
 20
-55.02071822850576
 30
0.0
 11
872.4680362951742
 21
-55.02071822850576
 31
0.0
  0
LINE
  5
499
330
18
100
AcDbEntity
  8
L-ZISSEN
100
AcDbLine
 10
872.4680362951742
 20
-55.02071822850576
 30
0.0
 11
872.4680362951742
 21
-54.2207344886524
 31
0.0
  0
LINE
  5
49A
330
18
100
AcDbEntity
  8
L-ZISSEN
100
AcDbLine
 10
872.4680362951742
 20
-54.2207344886524
 30
0.0
 11
873.2680367988335
 21
-54.2207344886524
 31
0.0
  0
LINE
  5
49B
330
18
100
AcDbEntity
  8
L-ZISSEN
100
AcDbLine
 10
855.4680353761007
 20
-54.02073110310857
 30
0.0
 11
855.4680353761007
 21
-51.22071350781789
 31
0.0
  0
LINE
  5
49C
330
18
100
AcDbEntity
  8
L-ZISSEN
100
AcDbLine
 10
856.26803587976
 20
-54.02073110310857
 30
0.0
 11
856.26803587976
 21
-51.22071350781789
 31
0.0
  0
ARC
  5
49D
330
18
100
AcDbEntity
  8
L-ZISSEN
100
AcDbCircle
 10
856.4680361694157
 20
-51.22072722054054
 30
0.0
 40
0.199999999999676
100
AcDbArc
 50
90.0
 51
180.0
  0
ARC
  5
49E
330
18
100
AcDbEntity
  8
L-ZISSEN
100
AcDbCircle
 10
856.4680361694157
 20
-51.22072722054054
 30
0.0
 40
1.000000000000085
100
AcDbArc
 50
90.0
 51
180.0
  0
LINE
  5
49F
330
18
100
AcDbEntity
  8
L-ZISSEN
100
AcDbLine
 10
857.2680360436727
 20
-50.22072638242071
 30
0.0
 11
856.4680355400135
 21
-50.22072638242071
 31
0.0
  0
LINE
  5
4A0
330
18
100
AcDbEntity
  8
L-ZISSEN
100
AcDbLine
 10
856.4680355400135
 20
-51.02073992459646
 30
0.0
 11
857.2680360436727
 21
-51.02073992459646
 31
0.0
  0
LINE
  5
4A1
330
18
100
AcDbEntity
  8
L-ZISSEN
100
AcDbLine
 10
857.2680360436727
 20
-51.02073992459646
 30
0.0
 11
857.2680360436727
 21
-50.22072638242071
 31
0.0
  0
ARC
  5
4A2
330
18
100
AcDbEntity
  8
L-ZISSEN
100
AcDbCircle
 10
856.4680361694129
 20
-54.02072722054027
 30
0.0
 40
0.2000000000001023
100
AcDbArc
 50
180.0
 51
270.0
  0
ARC
  5
4A3
330
18
100
AcDbEntity
  8
L-ZISSEN
100
AcDbCircle
 10
856.4680361694129
 20
-54.02072722054027
 30
0.0
 40
1.000000000000085
100
AcDbArc
 50
180.0
 51
270.0
  0
LINE
  5
4A4
330
18
100
AcDbEntity
  8
L-ZISSEN
100
AcDbLine
 10
856.4680355400135
 20
-55.02071822850576
 30
0.0
 11
857.2680360436727
 21
-55.02071822850576
 31
0.0
  0
LINE
  5
4A5
330
18
100
AcDbEntity
  8
L-ZISSEN
100
AcDbLine
 10
857.2680360436727
 20
-55.02071822850576
 30
0.0
 11
857.2680360436727
 21
-54.2207344886524
 31
0.0
  0
LINE
  5
4A6
330
18
100
AcDbEntity
  8
L-ZISSEN
100
AcDbLine
 10
857.2680360436727
 20
-54.2207344886524
 30
0.0
 11
856.4680355400135
 21
-54.2207344886524
 31
0.0
  0
CIRCLE
  5
4A7
330
18
100
AcDbEntity
  8
L-ZISSEN
100
AcDbCircle
 10
864.8680361694235
 20
-32.62072722054154
 30
0.0
 40
6.900000000000091
  0
ARC
  5
4A8
330
18
100
AcDbEntity
  8
L-ZISSEN
100
AcDbCircle
 10
864.8680361694235
 20
-32.62072722054154
 30
0.0
 40
10.19999999999982
100
AcDbArc
 50
301.4669762932641
 51
238.5330237067359
  0
CIRCLE
  5
4A9
330
18
100
AcDbEntity
  8
L-ZISSEN
100
AcDbCircle
 10
864.8680361694235
 20
-32.62072722054154
 30
0.0
 40
3.0
  0
LINE
  5
4AA
330
18
100
AcDbEntity
  8
L-ZISSEN
100
AcDbLine
 10
868.7275215441339
 20
-6.336449038670594
 30
0.0
 11
867.8474971076319
 21
-9.62072722054154
 31
0.0
  0
LINE
  5
4AB
330
18
100
AcDbEntity
  8
L-ZISSEN
100
AcDbLine
 10
880.4457888020831
 20
-6.336449038670594
 30
0.0
 11
881.3258132385852
 21
-9.62072722054154
 31
0.0
  0
LINE
  5
4AC
330
18
100
AcDbEntity
  8
L-ZISSEN
100
AcDbLine
 10
782.6002810587318
 20
-79.46167912914632
 30
0.0
 11
878.1230653796431
 21
-79.46167912914632
 31
0.0
  0
LINE
  5
4AD
330
18
100
AcDbEntity
  8
L-ZISSEN
100
AcDbLine
 10
777.0802202302555
 20
-218.945601336802
 30
0.0
 11
777.0802202302555
 21
-189.0186897443185
 31
0.0
  0
LINE
  5
4AE
330
18
100
AcDbEntity
  8
L-ZISSEN
100
AcDbLine
 10
796.4103293698538
 20
-244.0776436874423
 30
0.0
 11
780.9877778071502
 21
-228.4703416155229
 31
0.0
  0
LINE
  5
4AF
330
18
100
AcDbEntity
  8
L-ZISSEN
100
AcDbLine
 10
782.360251506205
 20
-75.06520536751145
 30
0.0
 11
782.514434479989
 21
-79.17582436319378
 31
0.0
  0
LINE
  5
4B0
330
18
100
AcDbEntity
  8
L-ZISSEN
100
AcDbLine
 10
678.1371347598808
 20
-205.1992204928588
 30
0.0
 11
678.1371347598808
 21
-292.1169002877126
 31
0.0
  0
LINE
  5
4B1
330
18
100
AcDbEntity
  8
L-ZISSEN
100
AcDbLine
 10
670.0285012582092
 20
-299.0186897443185
 30
0.0
 11
670.0285012582092
 21
-198.193282374701
 31
0.0
  0
LINE
  5
4B2
330
18
100
AcDbEntity
  8
L-ZISSEN
100
AcDbLine
 10
670.0285012582092
 20
-198.193282374701
 30
0.0
 11
678.1371347598808
 21
-205.1992204928588
 31
0.0
  0
LINE
  5
4B3
330
18
100
AcDbEntity
  8
L-ZISSEN
100
AcDbLine
 10
678.1371347598808
 20
-292.1169002877126
 30
0.0
 11
670.0285012582092
 21
-299.0186897443185
 31
0.0
  0
LINE
  5
4B4
330
18
100
AcDbEntity
  8
L-ZISSEN
100
AcDbLine
 10
636.6371280841606
 20
-290.9426546117467
 30
0.0
 11
592.1371347598808
 21
-290.9426546117467
 31
0.0
  0
LINE
  5
4B5
330
18
100
AcDbEntity
  8
L-ZISSEN
100
AcDbLine
 10
678.1371347598808
 20
-292.1169002877126
 30
0.0
 11
670.0285012582092
 21
-292.7188587711702
 31
0.0
  0
LINE
  5
4B6
330
18
100
AcDbEntity
  8
L-ZISSEN
100
AcDbLine
 10
670.0285012582092
 20
-292.7188587711702
 30
0.0
 11
592.1371347598808
 21
-292.7188587711702
 31
0.0
  0
LINE
  5
4B7
330
18
100
AcDbEntity
  8
L-ZISSEN
100
AcDbLine
 10
758.3617083680817
 20
-261.0971745850482
 30
0.0
 11
790.9397993608461
 21
-261.0971745850482
 31
0.0
  0
LINE
  5
4B8
330
18
100
AcDbEntity
  8
L-ZISSEN
100
AcDbLine
 10
636.6371280841606
 20
-231.6650518891556
 30
0.0
 11
636.6371280841606
 21
-209.2607637311837
 31
0.0
  0
LINE
  5
4B9
330
18
100
AcDbEntity
  8
L-ZISSEN
100
AcDbLine
 10
636.6371280841606
 20
-209.2607637311837
 30
0.0
 11
592.1371347598808
 21
-209.2607637311837
 31
0.0
  0
LINE
  5
4BA
330
18
100
AcDbEntity
  8
L-ZISSEN
100
AcDbLine
 10
758.3617083680817
 20
-231.6650518891557
 30
0.0
 11
776.665724212464
 21
-231.6650518891557
 31
0.0
  0
LINE
  5
4BB
330
18
100
AcDbEntity
  8
L-ZISSEN
100
AcDbLine
 10
842.3680361694235
 20
-62.57031263081831
 30
0.0
 11
818.3553795338087
 21
-62.57031263081831
 31
0.0
  0
LINE
  5
4BC
330
18
100
AcDbEntity
  8
L-ZISSEN
100
AcDbLine
 10
666.3114679411462
 20
-170.018687646235
 30
0.0
 11
666.2875493496038
 21
-244.0776436874423
 31
0.0
  0
LINE
  5
4BD
330
18
100
AcDbEntity
  8
L-ZISSEN
100
AcDbLine
 10
666.2875493496038
 20
-189.0186897443185
 30
0.0
 11
592.1371347598808
 21
-189.0186897443185
 31
0.0
  0
LINE
  5
4BE
330
18
100
AcDbEntity
  8
L-ZISSEN
100
AcDbLine
 10
660.581296387518
 20
-249.8566210736077
 30
0.0
 11
644.5333783540175
 21
-249.8566210736077
 31
0.0
  0
LINE
  5
4BF
330
18
100
AcDbEntity
  8
L-ZISSEN
100
AcDbLine
 10
660.581296387518
 20
-189.0186897443185
 30
0.0
 11
660.581296387518
 21
-249.8566210736077
 31
0.0
  0
LINE
  5
4C0
330
18
100
AcDbEntity
  8
L-ZISSEN
100
AcDbLine
 10
660.581296387518
 20
-249.8566210736077
 30
0.0
 11
666.2875493496038
 21
-244.0776436874423
 31
0.0
  0
LINE
  5
4C1
330
18
100
AcDbEntity
  8
L-ZISSEN
100
AcDbLine
 10
670.0285012582092
 20
-198.193282374701
 30
0.0
 11
666.2875493496038
 21
-198.193282374701
 31
0.0
  0
LINE
  5
4C2
330
18
100
AcDbEntity
  8
L-ZISSEN
100
AcDbLine
 10
773.3553786048853
 20
-170.018687646235
 30
0.0
 11
818.3553786048853
 21
-170.018687646235
 31
0.0
  0
LINE
  5
4C3
330
18
100
AcDbEntity
  8
L-ZISSEN
100
AcDbLine
 10
774.0553786048852
 20
-133.1186876462351
 30
0.0
 11
817.6553786048851
 21
-133.1186876462351
 31
0.0
  0
LINE
  5
4C4
330
18
100
AcDbEntity
  8
L-ZISSEN
100
AcDbLine
 10
774.0553786048847
 20
-133.1186876462351
 30
0.0
 11
772.9949449607482
 21
-189.0186897443185
 31
0.0
  0
LINE
  5
4C5
330
18
100
AcDbEntity
  8
L-ZISSEN
100
AcDbLine
 10
817.6553786048869
 20
-133.1186876462351
 30
0.0
 11
818.4236598593063
 21
-173.6180852006311
 31
0.0
  0
LINE
  5
4C6
330
18
100
AcDbEntity
  8
L-ZISSEN
100
AcDbLine
 10
784.3053786048852
 20
-133.1186876462351
 30
0.0
 11
784.3053786048852
 21
-121.718687646235
 31
0.0
  0
LINE
  5
4C7
330
18
100
AcDbEntity
  8
L-ZISSEN
100
AcDbLine
 10
807.4053786048851
 20
-133.1186876462351
 30
0.0
 11
807.4053786048851
 21
-121.718687646235
 31
0.0
  0
CIRCLE
  5
4C8
330
18
100
AcDbEntity
  8
L-ZISSEN
100
AcDbCircle
 10
795.8553790512835
 20
-113.5186903561849
 30
0.0
 40
0.8249999999999602
  0
LINE
  5
4C9
330
18
100
AcDbEntity
  8
L-ZISSEN
100
AcDbLine
 10
792.7053783679569
 20
-121.718687646235
 30
0.0
 11
792.7053783679569
 21
-110.5186917708764
 31
0.0
  0
LINE
  5
4CA
330
18
100
AcDbEntity
  8
L-ZISSEN
100
AcDbLine
 10
792.7053783679569
 20
-110.5186917708764
 30
0.0
 11
799.0053788418138
 21
-110.5186917708764
 31
0.0
  0
LINE
  5
4CB
330
18
100
AcDbEntity
  8
L-ZISSEN
100
AcDbLine
 10
799.0053788418138
 20
-110.5186917708764
 30
0.0
 11
799.0053788418138
 21
-121.718687646235
 31
0.0
  0
LINE
  5
4CC
330
18
100
AcDbEntity
  8
L-ZISSEN
100
AcDbLine
 10
792.7053783679569
 20
-110.5186917708764
 30
0.0
 11
793.7053803945148
 21
-109.5186897443185
 31
0.0
  0
LINE
  5
4CD
330
18
100
AcDbEntity
  8
L-ZISSEN
100
AcDbLine
 10
793.7053803945148
 20
-109.5186897443185
 30
0.0
 11
798.005378677901
 21
-109.5186897443185
 31
0.0
  0
LINE
  5
4CE
330
18
100
AcDbEntity
  8
L-ZISSEN
100
AcDbLine
 10
798.005378677901
 20
-109.5186897443185
 30
0.0
 11
799.0053788418138
 21
-110.5186917708764
 31
0.0
  0
LINE
  5
4CF
330
18
100
AcDbEntity
  8
L-ZISSEN
100
AcDbLine
 10
787.2553792441452
 20
-113.7186863349328
 30
0.0
 11
788.2553775454128
 21
-113.7186863349328
 31
0.0
  0
LINE
  5
4D0
330
18
100
AcDbEntity
  8
L-ZISSEN
100
AcDbLine
 10
788.2553775454128
 20
-113.7186863349328
 30
0.0
 11
788.2553775454128
 21
-121.718687646235
 31
0.0
  0
LINE
  5
4D1
330
18
100
AcDbEntity
  8
L-ZISSEN
100
AcDbLine
 10
786.4553806031311
 20
-121.718687646235
 30
0.0
 11
786.4553806031311
 21
-113.7186863349328
 31
0.0
  0
LINE
  5
4D2
330
18
100
AcDbEntity
  8
L-ZISSEN
100
AcDbLine
 10
786.6317060435379
 20
-111.9186856673608
 30
0.0
 11
787.0790538037384
 21
-111.9186856673608
 31
0.0
  0
LINE
  5
4D3
330
18
100
AcDbEntity
  8
L-ZISSEN
100
AcDbLine
 10
787.0790538037384
 20
-111.9186856673608
 30
0.0
 11
787.2553792441452
 21
-112.9186876939187
 31
0.0
  0
LINE
  5
4D4
330
18
100
AcDbEntity
  8
L-ZISSEN
100
AcDbLine
 10
786.4553806031311
 20
-112.9186876939187
 30
0.0
 11
786.6317060435379
 21
-111.9186856673608
 31
0.0
  0
LINE
  5
4D5
330
18
100
AcDbEntity
  8
L-ZISSEN
100
AcDbLine
 10
786.4553806031311
 20
-112.9186876939187
 30
0.0
 11
786.4553806031311
 21
-113.7186863349328
 31
0.0
  0
LINE
  5
4D6
330
18
100
AcDbEntity
  8
L-ZISSEN
100
AcDbLine
 10
787.2553792441452
 20
-112.9186876939187
 30
0.0
 11
787.2553792441452
 21
-113.7186863349328
 31
0.0
  0
LINE
  5
4D7
330
18
100
AcDbEntity
  8
L-ZISSEN
100
AcDbLine
 10
804.4553788584219
 20
-113.7186863349328
 30
0.0
 11
803.4553805571543
 21
-113.7186863349328
 31
0.0
  0
LINE
  5
4D8
330
18
100
AcDbEntity
  8
L-ZISSEN
100
AcDbLine
 10
803.4553805571543
 20
-113.7186863349328
 30
0.0
 11
803.4553805571543
 21
-121.718687646235
 31
0.0
  0
LINE
  5
4D9
330
18
100
AcDbEntity
  8
L-ZISSEN
100
AcDbLine
 10
805.255377499436
 20
-121.718687646235
 30
0.0
 11
805.255377499436
 21
-113.7186863349328
 31
0.0
  0
LINE
  5
4DA
330
18
100
AcDbEntity
  8
L-ZISSEN
100
AcDbLine
 10
805.0790520590292
 20
-111.9186856673608
 30
0.0
 11
804.6317042988287
 21
-111.9186856673608
 31
0.0
  0
LINE
  5
4DB
330
18
100
AcDbEntity
  8
L-ZISSEN
100
AcDbLine
 10
804.6317042988287
 20
-111.9186856673608
 30
0.0
 11
804.4553788584219
 21
-112.9186876939187
 31
0.0
  0
LINE
  5
4DC
330
18
100
AcDbEntity
  8
L-ZISSEN
100
AcDbLine
 10
805.255377499436
 20
-112.9186876939187
 30
0.0
 11
805.0790520590292
 21
-111.9186856673608
 31
0.0
  0
LINE
  5
4DD
330
18
100
AcDbEntity
  8
L-ZISSEN
100
AcDbLine
 10
805.255377499436
 20
-112.9186876939187
 30
0.0
 11
805.255377499436
 21
-113.7186863349328
 31
0.0
  0
LINE
  5
4DE
330
18
100
AcDbEntity
  8
L-ZISSEN
100
AcDbLine
 10
804.4553788584219
 20
-112.9186876939187
 30
0.0
 11
804.4553788584219
 21
-113.7186863349328
 31
0.0
  0
LINE
  5
4DF
330
18
100
AcDbEntity
  8
L-ZISSEN
100
AcDbLine
 10
784.3053786048852
 20
-121.718687646235
 30
0.0
 11
807.4053786048851
 21
-121.718687646235
 31
0.0
  0
LINE
  5
4E0
330
18
100
AcDbEntity
  8
L-ZISSEN
100
AcDbLine
 10
777.0802202302555
 20
-133.1186876462351
 30
0.0
 11
777.0802202302555
 21
-189.0186897443185
 31
0.0
  0
LINE
  5
4E1
330
18
100
AcDbEntity
  8
L-ZISSEN
100
AcDbLine
 10
773.2633940548187
 20
-174.8675874997271
 30
0.0
 11
771.912892809976
 21
-177.1151951478372
 31
0.0
  0
LINE
  5
4E2
330
18
100
AcDbEntity
  8
L-ZISSEN
100
AcDbLine
 10
771.912892809976
 20
-177.1151951478372
 30
0.0
 11
771.6117687475869
 21
-189.0186897443185
 31
0.0
  0
SPLINE
  5
4E3
330
18
100
AcDbEntity
  8
L-ZISSEN
100
AcDbSpline
210
0.0
220
0.0
230
1.0
 70
     8
 71
     3
 72
     9
 73
     5
 74
     0
 42
0.000000001
 43
0.00000001
 40
0.0
 40
0.0
 40
0.0
 40
0.0
 40
0.5667099704341442
 40
1.0
 40
1.0
 40
1.0
 40
1.0
 10
817.7183805917391
 20
-173.7751296685586
 30
0.0
 10
817.5745629027849
 20
-174.3084825655382
 30
0.0
 10
817.3207863743025
 20
-175.2496216398539
 30
0.0
 10
817.0259888834241
 20
-176.1848625618039
 30
0.0
 10
816.8982560698876
 20
-176.5900931285272
 30
0.0
  0
SPLINE
  5
4E4
330
18
100
AcDbEntity
  8
L-ZISSEN
100
AcDbSpline
210
0.0
220
0.0
230
1.0
 70
     8
 71
     3
 72
    12
 73
     8
 74
     0
 42
0.000000001
 43
0.00000001
 40
0.0
 40
0.0
 40
0.0
 40
0.0
 40
0.1866844718086832
 40
0.373364847691239
 40
0.5600434936303887
 40
0.7800192622813392
 40
0.9999999999999999
 40
0.9999999999999999
 40
0.9999999999999999
 40
0.9999999999999999
 10
816.8982560698876
 20
-176.5900931285272
 30
0.0
 10
818.5433237292816
 20
-176.1670419252504
 30
0.0
 10
821.8334229546779
 20
-175.3209488005967
 30
0.0
 10
826.9041378929794
 20
-174.7160438382274
 30
0.0
 10
832.3019809587256
 20
-174.6151363086477
 30
0.0
 10
837.9997125888374
 20
-175.1254029350401
 30
0.0
 10
841.8833302329338
 20
-176.1017103768
 30
0.0
 10
843.8251609866509
 20
-176.5898696111093
 30
0.0
  0
SPLINE
  5
4E5
330
18
100
AcDbEntity
  8
L-ZISSEN
100
AcDbSpline
210
0.0
220
0.0
230
1.0
 70
     8
 71
     3
 72
     9
 73
     5
 74
     0
 42
0.000000001
 43
0.00000001
 40
0.0
 40
0.0
 40
0.0
 40
0.0
 40
0.4986505753452703
 40
1.0
 40
1.0
 40
1.0
 40
1.0
 10
830.3617092267611
 20
-172.1793494151483
 30
0.0
 10
828.2351505933846
 20
-172.2462756331203
 30
0.0
 10
823.9705237413953
 20
-172.3804902942096
 30
0.0
 10
819.8061721439078
 20
-173.3094042767146
 30
0.0
 10
817.7183768664488
 20
-173.7751147673974
 30
0.0
  0
ARC
  5
4E6
330
18
100
AcDbEntity
  8
L-ZISSEN
100
AcDbCircle
 10
830.3617092485981
 20
-191.9366232472229
 30
0.0
 40
30.8704762919799
100
AcDbArc
 50
66.8648199631015
 51
113.135181056633
  0
LINE
  5
4E7
330
18
100
AcDbEntity
  8
L-ZISSEN
100
AcDbLine
 10
816.8982560698876
 20
-176.5900931285272
 30
0.0
 11
816.8982560698876
 21
-202.4190399588379
 31
0.0
  0
LINE
  5
4E8
330
18
100
AcDbEntity
  8
L-ZISSEN
100
AcDbLine
 10
814.6305369795152
 20
-133.1186876462351
 30
0.0
 11
814.6305369795152
 21
-204.0943119139358
 31
0.0
  0
LINE
  5
4E9
330
18
100
AcDbEntity
  8
L-ZISSEN
100
AcDbLine
 10
842.3738990021232
 20
-14.37866533963484
 30
0.0
 11
818.349516701109
 21
-14.37866533963484
 31
0.0
  0
LINE
  5
4EA
330
18
100
AcDbEntity
  8
L-ZISSEN
100
AcDbLine
 10
666.3114679411462
 20
-170.018687646235
 30
0.0
 11
592.1371347598808
 21
-170.018687646235
 31
0.0
  0
LINE
  5
4EB
330
18
100
AcDbEntity
  8
L-ZISSEN
100
AcDbLine
 10
666.3114679411462
 20
-170.018687646235
 30
0.0
 11
600.1875493496038
 21
-170.018687646235
 31
0.0
  0
LINE
  5
4EC
330
18
100
AcDbEntity
  8
L-ZISSEN
100
AcDbLine
 10
600.1875493496038
 20
-170.018687646235
 30
0.0
 11
600.1875493496038
 21
-160.3186876462349
 31
0.0
  0
LINE
  5
4ED
330
18
100
AcDbEntity
  8
L-ZISSEN
100
AcDbLine
 10
666.3114679411462
 20
-170.018687646235
 30
0.0
 11
665.487549349604
 21
-133.118687646235
 31
0.0
  0
LINE
  5
4EE
330
18
100
AcDbEntity
  8
L-ZISSEN
100
AcDbLine
 10
665.487549349604
 20
-133.118687646235
 30
0.0
 11
603.487549349604
 21
-133.118687646235
 31
0.0
  0
LINE
  5
4EF
330
18
100
AcDbEntity
  8
L-ZISSEN
100
AcDbLine
 10
654.487549349604
 20
-121.718687646235
 30
0.0
 11
631.8875493496041
 21
-121.718687646235
 31
0.0
  0
LINE
  5
4F0
330
18
100
AcDbEntity
  8
L-ZISSEN
100
AcDbLine
 10
654.487549349604
 20
-121.718687646235
 30
0.0
 11
654.487549349604
 21
-133.118687646235
 31
0.0
  0
LINE
  5
4F1
330
18
100
AcDbEntity
  8
L-ZISSEN
100
AcDbLine
 10
631.8875493496041
 20
-121.718687646235
 30
0.0
 11
631.8875493496041
 21
-133.118687646235
 31
0.0
  0
LINE
  5
4F2
330
18
100
AcDbEntity
  8
L-ZISSEN
100
AcDbLine
 10
644.4910284250361
 20
-112.9186876939187
 30
0.0
 11
644.4910284250361
 21
-113.7186863349328
 31
0.0
  0
LINE
  5
4F3
330
18
100
AcDbEntity
  8
L-ZISSEN
100
AcDbLine
 10
644.4876011579615
 20
-112.9186876939187
 30
0.0
 11
644.4910284250361
 21
-112.9186876939187
 31
0.0
  0
LWPOLYLINE
  5
4F4
330
18
100
AcDbEntity
  8
L-ZISSEN
100
AcDbPolyline
 90
        3
 70
   128
 43
0.0
 10
642.2749873369319
 20
-116.0399445222268
 10
642.2660466402156
 20
-115.9186937735925
 10
642.2704573839289
 20
-115.8334442304025
  0
LINE
  5
4F5
330
18
100
AcDbEntity
  8
L-ZISSEN
100
AcDbLine
 10
644.3147178857905
 20
-111.9186856673608
 30
0.0
 11
644.4910284250361
 21
-112.9186876939187
 31
0.0
  0
LINE
  5
4F6
330
18
100
AcDbEntity
  8
L-ZISSEN
100
AcDbLine
 10
644.3147178857905
 20
-111.9186856673608
 30
0.0
 11
644.3112608163935
 21
-111.9186856673608
 31
0.0
  0
LINE
  5
4F7
330
18
100
AcDbEntity
  8
L-ZISSEN
100
AcDbLine
 10
645.4910453527552
 20
-121.718687646235
 30
0.0
 11
645.4910453527552
 21
-113.7186863349328
 31
0.0
  0
LINE
  5
4F8
330
18
100
AcDbEntity
  8
L-ZISSEN
100
AcDbLine
 10
645.4910453527552
 20
-113.7186863349328
 30
0.0
 11
645.4875882833583
 21
-113.7186863349328
 31
0.0
  0
LINE
  5
4F9
330
18
100
AcDbEntity
  8
L-ZISSEN
100
AcDbLine
 10
641.6875835626704
 20
-112.9186876939187
 30
0.0
 11
641.6875835626704
 21
-113.7186863349328
 31
0.0
  0
LINE
  5
4FA
330
18
100
AcDbEntity
  8
L-ZISSEN
100
AcDbLine
 10
644.4876011579615
 20
-112.9186876939187
 30
0.0
 11
644.4876011579615
 21
-113.7186863349328
 31
0.0
  0
CIRCLE
  5
4FB
330
18
100
AcDbEntity
  8
L-ZISSEN
100
AcDbCircle
 10
643.0875972753936
 20
-115.9186903560811
 30
0.0
 40
0.8250000000001023
  0
LINE
  5
4FC
330
18
100
AcDbEntity
  8
L-ZISSEN
100
AcDbLine
 10
641.6875835626704
 20
-112.9186876939187
 30
0.0
 11
641.8639239042384
 21
-111.9186856673608
 31
0.0
  0
LINE
  5
4FD
330
18
100
AcDbEntity
  8
L-ZISSEN
100
AcDbLine
 10
644.3112608163935
 20
-111.9186856673608
 30
0.0
 11
644.4876011579615
 21
-112.9186876939187
 31
0.0
  0
LINE
  5
4FE
330
18
100
AcDbEntity
  8
L-ZISSEN
100
AcDbLine
 10
644.3112608163935
 20
-111.9186856673608
 30
0.0
 11
641.8639239042384
 21
-111.9186856673608
 31
0.0
  0
LINE
  5
4FF
330
18
100
AcDbEntity
  8
L-ZISSEN
100
AcDbLine
 10
645.4875882833583
 20
-121.718687646235
 30
0.0
 11
645.4875882833583
 21
-113.7186863349328
 31
0.0
  0
LINE
  5
500
330
18
100
AcDbEntity
  8
L-ZISSEN
100
AcDbLine
 10
645.4875882833583
 20
-113.7186863349328
 30
0.0
 11
644.4876011579615
 21
-113.7186863349328
 31
0.0
  0
LINE
  5
501
330
18
100
AcDbEntity
  8
L-ZISSEN
100
AcDbLine
 10
640.6875964372737
 20
-121.718687646235
 30
0.0
 11
640.6875964372737
 21
-113.7186863349328
 31
0.0
  0
LINE
  5
502
330
18
100
AcDbEntity
  8
L-ZISSEN
100
AcDbLine
 10
641.6875835626704
 20
-113.7186863349328
 30
0.0
 11
640.6875964372737
 21
-113.7186863349328
 31
0.0
  0
LINE
  5
503
330
18
100
AcDbEntity
  8
L-ZISSEN
100
AcDbLine
 10
634.4876106947047
 20
-110.5186917708764
 30
0.0
 11
634.4876106947047
 21
-121.718687646235
 31
0.0
  0
LINE
  5
504
330
18
100
AcDbEntity
  8
L-ZISSEN
100
AcDbLine
 10
633.6875971525294
 20
-110.5186917708764
 30
0.0
 11
633.6875971525294
 21
-121.718687646235
 31
0.0
  0
LINE
  5
505
330
18
100
AcDbEntity
  8
L-ZISSEN
100
AcDbLine
 10
634.3112703531367
 20
-109.5186897443185
 30
0.0
 11
634.4876106947047
 21
-110.5186917708764
 31
0.0
  0
LINE
  5
506
330
18
100
AcDbEntity
  8
L-ZISSEN
100
AcDbLine
 10
634.3112703531367
 20
-109.5186897443185
 30
0.0
 11
633.8639374940974
 21
-109.5186897443185
 31
0.0
  0
LINE
  5
507
330
18
100
AcDbEntity
  8
L-ZISSEN
100
AcDbLine
 10
633.8639374940974
 20
-109.5186897443185
 30
0.0
 11
633.6875971525294
 21
-110.5186917708764
 31
0.0
  0
LINE
  5
508
330
18
100
AcDbEntity
  8
L-ZISSEN
100
AcDbLine
 10
634.4910379617793
 20
-110.5186917708764
 30
0.0
 11
634.4876106947047
 21
-110.5186917708764
 31
0.0
  0
LINE
  5
509
330
18
100
AcDbEntity
  8
L-ZISSEN
100
AcDbLine
 10
634.4910379617793
 20
-110.5186917708764
 30
0.0
 11
634.4910379617793
 21
-121.718687646235
 31
0.0
  0
LINE
  5
50A
330
18
100
AcDbEntity
  8
L-ZISSEN
100
AcDbLine
 10
634.3147274225337
 20
-109.5186897443185
 30
0.0
 11
634.4910379617793
 21
-110.5186917708764
 31
0.0
  0
LINE
  5
50B
330
18
100
AcDbEntity
  8
L-ZISSEN
100
AcDbLine
 10
634.3147274225337
 20
-109.5186897443185
 30
0.0
 11
634.3112703531367
 21
-109.5186897443185
 31
0.0
  0
LINE
  5
50C
330
18
100
AcDbEntity
  8
L-ZISSEN
100
AcDbLine
 10
612.987549349604
 20
-133.118687646235
 30
0.0
 11
612.987549349604
 21
-126.018687646235
 31
0.0
  0
LINE
  5
50D
330
18
100
AcDbEntity
  8
L-ZISSEN
100
AcDbLine
 10
631.8875493496041
 20
-126.018687646235
 30
0.0
 11
612.987549349604
 21
-126.018687646235
 31
0.0
  0
LINE
  5
50E
330
18
100
AcDbEntity
  8
L-ZISSEN
100
AcDbLine
 10
630.0875493496039
 20
-122.718687646235
 30
0.0
 11
616.2875493496038
 21
-122.718687646235
 31
0.0
  0
LINE
  5
50F
330
18
100
AcDbEntity
  8
L-ZISSEN
100
AcDbLine
 10
630.0875493496039
 20
-122.718687646235
 30
0.0
 11
630.0875493496039
 21
-126.018687646235
 31
0.0
  0
LINE
  5
510
330
18
100
AcDbEntity
  8
L-ZISSEN
100
AcDbLine
 10
616.2875493496038
 20
-122.718687646235
 30
0.0
 11
616.2875493496038
 21
-126.018687646235
 31
0.0
  0
LINE
  5
511
330
18
100
AcDbEntity
  8
L-ZISSEN
100
AcDbLine
 10
608.2986272932565
 20
-160.3186876462349
 30
0.0
 11
600.1875493496038
 21
-160.3186876462349
 31
0.0
  0
LINE
  5
512
330
18
100
AcDbEntity
  8
L-ZISSEN
100
AcDbLine
 10
603.487549349604
 20
-133.118687646235
 30
0.0
 11
603.487549349604
 21
-160.3186876462349
 31
0.0
  0
LINE
  5
513
330
18
100
AcDbEntity
  8
L-ZISSEN
100
AcDbLine
 10
609.7875493496038
 20
-170.018687646235
 30
0.0
 11
609.7875493496038
 21
-133.118687646235
 31
0.0
  0
LINE
  5
514
330
18
100
AcDbEntity
  8
L-ZISSEN
100
AcDbLine
 10
609.7875493496038
 20
-165.3186876462349
 30
0.0
 11
600.1875493496038
 21
-165.3186876462349
 31
0.0
  0
LINE
  5
515
330
18
100
AcDbEntity
  8
L-ZISSEN
100
AcDbLine
 10
601.5875493496039
 20
-164.118687646235
 30
0.0
 11
601.5875493496039
 21
-165.3186876462349
 31
0.0
  0
LINE
  5
516
330
18
100
AcDbEntity
  8
L-ZISSEN
100
AcDbLine
 10
609.7875493496038
 20
-164.118687646235
 30
0.0
 11
601.5875493496039
 21
-164.118687646235
 31
0.0
  0
LINE
  5
517
330
18
100
AcDbEntity
  8
L-ZISSEN
100
AcDbLine
 10
608.2986272932565
 20
-160.3186876462349
 30
0.0
 11
608.2986272932565
 21
-164.118687646235
 31
0.0
  0
LINE
  5
518
330
18
100
AcDbEntity
  8
L-ZISSEN
100
AcDbLine
 10
600.1875493496038
 20
-161.066146955243
 30
0.0
 11
592.1371347598808
 21
-161.066146955243
 31
0.0
  0
LINE
  5
519
330
18
100
AcDbEntity
  8
L-ZISSEN
100
AcDbLine
 10
764.2544750338177
 20
-243.5393412342101
 30
0.0
 11
764.2544750338177
 21
-249.2550135502435
 31
0.0
  0
LINE
  5
51A
330
18
100
AcDbEntity
  8
L-ZISSEN
100
AcDbLine
 10
759.3297520638437
 20
-246.3971773922268
 30
0.0
 11
764.2544750338177
 21
-243.5393412342101
 31
0.0
  0
LINE
  5
51B
330
18
100
AcDbEntity
  8
L-ZISSEN
100
AcDbLine
 10
759.3297520638437
 20
-246.3971773922268
 30
0.0
 11
764.2544750338177
 21
-249.2550135502435
 31
0.0
  0
LINE
  5
51C
330
18
100
AcDbEntity
  8
L-ZISSEN
100
AcDbLine
 10
776.4868011040965
 20
-244.5437033191619
 30
0.0
 11
776.4868011040965
 21
-243.7129008455155
 31
0.0
  0
LINE
  5
51D
330
18
100
AcDbEntity
  8
L-ZISSEN
100
AcDbLine
 10
777.7351987204904
 20
-249.2306334565761
 30
0.0
 11
777.7351987204904
 21
-244.5445669220338
 31
0.0
  0
LINE
  5
51E
330
18
100
AcDbEntity
  8
L-ZISSEN
100
AcDbLine
 10
778.5913117799867
 20
-244.5445669220338
 30
0.0
 11
779.8397093963806
 21
-244.5437033191619
 31
0.0
  0
LINE
  5
51F
330
18
100
AcDbEntity
  8
L-ZISSEN
100
AcDbLine
 10
779.8397093963806
 20
-244.5437033191619
 30
0.0
 11
779.8397093963806
 21
-243.7129008455155
 31
0.0
  0
LINE
  5
520
330
18
100
AcDbEntity
  8
L-ZISSEN
100
AcDbLine
 10
778.5913117799867
 20
-249.2306334565761
 30
0.0
 11
778.5913117799867
 21
-244.5445669220338
 31
0.0
  0
LINE
  5
521
330
18
100
AcDbEntity
  8
L-ZISSEN
100
AcDbLine
 10
888.9847882044503
 20
-246.3930224405179
 30
0.0
 11
893.5187421691605
 21
-243.8002464698205
 31
0.0
  0
LINE
  5
522
330
18
100
AcDbEntity
  8
L-ZISSEN
100
AcDbLine
 10
888.9847882044503
 20
-246.3930224405179
 30
0.0
 11
893.5187421691605
 21
-248.9857984112153
 31
0.0
  0
LINE
  5
523
330
18
100
AcDbEntity
  8
L-ZISSEN
100
AcDbLine
 10
893.5187421691605
 20
-243.8002464698205
 30
0.0
 11
893.5187421691605
 21
-248.9857984112153
 31
0.0
  0
LINE
  5
524
330
18
100
AcDbEntity
  8
L-ZISSEN
100
AcDbLine
 10
894.438799465913
 20
-243.9090621994368
 30
0.0
 11
894.438799465913
 21
-249.0190815851545
 31
0.0
  0
LINE
  5
525
330
18
100
AcDbEntity
  8
L-ZISSEN
100
AcDbLine
 10
895.261273358589
 20
-249.0190815851558
 30
0.0
 11
894.438799465913
 21
-249.0190815851545
 31
0.0
  0
LINE
  5
526
330
18
100
AcDbEntity
  8
L-ZISSEN
100
AcDbLine
 10
895.261273358589
 20
-243.9090621994386
 30
0.0
 11
895.261273358589
 21
-249.0190815851558
 31
0.0
  0
LINE
  5
527
330
18
100
AcDbEntity
  8
L-ZISSEN
100
AcDbLine
 10
896.4139572615625
 20
-249.0190876053224
 30
0.0
 11
896.4139572615625
 21
-243.9090624617364
 31
0.0
  0
LINE
  5
528
330
18
100
AcDbEntity
  8
L-ZISSEN
100
AcDbLine
 10
900.0957123887727
 20
-243.9090632995343
 30
0.0
 11
900.0957123887727
 21
-247.383911319372
 31
0.0
  0
LINE
  5
529
330
18
100
AcDbEntity
  8
L-ZISSEN
100
AcDbLine
 10
900.0957123887727
 20
-247.383911319372
 30
0.0
 11
896.7890262373869
 21
-243.9090625470848
 31
0.0
  0
LINE
  5
52A
330
18
100
AcDbEntity
  8
L-ZISSEN
100
AcDbLine
 10
900.9183043363739
 20
-243.9090632995343
 30
0.0
 11
900.9183043363739
 21
-249.019087605318
 31
0.0
  0
LINE
  5
52B
330
18
100
AcDbEntity
  8
L-ZISSEN
100
AcDbLine
 10
897.2371183288285
 20
-249.019087605318
 30
0.0
 11
897.2371183288285
 21
-245.5186694662223
 31
0.0
  0
LINE
  5
52C
330
18
100
AcDbEntity
  8
L-ZISSEN
100
AcDbLine
 10
897.2371183288285
 20
-245.5186694662223
 30
0.0
 11
900.5780727264917
 21
-249.019087605318
 31
0.0
  0
LINE
  5
52D
330
18
100
AcDbEntity
  8
L-ZISSEN
100
AcDbLine
 10
896.4139572615625
 20
-243.9090624617364
 30
0.0
 11
896.4139572615625
 21
-249.0190876053224
 31
0.0
  0
LINE
  5
52E
330
18
100
AcDbEntity
  8
L-ZISSEN
100
AcDbLine
 10
896.4139572615625
 20
-243.9090624617364
 30
0.0
 11
896.7890262373869
 21
-243.9090625470848
 31
0.0
  0
LINE
  5
52F
330
18
100
AcDbEntity
  8
L-ZISSEN
100
AcDbLine
 10
900.5780727264917
 20
-249.019087605318
 30
0.0
 11
900.9183043363739
 21
-249.019087605318
 31
0.0
  0
LINE
  5
530
330
18
100
AcDbEntity
  8
L-TYUSIN
100
AcDbLine
 10
914.3617072357563
 20
-37.07031037198431
 30
0.0
 11
746.3617084674759
 21
-37.07031037198419
 31
0.0
1001
PE_URL
1000

  0
CIRCLE
  5
531
330
18
100
AcDbEntity
  8
L-ZISSEN
100
AcDbCircle
 10
830.3617078516161
 20
-221.0186910725666
 30
0.0
 40
14.49999664519396
  0
CIRCLE
  5
532
330
18
100
AcDbEntity
  8
L-ZISSEN
100
AcDbCircle
 10
627.6371259506625
 20
-246.3811132371019
 30
0.0
 40
13.2205
  0
CIRCLE
  5
533
330
18
100
AcDbEntity
  8
L-ZISSEN
100
AcDbCircle
 10
627.6371259506625
 20
-246.3811132371019
 30
0.0
 40
12.475
  0
LINE
  5
534
330
18
100
AcDbEntity
  8
L-ZISSEN
100
AcDbLine
 10
887.3680393829757
 20
-170.018687646235
 30
0.0
 11
842.3680393829757
 21
-170.018687646235
 31
0.0
  0
LINE
  5
535
330
18
100
AcDbEntity
  8
L-ZISSEN
100
AcDbLine
 10
886.6680393829758
 20
-133.1186876462351
 30
0.0
 11
843.0680393829759
 21
-133.1186876462351
 31
0.0
  0
LINE
  5
536
330
18
100
AcDbEntity
  8
L-ZISSEN
100
AcDbLine
 10
886.6680393829763
 20
-133.1186876462351
 30
0.0
 11
887.7284730271128
 21
-189.0186897443185
 31
0.0
  0
LINE
  5
537
330
18
100
AcDbEntity
  8
L-ZISSEN
100
AcDbLine
 10
843.0680393829741
 20
-133.1186876462351
 30
0.0
 11
842.2997581285547
 21
-173.6180852006311
 31
0.0
  0
LINE
  5
538
330
18
100
AcDbEntity
  8
L-ZISSEN
100
AcDbLine
 10
876.4180393829758
 20
-133.1186876462351
 30
0.0
 11
876.4180393829758
 21
-121.718687646235
 31
0.0
  0
LINE
  5
539
330
18
100
AcDbEntity
  8
L-ZISSEN
100
AcDbLine
 10
853.3180393829759
 20
-133.1186876462351
 30
0.0
 11
853.3180393829759
 21
-121.718687646235
 31
0.0
  0
CIRCLE
  5
53A
330
18
100
AcDbEntity
  8
L-ZISSEN
100
AcDbCircle
 10
864.8680389365775
 20
-113.5186903561849
 30
0.0
 40
0.8249999999999602
  0
LINE
  5
53B
330
18
100
AcDbEntity
  8
L-ZISSEN
100
AcDbLine
 10
868.0180396199041
 20
-121.718687646235
 30
0.0
 11
868.0180396199041
 21
-110.5186917708764
 31
0.0
  0
LINE
  5
53C
330
18
100
AcDbEntity
  8
L-ZISSEN
100
AcDbLine
 10
868.0180396199041
 20
-110.5186917708764
 30
0.0
 11
861.7180391460472
 21
-110.5186917708764
 31
0.0
  0
LINE
  5
53D
330
18
100
AcDbEntity
  8
L-ZISSEN
100
AcDbLine
 10
861.7180391460472
 20
-110.5186917708764
 30
0.0
 11
861.7180391460472
 21
-121.718687646235
 31
0.0
  0
LINE
  5
53E
330
18
100
AcDbEntity
  8
L-ZISSEN
100
AcDbLine
 10
868.0180396199041
 20
-110.5186917708764
 30
0.0
 11
867.0180375933462
 21
-109.5186897443185
 31
0.0
  0
LINE
  5
53F
330
18
100
AcDbEntity
  8
L-ZISSEN
100
AcDbLine
 10
867.0180375933462
 20
-109.5186897443185
 30
0.0
 11
862.71803930996
 21
-109.5186897443185
 31
0.0
  0
LINE
  5
540
330
18
100
AcDbEntity
  8
L-ZISSEN
100
AcDbLine
 10
862.71803930996
 20
-109.5186897443185
 30
0.0
 11
861.7180391460472
 21
-110.5186917708764
 31
0.0
  0
LINE
  5
541
330
18
100
AcDbEntity
  8
L-ZISSEN
100
AcDbLine
 10
873.4680387437159
 20
-113.7186863349328
 30
0.0
 11
872.4680404424482
 21
-113.7186863349328
 31
0.0
  0
LINE
  5
542
330
18
100
AcDbEntity
  8
L-ZISSEN
100
AcDbLine
 10
872.4680404424482
 20
-113.7186863349328
 30
0.0
 11
872.4680404424482
 21
-121.718687646235
 31
0.0
  0
LINE
  5
543
330
18
100
AcDbEntity
  8
L-ZISSEN
100
AcDbLine
 10
874.26803738473
 20
-121.718687646235
 30
0.0
 11
874.26803738473
 21
-113.7186863349328
 31
0.0
  0
LINE
  5
544
330
18
100
AcDbEntity
  8
L-ZISSEN
100
AcDbLine
 10
874.0917119443232
 20
-111.9186856673608
 30
0.0
 11
873.6443641841227
 21
-111.9186856673608
 31
0.0
  0
LINE
  5
545
330
18
100
AcDbEntity
  8
L-ZISSEN
100
AcDbLine
 10
873.6443641841227
 20
-111.9186856673608
 30
0.0
 11
873.4680387437159
 21
-112.9186876939187
 31
0.0
  0
LINE
  5
546
330
18
100
AcDbEntity
  8
L-ZISSEN
100
AcDbLine
 10
874.26803738473
 20
-112.9186876939187
 30
0.0
 11
874.0917119443232
 21
-111.9186856673608
 31
0.0
  0
LINE
  5
547
330
18
100
AcDbEntity
  8
L-ZISSEN
100
AcDbLine
 10
874.26803738473
 20
-112.9186876939187
 30
0.0
 11
874.26803738473
 21
-113.7186863349328
 31
0.0
  0
LINE
  5
548
330
18
100
AcDbEntity
  8
L-ZISSEN
100
AcDbLine
 10
873.4680387437159
 20
-112.9186876939187
 30
0.0
 11
873.4680387437159
 21
-113.7186863349328
 31
0.0
  0
LINE
  5
549
330
18
100
AcDbEntity
  8
L-ZISSEN
100
AcDbLine
 10
856.2680391294391
 20
-113.7186863349328
 30
0.0
 11
857.2680374307067
 21
-113.7186863349328
 31
0.0
  0
LINE
  5
54A
330
18
100
AcDbEntity
  8
L-ZISSEN
100
AcDbLine
 10
857.2680374307067
 20
-113.7186863349328
 30
0.0
 11
857.2680374307067
 21
-121.718687646235
 31
0.0
  0
LINE
  5
54B
330
18
100
AcDbEntity
  8
L-ZISSEN
100
AcDbLine
 10
855.468040488425
 20
-121.718687646235
 30
0.0
 11
855.468040488425
 21
-113.7186863349328
 31
0.0
  0
LINE
  5
54C
330
18
100
AcDbEntity
  8
L-ZISSEN
100
AcDbLine
 10
855.6443659288318
 20
-111.9186856673608
 30
0.0
 11
856.0917136890323
 21
-111.9186856673608
 31
0.0
  0
LINE
  5
54D
330
18
100
AcDbEntity
  8
L-ZISSEN
100
AcDbLine
 10
856.0917136890323
 20
-111.9186856673608
 30
0.0
 11
856.2680391294391
 21
-112.9186876939187
 31
0.0
  0
LINE
  5
54E
330
18
100
AcDbEntity
  8
L-ZISSEN
100
AcDbLine
 10
855.468040488425
 20
-112.9186876939187
 30
0.0
 11
855.6443659288318
 21
-111.9186856673608
 31
0.0
  0
LINE
  5
54F
330
18
100
AcDbEntity
  8
L-ZISSEN
100
AcDbLine
 10
855.468040488425
 20
-112.9186876939187
 30
0.0
 11
855.468040488425
 21
-113.7186863349328
 31
0.0
  0
LINE
  5
550
330
18
100
AcDbEntity
  8
L-ZISSEN
100
AcDbLine
 10
856.2680391294391
 20
-112.9186876939187
 30
0.0
 11
856.2680391294391
 21
-113.7186863349328
 31
0.0
  0
LINE
  5
551
330
18
100
AcDbEntity
  8
L-ZISSEN
100
AcDbLine
 10
876.4180393829758
 20
-121.718687646235
 30
0.0
 11
853.3180393829759
 21
-121.718687646235
 31
0.0
  0
LINE
  5
552
330
18
100
AcDbEntity
  8
L-ZISSEN
100
AcDbLine
 10
883.6431977576055
 20
-133.1186876462351
 30
0.0
 11
883.6431977576055
 21
-189.0186897443185
 31
0.0
  0
LINE
  5
553
330
18
100
AcDbEntity
  8
L-ZISSEN
100
AcDbLine
 10
887.4600239330423
 20
-174.8675874997271
 30
0.0
 11
888.810525177885
 21
-177.1151951478372
 31
0.0
  0
LINE
  5
554
330
18
100
AcDbEntity
  8
L-ZISSEN
100
AcDbLine
 10
888.810525177885
 20
-177.1151951478372
 30
0.0
 11
889.1116492402741
 21
-189.0186897443185
 31
0.0
  0
SPLINE
  5
555
330
18
100
AcDbEntity
  8
L-ZISSEN
100
AcDbSpline
210
0.0
220
0.0
230
1.0
 70
     8
 71
     3
 72
     9
 73
     5
 74
     0
 42
0.000000001
 43
0.00000001
 40
0.0
 40
0.0
 40
0.0
 40
0.0
 40
0.5667099704341442
 40
1.0
 40
1.0
 40
1.0
 40
1.0
 10
843.0050373961219
 20
-173.7751296685586
 30
0.0
 10
843.1488550850761
 20
-174.3084825655382
 30
0.0
 10
843.4026316135585
 20
-175.2496216398539
 30
0.0
 10
843.6974291044369
 20
-176.1848625618039
 30
0.0
 10
843.8251619179734
 20
-176.5900931285272
 30
0.0
  0
SPLINE
  5
556
330
18
100
AcDbEntity
  8
L-ZISSEN
100
AcDbSpline
210
0.0
220
0.0
230
1.0
 70
     8
 71
     3
 72
     9
 73
     5
 74
     0
 42
0.000000001
 43
0.00000001
 40
0.0
 40
0.0
 40
0.0
 40
0.0
 40
0.4986505753452703
 40
1.0
 40
1.0
 40
1.0
 40
1.0
 10
830.361706476471
 20
-172.1793494151483
 30
0.0
 10
832.4882651098476
 20
-172.2462756331203
 30
0.0
 10
836.7528919618369
 20
-172.3804902942096
 30
0.0
 10
840.9172435593243
 20
-173.3094042767146
 30
0.0
 10
843.0050388367833
 20
-173.7751147673974
 30
0.0
  0
LINE
  5
557
330
18
100
AcDbEntity
  8
L-ZISSEN
100
AcDbLine
 10
904.3629258329036
 20
-229.1311112569223
 30
0.0
 11
908.3617045933368
 21
-229.1311112569223
 31
0.0
  0
LINE
  5
558
330
18
100
AcDbEntity
  8
L-ZISSEN
100
AcDbLine
 10
908.3617045933368
 20
-263.6311141179452
 30
0.0
 11
904.3629258329036
 21
-263.6311141179452
 31
0.0
  0
ARC
  5
559
330
18
100
AcDbEntity
  8
L-ZISSEN
100
AcDbCircle
 10
908.3617078516197
 20
-230.1311132371169
 30
0.0
 40
1.000000000000085
100
AcDbArc
 50
0.0
 51
90.0
  0
ARC
  5
55A
330
18
100
AcDbEntity
  8
L-ZISSEN
100
AcDbCircle
 10
908.3617078516152
 20
-262.6311132370871
 30
0.0
 40
1.000000000000085
100
AcDbArc
 50
270.0
 51
359.999999999987
  0
LINE
  5
55B
330
18
100
AcDbEntity
  8
L-ZISSEN
100
AcDbLine
 10
851.3385779613616
 20
-291.0186921583066
 30
0.0
 11
851.3385779613616
 21
-299.0186897443185
 31
0.0
  0
SPLINE
  5
55C
330
18
100
AcDbEntity
  8
L-ZISSEN
100
AcDbSpline
210
0.0
220
0.0
230
1.0
 70
     8
 71
     3
 72
    11
 73
     7
 74
     0
 42
0.000000001
 43
0.00000001
 40
0.0
 40
0.0
 40
0.0
 40
0.0
 40
0.257663246284128
 40
0.5153186664019019
 40
0.7731577895798439
 40
1.0
 40
1.0
 40
1.0
 40
1.0
 10
858.8379114324214
 20
-291.4657754228959
 30
0.0
 10
858.5990867621192
 20
-290.8304186304625
 30
0.0
 10
858.1214446754818
 20
-289.5597243436831
 30
0.0
 10
856.6574680532765
 20
-288.1023739894787
 30
0.0
 10
854.9047277293328
 20
-287.1799691777634
 30
0.0
 10
853.6361025332205
 20
-287.0701087531744
 30
0.0
 10
853.0423562431695
 20
-287.0186915026555
 30
0.0
  0
LINE
  5
55D
330
18
100
AcDbEntity
  8
L-ZISSEN
100
AcDbLine
 10
858.8379114324214
 20
-291.4657754228959
 30
0.0
 11
859.0123984420659
 21
-292.1169747935186
 31
0.0
  0
SPLINE
  5
55E
330
18
100
AcDbEntity
  8
L-ZISSEN
100
AcDbSpline
210
0.0
220
0.0
230
1.0
 70
     8
 71
     3
 72
    18
 73
    14
 74
     0
 42
0.000000001
 43
0.00000001
 40
0.0
 40
0.0
 40
0.0
 40
0.0
 40
0.0017326240338136
 40
0.0041959291252826
 40
0.0367910513119332
 40
0.2116261368020265
 40
0.3445480145746751
 40
0.5219065510717178
 40
0.6395110156671812
 40
0.7298219887839464
 40
0.8037996405172108
 40
0.8969992426297417
 40
1.0
 40
1.0
 40
1.0
 40
1.0
 10
871.331465935147
 20
-291.2693669424901
 30
0.0
 10
871.3366495022726
 20
-291.2705125019389
 30
0.0
 10
871.3492026470037
 20
-291.2732867254075
 30
0.0
 10
871.4521151576807
 20
-291.2954038056936
 30
0.0
 10
871.9606512033231
 20
-291.4133781601369
 30
0.0
 10
872.7465050341623
 20
-291.5787586756536
 30
0.0
 10
873.8458747585189
 20
-291.8129586041103
 30
0.0
 10
874.7993300054366
 20
-292.0209961511931
 30
0.0
 10
875.6475555128507
 20
-292.2078367812172
 30
0.0
 10
876.264470791202
 20
-292.3398439016952
 30
0.0
 10
876.8236362849846
 20
-292.458043021213
 30
0.0
 10
877.4048853075462
 20
-292.5841829108343
 30
0.0
 10
877.8139573134756
 20
-292.6731778133638
 30
0.0
 10
878.0287108773352
 20
-292.7198981271634
 30
0.0
  0
SPLINE
  5
55F
330
18
100
AcDbEntity
  8
L-ZISSEN
100
AcDbSpline
210
0.0
220
0.0
230
1.0
 70
     8
 71
     3
 72
    12
 73
     8
 74
     0
 42
0.000000001
 43
0.00000001
 40
0.0
 40
0.0
 40
0.0
 40
0.0
 40
0.004605291528342
 40
0.025992277968487
 40
0.0755051133617641
 40
0.4997905912140443
 40
1.0
 40
1.0
 40
1.0
 40
1.0
 10
878.2089441472651
 20
-291.7701353655706
 30
0.0
 10
878.2089148394441
 20
-291.7706262390139
 30
0.0
 10
878.2087494260138
 20
-291.7733967300693
 30
0.0
 10
878.2053738792545
 20
-291.7937500417066
 30
0.0
 10
878.1797635275841
 20
-291.9350022395143
 30
0.0
 10
878.1182335520905
 20
-292.2568795901499
 30
0.0
 10
878.0603523298003
 20
-292.5566592651027
 30
0.0
 10
878.0290349775912
 20
-292.7188587711702
 30
0.0
  0
SPLINE
  5
560
330
18
100
AcDbEntity
  8
L-ZISSEN
100
AcDbSpline
210
0.0
220
0.0
230
1.0
 70
     8
 71
     3
 72
    11
 73
     7
 74
     0
 42
0.000000001
 43
0.00000001
 40
0.0
 40
0.0
 40
0.0
 40
0.0
 40
0.01536765784267
 40
0.0945786780304847
 40
0.2898901567140469
 40
1.0
 40
1.0
 40
1.0
 40
1.0
 10
873.0316325480105
 20
-299.0186897443185
 30
0.0
 10
873.0318920867282
 20
-299.0182483486204
 30
0.0
 10
873.0334893912111
 20
-299.0155318239525
 30
0.0
 10
873.0677907090555
 20
-298.9792923468314
 30
0.0
 10
873.1871108815419
 20
-298.8548589027961
 30
0.0
 10
873.3149511219806
 20
-298.7237159407042
 30
0.0
 10
873.4152145141722
 20
-298.6208622680555
 30
0.0
  0
SPLINE
  5
561
330
18
100
AcDbEntity
  8
L-ZISSEN
100
AcDbSpline
210
0.0
220
0.0
230
1.0
 70
     8
 71
     3
 72
    27
 73
    23
 74
     0
 42
0.000000001
 43
0.00000001
 40
0.0
 40
0.0
 40
0.0
 40
0.0
 40
0.0022877242623562
 40
0.0168369031489056
 40
0.1568155307294668
 40
0.2796328572407161
 40
0.3725420371398024
 40
0.4999218898453163
 40
0.5821533858228429
 40
0.6515218445628344
 40
0.7072848667162525
 40
0.7498603445983593
 40
0.8179944782500597
 40
0.8748717559788814
 40
0.908462701550892
 40
0.9373727458828317
 40
0.9541724316101176
 40
0.9686414268349678
 40
0.9891902012019584
 40
0.9955359574606998
 40
0.9979588406871646
 40
1.0
 40
1.0
 40
1.0
 40
1.0
 10
870.5908074432971
 20
-292.1169002877126
 30
0.0
 10
870.5938373118822
 20
-292.1235535004515
 30
0.0
 10
870.616136154769
 20
-292.1725189725395
 30
0.0
 10
870.8013228303114
 20
-292.555515189454
 30
0.0
 10
871.0892163889591
 20
-293.1740218873596
 30
0.0
 10
871.4584761430312
 20
-293.959293676484
 30
0.0
 10
871.80719183633
 20
-294.7053523400112
 30
0.0
 10
872.1017370697607
 20
-295.3599380674301
 30
0.0
 10
872.3694820601529
 20
-295.9586060134874
 30
0.0
 10
872.5653046391378
 20
-296.4013445316554
 30
0.0
 10
872.7247994764773
 20
-296.756887948541
 30
0.0
 10
872.8819871137191
 20
-297.1082237594054
 30
0.0
 10
873.0347867246944
 20
-297.4608602197956
 30
0.0
 10
873.1758018545859
 20
-297.7922896596282
 30
0.0
 10
873.2766210286716
 20
-298.0406695465975
 30
0.0
 10
873.3392279331354
 20
-298.2052538759784
 30
0.0
 10
873.3827166327771
 20
-298.3300175200119
 30
0.0
 10
873.4143128552657
 20
-298.437680699626
 30
0.0
 10
873.4362918269487
 20
-298.5239418481129
 30
0.0
 10
873.4332287491586
 20
-298.5859159060934
 30
0.0
 10
873.4252540362029
 20
-298.6084846016084
 30
0.0
 10
873.4183646491508
 20
-298.6169784855512
 30
0.0
 10
873.4152145141722
 20
-298.6208622680555
 30
0.0
  0
SPLINE
  5
562
330
18
100
AcDbEntity
  8
L-ZISSEN
100
AcDbSpline
210
0.0
220
0.0
230
1.0
 70
     8
 71
     3
 72
    22
 73
    18
 74
     0
 42
0.000000001
 43
0.00000001
 40
0.0
 40
0.0
 40
0.0
 40
0.0
 40
0.0019557350503006
 40
0.0103376981738663
 40
0.0435709343982756
 40
0.0601379326781815
 40
0.1264158673214407
 40
0.3915570639622817
 40
0.6949841439003269
 40
0.8396853178527441
 40
0.9175302783331719
 40
0.9587284214055253
 40
0.9801969897314908
 40
0.9911901102625891
 40
0.9967035494471349
 40
0.9994048573051905
 40
1.0
 40
1.0
 40
1.0
 40
1.0
 10
859.0123984420659
 20
-292.1169747935186
 30
0.0
 10
859.0140790393796
 20
-292.1232463093273
 30
0.0
 10
859.0229624041101
 20
-292.156396524391
 30
0.0
 10
859.0554044468079
 20
-292.277476001775
 30
0.0
 10
859.0954170895063
 20
-292.4268025246253
 30
0.0
 10
859.1735132191586
 20
-292.7182684545463
 30
0.0
 10
859.4011387017279
 20
-293.5677677348784
 30
0.0
 10
859.8015344172034
 20
-295.0620666155042
 30
0.0
 10
860.2412755808307
 20
-296.7032119300703
 30
0.0
 10
860.5574064050068
 20
-297.8830201898085
 30
0.0
 10
860.7119064542755
 20
-298.45962877112
 30
0.0
 10
860.7916071449561
 20
-298.7570633714982
 30
0.0
 10
860.8313037428677
 20
-298.9052254559223
 30
0.0
 10
860.8503832456106
 20
-298.9764160502056
 30
0.0
 10
860.8585400788204
 20
-299.0068752833887
 30
0.0
 10
860.8614924918809
 20
-299.0178777910454
 30
0.0
 10
860.8616742392721
 20
-299.0185655720248
 30
0.0
 10
860.8617070520284
 20
-299.0186897443185
 30
0.0
  0
LINE
  5
563
330
18
100
AcDbEntity
  8
L-ZISSEN
100
AcDbLine
 10
876.5986464375617
 20
-295.192902289475
 30
0.0
 11
877.9278337413432
 21
-293.348142258967
 31
0.0
  0
SPLINE
  5
564
330
18
100
AcDbEntity
  8
L-ZISSEN
100
AcDbSpline
210
0.0
220
0.0
230
1.0
 70
     8
 71
     3
 72
     9
 73
     5
 74
     0
 42
0.000000001
 43
0.00000001
 40
0.0
 40
0.0
 40
0.0
 40
0.0
 40
0.5000408913295881
 40
1.0
 40
1.0
 40
1.0
 40
1.0
 10
878.0289716476561
 20
-292.7191046403299
 30
0.0
 10
878.0127540097208
 20
-292.8251392544249
 30
0.0
 10
877.9803213862776
 20
-293.0371911404485
 30
0.0
 10
877.9453435706243
 20
-293.2444851195108
 30
0.0
 10
877.927856093085
 20
-293.3481236325155
 30
0.0
  0
LWPOLYLINE
  5
565
330
18
100
AcDbEntity
  8
L-ZISSEN
100
AcDbPolyline
 90
        9
 70
   128
 43
0.0
 10
879.7727763110759
 20
-292.004720620955
 10
879.7737560624244
 20
-292.0087364838968
 10
879.7747320884826
 20
-292.0127523468385
 10
879.775711839831
 20
-292.0167719350706
 10
879.7766915911795
 20
-292.0207877980123
 10
879.7776676172377
 20
-292.024803660954
 10
879.7786473685862
 20
-292.0288232491861
 10
879.7796271199347
 20
-292.0328391121278
 10
879.7806031459929
 20
-292.0368587003599
  0
SPLINE
  5
566
330
18
100
AcDbEntity
  8
L-ZISSEN
100
AcDbSpline
210
0.0
220
0.0
230
1.0
 70
     8
 71
     3
 72
    19
 73
    15
 74
     0
 42
0.000000001
 43
0.00000001
 40
0.0
 40
0.0
 40
0.0
 40
0.0
 40
0.0005554273444965
 40
0.0016479817042818
 40
0.0056583720958406
 40
0.0225023357155477
 40
0.1044795368555908
 40
0.500380275743378
 40
0.8958921357399271
 40
0.9776372470109459
 40
0.9944015995705938
 40
0.9983785105559008
 40
0.9994583129746065
 40
1.0
 40
1.0
 40
1.0
 40
1.0
 10
879.5303753966452
 20
-293.5742673800836
 30
0.0
 10
879.5304855817174
 20
-293.5740007656626
 30
0.0
 10
879.5308125065292
 20
-293.5732097068641
 30
0.0
 10
879.5315146910614
 20
-293.5703479181988
 30
0.0
 10
879.5340186246647
 20
-293.5592425056442
 30
0.0
 10
879.543797923681
 20
-293.5067130128936
 30
0.0
 10
879.5880575540893
 20
-293.2537316427002
 30
0.0
 10
879.6613368538026
 20
-292.8061198828565
 30
0.0
 10
879.7337843922758
 20
-292.3584878402577
 30
0.0
 10
879.7719579339916
 20
-292.1048899196797
 30
0.0
 10
879.7793190105219
 20
-292.052146028917
 30
0.0
 10
879.7804553264284
 20
-292.0408853975558
 30
0.0
 10
879.7806947316574
 20
-292.037979121172
 30
0.0
 10
879.7806316650729
 20
-292.0371392680462
 30
0.0
 10
879.7806105965735
 20
-292.0368587003599
 30
0.0
  0
LINE
  5
567
330
18
100
AcDbEntity
  8
L-ZISSEN
100
AcDbLine
 10
879.5303716713549
 20
-293.5742673800836
 30
0.0
 11
877.754324620402
 21
-296.0942102001558
 31
0.0
  0
LINE
  5
568
330
18
100
AcDbEntity
  8
L-ZISSEN
100
AcDbLine
 10
877.754324620402
 20
-296.0942102001558
 30
0.0
 11
875.1165210658671
 21
-299.0186897443185
 31
0.0
  0
LINE
  5
569
330
18
100
AcDbEntity
  8
L-ZISSEN
100
AcDbLine
 10
785.606894637365
 20
-299.0186897443185
 30
0.0
 11
875.1165210658671
 21
-299.0186897443185
 31
0.0
  0
LINE
  5
56A
330
18
100
AcDbEntity
  8
L-ZISSEN
100
AcDbLine
 10
889.1116469556453
 20
-189.0186897443185
 30
0.0
 11
889.111648064986
 21
-219.000390535739
 31
0.0
  0
LINE
  5
56B
330
18
100
AcDbEntity
  8
L-ZISSEN
100
AcDbLine
 10
909.3617066198947
 20
-262.6311120913873
 30
0.0
 11
909.3617066198947
 21
-230.1311132834802
 31
0.0
  0
SPLINE
  5
56C
330
18
100
AcDbEntity
  8
L-ZISSEN
100
AcDbSpline
210
0.0
220
0.0
230
1.0
 70
     8
 71
     3
 72
    13
 73
     9
 74
     0
 42
0.000000001
 43
0.00000001
 40
0.0
 40
0.0
 40
0.0
 40
0.0
 40
0.0102464586948092
 40
0.1417462286359893
 40
0.3564327541577629
 40
0.5709866474739387
 40
0.7854935224030571
 40
1.0
 40
1.0
 40
1.0
 40
1.0
 10
904.3629258329036
 20
-263.6311141179452
 30
0.0
 10
904.3522391829717
 20
-263.631168821153
 30
0.0
 10
904.2044034896815
 20
-263.6319255678176
 30
0.0
 10
903.8327071075553
 20
-263.6767579514484
 30
0.0
 10
903.2800288734841
 20
-263.9032047674212
 30
0.0
 10
902.772685115189
 20
-264.3583461850884
 30
0.0
 10
902.4280044549612
 20
-264.9566475234022
 30
0.0
 10
902.3838063614419
 20
-265.4062053536608
 30
0.0
 10
902.3617073351504
 20
-265.6309840606103
 30
0.0
  0
SPLINE
  5
56D
330
18
100
AcDbEntity
  8
L-ZISSEN
100
AcDbSpline
210
0.0
220
0.0
230
1.0
 70
     8
 71
     3
 72
    13
 73
     9
 74
     0
 42
0.000000001
 43
0.00000001
 40
0.0
 40
0.0
 40
0.0
 40
0.0
 40
0.0102464535798842
 40
0.1417461578777545
 40
0.3564325762302598
 40
0.5709847789164797
 40
0.7854936294824473
 40
1.0
 40
1.0
 40
1.0
 40
1.0
 10
904.3629258329036
 20
-229.1311112569223
 30
0.0
 10
904.3522391831536
 20
-229.1310565535297
 30
0.0
 10
904.2044034924036
 20
-229.1302998043121
 30
0.0
 10
903.8327068517963
 20
-229.0854676807156
 30
0.0
 10
903.2800319657524
 20
-228.8590197062148
 30
0.0
 10
902.7726802125305
 20
-228.4038858309644
 30
0.0
 10
902.4280063533677
 20
-227.805578943021
 30
0.0
 10
902.3838069227211
 20
-227.3560196575753
 30
0.0
 10
902.3617073351504
 20
-227.1312413142572
 30
0.0
  0
CIRCLE
  5
56E
330
18
100
AcDbEntity
  8
L-ZISSEN
100
AcDbCircle
 10
894.8617078516188
 20
-225.3762421098132
 30
0.0
 40
3.499999999999943
  0
CIRCLE
  5
56F
330
18
100
AcDbEntity
  8
L-ZISSEN
100
AcDbCircle
 10
894.8617078516188
 20
-225.3762421098132
 30
0.0
 40
5.0
  0
CIRCLE
  5
570
330
18
100
AcDbEntity
  8
L-ZISSEN
100
AcDbCircle
 10
894.8617078516188
 20
-267.3762421098128
 30
0.0
 40
3.499999999999943
  0
CIRCLE
  5
571
330
18
100
AcDbEntity
  8
L-ZISSEN
100
AcDbCircle
 10
894.8617078516188
 20
-267.3762421098128
 30
0.0
 40
5.0
  0
ELLIPSE
  5
572
330
18
100
AcDbEntity
  8
L-ZISSEN
100
AcDbEllipse
 10
894.3568314972297
 20
-266.6874058912944
 30
0.0
 11
7.313701173316219
 21
-3.256269558135045
 31
1.058708676282549E-11
210
1.208090823595697E-12
220
-5.378766891228128E-13
230
-1.0
 40
0.9992702036836119
 41
5.864577491615925
 42
6.701793122743174
  0
LINE
  5
573
330
18
100
AcDbEntity
  8
L-ZISSEN
100
AcDbLine
 10
902.3617073351504
 20
-225.8225021289239
 30
0.0
 11
902.3617073351504
 21
-225.8225170300851
 31
0.0
  0
SPLINE
  5
574
330
18
100
AcDbEntity
  8
L-ZISSEN
100
AcDbSpline
210
0.0
220
0.0
230
1.0
 70
     8
 71
     3
 72
    10
 73
     6
 74
     0
 42
0.000000001
 43
0.00000001
 40
0.0
 40
0.0
 40
0.0
 40
0.0
 40
0.1414276712832367
 40
0.5707148048240797
 40
1.0
 40
1.0
 40
1.0
 40
1.0
 10
900.0199898535373
 20
-220.1691058801065
 30
0.0
 10
900.2207502317558
 20
-220.3846664401348
 30
0.0
 10
901.0308952269377
 20
-221.2545358357628
 30
0.0
 10
902.0950148830477
 20
-223.1298768825135
 30
0.0
 10
902.2728099849171
 20
-224.924961731018
 30
0.0
 10
902.3617073351504
 20
-225.8225021289239
 30
0.0
  0
SPLINE
  5
575
330
18
100
AcDbEntity
  8
L-ZISSEN
100
AcDbSpline
210
0.0
220
0.0
230
1.0
 70
     8
 71
     3
 72
    11
 73
     7
 74
     0
 42
0.000000001
 43
0.00000001
 40
0.0
 40
0.0
 40
0.0
 40
0.0
 40
0.3132474602937684
 40
0.6264985971245276
 40
0.9396801187867853
 40
1.0
 40
1.0
 40
1.0
 40
1.0
 10
879.7727763110759
 20
-292.004720620955
 30
0.0
 10
879.741003355675
 20
-291.781039773433
 30
0.0
 10
879.6774570719542
 20
-291.3336754530816
 30
0.0
 10
879.8711566207355
 20
-290.6720111375981
 30
0.0
 10
880.1512405201781
 20
-290.258225016047
 30
0.0
 10
880.3458821136244
 20
-290.075717114055
 30
0.0
 10
880.3773164207103
 20
-290.0462423787961
 30
0.0
  0
LINE
  5
576
330
18
100
AcDbEntity
  8
L-ZISSEN
100
AcDbLine
 10
899.7163637930514
 20
-272.633285574759
 30
0.0
 11
880.3773164207103
 21
-290.0462423787961
 31
0.0
  0
LINE
  5
577
330
18
100
AcDbEntity
  8
L-ZISSEN
100
AcDbLine
 10
902.3617073351504
 20
-261.0971745850482
 30
0.0
 11
902.3617073351504
 21
-266.6917455719362
 31
0.0
  0
LINE
  5
578
330
18
100
AcDbEntity
  8
L-ZISSEN
100
AcDbLine
 10
902.3617073351504
 20
-225.8225170300851
 30
0.0
 11
902.3617073351504
 21
-231.6650518891557
 31
0.0
  0
LINE
  5
579
330
18
100
AcDbEntity
  8
L-ZISSEN
100
AcDbLine
 10
900.0199824029567
 20
-220.1690984295259
 30
0.0
 11
889.1116477046141
 21
-209.2607637311837
 31
0.0
  0
LINE
  5
57A
330
18
100
AcDbEntity
  8
L-ZISSEN
100
AcDbLine
 10
889.6972335158805
 20
-209.8463456718254
 30
0.0
 11
889.6970783836921
 21
-209.8461905311314
 31
0.0
  0
LINE
  5
57B
330
18
100
AcDbEntity
  8
L-ZISSEN
100
AcDbLine
 10
889.1116487970173
 20
-208.4330432407522
 30
0.0
 11
889.111648790981
 21
-208.4328384776012
 31
0.0
  0
LINE
  5
57C
330
18
100
AcDbEntity
  8
L-ZISSEN
100
AcDbLine
 10
870.5908074432971
 20
-292.1169002877126
 30
0.0
 11
859.0123984420659
 21
-292.1169747935186
 31
0.0
  0
SPLINE
  5
57D
330
18
100
AcDbEntity
  8
L-ZISSEN
100
AcDbSpline
210
0.0
220
0.0
230
1.0
 70
     8
 71
     3
 72
     9
 73
     5
 74
     0
 42
0.000000001
 43
0.00000001
 40
0.0
 40
0.0
 40
0.0
 40
0.0
 40
0.4999469582392646
 40
1.0
 40
1.0
 40
1.0
 40
1.0
 10
871.3314398581149
 20
-291.2693930195222
 30
0.0
 10
871.2108572594404
 20
-291.4131204830657
 30
0.0
 10
870.9696664757209
 20
-291.7006059076188
 30
0.0
 10
870.7171027183902
 20
-291.9781256809232
 30
0.0
 10
870.5908074432971
 20
-292.1169002877126
 30
0.0
  0
SPLINE
  5
57E
330
18
100
AcDbEntity
  8
L-ZISSEN
100
AcDbSpline
210
0.0
220
0.0
230
1.0
 70
     8
 71
     3
 72
    11
 73
     7
 74
     0
 42
0.000000001
 43
0.00000001
 40
0.0
 40
0.0
 40
0.0
 40
0.0
 40
0.2500116933954307
 40
0.5001036687462131
 40
0.7500905126673979
 40
1.0
 40
1.0
 40
1.0
 40
1.0
 10
846.3852131197216
 20
-215.1423407123933
 30
0.0
 10
848.840633936449
 20
-221.3574463560691
 30
0.0
 10
853.7522640369568
 20
-233.7896533934078
 30
0.0
 10
860.2804879833836
 20
-252.7502369594628
 30
0.0
 10
866.2388991775349
 20
-271.8925709485221
 30
0.0
 10
869.6341014284096
 20
-284.8111186905388
 30
0.0
 10
871.3314398581149
 20
-291.2693930195222
 30
0.0
  0
SPLINE
  5
57F
330
18
100
AcDbEntity
  8
L-ZISSEN
100
AcDbSpline
210
0.0
220
0.0
230
1.0
 70
     8
 71
     3
 72
    11
 73
     7
 74
     0
 42
0.000000001
 43
0.00000001
 40
0.0
 40
0.0
 40
0.0
 40
0.0
 40
0.2588652760978293
 40
0.5117989005258669
 40
0.7588326103794465
 40
1.0
 40
1.0
 40
1.0
 40
1.0
 10
878.2089441472651
 20
-291.7701353655706
 30
0.0
 10
876.4179601994463
 20
-284.8027239554486
 30
0.0
 10
872.8770309980835
 20
-271.0275527429757
 30
0.0
 10
866.6695724117851
 20
-250.863814429828
 30
0.0
 10
860.0070539067608
 20
-231.3634850752998
 30
0.0
 10
855.0505350474821
 20
-218.7292758627533
 30
0.0
 10
852.6020548695685
 20
-212.4880788253198
 30
0.0
  0
SPLINE
  5
580
330
18
100
AcDbEntity
  8
L-ZISSEN
100
AcDbSpline
210
0.0
220
0.0
230
1.0
 70
     8
 71
     3
 72
     9
 73
     5
 74
     0
 42
0.000000001
 43
0.00000001
 40
0.0
 40
0.0
 40
0.0
 40
0.0
 40
0.4656151167967856
 40
1.0
 40
1.0
 40
1.0
 40
1.0
 10
873.4152145141722
 20
-298.6208622680555
 30
0.0
 10
873.9403503242936
 20
-298.1179425478557
 30
0.0
 10
875.0681827145625
 20
-297.0378235782235
 30
0.0
 10
876.0656247608601
 20
-295.8354362018653
 30
0.0
 10
876.5986427122714
 20
-295.1928985641847
 30
0.0
  0
SPLINE
  5
581
330
18
100
AcDbEntity
  8
L-ZISSEN
100
AcDbSpline
210
0.0
220
0.0
230
1.0
 70
     8
 71
     3
 72
    12
 73
     8
 74
     0
 42
0.000000001
 43
0.00000001
 40
0.0
 40
0.0
 40
0.0
 40
0.0
 40
0.2146456347157142
 40
0.4356103673680912
 40
0.650516940361802
 40
0.8717609388461589
 40
1.0
 40
1.0
 40
1.0
 40
1.0
 10
883.6431954729767
 20
-218.945601336802
 30
0.0
 10
883.606585037827
 20
-219.7013652958937
 30
0.0
 10
883.5322863681738
 20
-221.2351426601507
 30
0.0
 10
882.9349599531622
 20
-223.461870910886
 30
0.0
 10
881.9855907867002
 20
-225.5754452148836
 30
0.0
 10
880.8799242479488
 20
-227.2399640902482
 30
0.0
 10
880.0428085316223
 20
-228.1400607852269
 30
0.0
 10
879.7356378960819
 20
-228.4703416155229
 30
0.0
  0
ARC
  5
582
330
18
100
AcDbEntity
  8
L-ZISSEN
100
AcDbCircle
 10
870.7165447157165
 20
-219.0003912163687
 30
0.0
 40
18.39510334926945
100
AcDbArc
 50
312.3983998032271
 51
0.0000021199778402
  0
LINE
  5
583
330
18
100
AcDbEntity
  8
L-ZISSEN
100
AcDbLine
 10
883.1200274367009
 20
-232.5846999444765
 30
0.0
 11
866.2299629433699
 21
-249.8566210736077
 31
0.0
  0
LINE
  5
584
330
18
100
AcDbEntity
  8
L-ZISSEN
100
AcDbLine
 10
883.6431954729767
 20
-218.945601336802
 30
0.0
 11
883.6431954729767
 21
-189.0186897443185
 31
0.0
  0
LINE
  5
585
330
18
100
AcDbEntity
  8
L-ZISSEN
100
AcDbLine
 10
864.3130863333784
 20
-244.0776436874423
 30
0.0
 11
879.7356378960819
 21
-228.4703416155229
 31
0.0
  0
LINE
  5
586
330
18
100
AcDbEntity
  8
L-ZISSEN
100
AcDbLine
 10
902.3617073351504
 20
-261.0971745850482
 30
0.0
 11
869.783616342386
 21
-261.0971745850482
 31
0.0
  0
LINE
  5
587
330
18
100
AcDbEntity
  8
L-ZISSEN
100
AcDbLine
 10
902.3617073351504
 20
-231.6650518891557
 30
0.0
 11
884.0576914907681
 21
-231.6650518891557
 31
0.0
  0
LINE
  5
588
330
18
100
AcDbEntity
  8
L-ZISSEN
100
AcDbLine
 10
843.8224129272983
 20
-176.5900931285272
 30
0.0
 11
843.8224129272983
 21
-202.4190399588379
 31
0.0
  0
LINE
  5
589
330
18
100
AcDbEntity
  8
L-ZISSEN
100
AcDbLine
 10
846.0901320176706
 20
-133.1186876462351
 30
0.0
 11
846.0901320176706
 21
-204.0943119139358
 31
0.0
  0
LINE
  5
58A
330
18
100
AcDbEntity
  8
L-TYUSIN
100
AcDbLine
 10
627.6371259506625
 20
-268.6311132370869
 30
0.0
 11
627.6371259506625
 21
-224.1311132371169
 31
0.0
1001
PE_URL
1000

  0
LINE
  5
58C
330
18
100
AcDbEntity
  8
L-TYUSIN
100
AcDbLine
 10
623.1875493496038
 20
-117.718687646235
 30
0.0
 11
623.1875493496038
 21
-131.018687646235
 31
0.0
1001
PE_URL
1000

  0
LINE
  5
58D
330
18
100
AcDbEntity
  8
L-TYUSIN
100
AcDbLine
 10
884.8617078516188
 20
-225.3762421098132
 30
0.0
 11
904.8617078516188
 21
-225.3762421098132
 31
0.0
1001
PE_URL
1000

  0
LINE
  5
58E
330
18
100
AcDbEntity
  8
L-TYUSIN
100
AcDbLine
 10
894.8617078516188
 20
-215.3762421098132
 30
0.0
 11
894.8617078516188
 21
-235.3762421098132
 31
0.0
1001
PE_URL
1000

  0
LINE
  5
58F
330
18
100
AcDbEntity
  8
L-TYUSIN
100
AcDbLine
 10
884.8617078516188
 20
-267.3762421098128
 30
0.0
 11
904.8617078516188
 21
-267.3762421098128
 31
0.0
1001
PE_URL
1000

  0
LINE
  5
590
330
18
100
AcDbEntity
  8
L-TYUSIN
100
AcDbLine
 10
894.8617078516188
 20
-257.3762421098128
 30
0.0
 11
894.8617078516188
 21
-277.3762421098128
 31
0.0
1001
PE_URL
1000

  0
LINE
  5
591
330
18
100
AcDbEntity
  8
L-TYUSIN
100
AcDbLine
 10
746.3617090833375
 20
-246.3811126874338
 30
0.0
 11
914.3617066198947
 21
-246.3811126874338
 31
0.0
1001
PE_URL
1000

  0
LINE
  5
592
330
18
100
AcDbEntity
  8
L-TYUSIN
100
AcDbLine
 10
649.8871259506475
 20
-246.3811132371019
 30
0.0
 11
605.3871259506775
 21
-246.3811132371019
 31
0.0
1001
PE_URL
1000

  0
LINE
  5
593
330
18
100
AcDbEntity
  8
L-TYUSIN
100
AcDbLine
 10
642.137121646859
 20
-225.3762421534906
 30
0.0
 11
587.1371347598808
 21
-225.3762421534906
 31
0.0
1001
PE_URL
1000

  0
LINE
  5
594
330
18
100
AcDbEntity
  8
L-TYUSIN
100
AcDbLine
 10
642.137121646859
 20
-267.3762415872465
 30
0.0
 11
587.1371347598808
 21
-267.3762415872465
 31
0.0
1001
PE_URL
1000

  0
LINE
  5
595
330
18
100
AcDbEntity
  8
L-TYUSIN
100
AcDbLine
 10
780.6553795338089
 20
-32.62072722054154
 30
0.0
 11
811.0553795338085
 21
-32.62072722054154
 31
0.0
1001
PE_URL
1000

  0
LINE
  5
596
330
18
100
AcDbEntity
  8
L-TYUSIN
100
AcDbLine
 10
795.8553795338087
 20
-17.42072722054172
 30
0.0
 11
795.8553795338087
 21
-47.82072722054136
 31
0.0
1001
PE_URL
1000

  0
LINE
  5
597
330
18
100
AcDbEntity
  8
L-TYUSIN
100
AcDbLine
 10
864.8680361694235
 20
-17.42072722054172
 30
0.0
 11
864.8680361694235
 21
-47.82072722054136
 31
0.0
1001
PE_URL
1000

  0
LINE
  5
598
330
18
100
AcDbEntity
  8
L-TYUSIN
100
AcDbLine
 10
665.0285012582092
 20
-221.0186910725666
 30
0.0
 11
683.1371347598808
 21
-221.0186910725666
 31
0.0
1001
PE_URL
1000

  0
LINE
  5
599
330
18
100
AcDbEntity
  8
L-TYUSIN
100
AcDbLine
 10
652.6371347598808
 20
-289.0186897443185
 30
0.0
 11
652.6371347598808
 21
-304.0186897443185
 31
0.0
  0
LINE
  5
59A
330
18
100
AcDbEntity
  8
L-TYUSIN
100
AcDbLine
 10
797.3617078516161
 20
-289.0186897443185
 30
0.0
 11
797.3617078516161
 21
-304.0186897443185
 31
0.0
  0
LINE
  5
59B
330
18
100
AcDbEntity
  8
L-TYUSIN
100
AcDbLine
 10
863.3617078516161
 20
-289.0186897443185
 30
0.0
 11
863.3617078516161
 21
-304.0186897443185
 31
0.0
  0
LINE
  5
59C
330
18
100
AcDbEntity
  8
L-ZISSEN
100
AcDbLine
 10
1018.373682378867
 20
-120.4811455901022
 30
0.0
 11
1018.373682378867
 21
-156.9811455901022
 31
0.0
  0
LINE
  5
59D
330
18
100
AcDbEntity
  8
L-ZISSEN
100
AcDbLine
 10
1045.873682378867
 20
-120.4811455901022
 30
0.0
 11
1045.873682378867
 21
-156.9811455901022
 31
0.0
  0
LINE
  5
59E
330
18
100
AcDbEntity
  8
L-ZISSEN
100
AcDbLine
 10
1018.373682378867
 20
-156.9811455901022
 30
0.0
 11
1045.873682378867
 21
-156.9811455901022
 31
0.0
  0
LINE
  5
59F
330
18
100
AcDbEntity
  8
L-ZISSEN
100
AcDbLine
 10
1061.073682378868
 20
-142.8311455901027
 30
0.0
 11
1045.873682378868
 21
-142.8311455901026
 31
0.0
  0
LINE
  5
5A0
330
18
100
AcDbEntity
  8
L-ZISSEN
100
AcDbLine
 10
1045.873682378867
 20
-120.4811455901022
 30
0.0
 11
1061.073682378868
 21
-120.4811455901025
 31
0.0
  0
LINE
  5
5A1
330
18
100
AcDbEntity
  8
L-ZISSEN
100
AcDbLine
 10
1018.373682378867
 20
-120.4811455901022
 30
0.0
 11
1045.873682378867
 21
-120.4811455901022
 31
0.0
  0
LINE
  5
5A2
330
18
100
AcDbEntity
  8
L-ZISSEN
100
AcDbLine
 10
1070.823682378868
 20
-142.4258007047056
 30
0.0
 11
1065.823682378868
 21
-142.4258007047054
 31
0.0
  0
LINE
  5
5A3
330
18
100
AcDbEntity
  8
L-ZISSEN
100
AcDbLine
 10
1070.823682378868
 20
-120.5364904754999
 30
0.0
 11
1065.823682378868
 21
-120.5364904754999
 31
0.0
  0
LINE
  5
5A4
330
18
100
AcDbEntity
  8
L-ZISSEN
100
AcDbLine
 10
1065.823682378868
 20
-120.5364904754999
 30
0.0
 11
1065.823682378868
 21
-142.4258007047054
 31
0.0
  0
LINE
  5
5A5
330
18
100
AcDbEntity
  8
L-ZISSEN
100
AcDbLine
 10
1061.073682378868
 20
-120.4811455901025
 30
0.0
 11
1061.073682378868
 21
-142.8311455901027
 31
0.0
  0
LINE
  5
5A6
330
18
100
AcDbEntity
  8
L-ZISSEN
100
AcDbLine
 10
1065.823682378868
 20
-140.7811455901025
 30
0.0
 11
1061.073682378868
 21
-140.7811455901025
 31
0.0
  0
LINE
  5
5A7
330
18
100
AcDbEntity
  8
L-ZISSEN
100
AcDbLine
 10
1065.823682378868
 20
-122.5311455901028
 30
0.0
 11
1061.073682378868
 21
-122.5311455901027
 31
0.0
  0
LINE
  5
5A8
330
18
100
AcDbEntity
  8
L-ZISSEN
100
AcDbLine
 10
1070.823682378868
 20
-120.5364904754999
 30
0.0
 11
1070.823682378868
 21
-142.4258007047056
 31
0.0
  0
LINE
  5
5A9
330
18
100
AcDbEntity
  8
L-TYUSIN
100
AcDbLine
 10
1040.873682378867
 20
-131.4811455901028
 30
0.0
 11
1075.823682378868
 21
-131.4811455901028
 31
0.0
1001
PE_URL
1000

  0
LINE
  5
5AA
330
18
100
AcDbEntity
  8
L-TYUSIN
100
AcDbLine
 10
1032.123682378867
 20
-161.9811455901022
 30
0.0
 11
1032.123682378867
 21
-115.481145590102
 31
0.0
1001
PE_URL
1000

  0
LINE
  5
5AB
330
18
100
AcDbEntity
  8
L-ZISSEN
100
AcDbLine
 10
1108.49393369847
 20
-156.9811455901022
 30
0.0
 11
1135.99393369847
 21
-156.9811455901022
 31
0.0
  0
LINE
  5
5AC
330
18
100
AcDbEntity
  8
L-ZISSEN
100
AcDbLine
 10
1108.49393369847
 20
-120.481145590102
 30
0.0
 11
1135.99393369847
 21
-120.481145590102
 31
0.0
  0
LINE
  5
5AD
330
18
100
AcDbEntity
  8
L-ZISSEN
100
AcDbLine
 10
1108.49393369847
 20
-120.481145590102
 30
0.0
 11
1108.49393369847
 21
-156.9811455901022
 31
0.0
  0
CIRCLE
  5
5AE
330
18
100
AcDbEntity
  8
L-ZISSEN
100
AcDbCircle
 10
1122.24393369847
 20
-131.425795590102
 30
0.0
 40
10.94465
  0
LINE
  5
5AF
330
18
100
AcDbEntity
  8
L-ZISSEN
100
AcDbLine
 10
1135.99393369847
 20
-120.481145590102
 30
0.0
 11
1135.99393369847
 21
-156.9811455901022
 31
0.0
  0
LINE
  5
5B0
330
18
100
AcDbEntity
  8
L-TYUSIN
100
AcDbLine
 10
1106.29928369847
 20
-131.425795590102
 30
0.0
 11
1138.18858369847
 21
-131.425795590102
 31
0.0
1001
PE_URL
1000

  0
LINE
  5
5B1
330
18
100
AcDbEntity
  8
L-TYUSIN
100
AcDbLine
 10
1122.24393369847
 20
-161.9811455901022
 30
0.0
 11
1122.24393369847
 21
-115.481145590102
 31
0.0
1001
PE_URL
1000

  0
LINE
  5
5B2
330
18
100
AcDbEntity
  8
L-ZISSEN
100
AcDbLine
 10
1135.99393369847
 20
-45.33592853309256
 30
0.0
 11
1108.49393369847
 21
-45.3359285330929
 31
0.0
  0
LINE
  5
5B3
330
18
100
AcDbEntity
  8
L-ZISSEN
100
AcDbLine
 10
1135.99393369847
 20
-72.8359285330929
 30
0.0
 11
1108.49393369847
 21
-72.8359285330929
 31
0.0
  0
LINE
  5
5B4
330
18
100
AcDbEntity
  8
L-ZISSEN
100
AcDbLine
 10
1133.44393369847
 20
-88.33592853309267
 30
0.0
 11
1133.44393369847
 21
-72.8359285330929
 31
0.0
  0
LINE
  5
5B5
330
18
100
AcDbEntity
  8
L-ZISSEN
100
AcDbLine
 10
1111.04393369847
 20
-88.33592853309267
 30
0.0
 11
1111.04393369847
 21
-72.8359285330929
 31
0.0
  0
LINE
  5
5B6
330
18
100
AcDbEntity
  8
L-ZISSEN
100
AcDbLine
 10
1135.99393369847
 20
-72.8359285330929
 30
0.0
 11
1135.99393369847
 21
-45.33592853309256
 31
0.0
  0
LINE
  5
5B7
330
18
100
AcDbEntity
  8
L-ZISSEN
100
AcDbLine
 10
1133.99393369847
 20
-45.33592853309267
 30
0.0
 11
1110.49393369847
 21
-45.3359285330929
 31
0.0
  0
CIRCLE
  5
5B8
330
18
100
AcDbEntity
  8
L-ZISSEN
100
AcDbCircle
 10
1122.24393369847
 20
-59.08592853309267
 30
0.0
 40
3.25
  0
LINE
  5
5B9
330
18
100
AcDbEntity
  8
L-ZISSEN
100
AcDbLine
 10
1133.44393369847
 20
-88.33592853309267
 30
0.0
 11
1111.04393369847
 21
-88.33592853309267
 31
0.0
  0
LINE
  5
5BA
330
18
100
AcDbEntity
  8
L-ZISSEN
100
AcDbLine
 10
1131.74393369847
 20
-93.08592853309267
 30
0.0
 11
1112.74393369847
 21
-93.08592853309267
 31
0.0
  0
LINE
  5
5BB
330
18
100
AcDbEntity
  8
L-ZISSEN
100
AcDbLine
 10
1131.74393369847
 20
-97.78592853309283
 30
0.0
 11
1112.74393369847
 21
-97.78592853309283
 31
0.0
  0
LINE
  5
5BC
330
18
100
AcDbEntity
  8
L-ZISSEN
100
AcDbLine
 10
1131.39393369847
 20
-93.0859285330929
 30
0.0
 11
1131.39393369847
 21
-88.33592853309267
 31
0.0
  0
LINE
  5
5BD
330
18
100
AcDbEntity
  8
L-ZISSEN
100
AcDbLine
 10
1131.74393369847
 20
-97.78592853309283
 30
0.0
 11
1131.74393369847
 21
-93.08592853309267
 31
0.0
  0
LINE
  5
5BE
330
18
100
AcDbEntity
  8
L-ZISSEN
100
AcDbLine
 10
1113.09393369847
 20
-93.08592853309267
 30
0.0
 11
1113.09393369847
 21
-88.33592853309267
 31
0.0
  0
LINE
  5
5BF
330
18
100
AcDbEntity
  8
L-ZISSEN
100
AcDbLine
 10
1112.74393369847
 20
-97.78592853309283
 30
0.0
 11
1112.74393369847
 21
-93.08592853309267
 31
0.0
  0
LINE
  5
5C0
330
18
100
AcDbEntity
  8
L-ZISSEN
100
AcDbLine
 10
1108.49393369847
 20
-72.8359285330929
 30
0.0
 11
1108.49393369847
 21
-45.3359285330929
 31
0.0
  0
LINE
  5
5C1
330
18
100
AcDbEntity
  8
L-TYUSIN
100
AcDbLine
 10
1122.24393369847
 20
-102.7859285330928
 30
0.0
 11
1122.24393369847
 21
-40.33592853309278
 31
0.0
1001
PE_URL
1000

  0
LINE
  5
5C2
330
18
100
AcDbEntity
  8
L-TYUSIN
100
AcDbLine
 10
1106.29928369847
 20
-59.08592853309267
 30
0.0
 11
1138.18858369847
 21
-59.08592853309267
 31
0.0
1001
PE_URL
1000

  0
LINE
  5
5C3
330
18
100
AcDbEntity
  8
L-ZISSEN
100
AcDbLine
 10
1111.24393369847
 20
-312.3869774997644
 30
0.0
 11
1111.24393369847
 21
-292.3869774997644
 31
0.0
  0
LINE
  5
5C4
330
18
100
AcDbEntity
  8
L-ZISSEN
100
AcDbLine
 10
1133.243933698471
 20
-292.3869774997644
 30
0.0
 11
1133.243933698471
 21
-312.3869774997644
 31
0.0
  0
LINE
  5
5C5
330
18
100
AcDbEntity
  8
L-ZISSEN
100
AcDbLine
 10
1133.74393369847
 20
-337.1951457813822
 30
0.0
 11
1148.243933698471
 21
-337.1951457813822
 31
0.0
  0
LINE
  5
5C6
330
18
100
AcDbEntity
  8
L-ZISSEN
100
AcDbLine
 10
1148.243933698471
 20
-349.8869774997644
 30
0.0
 11
1133.243933698471
 21
-349.8869774997644
 31
0.0
  0
LINE
  5
5C7
330
18
100
AcDbEntity
  8
L-ZISSEN
100
AcDbLine
 10
1139.493933698471
 20
-312.3869774997644
 30
0.0
 11
1139.493933698471
 21
-324.3869774997643
 31
0.0
  0
LINE
  5
5C8
330
18
100
AcDbEntity
  8
L-ZISSEN
100
AcDbLine
 10
1105.211169599679
 20
-312.3869774997644
 30
0.0
 11
1139.493933698471
 21
-312.3869774997644
 31
0.0
  0
LINE
  5
5C9
330
18
100
AcDbEntity
  8
L-ZISSEN
100
AcDbLine
 10
1135.720872770042
 20
-282.3869774997644
 30
0.0
 11
1108.766994626899
 21
-282.3869774997644
 31
0.0
  0
LINE
  5
5CA
330
18
100
AcDbEntity
  8
L-ZISSEN
100
AcDbLine
 10
1108.766994626899
 20
-282.3869774997644
 30
0.0
 11
1108.766994626899
 21
-292.3869774997644
 31
0.0
  0
LINE
  5
5CB
330
18
100
AcDbEntity
  8
L-ZISSEN
100
AcDbLine
 10
1135.720872770042
 20
-282.3869774997644
 30
0.0
 11
1135.720872770042
 21
-292.3869774997644
 31
0.0
  0
LINE
  5
5CC
330
18
100
AcDbEntity
  8
L-ZISSEN
100
AcDbLine
 10
1111.24393369847
 20
-324.3869774997643
 30
0.0
 11
1111.24393369847
 21
-350.3869774997642
 31
0.0
  0
LINE
  5
5CD
330
18
100
AcDbEntity
  8
L-ZISSEN
100
AcDbLine
 10
1111.24393369847
 20
-350.3869774997642
 30
0.0
 11
1133.243933698471
 21
-350.3869774997642
 31
0.0
  0
LINE
  5
5CE
330
18
100
AcDbEntity
  8
L-ZISSEN
100
AcDbLine
 10
1133.243933698471
 20
-350.3869774997642
 30
0.0
 11
1133.243933698471
 21
-324.3869774997643
 31
0.0
  0
LINE
  5
5CF
330
18
100
AcDbEntity
  8
L-ZISSEN
100
AcDbLine
 10
1105.211169599679
 20
-312.3869774997644
 30
0.0
 11
1105.211169599679
 21
-324.3869774997643
 31
0.0
  0
LINE
  5
5D0
330
18
100
AcDbEntity
  8
L-ZISSEN
100
AcDbLine
 10
1105.211169599679
 20
-324.3869774997643
 30
0.0
 11
1139.493933698471
 21
-324.3869774997643
 31
0.0
  0
LINE
  5
5D1
330
18
100
AcDbEntity
  8
L-ZISSEN
100
AcDbLine
 10
1148.243933698471
 20
-349.8869774997644
 30
0.0
 11
1148.243933698471
 21
-337.1951457813822
 31
0.0
  0
LINE
  5
5D2
330
18
100
AcDbEntity
  8
L-ZISSEN
100
AcDbLine
 10
1148.243933698471
 20
-349.8869774997644
 30
0.0
 11
1148.243933698471
 21
-349.8413774600821
 31
0.0
  0
LINE
  5
5D3
330
18
100
AcDbEntity
  8
L-ZISSEN
100
AcDbLine
 10
1148.243933698471
 20
-349.8413774600821
 30
0.0
 11
1153.243933698471
 21
-349.8413774600821
 31
0.0
  0
LINE
  5
5D4
330
18
100
AcDbEntity
  8
L-ZISSEN
100
AcDbLine
 10
1153.243933698471
 20
-349.8413774600821
 30
0.0
 11
1153.243933698471
 21
-337.2407458210645
 31
0.0
  0
LINE
  5
5D5
330
18
100
AcDbEntity
  8
L-ZISSEN
100
AcDbLine
 10
1148.243933698471
 20
-337.2407458210645
 30
0.0
 11
1153.243933698471
 21
-337.2407458210645
 31
0.0
  0
LINE
  5
5D6
330
18
100
AcDbEntity
  8
L-ZISSEN
100
AcDbLine
 10
1153.243933698471
 20
-339.7332552686552
 30
0.0
 11
1153.243933698471
 21
-337.2407458210645
 31
0.0
  0
LINE
  5
5D7
330
18
100
AcDbEntity
  8
L-ZISSEN
100
AcDbLine
 10
1117.37993369847
 20
-266.3869774997659
 30
0.0
 11
1127.10793369847
 21
-266.3869774997659
 31
0.0
  0
LINE
  5
5D8
330
18
100
AcDbEntity
  8
L-TYUSIN
100
AcDbLine
 10
1130.280271502976
 20
-271.3869774997659
 30
0.0
 11
1114.207595893963
 21
-271.3869774997659
 31
0.0
  0
LINE
  5
5D9
330
18
100
AcDbEntity
  8
L-ZISSEN
100
AcDbLine
 10
1127.10793369847
 20
-266.3869774997659
 30
0.0
 11
1127.10793369847
 21
-282.3869774997659
 31
0.0
  0
LINE
  5
5DA
330
18
100
AcDbEntity
  8
L-ZISSEN
100
AcDbLine
 10
1117.37993369847
 20
-266.3869774997659
 30
0.0
 11
1117.37993369847
 21
-282.3869774997659
 31
0.0
  0
LINE
  5
5DB
330
18
100
AcDbEntity
  8
L-ZISSEN
 48
0.1
100
AcDbLine
 10
1108.766994626899
 20
-292.3869774997644
 30
0.0
 11
1135.720872770042
 21
-292.3869774997644
 31
0.0
  0
LINE
  5
5DC
330
18
100
AcDbEntity
  8
L-TYUSIN
100
AcDbLine
 10
1123.293933698471
 20
-343.5410616405733
 30
0.0
 11
1158.243933698471
 21
-343.5410616405733
 31
0.0
1001
PE_URL
1000

  0
LINE
  5
5DD
330
18
100
AcDbEntity
  8
L-TYUSIN
100
AcDbLine
 10
1122.24393369847
 20
-261.3869774997659
 30
0.0
 11
1122.243933698471
 21
-355.3869774997644
 31
0.0
1001
PE_URL
1000

  0
LINE
  5
5DE
330
18
100
AcDbEntity
  8
L-ZISSEN
100
AcDbLine
 10
1021.123682378867
 20
-312.3869774997644
 30
0.0
 11
1021.123682378867
 21
-292.3869774997644
 31
0.0
  0
LINE
  5
5DF
330
18
100
AcDbEntity
  8
L-ZISSEN
100
AcDbLine
 10
1043.123682378868
 20
-292.3869774997644
 30
0.0
 11
1043.123682378868
 21
-312.3869774997644
 31
0.0
  0
LINE
  5
5E0
330
18
100
AcDbEntity
  8
L-ZISSEN
100
AcDbLine
 10
1049.373682378868
 20
-312.3869774997644
 30
0.0
 11
1049.373682378868
 21
-324.3869774997643
 31
0.0
  0
LINE
  5
5E1
330
18
100
AcDbEntity
  8
L-ZISSEN
100
AcDbLine
 10
1015.090918280077
 20
-312.3869774997644
 30
0.0
 11
1049.373682378868
 21
-312.3869774997644
 31
0.0
  0
LINE
  5
5E2
330
18
100
AcDbEntity
  8
L-ZISSEN
100
AcDbLine
 10
1045.600621450439
 20
-282.3869774997644
 30
0.0
 11
1018.646743307296
 21
-282.3869774997644
 31
0.0
  0
LINE
  5
5E3
330
18
100
AcDbEntity
  8
L-ZISSEN
100
AcDbLine
 10
1018.646743307296
 20
-282.3869774997644
 30
0.0
 11
1018.646743307296
 21
-292.3869774997644
 31
0.0
  0
LINE
  5
5E4
330
18
100
AcDbEntity
  8
L-ZISSEN
100
AcDbLine
 10
1045.600621450439
 20
-282.3869774997644
 30
0.0
 11
1045.600621450439
 21
-292.3869774997644
 31
0.0
  0
LINE
  5
5E5
330
18
100
AcDbEntity
  8
L-ZISSEN
100
AcDbLine
 10
1021.123682378867
 20
-324.3869774997643
 30
0.0
 11
1021.123682378867
 21
-350.3869774997642
 31
0.0
  0
LINE
  5
5E6
330
18
100
AcDbEntity
  8
L-ZISSEN
100
AcDbLine
 10
1021.123682378867
 20
-350.3869774997642
 30
0.0
 11
1043.123682378868
 21
-350.3869774997642
 31
0.0
  0
LINE
  5
5E7
330
18
100
AcDbEntity
  8
L-ZISSEN
100
AcDbLine
 10
1043.123682378868
 20
-350.3869774997642
 30
0.0
 11
1043.123682378868
 21
-324.3869774997643
 31
0.0
  0
LINE
  5
5E8
330
18
100
AcDbEntity
  8
L-ZISSEN
100
AcDbLine
 10
1015.090918280077
 20
-312.3869774997644
 30
0.0
 11
1015.090918280077
 21
-324.3869774997643
 31
0.0
  0
LINE
  5
5E9
330
18
100
AcDbEntity
  8
L-ZISSEN
100
AcDbLine
 10
1027.259682378867
 20
-266.3869774997659
 30
0.0
 11
1036.987682378867
 21
-266.3869774997659
 31
0.0
  0
LINE
  5
5EA
330
18
100
AcDbEntity
  8
L-TYUSIN
100
AcDbLine
 10
1040.160020183374
 20
-271.3869774997659
 30
0.0
 11
1024.087344574361
 21
-271.3869774997659
 31
0.0
  0
LINE
  5
5EB
330
18
100
AcDbEntity
  8
L-ZISSEN
100
AcDbLine
 10
1036.987682378867
 20
-266.3869774997659
 30
0.0
 11
1036.987682378867
 21
-282.3869774997659
 31
0.0
  0
LINE
  5
5EC
330
18
100
AcDbEntity
  8
L-ZISSEN
100
AcDbLine
 10
1027.259682378867
 20
-266.3869774997659
 30
0.0
 11
1027.259682378867
 21
-282.3869774997659
 31
0.0
  0
LINE
  5
5ED
330
18
100
AcDbEntity
  8
L-ZISSEN
 48
0.1
100
AcDbLine
 10
1018.646743307296
 20
-292.3869774997644
 30
0.0
 11
1045.600621450439
 21
-292.3869774997644
 31
0.0
  0
LINE
  5
5EE
330
18
100
AcDbEntity
  8
L-TYUSIN
100
AcDbLine
 10
1020.823366559359
 20
-343.5410616405733
 30
0.0
 11
1043.423998198377
 21
-343.5410616405733
 31
0.0
1001
PE_URL
1000

  0
LINE
  5
5EF
330
18
100
AcDbEntity
  8
L-TYUSIN
100
AcDbLine
 10
1032.123682378867
 20
-261.3869774997659
 30
0.0
 11
1032.123682378868
 21
-355.3869774997644
 31
0.0
1001
PE_URL
1000

  0
CIRCLE
  5
5F0
330
18
100
AcDbEntity
  8
L-ZISSEN
 48
0.1
100
AcDbCircle
 10
1032.123682378868
 20
-343.5410616405733
 30
0.0
 40
6.300315819508796
  0
LINE
  5
5F1
330
18
100
AcDbEntity
  8
L-ZISSEN
100
AcDbLine
 10
1015.090918280077
 20
-324.3869774997643
 30
0.0
 11
1049.373682378868
 21
-324.3869774997643
 31
0.0
  0
SOLID
  5
5F2
330
18
100
AcDbEntity
  8
L-ZISSEN
100
AcDbTrace
 10
866.6423897709576
 20
-31.63951347836564
 30
0.0
 11
866.2282472815202
 21
-31.11708602609394
 31
0.0
 12
864.8680361694235
 22
-32.62072722054154
 32
0.0
 13
864.8680361694235
 23
-32.62072722054154
 33
0.0
  0
LINE
  5
5F3
330
18
100
AcDbEntity
  8
L-ZISSEN
100
AcDbLine
 10
866.4353185262378
 20
-31.37829975222974
 30
0.0
 11
919.3163932580776
 21
10.54197039882865
 31
0.0
  0
LINE
  5
5F4
330
18
100
AcDbEntity
  8
L-ZISSEN
100
AcDbLine
 10
919.3163932580776
 20
10.54197039882877
 30
0.0
 11
921.3163932580776
 21
10.54197039882877
 31
0.0
  0
TEXT
  5
5F5
330
18
100
AcDbEntity
  8
L-ZISSEN
100
AcDbText
 10
923.3163932580776
 20
8.291970398828767
 30
0.0
 40
4.5
  1
P.P
100
AcDbText
  0
LINE
  5
5F6
330
18
100
AcDbEntity
  8
L-TYUSIN
100
AcDbLine
 10
849.6680361694237
 20
-32.62072722054154
 30
0.0
 11
880.0680361694233
 21
-32.62072722054154
 31
0.0
1001
PE_URL
1000

  0
SOLID
  5
5F7
330
18
100
AcDbEntity
  8
L-ZISSEN
100
AcDbTrace
 10
797.6297331353428
 20
-31.63951347836564
 30
0.0
 11
797.2155906459054
 21
-31.11708602609394
 31
0.0
 12
795.8553795338087
 22
-32.62072722054154
 32
0.0
 13
795.8553795338087
 23
-32.62072722054154
 33
0.0
  0
LINE
  5
5F8
330
18
100
AcDbEntity
  8
L-ZISSEN
100
AcDbLine
 10
797.422661890623
 20
-31.37829975222974
 30
0.0
 11
850.3037366224628
 21
10.54197039882865
 31
0.0
  0
LINE
  5
5F9
330
18
100
AcDbEntity
  8
L-ZISSEN
100
AcDbLine
 10
850.3037366224628
 20
10.54197039882877
 30
0.0
 11
852.3037366224628
 21
10.54197039882877
 31
0.0
  0
TEXT
  5
5FA
330
18
100
AcDbEntity
  8
L-ZISSEN
100
AcDbText
 10
854.3037366224628
 20
8.291970398828767
 30
0.0
 40
4.5
  1
P.P
100
AcDbText
  0
SOLID
  5
5FB
330
18
100
AcDbEntity
  8
L-ZISSEN
100
AcDbTrace
 10
797.629732206419
 20
-120.7374739040591
 30
0.0
 11
797.2155897169816
 21
-120.2150464517874
 31
0.0
 12
795.8553786048849
 22
-121.718687646235
 32
0.0
 13
795.8553786048849
 23
-121.718687646235
 33
0.0
  0
LINE
  5
5FC
330
18
100
AcDbEntity
  8
L-ZISSEN
100
AcDbLine
 10
797.4226609616992
 20
-120.4762601779232
 30
0.0
 11
815.8248606368809
 21
-105.8883346172338
 31
0.0
  0
LINE
  5
5FD
330
18
100
AcDbEntity
  8
L-ZISSEN
100
AcDbLine
 10
815.8248606368809
 20
-105.8883346172338
 30
0.0
 11
817.8248606368809
 21
-105.8883346172338
 31
0.0
  0
TEXT
  5
5FE
330
18
100
AcDbEntity
  8
L-ZISSEN
100
AcDbText
 10
819.8248606368809
 20
-108.1383346172338
 30
0.0
 40
4.5
  1
P.P
100
AcDbText
  0
SOLID
  5
5FF
330
18
100
AcDbEntity
  8
L-ZISSEN
100
AcDbTrace
 10
866.6423929845103
 20
-120.7374739040591
 30
0.0
 11
866.2282504950729
 21
-120.2150464517874
 31
0.0
 12
864.8680393829761
 22
-121.718687646235
 32
0.0
 13
864.8680393829761
 23
-121.718687646235
 33
0.0
  0
LINE
  5
600
330
18
100
AcDbEntity
  8
L-ZISSEN
100
AcDbLine
 10
866.4353217397904
 20
-120.4762601779232
 30
0.0
 11
884.8375214149721
 21
-105.8883346172338
 31
0.0
  0
LINE
  5
601
330
18
100
AcDbEntity
  8
L-ZISSEN
100
AcDbLine
 10
884.8375214149721
 20
-105.8883346172338
 30
0.0
 11
886.8375214149721
 21
-105.8883346172338
 31
0.0
  0
TEXT
  5
602
330
18
100
AcDbEntity
  8
L-ZISSEN
100
AcDbText
 10
888.8375214149721
 20
-108.1383346172338
 30
0.0
 40
4.5
  1
P.P
100
AcDbText
  0
SOLID
  5
603
330
18
100
AcDbEntity
  8
L-ZISSEN
100
AcDbTrace
 10
644.9619029511384
 20
-120.7374739040591
 30
0.0
 11
644.547760461701
 21
-120.2150464517874
 31
0.0
 12
643.1875493496043
 22
-121.718687646235
 32
0.0
 13
643.1875493496043
 23
-121.718687646235
 33
0.0
  0
LINE
  5
604
330
18
100
AcDbEntity
  8
L-ZISSEN
100
AcDbLine
 10
644.7548317064186
 20
-120.4762601779232
 30
0.0
 11
663.1570313816003
 21
-105.8883346172338
 31
0.0
  0
LINE
  5
605
330
18
100
AcDbEntity
  8
L-ZISSEN
100
AcDbLine
 10
663.1570313816003
 20
-105.8883346172338
 30
0.0
 11
665.1570313816003
 21
-105.8883346172338
 31
0.0
  0
TEXT
  5
606
330
18
100
AcDbEntity
  8
L-ZISSEN
100
AcDbText
 10
667.1570313816003
 20
-108.1383346172338
 30
0.0
 40
4.5
  1
P.P
100
AcDbText
  0
TEXT
  5
607
330
18
100
AcDbEntity
  8
L-ZISSEN
100
AcDbText
 10
673.3511218307729
 20
-316.3601595463036
 30
0.0
 40
4.5
  1
P.P
100
AcDbText
  0
LINE
  5
608
330
18
100
AcDbEntity
  8
L-ZISSEN
100
AcDbLine
 10
654.1215624442646
 20
-300.3590159918551
 30
0.0
 11
669.3511218307729
 21
-314.1101595463036
 31
0.0
  0
SOLID
  5
609
330
18
100
AcDbEntity
  8
L-ZISSEN
100
AcDbTrace
 10
653.8981747363416
 20
-300.606420605919
 30
0.0
 11
654.3449501521875
 21
-300.1116113777912
 31
0.0
 12
652.6371347598808
 22
-299.0186897443185
 32
0.0
 13
652.6371347598808
 23
-299.0186897443185
 33
0.0
  0
TEXT
  5
60A
330
18
100
AcDbEntity
  8
L-ZISSEN
100
AcDbText
 10
884.0756949225081
 20
-316.3601595463036
 30
0.0
 40
4.5
  1
P.P
100
AcDbText
  0
LINE
  5
60B
330
18
100
AcDbEntity
  8
L-ZISSEN
100
AcDbLine
 10
864.8461355359998
 20
-300.3590159918551
 30
0.0
 11
880.0756949225081
 21
-314.1101595463036
 31
0.0
  0
SOLID
  5
60C
330
18
100
AcDbEntity
  8
L-ZISSEN
100
AcDbTrace
 10
864.6227478280769
 20
-300.606420605919
 30
0.0
 11
865.0695232439227
 21
-300.1116113777912
 31
0.0
 12
863.3617078516161
 22
-299.0186897443185
 32
0.0
 13
863.3617078516161
 23
-299.0186897443185
 33
0.0
  0
TEXT
  5
60D
330
18
100
AcDbEntity
  8
L-ZISSEN
100
AcDbText
 10
818.0756949225081
 20
-316.3601595463036
 30
0.0
 40
4.5
  1
P.P
100
AcDbText
  0
LINE
  5
60E
330
18
100
AcDbEntity
  8
L-ZISSEN
100
AcDbLine
 10
798.8461355359998
 20
-300.3590159918551
 30
0.0
 11
814.0756949225081
 21
-314.1101595463036
 31
0.0
  0
SOLID
  5
60F
330
18
100
AcDbEntity
  8
L-ZISSEN
100
AcDbTrace
 10
798.6227478280769
 20
-300.606420605919
 30
0.0
 11
799.0695232439227
 21
-300.1116113777912
 31
0.0
 12
797.3617078516161
 22
-299.0186897443185
 32
0.0
 13
797.3617078516161
 23
-299.0186897443185
 33
0.0
  0
TEXT
  5
610
330
18
100
AcDbEntity
  8
L-ZISSEN
100
AcDbText
 10
1142.957920769362
 20
-174.3226153920873
 30
0.0
 40
4.5
  1
P.P
100
AcDbText
  0
LINE
  5
611
330
18
100
AcDbEntity
  8
L-ZISSEN
100
AcDbLine
 10
1123.728361382854
 20
-158.3214718376388
 30
0.0
 11
1138.957920769362
 21
-172.0726153920873
 31
0.0
  0
SOLID
  5
612
330
18
100
AcDbEntity
  8
L-ZISSEN
100
AcDbTrace
 10
1123.504973674931
 20
-158.5688764517026
 30
0.0
 11
1123.951749090777
 21
-158.0740672235748
 31
0.0
 12
1122.24393369847
 22
-156.9811455901022
 32
0.0
 13
1122.24393369847
 23
-156.9811455901022
 33
0.0
  0
TEXT
  5
613
330
18
100
AcDbEntity
  8
L-ZISSEN
100
AcDbText
 10
1052.837669449759
 20
-174.3226153920873
 30
0.0
 40
4.5
  1
P.P
100
AcDbText
  0
LINE
  5
614
330
18
100
AcDbEntity
  8
L-ZISSEN
100
AcDbLine
 10
1033.608110063251
 20
-158.3214718376388
 30
0.0
 11
1048.837669449759
 21
-172.0726153920873
 31
0.0
  0
SOLID
  5
615
330
18
100
AcDbEntity
  8
L-ZISSEN
100
AcDbTrace
 10
1033.384722355328
 20
-158.5688764517026
 30
0.0
 11
1033.831497771174
 21
-158.0740672235748
 31
0.0
 12
1032.123682378867
 22
-156.9811455901022
 32
0.0
 13
1032.123682378867
 23
-156.9811455901022
 33
0.0
  0
TEXT
  5
616
330
18
100
AcDbEntity
  8
L-ZISSEN
100
AcDbText
 10
1142.957920769362
 20
-76.42739833507778
 30
0.0
 40
4.5
  1
P.P
100
AcDbText
  0
LINE
  5
617
330
18
100
AcDbEntity
  8
L-ZISSEN
100
AcDbLine
 10
1123.728361382854
 20
-60.42625478062928
 30
0.0
 11
1138.957920769362
 21
-74.17739833507778
 31
0.0
  0
SOLID
  5
618
330
18
100
AcDbEntity
  8
L-ZISSEN
100
AcDbTrace
 10
1123.504973674931
 20
-60.67365939469312
 30
0.0
 11
1123.951749090777
 21
-60.17885016656533
 31
0.0
 12
1122.24393369847
 22
-59.08592853309267
 32
0.0
 13
1122.24393369847
 23
-59.08592853309267
 33
0.0
  0
SOLID
  5
619
330
18
100
AcDbEntity
  8
L-ZISSEN
100
AcDbTrace
 10
1124.018287300004
 20
-270.40576375759
 30
0.0
 11
1123.604144810566
 21
-269.8833363053183
 31
0.0
 12
1122.24393369847
 22
-271.3869774997659
 32
0.0
 13
1122.24393369847
 23
-271.3869774997659
 33
0.0
  0
LINE
  5
61A
330
18
100
AcDbEntity
  8
L-ZISSEN
100
AcDbLine
 10
1123.811216055284
 20
-270.1445500314541
 30
0.0
 11
1142.213415730466
 21
-255.5566244707647
 31
0.0
  0
LINE
  5
61B
330
18
100
AcDbEntity
  8
L-ZISSEN
100
AcDbLine
 10
1142.213415730466
 20
-255.5566244707647
 30
0.0
 11
1144.213415730466
 21
-255.5566244707647
 31
0.0
  0
TEXT
  5
61C
330
18
100
AcDbEntity
  8
L-ZISSEN
100
AcDbText
 10
1146.213415730466
 20
-257.8066244707647
 30
0.0
 40
4.5
  1
P.P
100
AcDbText
  0
SOLID
  5
61D
330
18
100
AcDbEntity
  8
L-ZISSEN
100
AcDbTrace
 10
1033.898035980402
 20
-270.40576375759
 30
0.0
 11
1033.483893490964
 21
-269.8833363053183
 31
0.0
 12
1032.123682378867
 22
-271.3869774997659
 32
0.0
 13
1032.123682378867
 23
-271.3869774997659
 33
0.0
  0
LINE
  5
61E
330
18
100
AcDbEntity
  8
L-ZISSEN
100
AcDbLine
 10
1033.690964735682
 20
-270.1445500314541
 30
0.0
 11
1052.093164410863
 21
-255.5566244707647
 31
0.0
  0
LINE
  5
61F
330
18
100
AcDbEntity
  8
L-ZISSEN
100
AcDbLine
 10
1052.093164410863
 20
-255.5566244707647
 30
0.0
 11
1054.093164410863
 21
-255.5566244707647
 31
0.0
  0
TEXT
  5
620
330
18
100
AcDbEntity
  8
L-ZISSEN
100
AcDbText
 10
1056.093164410863
 20
-257.8066244707647
 30
0.0
 40
4.5
  1
P.P
100
AcDbText
  0
TEXT
  5
621
330
18
100
AcDbEntity
  8
L-ZISSEN
100
AcDbText
 10
1017.024692950162
 20
-235.9471536105187
 30
0.0
 40
4.5
  1
PRESSURE SWITCH
100
AcDbText
  0
TEXT
  5
622
330
18
100
AcDbEntity
  8
L-ZISSEN
100
AcDbText
 10
1017.024692950162
 20
-54.10134893250768
 30
0.0
 40
4.5
  1
DIN TERMINAL
100
AcDbText
  0
LINE
  5
623
330
18
100
AcDbEntity
  8
L-TYUSIN
100
AcDbLine
 10
1184.537708284554
 20
-372.2056602957803
 30
0.0
 11
990.9819743865944
 21
-372.2056602957803
 31
0.0
  0
LINE
  5
624
330
18
100
AcDbEntity
  8
L-TYUSIN
100
AcDbLine
 10
990.9819743865944
 20
-372.2056602957803
 30
0.0
 11
990.9819743865944
 21
-27.01236824166995
 31
0.0
  0
LINE
  5
625
330
18
100
AcDbEntity
  8
L-TYUSIN
100
AcDbLine
 10
1184.537708284554
 20
-27.01236824166995
 30
0.0
 11
990.9819743865944
 21
-27.01236824166995
 31
0.0
  0
LINE
  5
626
330
18
100
AcDbEntity
  8
L-TYUSIN
100
AcDbLine
 10
1184.537708284554
 20
-372.2056602957803
 30
0.0
 11
1184.537708284554
 21
-27.01236824166995
 31
0.0
  0
LINE
  5
627
330
18
100
AcDbEntity
  8
L-TYUSIN
100
AcDbLine
 10
1184.537708284554
 20
-204.3352960181935
 30
0.0
 11
990.9819743865944
 21
-204.3352960181935
 31
0.0
  0
TEXT
  5
652
330
18
100
AcDbEntity
  8
PV
 62
     7
100
AcDbText
 10
599.6723731738244
 20
-13.58017967395654
 30
0.0
 40
4.5
  1
TX-A06J
 41
0.9848488999999999
  7
FONT1
100
AcDbText
  0
TEXT
  5
653
330
18
100
AcDbEntity
  8
PV
 62
     7
100
AcDbText
 10
599.6724231738245
 20
-6.063179673956597
 30
0.0
 40
4.5
  1
TX-A040
 41
1.015151
  7
FONT1
100
AcDbText
  0
TEXT
  5
654
330
18
100
AcDbEntity
  8
PV
 62
     7
100
AcDbText
 10
593.9068431738245
 20
2.955820326043408
 30
0.0
 40
4.5
  1
MODEL NO.
 41
0.9259999999999999
  7
FONT1
100
AcDbText
  0
LINE
  5
655
330
18
100
AcDbEntity
  8
PV
 62
     7
100
AcDbLine
 10
910.1597066198947
 20
-248.2151126874338
 30
0.0
 11
923.6687066198947
 21
-279.2371126874338
 31
0.0
  0
LWPOLYLINE
  5
656
330
18
100
AcDbEntity
  8
PV
 62
     7
100
AcDbPolyline
 90
        4
 70
     0
 43
0.0
 10
909.8547066198948
 20
-248.3481126874337
 10
910.4657066198947
 20
-248.0821126874338
 10
909.3617066198947
 20
-246.3811126874338
 10
909.8547066198948
 20
-248.3481126874337
  0
TEXT
  5
657
330
18
100
AcDbEntity
  8
PV
 62
     7
100
AcDbText
 10
929.6447066198948
 20
-290.1614126874338
 30
0.0
 40
4.5
  1
Rc1/2
  7
FONT1
100
AcDbText
  0
TEXT
  5
658
330
18
100
AcDbEntity
  8
PV
 62
     7
100
AcDbText
 10
929.9424066198949
 20
-299.6053126874338
 30
0.0
 40
4.5
  1
Rc3/4
 41
0.8888889000000001
  7
FONT1
100
AcDbText
  0
TEXT
  5
659
330
18
100
AcDbEntity
  8
PV
 62
     7
100
AcDbText
 10
927.5687066198948
 20
-281.4871126874338
 30
0.0
 40
4.5
  1
IN
 41
0.8333333
  7
FONT1
100
AcDbText
  0
LINE
  5
65A
330
18
100
AcDbEntity
  8
PV
 62
     7
100
AcDbLine
 10
923.6687066198947
 20
-279.2371126874338
 30
0.0
 11
925.6687066198947
 21
-279.2371126874338
 31
0.0
  0
LINE
  5
65B
330
18
100
AcDbEntity
  8
PV
 62
     7
100
AcDbLine
 10
750.5637090833375
 20
-248.2151126874338
 30
0.0
 11
737.0547090833375
 21
-279.2371126874338
 31
0.0
  0
LINE
  5
65C
330
18
100
AcDbEntity
  8
PV
 62
     7
100
AcDbLine
 10
737.0547090833375
 20
-279.2371126874338
 30
0.0
 11
735.0547090833375
 21
-279.2371126874338
 31
0.0
  0
LWPOLYLINE
  5
65D
330
18
100
AcDbEntity
  8
PV
 62
     7
100
AcDbPolyline
 90
        4
 70
     0
 43
0.0
 10
750.8687090833373
 20
-248.3481126874337
 10
750.2577090833374
 20
-248.0821126874338
 10
751.3617090833375
 20
-246.3811126874338
 10
750.8687090833373
 20
-248.3481126874337
  0
TEXT
  5
65E
330
18
100
AcDbEntity
  8
PV
 62
     7
100
AcDbText
 10
723.0689987572499
 20
-290.0301399959481
 30
0.0
 40
4.5
  1
Rc1/2
  7
FONT1
100
AcDbText
  0
TEXT
  5
65F
330
18
100
AcDbEntity
  8
PV
 62
     7
100
AcDbText
 10
723.36669875725
 20
-299.4740399959481
 30
0.0
 40
4.5
  1
Rc3/4
 41
0.8888889000000001
  7
FONT1
100
AcDbText
  0
TEXT
  5
660
330
18
100
AcDbEntity
  8
PV
 62
     7
100
AcDbText
 10
720.9929987572499
 20
-281.3558399959481
 30
0.0
 40
4.5
  1
OUT
 41
0.8333333
  7
FONT1
100
AcDbText
  0
LINE
  5
664
330
18
100
AcDbEntity
  8
L-TYUSIN
100
AcDbLine
 10
755.8617078516133
 20
-225.3762421098132
 30
0.0
 11
775.8617078516133
 21
-225.3762421098132
 31
0.0
1001
PE_URL
1000

  0
LINE
  5
665
330
18
100
AcDbEntity
  8
L-TYUSIN
100
AcDbLine
 10
765.8617078516133
 20
-215.3762421098132
 30
0.0
 11
765.8617078516133
 21
-235.3762421098132
 31
0.0
1001
PE_URL
1000

  0
LINE
  5
666
330
18
100
AcDbEntity
  8
L-TYUSIN
100
AcDbLine
 10
755.8617078516133
 20
-267.3762421098128
 30
0.0
 11
775.8617078516133
 21
-267.3762421098128
 31
0.0
1001
PE_URL
1000

  0
LINE
  5
667
330
18
100
AcDbEntity
  8
L-TYUSIN
100
AcDbLine
 10
765.8617078516133
 20
-257.3762421098128
 30
0.0
 11
765.8617078516133
 21
-277.3762421098128
 31
0.0
1001
PE_URL
1000

  0
ENDSEC
  0
SECTION
  2
OBJECTS
  0
DICTIONARY
  5
C
330
0
100
AcDbDictionary
281
     1
  3
ACAD_DETAILVIEWSTYLE
350
62C
  3
ACAD_GROUP
350
D
  3
ACAD_LAYOUT
350
15
  3
ACAD_MATERIAL
350
110
  3
ACAD_MLEADERSTYLE
350
116
  3
ACAD_MLINESTYLE
350
12
  3
ACAD_PLOTSETTINGS
350
14
  3
ACAD_PLOTSTYLENAME
350
E
  3
ACAD_SCALELIST
350
D5
  3
ACAD_SECTIONVIEWSTYLE
350
62D
  3
ACAD_TABLESTYLE
350
114
  3
ACAD_VISUALSTYLE
350
F7
  3
ACDB_RECOMPOSE_DATA
350
66A
  3
AcDbVariableDictionary
350
628
  3
APPDATA
350
118
  0
SUN
  5
62E
330
22
100
AcDbSun
 90
        1
290
     0
 63
     7
421
 16777215
 40
1.0
291
     1
 91
  2455826
 92
 54000000
292
     0
 70
     2
 71
   256
280
     1
  0
DICTIONARY
  5
3AA
330
2
100
AcDbDictionary
280
     1
281
     1
  3
ACAD_LAYERSTATES
360
3AB
  0
DICTIONARY
  5
62C
102
{ACAD_REACTORS
330
C
102
}
330
C
100
AcDbDictionary
281
     1
  0
DICTIONARY
  5
D
102
{ACAD_REACTORS
330
C
102
}
330
C
100
AcDbDictionary
281
     1
  0
DICTIONARY
  5
15
102
{ACAD_REACTORS
330
C
102
}
330
C
100
AcDbDictionary
281
     1
  3
Model
350
19
  3
シート 1
350
17
  0
DICTIONARY
  5
110
102
{ACAD_REACTORS
330
C
102
}
330
C
100
AcDbDictionary
281
     1
  3
ByBlock
350
112
  3
ByLayer
350
111
  3
Global
350
113
  0
DICTIONARY
  5
116
102
{ACAD_REACTORS
330
C
102
}
330
C
100
AcDbDictionary
281
     1
  3
Standard
350
117
  0
DICTIONARY
  5
12
102
{ACAD_REACTORS
330
C
102
}
330
C
100
AcDbDictionary
281
     1
  3
Standard
350
13
  0
DICTIONARY
  5
14
102
{ACAD_REACTORS
330
C
102
}
330
C
100
AcDbDictionary
281
     1
  0
ACDBDICTIONARYWDFLT
  5
E
102
{ACAD_REACTORS
330
C
102
}
330
C
100
AcDbDictionary
281
     1
  3
Normal
350
F
100
AcDbDictionaryWithDefault
340
F
  0
DICTIONARY
  5
D5
102
{ACAD_REACTORS
330
C
102
}
330
C
100
AcDbDictionary
281
     1
  3
A0
350
D6
  3
A1
350
D7
  3
A2
350
D8
  3
A3
350
D9
  3
A4
350
DA
  3
A5
350
DB
  3
A6
350
DC
  3
A7
350
DD
  3
A8
350
DE
  3
A9
350
DF
  3
B0
350
E0
  3
B1
350
E1
  3
B2
350
E2
  3
B3
350
E3
  3
B4
350
E4
  3
B5
350
E5
  3
B6
350
E6
  3
B7
350
E7
  3
B8
350
E8
  3
B9
350
E9
  3
C0
350
EA
  3
C1
350
EB
  3
C2
350
EC
  3
C3
350
ED
  3
C4
350
EE
  3
C5
350
EF
  3
C6
350
F0
  3
C7
350
F1
  3
C8
350
F2
  3
C9
350
F3
  3
D0
350
F4
  3
D1
350
F5
  3
D2
350
F6
  0
DICTIONARY
  5
62D
102
{ACAD_REACTORS
330
C
102
}
330
C
100
AcDbDictionary
281
     1
  0
DICTIONARY
  5
114
102
{ACAD_REACTORS
330
C
102
}
330
C
100
AcDbDictionary
281
     1
  3
Standard
350
115
  0
DICTIONARY
  5
F7
102
{ACAD_REACTORS
330
C
102
}
330
C
100
AcDbDictionary
281
     1
  3
2dWireframe
350
FC
  3
Basic
350
FF
  3
Brighten
350
103
  3
ColorChange
350
107
  3
Conceptual
350
101
  3
Dim
350
102
  3
EdgeColorOff
350
10A
  3
Facepattern
350
106
  3
Flat
350
F8
  3
FlatWithEdges
350
F9
  3
Gouraud
350
FA
  3
GouraudWithEdges
350
FB
  3
Hidden
350
FE
  3
JitterOff
350
108
  3
Linepattern
350
105
  3
OverhangOff
350
109
  3
Realistic
350
100
  3
Shaded
350
10F
  3
Shaded with edges
350
10E
  3
Shades of Gray
350
10B
  3
Sketchy
350
10C
  3
Thicken
350
104
  3
Wireframe
350
FD
  3
X-Ray
350
10D
  0
XRECORD
  5
66A
102
{ACAD_REACTORS
330
C
102
}
330
C
100
AcDbXrecord
280
     1
 90
        1
330
115
  0
DICTIONARY
  5
628
102
{ACAD_REACTORS
330
C
102
}
330
C
100
AcDbDictionary
281
     1
  3
CANNOSCALE
350
629
  3
CMLEADERSTYLE
350
62B
  3
CTABLESTYLE
350
62A
  0
DICTIONARY
  5
118
102
{ACAD_REACTORS
330
C
102
}
330
C
100
AcDbDictionary
281
     1
  0
DICTIONARY
  5
3AB
102
{ACAD_REACTORS
330
3AA
102
}
330
3AA
100
AcDbDictionary
281
     1
  0
LAYOUT
  5
19
102
{ACAD_REACTORS
330
15
102
}
330
15
100
AcDbPlotSettings
  1

  2
none_device
  4
Letter_(8.50_x_11.00_Inches)
  6

 40
6.35
 41
6.35
 42
6.35
 43
6.35
 44
215.9
 45
279.4
 46
0.0
 47
0.0
 48
0.0
 49
0.0
140
0.0
141
0.0
142
1.0
143
1.0
 70
  1712
 72
     0
 73
     0
 74
     0
  7

 75
     0
 76
     0
 77
     2
 78
   300
147
1.0
148
0.0
149
0.0
100
AcDbLayout
  1
Model
 70
     1
 71
     0
 10
0.0
 20
0.0
 11
12.0
 21
9.0
 12
23.46149442597801
 22
-11.3396435039976
 32
0.0
 14
587.1371347598808
 24
-372.2056602957803
 34
0.0
 15
1184.537708284554
 25
12.79197039882877
 35
0.0000000000105871
146
0.0
 13
0.0
 23
0.0
 33
0.0
 16
1.0
 26
0.0
 36
0.0
 17
0.0
 27
1.0
 37
0.0
 76
     0
330
18
331
22
  0
LAYOUT
  5
17
102
{ACAD_REACTORS
330
15
102
}
330
15
100
AcDbPlotSettings
  1

  2
none_device
  4

  6

 40
0.0
 41
0.0
 42
0.0
 43
0.0
 44
0.0
 45
0.0
 46
0.0
 47
0.0
 48
0.0
 49
0.0
140
0.0
141
0.0
142
1.0
143
1.0
 70
   688
 72
     0
 73
     0
 74
     5
  7

 75
    16
 76
     0
 77
     2
 78
   300
147
1.0
148
0.0
149
0.0
100
AcDbLayout
  1
シート 1
 70
     0
 71
     1
 10
0.0
 20
0.0
 11
0.0
 21
0.0
 12
0.0
 22
0.0
 32
0.0
 14
1.000000000000000E+20
 24
1.000000000000000E+20
 34
1.000000000000000E+20
 15
-1.000000000000000E+20
 25
-1.000000000000000E+20
 35
-1.000000000000000E+20
146
0.0
 13
0.0
 23
0.0
 33
0.0
 16
1.0
 26
0.0
 36
0.0
 17
0.0
 27
1.0
 37
0.0
 76
     0
330
16
  0
MATERIAL
  5
112
102
{ACAD_REACTORS
330
110
102
}
330
110
100
AcDbMaterial
  1
ByBlock
 72
     1
 94
      127
  0
MATERIAL
  5
111
102
{ACAD_REACTORS
330
110
102
}
330
110
100
AcDbMaterial
  1
ByLayer
 72
     1
 94
      127
  0
MATERIAL
  5
113
102
{ACAD_REACTORS
330
110
102
}
330
110
100
AcDbMaterial
  1
Global
 72
     1
 94
      127
  0
MLEADERSTYLE
  5
117
102
{ACAD_REACTORS
330
116
102
}
330
116
100
AcDbMLeaderStyle
179
     2
170
     2
171
     1
172
     0
 90
        2
 40
0.0
 41
0.0
173
     1
 91
-1056964608
340
10
 92
       -2
290
     1
 42
0.09
291
     1
 43
0.36
  3
Standard
341
0
 44
0.18
300

342
20
174
     1
178
     1
175
     1
176
     0
 93
-1056964608
 45
0.18
292
     0
297
     0
 46
0.18
343
0
 94
-1056964608
 47
1.0
 49
1.0
140
1.0
293
     1
141
0.0
294
     1
177
     0
142
1.0
295
     0
296
     0
143
0.125
271
     0
272
     9
273
     9
298
     0
  0
MLINESTYLE
  5
13
102
{ACAD_REACTORS
330
12
102
}
330
12
100
AcDbMlineStyle
  2
Standard
 70
     0
  3

 62
   256
 51
90.0
 52
90.0
 71
     2
 49
0.5
 62
   256
  6
BYLAYER
 49
-0.5
 62
   256
  6
BYLAYER
  0
ACDBPLACEHOLDER
  5
F
102
{ACAD_REACTORS
330
E
102
}
330
E
  0
SCALE
  5
D6
102
{ACAD_REACTORS
330
D5
102
}
330
D5
100
AcDbScale
 70
     0
300
1:1
140
1.0
141
1.0
290
     1
  0
SCALE
  5
D7
102
{ACAD_REACTORS
330
D5
102
}
330
D5
100
AcDbScale
 70
     0
300
1:2
140
1.0
141
2.0
290
     0
  0
SCALE
  5
D8
102
{ACAD_REACTORS
330
D5
102
}
330
D5
100
AcDbScale
 70
     0
300
1:4
140
1.0
141
4.0
290
     0
  0
SCALE
  5
D9
102
{ACAD_REACTORS
330
D5
102
}
330
D5
100
AcDbScale
 70
     0
300
1:5
140
1.0
141
5.0
290
     0
  0
SCALE
  5
DA
102
{ACAD_REACTORS
330
D5
102
}
330
D5
100
AcDbScale
 70
     0
300
1:8
140
1.0
141
8.0
290
     0
  0
SCALE
  5
DB
102
{ACAD_REACTORS
330
D5
102
}
330
D5
100
AcDbScale
 70
     0
300
1:10
140
1.0
141
10.0
290
     0
  0
SCALE
  5
DC
102
{ACAD_REACTORS
330
D5
102
}
330
D5
100
AcDbScale
 70
     0
300
1:16
140
1.0
141
16.0
290
     0
  0
SCALE
  5
DD
102
{ACAD_REACTORS
330
D5
102
}
330
D5
100
AcDbScale
 70
     0
300
1:20
140
1.0
141
20.0
290
     0
  0
SCALE
  5
DE
102
{ACAD_REACTORS
330
D5
102
}
330
D5
100
AcDbScale
 70
     0
300
1:30
140
1.0
141
30.0
290
     0
  0
SCALE
  5
DF
102
{ACAD_REACTORS
330
D5
102
}
330
D5
100
AcDbScale
 70
     0
300
1:40
140
1.0
141
40.0
290
     0
  0
SCALE
  5
E0
102
{ACAD_REACTORS
330
D5
102
}
330
D5
100
AcDbScale
 70
     0
300
1:50
140
1.0
141
50.0
290
     0
  0
SCALE
  5
E1
102
{ACAD_REACTORS
330
D5
102
}
330
D5
100
AcDbScale
 70
     0
300
1:100
140
1.0
141
100.0
290
     0
  0
SCALE
  5
E2
102
{ACAD_REACTORS
330
D5
102
}
330
D5
100
AcDbScale
 70
     0
300
2:1
140
2.0
141
1.0
290
     0
  0
SCALE
  5
E3
102
{ACAD_REACTORS
330
D5
102
}
330
D5
100
AcDbScale
 70
     0
300
4:1
140
4.0
141
1.0
290
     0
  0
SCALE
  5
E4
102
{ACAD_REACTORS
330
D5
102
}
330
D5
100
AcDbScale
 70
     0
300
8:1
140
8.0
141
1.0
290
     0
  0
SCALE
  5
E5
102
{ACAD_REACTORS
330
D5
102
}
330
D5
100
AcDbScale
 70
     0
300
10:1
140
10.0
141
1.0
290
     0
  0
SCALE
  5
E6
102
{ACAD_REACTORS
330
D5
102
}
330
D5
100
AcDbScale
 70
     0
300
100:1
140
100.0
141
1.0
290
     0
  0
SCALE
  5
E7
102
{ACAD_REACTORS
330
D5
102
}
330
D5
100
AcDbScale
 70
     0
300
1/128" = 1'-0"
140
0.0078125
141
12.0
290
     0
  0
SCALE
  5
E8
102
{ACAD_REACTORS
330
D5
102
}
330
D5
100
AcDbScale
 70
     0
300
1/64" = 1'-0"
140
0.015625
141
12.0
290
     0
  0
SCALE
  5
E9
102
{ACAD_REACTORS
330
D5
102
}
330
D5
100
AcDbScale
 70
     0
300
1/32" = 1'-0"
140
0.03125
141
12.0
290
     0
  0
SCALE
  5
EA
102
{ACAD_REACTORS
330
D5
102
}
330
D5
100
AcDbScale
 70
     0
300
1/16" = 1'-0"
140
0.0625
141
12.0
290
     0
  0
SCALE
  5
EB
102
{ACAD_REACTORS
330
D5
102
}
330
D5
100
AcDbScale
 70
     0
300
3/32" = 1'-0"
140
0.09375
141
12.0
290
     0
  0
SCALE
  5
EC
102
{ACAD_REACTORS
330
D5
102
}
330
D5
100
AcDbScale
 70
     0
300
1/8" = 1'-0"
140
0.125
141
12.0
290
     0
  0
SCALE
  5
ED
102
{ACAD_REACTORS
330
D5
102
}
330
D5
100
AcDbScale
 70
     0
300
3/16" = 1'-0"
140
0.1875
141
12.0
290
     0
  0
SCALE
  5
EE
102
{ACAD_REACTORS
330
D5
102
}
330
D5
100
AcDbScale
 70
     0
300
1/4" = 1'-0"
140
0.25
141
12.0
290
     0
  0
SCALE
  5
EF
102
{ACAD_REACTORS
330
D5
102
}
330
D5
100
AcDbScale
 70
     0
300
3/8" = 1'-0"
140
0.375
141
12.0
290
     0
  0
SCALE
  5
F0
102
{ACAD_REACTORS
330
D5
102
}
330
D5
100
AcDbScale
 70
     0
300
1/2" = 1'-0"
140
0.5
141
12.0
290
     0
  0
SCALE
  5
F1
102
{ACAD_REACTORS
330
D5
102
}
330
D5
100
AcDbScale
 70
     0
300
3/4" = 1'-0"
140
0.75
141
12.0
290
     0
  0
SCALE
  5
F2
102
{ACAD_REACTORS
330
D5
102
}
330
D5
100
AcDbScale
 70
     0
300
1" = 1'-0"
140
1.0
141
12.0
290
     0
  0
SCALE
  5
F3
102
{ACAD_REACTORS
330
D5
102
}
330
D5
100
AcDbScale
 70
     0
300
1-1/2" = 1'-0"
140
1.5
141
12.0
290
     0
  0
SCALE
  5
F4
102
{ACAD_REACTORS
330
D5
102
}
330
D5
100
AcDbScale
 70
     0
300
3" = 1'-0"
140
3.0
141
12.0
290
     0
  0
SCALE
  5
F5
102
{ACAD_REACTORS
330
D5
102
}
330
D5
100
AcDbScale
 70
     0
300
6" = 1'-0"
140
6.0
141
12.0
290
     0
  0
SCALE
  5
F6
102
{ACAD_REACTORS
330
D5
102
}
330
D5
100
AcDbScale
 70
     0
300
1'-0" = 1'-0"
140
12.0
141
12.0
290
     0
  0
TABLESTYLE
  5
115
102
{ACAD_REACTORS
330
114
102
}
102
{ACAD_XDICTIONARY
360
668
102
}
330
114
100
AcDbTableStyle
  3
Standard
 70
     0
 71
     0
 40
0.06
 41
0.06
280
     0
281
     0
  7
STANDARD
140
0.18
170
     2
 62
     0
 63
   257
283
     0
 90
        4
 91
        0
  1

274
    -2
284
     1
 64
     0
275
    -2
285
     1
 65
     0
276
    -2
286
     1
 66
     0
277
    -2
287
     1
 67
     0
278
    -2
288
     1
 68
     0
279
    -2
289
     1
 69
     0
  7
STANDARD
140
0.25
170
     5
 62
     0
 63
   257
283
     0
 90
        4
 91
        0
  1

274
    -2
284
     1
 64
     0
275
    -2
285
     1
 65
     0
276
    -2
286
     1
 66
     0
277
    -2
287
     1
 67
     0
278
    -2
288
     1
 68
     0
279
    -2
289
     1
 69
     0
  7
STANDARD
140
0.18
170
     5
 62
     0
 63
   257
283
     0
 90
        4
 91
        0
  1

274
    -2
284
     1
 64
     0
275
    -2
285
     1
 65
     0
276
    -2
286
     1
 66
     0
277
    -2
287
     1
 67
     0
278
    -2
288
     1
 68
     0
279
    -2
289
     1
 69
     0
  0
VISUALSTYLE
  5
FC
102
{ACAD_REACTORS
330
F7
102
}
330
F7
100
AcDbVisualStyle
  2
2dWireframe
 70
     4
177
     3
291
     0
 70
    58
 90
        0
176
     1
 90
        2
176
     1
 90
        0
176
     1
 90
        0
176
     1
 40
0.6
176
     1
 40
30.0
176
     1
 62
     7
420
 16777215
176
     1
 90
        1
176
     1
 90
        4
176
     1
 62
     7
176
     1
 62
   257
176
     1
 90
        1
176
     1
 90
        1
176
     1
 40
1.0
176
     1
 90
        0
176
     1
 62
   257
176
     1
 40
1.0
176
     1
 90
        1
176
     1
 90
        6
176
     1
 90
        2
176
     1
 62
     7
176
     1
 90
        5
176
     1
 90
        0
176
     1
 90
        0
176
     1
290
     0
176
     1
 90
        1
176
     1
 40
0.0
176
     1
 90
        0
176
     1
290
     1
176
     1
290
     1
176
     1
290
     0
176
     1
290
     0
176
     1
290
     0
176
     1
290
     0
176
     1
290
     0
176
     1
290
     0
176
     1
290
     0
176
     1
 90
       50
176
     1
 40
0.0
176
     1
 40
1.0
176
     1
 90
        0
176
     1
 62
    18
420
        0
176
     1
 90
       50
176
     1
 90
        3
176
     1
 62
     5
420
      255
176
     1
290
     0
176
     1
 90
       50
176
     1
 90
       50
176
     1
 90
       50
176
     1
290
     0
176
     1
 90
       50
176
     1
 62
   256
176
     0
 40
1.0
176
     0
 90
        2
176
     1
  1
strokes_ogs.tif
176
     1
290
     0
176
     1
 40
1.0
176
     1
 40
1.0
176
     1
  0
VISUALSTYLE
  5
FF
102
{ACAD_REACTORS
330
F7
102
}
330
F7
100
AcDbVisualStyle
  2
Basic
 70
     7
177
     3
291
     1
 70
    58
 90
        1
176
     1
 90
        0
176
     1
 90
        1
176
     1
 90
        0
176
     1
 40
0.6
176
     1
 40
30.0
176
     1
 62
     7
420
 16777215
176
     1
 90
        0
176
     1
 90
        4
176
     1
 62
     7
176
     1
 62
   257
176
     1
 90
        1
176
     1
 90
        1
176
     1
 40
1.0
176
     1
 90
        8
176
     1
 62
     7
176
     1
 40
1.0
176
     1
 90
        1
176
     1
 90
        6
176
     1
 90
        2
176
     1
 62
     7
176
     1
 90
        5
176
     1
 90
        0
176
     1
 90
        0
176
     1
290
     0
176
     1
 90
        1
176
     1
 40
0.0
176
     1
 90
        0
176
     1
290
     0
176
     1
290
     1
176
     1
290
     1
176
     1
290
     0
176
     1
290
     0
176
     1
290
     0
176
     1
290
     0
176
     1
290
     0
176
     1
290
     0
176
     1
 90
       50
176
     1
 40
0.0
176
     1
 40
1.0
176
     1
 90
        0
176
     1
 62
    18
420
        0
176
     1
 90
       50
176
     1
 90
        3
176
     1
 62
     5
420
      255
176
     1
290
     0
176
     1
 90
       50
176
     1
 90
       50
176
     1
 90
       50
176
     1
290
     0
176
     1
 90
       50
176
     1
 62
   256
176
     0
 40
1.0
176
     0
 90
        2
176
     1
  1
strokes_ogs.tif
176
     1
290
     0
176
     1
 40
1.0
176
     1
 40
1.0
176
     1
  0
VISUALSTYLE
  5
103
102
{ACAD_REACTORS
330
F7
102
}
330
F7
100
AcDbVisualStyle
  2
Brighten
 70
    12
177
     3
291
     1
 70
    58
 90
        2
176
     1
 90
        2
176
     1
 90
        0
176
     1
 90
        0
176
     1
 40
0.6
176
     1
 40
30.0
176
     1
 62
     7
420
 16777215
176
     1
 90
        1
176
     1
 90
        4
176
     1
 62
     7
176
     1
 62
   257
176
     1
 90
        1
176
     1
 90
        1
176
     1
 40
1.0
176
     1
 90
        8
176
     1
 62
     7
176
     1
 40
1.0
176
     1
 90
        1
176
     1
 90
        6
176
     1
 90
        2
176
     1
 62
     7
176
     1
 90
        5
176
     1
 90
        0
176
     1
 90
        0
176
     1
290
     0
176
     1
 90
        1
176
     1
 40
50.0
176
     1
 90
        0
176
     1
290
     0
176
     1
290
     1
176
     1
290
     1
176
     1
290
     0
176
     1
290
     0
176
     1
290
     0
176
     1
290
     0
176
     1
290
     0
176
     1
290
     0
176
     1
 90
       50
176
     1
 40
0.0
176
     1
 40
1.0
176
     1
 90
        0
176
     1
 62
    18
420
        0
176
     1
 90
       50
176
     1
 90
        3
176
     1
 62
     5
420
      255
176
     1
290
     0
176
     1
 90
       50
176
     1
 90
       50
176
     1
 90
       50
176
     1
290
     0
176
     1
 90
       50
176
     1
 62
   256
176
     0
 40
1.0
176
     0
 90
        2
176
     1
  1
strokes_ogs.tif
176
     1
290
     0
176
     1
 40
1.0
176
     1
 40
1.0
176
     1
  0
VISUALSTYLE
  5
107
102
{ACAD_REACTORS
330
F7
102
}
330
F7
100
AcDbVisualStyle
  2
ColorChange
 70
    16
177
     3
291
     1
 70
    58
 90
        2
176
     1
 90
        2
176
     1
 90
        3
176
     1
 90
        0
176
     1
 40
0.6
176
     1
 40
30.0
176
     1
 62
     8
420
  8421504
176
     1
 90
        1
176
     1
 90
        4
176
     1
 62
     7
176
     1
 62
   257
176
     1
 90
        1
176
     1
 90
        1
176
     1
 40
1.0
176
     1
 90
        8
176
     1
 62
     8
420
  8421504
176
     1
 40
1.0
176
     1
 90
        1
176
     1
 90
        6
176
     1
 90
        2
176
     1
 62
     7
176
     1
 90
        5
176
     1
 90
        0
176
     1
 90
        0
176
     1
290
     0
176
     1
 90
        1
176
     1
 40
0.0
176
     1
 90
        0
176
     1
290
     0
176
     1
290
     1
176
     1
290
     1
176
     1
290
     0
176
     1
290
     0
176
     1
290
     0
176
     1
290
     0
176
     1
290
     0
176
     1
290
     0
176
     1
 90
       50
176
     1
 40
0.0
176
     1
 40
1.0
176
     1
 90
        0
176
     1
 62
    18
420
        0
176
     1
 90
       50
176
     1
 90
        3
176
     1
 62
     5
420
      255
176
     1
290
     0
176
     1
 90
       50
176
     1
 90
       50
176
     1
 90
       50
176
     1
290
     0
176
     1
 90
       50
176
     1
 62
   256
176
     0
 40
1.0
176
     0
 90
        2
176
     1
  1
strokes_ogs.tif
176
     1
290
     0
176
     1
 40
1.0
176
     1
 40
1.0
176
     1
  0
VISUALSTYLE
  5
101
102
{ACAD_REACTORS
330
F7
102
}
330
F7
100
AcDbVisualStyle
  2
Conceptual
 70
     9
177
     3
291
     0
 70
    58
 90
        3
176
     1
 90
        2
176
     1
 90
        0
176
     1
 90
        0
176
     1
 40
0.6
176
     1
 40
30.0
176
     1
 62
     7
420
 16777215
176
     1
 90
        2
176
     1
 90
        2
176
     1
 62
     7
176
     1
 62
   257
176
     1
 90
        1
176
     1
 90
        1
176
     1
 40
179.0
176
     1
 90
        8
176
     1
 62
     7
176
     1
 40
1.0
176
     1
 90
        1
176
     1
 90
        6
176
     1
 90
        2
176
     1
 62
     7
176
     1
 90
        3
176
     1
 90
        0
176
     1
 90
        0
176
     1
290
     0
176
     1
 90
        1
176
     1
 40
0.0
176
     1
 90
        0
176
     1
290
     0
176
     1
290
     1
176
     1
290
     1
176
     1
290
     0
176
     1
290
     0
176
     1
290
     0
176
     1
290
     0
176
     1
290
     0
176
     1
290
     0
176
     1
 90
       50
176
     1
 40
0.0
176
     1
 40
1.0
176
     1
 90
        0
176
     1
 62
    18
420
        0
176
     1
 90
       50
176
     1
 90
        3
176
     1
 62
     5
420
      255
176
     1
290
     0
176
     1
 90
       50
176
     1
 90
       50
176
     1
 90
       50
176
     1
290
     0
176
     1
 90
       50
176
     1
 62
   256
176
     0
 40
1.0
176
     0
 90
        2
176
     1
  1
strokes_ogs.tif
176
     1
290
     0
176
     1
 40
1.0
176
     1
 40
1.0
176
     1
  0
VISUALSTYLE
  5
102
102
{ACAD_REACTORS
330
F7
102
}
330
F7
100
AcDbVisualStyle
  2
Dim
 70
    11
177
     3
291
     1
 70
    58
 90
        2
176
     1
 90
        2
176
     1
 90
        0
176
     1
 90
        0
176
     1
 40
0.6
176
     1
 40
30.0
176
     1
 62
     7
420
 16777215
176
     1
 90
        1
176
     1
 90
        4
176
     1
 62
     7
176
     1
 62
   257
176
     1
 90
        1
176
     1
 90
        1
176
     1
 40
1.0
176
     1
 90
        8
176
     1
 62
     7
176
     1
 40
1.0
176
     1
 90
        1
176
     1
 90
        6
176
     1
 90
        2
176
     1
 62
     7
176
     1
 90
        5
176
     1
 90
        0
176
     1
 90
        0
176
     1
290
     0
176
     1
 90
        1
176
     1
 40
-50.0
176
     1
 90
        0
176
     1
290
     0
176
     1
290
     1
176
     1
290
     1
176
     1
290
     0
176
     1
290
     0
176
     1
290
     0
176
     1
290
     0
176
     1
290
     0
176
     1
290
     0
176
     1
 90
       50
176
     1
 40
0.0
176
     1
 40
1.0
176
     1
 90
        0
176
     1
 62
    18
420
        0
176
     1
 90
       50
176
     1
 90
        3
176
     1
 62
     5
420
      255
176
     1
290
     0
176
     1
 90
       50
176
     1
 90
       50
176
     1
 90
       50
176
     1
290
     0
176
     1
 90
       50
176
     1
 62
   256
176
     0
 40
1.0
176
     0
 90
        2
176
     1
  1
strokes_ogs.tif
176
     1
290
     0
176
     1
 40
1.0
176
     1
 40
1.0
176
     1
  0
VISUALSTYLE
  5
10A
102
{ACAD_REACTORS
330
F7
102
}
330
F7
100
AcDbVisualStyle
  2
EdgeColorOff
 70
    22
177
     3
291
     1
 70
    58
 90
        2
176
     0
 90
        2
176
     0
 90
        0
176
     0
 90
        0
176
     0
 40
0.6
176
     0
 40
30.0
176
     0
 62
     7
420
 16777215
176
     0
 90
        1
176
     0
 90
        4
176
     0
 62
     7
176
     0
 62
   257
176
     0
 90
        1
176
     0
 90
        1
176
     0
 40
1.0
176
     0
 90
        8
176
     2
 62
     7
176
     0
 40
1.0
176
     0
 90
        1
176
     0
 90
        6
176
     0
 90
        2
176
     0
 62
     7
176
     0
 90
        5
176
     0
 90
        0
176
     0
 90
        0
176
     0
290
     0
176
     0
 90
        1
176
     0
 40
0.0
176
     0
 90
        0
176
     0
290
     0
176
     0
290
     1
176
     0
290
     1
176
     0
290
     0
176
     0
290
     0
176
     0
290
     0
176
     0
290
     0
176
     0
290
     0
176
     0
290
     0
176
     0
 90
       50
176
     0
 40
0.0
176
     0
 40
1.0
176
     0
 90
        0
176
     0
 62
    18
420
        0
176
     0
 90
       50
176
     0
 90
        3
176
     0
 62
     5
420
      255
176
     0
290
     0
176
     0
 90
       50
176
     0
 90
       50
176
     0
 90
       50
176
     0
290
     0
176
     0
 90
       50
176
     0
 62
   256
176
     0
 40
1.0
176
     0
 90
        2
176
     0
  1
strokes_ogs.tif
176
     0
290
     0
176
     0
 40
1.0
176
     0
 40
1.0
176
     0
  0
VISUALSTYLE
  5
106
102
{ACAD_REACTORS
330
F7
102
}
330
F7
100
AcDbVisualStyle
  2
Facepattern
 70
    15
177
     3
291
     1
 70
    58
 90
        2
176
     1
 90
        2
176
     1
 90
        0
176
     1
 90
        0
176
     1
 40
0.6
176
     1
 40
30.0
176
     1
 62
     7
420
 16777215
176
     1
 90
        1
176
     1
 90
        4
176
     1
 62
     7
176
     1
 62
   257
176
     1
 90
        1
176
     1
 90
        1
176
     1
 40
1.0
176
     1
 90
        8
176
     1
 62
     7
176
     1
 40
1.0
176
     1
 90
        1
176
     1
 90
        6
176
     1
 90
        2
176
     1
 62
     7
176
     1
 90
        5
176
     1
 90
        0
176
     1
 90
        0
176
     1
290
     0
176
     1
 90
        1
176
     1
 40
0.0
176
     1
 90
        0
176
     1
290
     0
176
     1
290
     1
176
     1
290
     1
176
     1
290
     0
176
     1
290
     0
176
     1
290
     0
176
     1
290
     0
176
     1
290
     0
176
     1
290
     0
176
     1
 90
       50
176
     1
 40
0.0
176
     1
 40
1.0
176
     1
 90
        0
176
     1
 62
    18
420
        0
176
     1
 90
       50
176
     1
 90
        3
176
     1
 62
     5
420
      255
176
     1
290
     0
176
     1
 90
       50
176
     1
 90
       50
176
     1
 90
       50
176
     1
290
     0
176
     1
 90
       50
176
     1
 62
   256
176
     0
 40
1.0
176
     0
 90
        2
176
     1
  1
strokes_ogs.tif
176
     1
290
     0
176
     1
 40
1.0
176
     1
 40
1.0
176
     1
  0
VISUALSTYLE
  5
F8
102
{ACAD_REACTORS
330
F7
102
}
330
F7
100
AcDbVisualStyle
  2
Flat
 70
     0
177
     3
291
     1
 70
    58
 90
        2
176
     1
 90
        1
176
     1
 90
        1
176
     1
 90
        2
176
     1
 40
0.6
176
     1
 40
30.0
176
     1
 62
     7
420
 16777215
176
     1
 90
        0
176
     1
 90
        0
176
     1
 62
     7
176
     1
 62
   257
176
     1
 90
        1
176
     1
 90
        1
176
     1
 40
1.0
176
     1
 90
        8
176
     1
 62
     7
176
     1
 40
1.0
176
     1
 90
        1
176
     1
 90
        6
176
     1
 90
        2
176
     1
 62
     7
176
     1
 90
        5
176
     1
 90
        0
176
     1
 90
        0
176
     1
290
     0
176
     1
 90
       13
176
     1
 40
0.0
176
     1
 90
        0
176
     1
290
     0
176
     1
290
     1
176
     1
290
     1
176
     1
290
     0
176
     1
290
     0
176
     1
290
     0
176
     1
290
     0
176
     1
290
     0
176
     1
290
     0
176
     1
 90
       50
176
     1
 40
0.0
176
     1
 40
1.0
176
     1
 90
        0
176
     1
 62
    18
420
        0
176
     1
 90
       50
176
     1
 90
        3
176
     1
 62
     5
420
      255
176
     1
290
     0
176
     1
 90
       50
176
     1
 90
       50
176
     1
 90
       50
176
     1
290
     0
176
     1
 90
       50
176
     1
 62
   256
176
     0
 40
1.0
176
     0
 90
        2
176
     1
  1
strokes_ogs.tif
176
     1
290
     0
176
     1
 40
1.0
176
     1
 40
1.0
176
     1
  0
VISUALSTYLE
  5
F9
102
{ACAD_REACTORS
330
F7
102
}
330
F7
100
AcDbVisualStyle
  2
FlatWithEdges
 70
     1
177
     3
291
     1
 70
    58
 90
        2
176
     1
 90
        1
176
     1
 90
        1
176
     1
 90
        2
176
     1
 40
0.6
176
     1
 40
30.0
176
     1
 62
     7
420
 16777215
176
     1
 90
        1
176
     1
 90
        0
176
     1
 62
     7
176
     1
 62
   257
176
     1
 90
        1
176
     1
 90
        1
176
     1
 40
1.0
176
     1
 90
        0
176
     1
 62
   257
176
     1
 40
1.0
176
     1
 90
        1
176
     1
 90
        6
176
     1
 90
        2
176
     1
 62
     7
176
     1
 90
        5
176
     1
 90
        0
176
     1
 90
        0
176
     1
290
     0
176
     1
 90
       13
176
     1
 40
0.0
176
     1
 90
        0
176
     1
290
     0
176
     1
290
     1
176
     1
290
     1
176
     1
290
     0
176
     1
290
     0
176
     1
290
     0
176
     1
290
     0
176
     1
290
     0
176
     1
290
     0
176
     1
 90
       50
176
     1
 40
0.0
176
     1
 40
1.0
176
     1
 90
        0
176
     1
 62
    18
420
        0
176
     1
 90
       50
176
     1
 90
        3
176
     1
 62
     5
420
      255
176
     1
290
     0
176
     1
 90
       50
176
     1
 90
       50
176
     1
 90
       50
176
     1
290
     0
176
     1
 90
       50
176
     1
 62
   256
176
     0
 40
1.0
176
     0
 90
        2
176
     1
  1
strokes_ogs.tif
176
     1
290
     0
176
     1
 40
1.0
176
     1
 40
1.0
176
     1
  0
VISUALSTYLE
  5
FA
102
{ACAD_REACTORS
330
F7
102
}
330
F7
100
AcDbVisualStyle
  2
Gouraud
 70
     2
177
     3
291
     1
 70
    58
 90
        2
176
     1
 90
        2
176
     1
 90
        1
176
     1
 90
        2
176
     1
 40
0.6
176
     1
 40
30.0
176
     1
 62
     7
420
 16777215
176
     1
 90
        0
176
     1
 90
        0
176
     1
 62
     7
176
     1
 62
   257
176
     1
 90
        1
176
     1
 90
        1
176
     1
 40
1.0
176
     1
 90
        0
176
     1
 62
     7
176
     1
 40
1.0
176
     1
 90
        1
176
     1
 90
        6
176
     1
 90
        2
176
     1
 62
     7
176
     1
 90
        5
176
     1
 90
        0
176
     1
 90
        0
176
     1
290
     0
176
     1
 90
       13
176
     1
 40
0.0
176
     1
 90
        0
176
     1
290
     0
176
     1
290
     1
176
     1
290
     1
176
     1
290
     0
176
     1
290
     0
176
     1
290
     0
176
     1
290
     0
176
     1
290
     0
176
     1
290
     0
176
     1
 90
       50
176
     1
 40
0.0
176
     1
 40
1.0
176
     1
 90
        0
176
     1
 62
    18
420
        0
176
     1
 90
       50
176
     1
 90
        3
176
     1
 62
     5
420
      255
176
     1
290
     0
176
     1
 90
       50
176
     1
 90
       50
176
     1
 90
       50
176
     1
290
     0
176
     1
 90
       50
176
     1
 62
   256
176
     0
 40
1.0
176
     0
 90
        2
176
     1
  1
strokes_ogs.tif
176
     1
290
     0
176
     1
 40
1.0
176
     1
 40
1.0
176
     1
  0
VISUALSTYLE
  5
FB
102
{ACAD_REACTORS
330
F7
102
}
330
F7
100
AcDbVisualStyle
  2
GouraudWithEdges
 70
     3
177
     3
291
     1
 70
    58
 90
        2
176
     1
 90
        2
176
     1
 90
        1
176
     1
 90
        2
176
     1
 40
0.6
176
     1
 40
30.0
176
     1
 62
     7
420
 16777215
176
     1
 90
        1
176
     1
 90
        0
176
     1
 62
     7
176
     1
 62
   257
176
     1
 90
        1
176
     1
 90
        1
176
     1
 40
1.0
176
     1
 90
        0
176
     1
 62
   257
176
     1
 40
1.0
176
     1
 90
        1
176
     1
 90
        6
176
     1
 90
        2
176
     1
 62
     7
176
     1
 90
        5
176
     1
 90
        0
176
     1
 90
        0
176
     1
290
     0
176
     1
 90
       13
176
     1
 40
0.0
176
     1
 90
        0
176
     1
290
     0
176
     1
290
     1
176
     1
290
     1
176
     1
290
     0
176
     1
290
     0
176
     1
290
     0
176
     1
290
     0
176
     1
290
     0
176
     1
290
     0
176
     1
 90
       50
176
     1
 40
0.0
176
     1
 40
1.0
176
     1
 90
        0
176
     1
 62
    18
420
        0
176
     1
 90
       50
176
     1
 90
        3
176
     1
 62
     5
420
      255
176
     1
290
     0
176
     1
 90
       50
176
     1
 90
       50
176
     1
 90
       50
176
     1
290
     0
176
     1
 90
       50
176
     1
 62
   256
176
     0
 40
1.0
176
     0
 90
        2
176
     1
  1
strokes_ogs.tif
176
     1
290
     0
176
     1
 40
1.0
176
     1
 40
1.0
176
     1
  0
VISUALSTYLE
  5
FE
102
{ACAD_REACTORS
330
F7
102
}
330
F7
100
AcDbVisualStyle
  2
Hidden
 70
     6
177
     3
291
     0
 70
    58
 90
        1
176
     1
 90
        2
176
     1
 90
        2
176
     1
 90
        0
176
     1
 40
0.6
176
     1
 40
30.0
176
     1
 62
     7
420
 16777215
176
     1
 90
        2
176
     1
 90
        2
176
     1
 62
     7
176
     1
 62
   257
176
     1
 90
        2
176
     1
 90
        1
176
     1
 40
40.0
176
     1
 90
        0
176
     1
 62
   257
176
     1
 40
1.0
176
     1
 90
        1
176
     1
 90
        6
176
     1
 90
        2
176
     1
 62
     7
176
     1
 90
        3
176
     1
 90
        0
176
     1
 90
        0
176
     1
290
     0
176
     1
 90
        1
176
     1
 40
0.0
176
     1
 90
        0
176
     1
290
     0
176
     1
290
     1
176
     1
290
     1
176
     1
290
     0
176
     1
290
     0
176
     1
290
     0
176
     1
290
     0
176
     1
290
     0
176
     1
290
     0
176
     1
 90
       50
176
     1
 40
0.0
176
     1
 40
1.0
176
     1
 90
        0
176
     1
 62
    18
420
        0
176
     1
 90
       50
176
     1
 90
        3
176
     1
 62
     5
420
      255
176
     1
290
     0
176
     1
 90
       50
176
     1
 90
       50
176
     1
 90
       50
176
     1
290
     0
176
     1
 90
       50
176
     1
 62
   256
176
     0
 40
1.0
176
     0
 90
        2
176
     1
  1
strokes_ogs.tif
176
     1
290
     0
176
     1
 40
1.0
176
     1
 40
1.0
176
     1
  0
VISUALSTYLE
  5
108
102
{ACAD_REACTORS
330
F7
102
}
330
F7
100
AcDbVisualStyle
  2
JitterOff
 70
    20
177
     3
291
     1
 70
    58
 90
        2
176
     0
 90
        2
176
     0
 90
        0
176
     0
 90
        0
176
     0
 40
0.6
176
     0
 40
30.0
176
     0
 62
     7
420
 16777215
176
     0
 90
        1
176
     0
 90
        4
176
     0
 62
     7
176
     0
 62
   257
176
     0
 90
        1
176
     0
 90
        1
176
     0
 40
1.0
176
     0
 90
       10
176
     2
 62
     7
176
     0
 40
1.0
176
     0
 90
        1
176
     0
 90
        6
176
     0
 90
        2
176
     0
 62
     7
176
     0
 90
        5
176
     0
 90
        0
176
     0
 90
        0
176
     0
290
     0
176
     0
 90
        1
176
     0
 40
0.0
176
     0
 90
        0
176
     0
290
     0
176
     0
290
     1
176
     0
290
     1
176
     0
290
     0
176
     0
290
     0
176
     0
290
     0
176
     0
290
     0
176
     0
290
     0
176
     0
290
     0
176
     0
 90
       50
176
     0
 40
0.0
176
     0
 40
1.0
176
     0
 90
        0
176
     0
 62
    18
420
        0
176
     0
 90
       50
176
     0
 90
        3
176
     0
 62
     5
420
      255
176
     0
290
     0
176
     0
 90
       50
176
     0
 90
       50
176
     0
 90
       50
176
     0
290
     0
176
     0
 90
       50
176
     0
 62
   256
176
     0
 40
1.0
176
     0
 90
        2
176
     0
  1
strokes_ogs.tif
176
     0
290
     0
176
     0
 40
1.0
176
     0
 40
1.0
176
     0
  0
VISUALSTYLE
  5
105
102
{ACAD_REACTORS
330
F7
102
}
330
F7
100
AcDbVisualStyle
  2
Linepattern
 70
    14
177
     3
291
     1
 70
    58
 90
        2
176
     1
 90
        2
176
     1
 90
        0
176
     1
 90
        0
176
     1
 40
0.6
176
     1
 40
30.0
176
     1
 62
     7
420
 16777215
176
     1
 90
        1
176
     1
 90
        4
176
     1
 62
     7
176
     1
 62
   257
176
     1
 90
        7
176
     1
 90
        7
176
     1
 40
1.0
176
     1
 90
        8
176
     1
 62
     7
176
     1
 40
1.0
176
     1
 90
        1
176
     1
 90
        6
176
     1
 90
        2
176
     1
 62
     7
176
     1
 90
        5
176
     1
 90
        0
176
     1
 90
        0
176
     1
290
     0
176
     1
 90
        1
176
     1
 40
0.0
176
     1
 90
        0
176
     1
290
     0
176
     1
290
     1
176
     1
290
     1
176
     1
290
     0
176
     1
290
     0
176
     1
290
     0
176
     1
290
     0
176
     1
290
     0
176
     1
290
     0
176
     1
 90
       50
176
     1
 40
0.0
176
     1
 40
1.0
176
     1
 90
        0
176
     1
 62
    18
420
        0
176
     1
 90
       50
176
     1
 90
        3
176
     1
 62
     5
420
      255
176
     1
290
     0
176
     1
 90
       50
176
     1
 90
       50
176
     1
 90
       50
176
     1
290
     0
176
     1
 90
       50
176
     1
 62
   256
176
     0
 40
1.0
176
     0
 90
        2
176
     1
  1
strokes_ogs.tif
176
     1
290
     0
176
     1
 40
1.0
176
     1
 40
1.0
176
     1
  0
VISUALSTYLE
  5
109
102
{ACAD_REACTORS
330
F7
102
}
330
F7
100
AcDbVisualStyle
  2
OverhangOff
 70
    21
177
     3
291
     1
 70
    58
 90
        2
176
     0
 90
        2
176
     0
 90
        0
176
     0
 90
        0
176
     0
 40
0.6
176
     0
 40
30.0
176
     0
 62
     7
420
 16777215
176
     0
 90
        1
176
     0
 90
        4
176
     0
 62
     7
176
     0
 62
   257
176
     0
 90
        1
176
     0
 90
        1
176
     0
 40
1.0
176
     0
 90
        9
176
     2
 62
     7
176
     0
 40
1.0
176
     0
 90
        1
176
     0
 90
        6
176
     0
 90
        2
176
     0
 62
     7
176
     0
 90
        5
176
     0
 90
        0
176
     0
 90
        0
176
     0
290
     0
176
     0
 90
        1
176
     0
 40
0.0
176
     0
 90
        0
176
     0
290
     0
176
     0
290
     1
176
     0
290
     1
176
     0
290
     0
176
     0
290
     0
176
     0
290
     0
176
     0
290
     0
176
     0
290
     0
176
     0
290
     0
176
     0
 90
       50
176
     0
 40
0.0
176
     0
 40
1.0
176
     0
 90
        0
176
     0
 62
    18
420
        0
176
     0
 90
       50
176
     0
 90
        3
176
     0
 62
     5
420
      255
176
     0
290
     0
176
     0
 90
       50
176
     0
 90
       50
176
     0
 90
       50
176
     0
290
     0
176
     0
 90
       50
176
     0
 62
   256
176
     0
 40
1.0
176
     0
 90
        2
176
     0
  1
strokes_ogs.tif
176
     0
290
     0
176
     0
 40
1.0
176
     0
 40
1.0
176
     0
  0
VISUALSTYLE
  5
100
102
{ACAD_REACTORS
330
F7
102
}
330
F7
100
AcDbVisualStyle
  2
Realistic
 70
     8
177
     3
291
     0
 70
    58
 90
        2
176
     1
 90
        3
176
     1
 90
        0
176
     1
 90
        2
176
     1
 40
0.6
176
     1
 40
30.0
176
     1
 62
     7
420
 16777215
176
     1
 90
        0
176
     1
 90
        0
176
     1
 62
     7
176
     1
 62
   257
176
     1
 90
        1
176
     1
 90
        1
176
     1
 40
1.0
176
     1
 90
        8
176
     1
 62
   257
176
     1
 40
1.0
176
     1
 90
        1
176
     1
 90
        6
176
     1
 90
        2
176
     1
 62
     7
176
     1
 90
        3
176
     1
 90
        0
176
     1
 90
        0
176
     1
290
     0
176
     1
 90
       13
176
     1
 40
0.0
176
     1
 90
        0
176
     1
290
     0
176
     1
290
     1
176
     1
290
     1
176
     1
290
     0
176
     1
290
     0
176
     1
290
     0
176
     1
290
     0
176
     1
290
     0
176
     1
290
     0
176
     1
 90
       50
176
     1
 40
0.0
176
     1
 40
1.0
176
     1
 90
        0
176
     1
 62
    18
420
        0
176
     1
 90
       50
176
     1
 90
        3
176
     1
 62
     5
420
      255
176
     1
290
     0
176
     1
 90
       50
176
     1
 90
       50
176
     1
 90
       50
176
     1
290
     0
176
     1
 90
       50
176
     1
 62
   256
176
     0
 40
1.0
176
     0
 90
        2
176
     1
  1
strokes_ogs.tif
176
     1
290
     0
176
     1
 40
1.0
176
     1
 40
1.0
176
     1
  0
VISUALSTYLE
  5
10F
102
{ACAD_REACTORS
330
F7
102
}
330
F7
100
AcDbVisualStyle
  2
Shaded
 70
    27
177
     3
291
     0
 70
    58
 90
        2
176
     1
 90
        2
176
     1
 90
        1
176
     1
 90
        2
176
     1
 40
0.6
176
     1
 40
30.0
176
     1
 62
     7
420
 16777215
176
     1
 90
        0
176
     1
 90
        4
176
     1
 62
     7
176
     1
 62
   257
176
     1
 90
        1
176
     1
 90
        1
176
     1
 40
1.0
176
     1
 90
        8
176
     1
 62
   257
176
     1
 40
1.0
176
     1
 90
        1
176
     1
 90
        6
176
     1
 90
        2
176
     1
 62
     8
420
  7895160
176
     1
 90
        3
176
     1
 90
        0
176
     1
 90
        0
176
     1
290
     0
176
     1
 90
        5
176
     1
 40
0.0
176
     1
 90
        0
176
     1
290
     0
176
     1
290
     1
176
     1
290
     1
176
     1
290
     0
176
     1
290
     0
176
     1
290
     0
176
     1
290
     0
176
     1
290
     0
176
     1
290
     0
176
     1
 90
       50
176
     1
 40
0.0
176
     1
 40
1.0
176
     1
 90
        0
176
     1
 62
    18
420
        0
176
     1
 90
       50
176
     1
 90
        3
176
     1
 62
     5
420
      255
176
     1
290
     0
176
     1
 90
       50
176
     1
 90
       50
176
     1
 90
       50
176
     1
290
     0
176
     1
 90
       50
176
     1
 62
   256
176
     0
 40
1.0
176
     0
 90
        2
176
     1
  1
strokes_ogs.tif
176
     1
290
     0
176
     1
 40
1.0
176
     1
 40
1.0
176
     1
  0
VISUALSTYLE
  5
10E
102
{ACAD_REACTORS
330
F7
102
}
330
F7
100
AcDbVisualStyle
  2
Shaded with edges
 70
    26
177
     3
291
     0
 70
    58
 90
        2
176
     1
 90
        2
176
     1
 90
        1
176
     1
 90
        2
176
     1
 40
0.6
176
     1
 40
30.0
176
     1
 62
     7
420
 16777215
176
     1
 90
        1
176
     1
 90
       10
176
     1
 62
     7
176
     1
 62
   257
176
     1
 90
        2
176
     1
 90
        1
176
     1
 40
1.0
176
     1
 90
        8
176
     1
 62
   257
176
     1
 40
1.0
176
     1
 90
        1
176
     1
 90
        6
176
     1
 90
        2
176
     1
 62
     7
176
     1
 90
        3
176
     1
 90
        0
176
     1
 90
        0
176
     1
290
     0
176
     1
 90
        5
176
     1
 40
0.0
176
     1
 90
        0
176
     1
290
     0
176
     1
290
     1
176
     1
290
     1
176
     1
290
     0
176
     1
290
     0
176
     1
290
     0
176
     1
290
     0
176
     1
290
     0
176
     1
290
     0
176
     1
 90
       50
176
     1
 40
0.0
176
     1
 40
1.0
176
     1
 90
        0
176
     1
 62
    18
420
        0
176
     1
 90
       50
176
     1
 90
        3
176
     1
 62
     5
420
      255
176
     1
290
     0
176
     1
 90
       50
176
     1
 90
       50
176
     1
 90
       50
176
     1
290
     0
176
     1
 90
       50
176
     1
 62
   256
176
     0
 40
1.0
176
     0
 90
        2
176
     1
  1
strokes_ogs.tif
176
     1
290
     0
176
     1
 40
1.0
176
     1
 40
1.0
176
     1
  0
VISUALSTYLE
  5
10B
102
{ACAD_REACTORS
330
F7
102
}
330
F7
100
AcDbVisualStyle
  2
Shades of Gray
 70
    23
177
     3
291
     0
 70
    58
 90
        2
176
     1
 90
        2
176
     1
 90
        3
176
     1
 90
        0
176
     1
 40
0.6
176
     1
 40
30.0
176
     1
 62
     7
420
 16777215
176
     1
 90
        2
176
     1
 90
        2
176
     1
 62
     7
176
     1
 62
     7
176
     1
 90
        1
176
     1
 90
        1
176
     1
 40
40.0
176
     1
 90
        8
176
     1
 62
     7
176
     1
 40
1.0
176
     1
 90
        1
176
     1
 90
        6
176
     1
 90
        2
176
     1
 62
     7
176
     1
 90
        3
176
     1
 90
        0
176
     1
 90
        0
176
     1
290
     0
176
     1
 90
        1
176
     1
 40
0.0
176
     1
 90
        0
176
     1
290
     0
176
     1
290
     1
176
     1
290
     1
176
     1
290
     0
176
     1
290
     0
176
     1
290
     0
176
     1
290
     0
176
     1
290
     0
176
     1
290
     0
176
     1
 90
       50
176
     1
 40
0.0
176
     1
 40
1.0
176
     1
 90
        0
176
     1
 62
    18
420
        0
176
     1
 90
       50
176
     1
 90
        3
176
     1
 62
     5
420
      255
176
     1
290
     0
176
     1
 90
       50
176
     1
 90
       50
176
     1
 90
       50
176
     1
290
     0
176
     1
 90
       50
176
     1
 62
   256
176
     0
 40
1.0
176
     0
 90
        2
176
     1
  1
strokes_ogs.tif
176
     1
290
     0
176
     1
 40
1.0
176
     1
 40
1.0
176
     1
  0
VISUALSTYLE
  5
10C
102
{ACAD_REACTORS
330
F7
102
}
330
F7
100
AcDbVisualStyle
  2
Sketchy
 70
    24
177
     3
291
     0
 70
    58
 90
        1
176
     1
 90
        2
176
     1
 90
        2
176
     1
 90
        0
176
     1
 40
0.6
176
     1
 40
30.0
176
     1
 62
     7
420
 16777215
176
     1
 90
        2
176
     1
 90
        2
176
     1
 62
     7
176
     1
 62
     7
176
     1
 90
        1
176
     1
 90
        1
176
     1
 40
40.0
176
     1
 90
       11
176
     1
 62
     7
176
     1
 40
1.0
176
     1
 90
        1
176
     1
 90
        6
176
     1
 90
        2
176
     1
 62
     7
176
     1
 90
        6
176
     1
 90
        0
176
     1
 90
        0
176
     1
290
     0
176
     1
 90
        1
176
     1
 40
0.0
176
     1
 90
        0
176
     1
290
     0
176
     1
290
     1
176
     1
290
     1
176
     1
290
     0
176
     1
290
     0
176
     1
290
     0
176
     1
290
     0
176
     1
290
     0
176
     1
290
     0
176
     1
 90
       50
176
     1
 40
0.0
176
     1
 40
1.0
176
     1
 90
        0
176
     1
 62
    18
420
        0
176
     1
 90
       50
176
     1
 90
        3
176
     1
 62
     5
420
      255
176
     1
290
     0
176
     1
 90
       50
176
     1
 90
       50
176
     1
 90
       50
176
     1
290
     0
176
     1
 90
       50
176
     1
 62
   256
176
     0
 40
1.0
176
     0
 90
        2
176
     1
  1
strokes_ogs.tif
176
     1
290
     0
176
     1
 40
1.0
176
     1
 40
1.0
176
     1
  0
VISUALSTYLE
  5
104
102
{ACAD_REACTORS
330
F7
102
}
330
F7
100
AcDbVisualStyle
  2
Thicken
 70
    13
177
     3
291
     1
 70
    58
 90
        2
176
     1
 90
        2
176
     1
 90
        0
176
     1
 90
        0
176
     1
 40
0.6
176
     1
 40
30.0
176
     1
 62
     7
420
 16777215
176
     1
 90
        1
176
     1
 90
        4
176
     1
 62
     7
176
     1
 62
   257
176
     1
 90
        1
176
     1
 90
        1
176
     1
 40
1.0
176
     1
 90
       12
176
     1
 62
     7
176
     1
 40
1.0
176
     1
 90
        1
176
     1
 90
        6
176
     1
 90
        2
176
     1
 62
     7
176
     1
 90
        5
176
     1
 90
        0
176
     1
 90
        0
176
     1
290
     0
176
     1
 90
        1
176
     1
 40
0.0
176
     1
 90
        0
176
     1
290
     0
176
     1
290
     1
176
     1
290
     1
176
     1
290
     0
176
     1
290
     0
176
     1
290
     0
176
     1
290
     0
176
     1
290
     0
176
     1
290
     0
176
     1
 90
       50
176
     1
 40
0.0
176
     1
 40
1.0
176
     1
 90
        0
176
     1
 62
    18
420
        0
176
     1
 90
       50
176
     1
 90
        3
176
     1
 62
     5
420
      255
176
     1
290
     0
176
     1
 90
       50
176
     1
 90
       50
176
     1
 90
       50
176
     1
290
     0
176
     1
 90
       50
176
     1
 62
   256
176
     0
 40
1.0
176
     0
 90
        2
176
     1
  1
strokes_ogs.tif
176
     1
290
     0
176
     1
 40
1.0
176
     1
 40
1.0
176
     1
  0
VISUALSTYLE
  5
FD
102
{ACAD_REACTORS
330
F7
102
}
330
F7
100
AcDbVisualStyle
  2
Wireframe
 70
     5
177
     3
291
     0
 70
    58
 90
        0
176
     1
 90
        2
176
     1
 90
        0
176
     1
 90
        0
176
     1
 40
0.6
176
     1
 40
30.0
176
     1
 62
     7
420
 16777215
176
     1
 90
        1
176
     1
 90
        4
176
     1
 62
     7
176
     1
 62
   257
176
     1
 90
        1
176
     1
 90
        1
176
     1
 40
1.0
176
     1
 90
        0
176
     1
 62
   257
176
     1
 40
1.0
176
     1
 90
        1
176
     1
 90
        6
176
     1
 90
        2
176
     1
 62
     7
176
     1
 90
        3
176
     1
 90
        0
176
     1
 90
        0
176
     1
290
     0
176
     1
 90
        1
176
     1
 40
0.0
176
     1
 90
        0
176
     1
290
     0
176
     1
290
     1
176
     1
290
     1
176
     1
290
     0
176
     1
290
     0
176
     1
290
     0
176
     1
290
     0
176
     1
290
     0
176
     1
290
     0
176
     1
 90
       50
176
     1
 40
0.0
176
     1
 40
1.0
176
     1
 90
        0
176
     1
 62
    18
420
        0
176
     1
 90
       50
176
     1
 90
        3
176
     1
 62
     5
420
      255
176
     1
290
     0
176
     1
 90
       50
176
     1
 90
       50
176
     1
 90
       50
176
     1
290
     0
176
     1
 90
       50
176
     1
 62
   256
176
     0
 40
1.0
176
     0
 90
        2
176
     1
  1
strokes_ogs.tif
176
     1
290
     0
176
     1
 40
1.0
176
     1
 40
1.0
176
     1
  0
VISUALSTYLE
  5
10D
102
{ACAD_REACTORS
330
F7
102
}
330
F7
100
AcDbVisualStyle
  2
X-Ray
 70
    25
177
     3
291
     0
 70
    58
 90
        2
176
     1
 90
        2
176
     1
 90
        1
176
     1
 90
        1
176
     1
 40
0.5
176
     1
 40
30.0
176
     1
 62
     7
420
 16777215
176
     1
 90
        1
176
     1
 90
        0
176
     1
 62
     7
176
     1
 62
   257
176
     1
 90
        1
176
     1
 90
        1
176
     1
 40
1.0
176
     1
 90
        8
176
     1
 62
     7
176
     1
 40
1.0
176
     1
 90
        1
176
     1
 90
        6
176
     1
 90
        2
176
     1
 62
     7
176
     1
 90
        3
176
     1
 90
        0
176
     1
 90
        0
176
     1
290
     0
176
     1
 90
       13
176
     1
 40
0.0
176
     1
 90
        0
176
     1
290
     0
176
     1
290
     1
176
     1
290
     1
176
     1
290
     0
176
     1
290
     0
176
     1
290
     0
176
     1
290
     0
176
     1
290
     0
176
     1
290
     0
176
     1
 90
       50
176
     1
 40
0.0
176
     1
 40
1.0
176
     1
 90
        0
176
     1
 62
    18
420
        0
176
     1
 90
       50
176
     1
 90
        3
176
     1
 62
     5
420
      255
176
     1
290
     0
176
     1
 90
       50
176
     1
 90
       50
176
     1
 90
       50
176
     1
290
     0
176
     1
 90
       50
176
     1
 62
   256
176
     0
 40
1.0
176
     0
 90
        2
176
     1
  1
strokes_ogs.tif
176
     1
290
     0
176
     1
 40
1.0
176
     1
 40
1.0
176
     1
  0
DICTIONARYVAR
  5
629
102
{ACAD_REACTORS
330
628
102
}
330
628
100
DictionaryVariables
280
     0
  1
1:1
  0
DICTIONARYVAR
  5
62B
102
{ACAD_REACTORS
330
628
102
}
330
628
100
DictionaryVariables
280
     0
  1
Standard
  0
DICTIONARYVAR
  5
62A
102
{ACAD_REACTORS
330
628
102
}
330
628
100
DictionaryVariables
280
     0
  1
Standard
  0
DICTIONARY
  5
668
330
115
100
AcDbDictionary
280
     1
281
     1
  3
ACAD_ROUNDTRIP_2008_TABLESTYLE_CELLSTYLEMAP
360
669
  0
CELLSTYLEMAP
  5
669
102
{ACAD_REACTORS
330
668
102
}
330
668
100
AcDbCellStyleMap
 90
        3
300
CELLSTYLE
  1
TABLEFORMAT_BEGIN
 90
        5
170
     1
 91
        0
 92
    32768
 62
   257
 93
        1
300
CONTENTFORMAT
  1
CONTENTFORMAT_BEGIN
 90
        0
 91
        0
 92
        4
 93
        0
300

 40
0.0
140
1.0
 94
        5
 62
     0
340
20
144
0.25
309
CONTENTFORMAT_END
171
     1
301
MARGIN
  1
CELLMARGIN_BEGIN
 40
0.06
 40
0.06
 40
0.06
 40
0.06
 40
0.06
 40
0.06
309
CELLMARGIN_END
 94
        6
 95
        1
302
GRIDFORMAT
  1
GRIDFORMAT_BEGIN
 90
        0
 91
        1
 62
     0
 92
       -2
340
10
 93
        0
 40
0.045
309
GRIDFORMAT_END
 95
        2
302
GRIDFORMAT
  1
GRIDFORMAT_BEGIN
 90
        0
 91
        1
 62
     0
 92
       -2
340
10
 93
        0
 40
0.045
309
GRIDFORMAT_END
 95
        4
302
GRIDFORMAT
  1
GRIDFORMAT_BEGIN
 90
        0
 91
        1
 62
     0
 92
       -2
340
10
 93
        0
 40
0.045
309
GRIDFORMAT_END
 95
        8
302
GRIDFORMAT
  1
GRIDFORMAT_BEGIN
 90
        0
 91
        1
 62
     0
 92
       -2
340
10
 93
        0
 40
0.045
309
GRIDFORMAT_END
 95
       16
302
GRIDFORMAT
  1
GRIDFORMAT_BEGIN
 90
        0
 91
        1
 62
     0
 92
       -2
340
10
 93
        0
 40
0.045
309
GRIDFORMAT_END
 95
       32
302
GRIDFORMAT
  1
GRIDFORMAT_BEGIN
 90
        0
 91
        1
 62
     0
 92
       -2
340
10
 93
        0
 40
0.045
309
GRIDFORMAT_END
309
TABLEFORMAT_END
  1
CELLSTYLE_BEGIN
 90
        1
 91
        1
300
_TITLE
309
CELLSTYLE_END
300
CELLSTYLE
  1
TABLEFORMAT_BEGIN
 90
        5
170
     1
 91
        0
 92
        0
 62
   257
 93
        1
300
CONTENTFORMAT
  1
CONTENTFORMAT_BEGIN
 90
        0
 91
        0
 92
        4
 93
        0
300

 40
0.0
140
1.0
 94
        5
 62
     0
340
20
144
0.18
309
CONTENTFORMAT_END
171
     1
301
MARGIN
  1
CELLMARGIN_BEGIN
 40
0.06
 40
0.06
 40
0.06
 40
0.06
 40
0.06
 40
0.06
309
CELLMARGIN_END
 94
        6
 95
        1
302
GRIDFORMAT
  1
GRIDFORMAT_BEGIN
 90
        0
 91
        1
 62
     0
 92
       -2
340
10
 93
        0
 40
0.045
309
GRIDFORMAT_END
 95
        2
302
GRIDFORMAT
  1
GRIDFORMAT_BEGIN
 90
        0
 91
        1
 62
     0
 92
       -2
340
10
 93
        0
 40
0.045
309
GRIDFORMAT_END
 95
        4
302
GRIDFORMAT
  1
GRIDFORMAT_BEGIN
 90
        0
 91
        1
 62
     0
 92
       -2
340
10
 93
        0
 40
0.045
309
GRIDFORMAT_END
 95
        8
302
GRIDFORMAT
  1
GRIDFORMAT_BEGIN
 90
        0
 91
        1
 62
     0
 92
       -2
340
10
 93
        0
 40
0.045
309
GRIDFORMAT_END
 95
       16
302
GRIDFORMAT
  1
GRIDFORMAT_BEGIN
 90
        0
 91
        1
 62
     0
 92
       -2
340
10
 93
        0
 40
0.045
309
GRIDFORMAT_END
 95
       32
302
GRIDFORMAT
  1
GRIDFORMAT_BEGIN
 90
        0
 91
        1
 62
     0
 92
       -2
340
10
 93
        0
 40
0.045
309
GRIDFORMAT_END
309
TABLEFORMAT_END
  1
CELLSTYLE_BEGIN
 90
        2
 91
        1
300
_HEADER
309
CELLSTYLE_END
300
CELLSTYLE
  1
TABLEFORMAT_BEGIN
 90
        5
170
     1
 91
        0
 92
        0
 62
   257
 93
        1
300
CONTENTFORMAT
  1
CONTENTFORMAT_BEGIN
 90
        0
 91
        0
 92
        4
 93
        0
300

 40
0.0
140
1.0
 94
        2
 62
     0
340
20
144
0.18
309
CONTENTFORMAT_END
171
     1
301
MARGIN
  1
CELLMARGIN_BEGIN
 40
0.06
 40
0.06
 40
0.06
 40
0.06
 40
0.06
 40
0.06
309
CELLMARGIN_END
 94
        6
 95
        1
302
GRIDFORMAT
  1
GRIDFORMAT_BEGIN
 90
        0
 91
        1
 62
     0
 92
       -2
340
10
 93
        0
 40
0.045
309
GRIDFORMAT_END
 95
        2
302
GRIDFORMAT
  1
GRIDFORMAT_BEGIN
 90
        0
 91
        1
 62
     0
 92
       -2
340
10
 93
        0
 40
0.045
309
GRIDFORMAT_END
 95
        4
302
GRIDFORMAT
  1
GRIDFORMAT_BEGIN
 90
        0
 91
        1
 62
     0
 92
       -2
340
10
 93
        0
 40
0.045
309
GRIDFORMAT_END
 95
        8
302
GRIDFORMAT
  1
GRIDFORMAT_BEGIN
 90
        0
 91
        1
 62
     0
 92
       -2
340
10
 93
        0
 40
0.045
309
GRIDFORMAT_END
 95
       16
302
GRIDFORMAT
  1
GRIDFORMAT_BEGIN
 90
        0
 91
        1
 62
     0
 92
       -2
340
10
 93
        0
 40
0.045
309
GRIDFORMAT_END
 95
       32
302
GRIDFORMAT
  1
GRIDFORMAT_BEGIN
 90
        0
 91
        1
 62
     0
 92
       -2
340
10
 93
        0
 40
0.045
309
GRIDFORMAT_END
309
TABLEFORMAT_END
  1
CELLSTYLE_BEGIN
 90
        3
 91
        2
300
_DATA
309
CELLSTYLE_END
  0
ENDSEC
  0
EOF
