  0
SECTION
  2
HEADER
  9
$ACADVER
  1
AC1006
  9
$INSBASE
 10
0.0
 20
0.0
 30
0.0
  9
$EXTMIN
 10
45.312491
 20
29.5
  9
$EXTMAX
 10
784.648843
 20
523.751651
  9
$LIMMIN
 10
0.0
 20
0.0
  9
$LIMMAX
 10
12.0
 20
9.0
  9
$ORTHOMODE
 70
     0
  9
$REGENMODE
 70
     1
  9
$FILLMODE
 70
     1
  9
$QTEXTMODE
 70
     0
  9
$MIRRTEXT
 70
     1
  9
$DRAGMODE
 70
     2
  9
$LTSCALE
 40
1.0
  9
$OSMODE
 70
     0
  9
$ATTMODE
 70
     1
  9
$TEXTSIZE
 40
0.2
  9
$TRACEWID
 40
0.05
  9
$TEXTSTYLE
  7
STANDARD
  9
$CLAYER
  8
L-ZISSEN
  9
$CELTYPE
  6
BYLAYER
  9
$CECOLOR
 62
   256
  9
$DIMSCALE
 40
1.0
  9
$DIMASZ
 40
1.5
  9
$DIMEXO
 40
1.0
  9
$DIMDLI
 40
0.38
  9
$DIMRND
 40
0.0
  9
$DIMDLE
 40
0.0
  9
$DIMEXE
 40
1.0
  9
$DIMTP
 40
0.0
  9
$DIMTM
 40
0.0
  9
$DIMTXT
 40
2.5
  9
$DIMCEN
 40
0.09
  9
$DIMTSZ
 40
0.0
  9
$DIMTOL
 70
     0
  9
$DIMLIM
 70
     0
  9
$DIMTIH
 70
     0
  9
$DIMTOH
 70
     0
  9
$DIMSE1
 70
     0
  9
$DIMSE2
 70
     0
  9
$DIMTAD
 70
     1
  9
$DIMZIN
 70
     0
  9
$DIMBLK
  1

  9
$DIMASO
 70
     1
  9
$DIMSHO
 70
     0
  9
$DIMPOST
  1

  9
$DIMAPOST
  1

  9
$DIMALT
 70
     0
  9
$DIMALTD
 70
     2
  9
$DIMALTF
 40
25.4
  9
$DIMLFAC
 40
1.0
  9
$DIMTOFL
 70
     1
  9
$DIMTVP
 40
0.0
  9
$DIMTIX
 70
     0
  9
$DIMSOXD
 70
     0
  9
$DIMSAH
 70
     0
  9
$DIMBLK1
  1

  9
$DIMBLK2
  1

  9
$LUNITS
 70
     2
  9
$LUPREC
 70
     4
  9
$AXISMODE
 70
     0
  9
$AXISUNIT
 10
0.0
 20
0.0
  9
$SKETCHINC
 40
0.1
  9
$FILLETRAD
 40
0.0
  9
$AUNITS
 70
     0
  9
$AUPREC
 70
     0
  9
$MENU
  1
acad
  9
$ELEVATION
 40
0.0
  9
$THICKNESS
 40
0.0
  9
$LIMCHECK
 70
     0
  9
$BLIPMODE
 70
     1
  9
$CHAMFERA
 40
0.0
  9
$CHAMFERB
 40
0.0
  9
$SKPOLY
 70
     0
  9
$TDCREATE
 40
2449263.5744627314
  9
$TDUPDATE
 40
2449263.5744627314
  9
$TDINDWG
 40
0.0000000000
  9
$TDUSRTIMER
 40
0.0000000000
  9
$USRTIMER
 70
     1
  9
$ANGBASE
 50
0.0
  9
$ANGDIR
 70
     0
  9
$PDMODE
 70
     0
  9
$PDSIZE
 40
0.0
  9
$PLINEWID
 40
0.0
  9
$COORDS
 70
     0
  9
$SPLFRAME
 70
     0
  9
$SPLINETYPE
 70
     6
  9
$SPLINESEGS
 70
     8
  9
$ATTDIA
 70
     0
  9
$ATTREQ
 70
     1
  9
$HANDLING
 70
     0
  9
$HANDSEED
  5
0
  9
$SURFTAB1
 70
     6
  9
$SURFTAB2
 70
     6
  9
$SURFTYPE
 70
     6
  9
$SURFU
 70
     6
  9
$SURFV
 70
     6
  9
$FLATLAND
 70
     0
  9
$UCSNAME
  2

  9
$UCSORG
 10
0.0
 20
0.0
 30
0.0
  9
$UCSXDIR
 10
1.0
 20
0.0
 30
0.0
  9
$UCSYDIR
 10
0.0
 20
1.0
 30
0.0
  9
$USERI1
 70
     0
  9
$USERI2
 70
     0
  9
$USERI3
 70
     0
  9
$USERI4
 70
     0
  9
$USERI5
 70
     0
  9
$USERR1
 40
0.0
  9
$USERR2
 40
0.0
  9
$USERR3
 40
0.0
  9
$USERR4
 40
0.0
  9
$USERR5
 40
0.0
  9
$WORLDVIEW
 70
     1
  0
ENDSEC
  0
SECTION
  2
TABLES
  0
TABLE
  2
VPORT
 70
     2
  0
VPORT
  2
*ACTIVE
 70
     0
 10
0.0
 20
0.0
 11
1.0
 21
1.0
 12
448.399412
 22
281.297065
 13
0.0
 23
0.0
 14
1.0
 24
1.0
 15
0.0
 25
0.0
 16
0.0
 26
0.0
 36
1.0
 17
0.0
 27
0.0
 37
0.0
 40
564.162035
 41
1.5487
 42
50.0
 43
0.0
 44
0.0
 50
0.0
 51
0.0
 71
     0
 72
   100
 73
     1
 74
     0
 75
     0
 76
     0
 77
     0
 78
     0
  0
ENDTAB
  0
TABLE
  2
LTYPE
 70
     2
  0
LTYPE
  2
CONTINUOUS
 70
    64
  3
Solid line
 72
    65
 73
     0
 40
0.0
  0
LTYPE
  2
CENTER
 70
    64
  3
____ _ ____ _ ____
 72
    65
 73
     4
 40
8.0
 49
5.0
 49
-1.0
 49
1.0
 49
-1.0
  0
ENDTAB
  0
TABLE
  2
LAYER
 70
     3
  0
LAYER
  2
0
 70
     0
 62
     7
  6
CONTINUOUS
  0
LAYER
  2
L-ZISSEN
 70
    64
 62
     7
  6
CONTINUOUS
  0
LAYER
  2
L-TYUSIN
 70
    64
 62
     1
  6
CENTER
  0
ENDTAB
  0
TABLE
  2
STYLE
 70
     1
  0
STYLE
  2
STANDARD
 70
    64
 40
0.0
 41
1.0
 50
0.0
 71
     0
 42
0.2
  3
txt
  4

  0
ENDTAB
  0
TABLE
  2
VIEW
 70
     0
  0
ENDTAB
  0
TABLE
  2
UCS
 70
     0
  0
ENDTAB
  0
TABLE
  2
DWGMGR
 70
     0
  0
ENDTAB
  0
ENDSEC
  0
SECTION
  2
BLOCKS
  0
ENDSEC
  0
SECTION
  2
ENTITIES
  0
LINE
  8
L-ZISSEN
 10
102.0
 20
42.5
 30
0.0
 11
92.0
 21
151.5
 31
0.0
  0
LINE
  8
L-ZISSEN
 10
266.0
 20
42.5
 30
0.0
 11
276.0
 21
151.5
 31
0.0
  0
LINE
  8
L-ZISSEN
 10
102.0
 20
42.5
 30
0.0
 11
266.0
 21
42.5
 31
0.0
  0
LINE
  8
L-ZISSEN
 10
92.0
 20
151.5
 30
0.0
 11
276.0
 21
151.5
 31
0.0
  0
TEXT
  8
L-ZISSEN
 10
47.931647
 20
502.870836
 30
0.0
 40
4.5
  1
MVS-3510YCL/YCK
  0
TEXT
  8
L-ZISSEN
 10
47.931647
 20
510.851076
 30
0.0
 40
4.5
  1
MVS-3506YCL/YCK
  0
LINE
  8
L-ZISSEN
 10
212.0
 20
409.0
 30
0.0
 11
276.0
 21
409.0
 31
0.0
  0
LINE
  8
L-ZISSEN
  6
CONTINUOUS
 62
     7
 10
441.0
 20
162.801205
 30
0.0
 11
455.5
 21
163.5
 31
0.0
  0
LINE
  8
L-ZISSEN
 10
98.2
 20
405.0
 30
0.0
 11
98.2
 21
401.4
 31
0.0
  0
LINE
  8
L-ZISSEN
 10
105.8
 20
405.0
 30
0.0
 11
105.8
 21
401.4
 31
0.0
  0
LINE
  8
L-ZISSEN
 10
98.2
 20
401.4
 30
0.0
 11
105.8
 21
401.4
 31
0.0
  0
LINE
  8
L-ZISSEN
 10
107.0
 20
409.0
 30
0.0
 11
107.0
 21
405.0
 31
0.0
  0
LINE
  8
L-ZISSEN
 10
115.0
 20
405.0
 30
0.0
 11
97.0
 21
405.0
 31
0.0
  0
LINE
  8
L-ZISSEN
 10
97.0
 20
409.0
 30
0.0
 11
97.0
 21
405.0
 31
0.0
  0
LINE
  8
L-ZISSEN
 10
115.0
 20
409.0
 30
0.0
 11
115.0
 21
405.0
 31
0.0
  0
LINE
  8
L-ZISSEN
 10
106.2
 20
401.4
 30
0.0
 11
113.8
 21
401.4
 31
0.0
  0
LINE
  8
L-ZISSEN
 10
113.8
 20
405.0
 30
0.0
 11
113.8
 21
401.4
 31
0.0
  0
LINE
  8
L-ZISSEN
 10
106.2
 20
405.0
 30
0.0
 11
106.2
 21
401.4
 31
0.0
  0
LINE
  8
L-ZISSEN
 10
261.8
 20
405.0
 30
0.0
 11
261.8
 21
401.4
 31
0.0
  0
LINE
  8
L-ZISSEN
 10
254.2
 20
405.0
 30
0.0
 11
254.2
 21
401.4
 31
0.0
  0
LINE
  8
L-ZISSEN
 10
261.8
 20
401.4
 30
0.0
 11
254.2
 21
401.4
 31
0.0
  0
LINE
  8
L-ZISSEN
 10
253.0
 20
409.0
 30
0.0
 11
253.0
 21
405.0
 31
0.0
  0
LINE
  8
L-ZISSEN
 10
271.0
 20
409.0
 30
0.0
 11
271.0
 21
405.0
 31
0.0
  0
LINE
  8
L-ZISSEN
 10
253.0
 20
405.0
 30
0.0
 11
271.0
 21
405.0
 31
0.0
  0
LINE
  8
L-ZISSEN
 10
261.0
 20
409.0
 30
0.0
 11
261.0
 21
405.0
 31
0.0
  0
LINE
  8
L-ZISSEN
 10
269.8
 20
401.4
 30
0.0
 11
262.2
 21
401.4
 31
0.0
  0
LINE
  8
L-ZISSEN
 10
262.2
 20
405.0
 30
0.0
 11
262.2
 21
401.4
 31
0.0
  0
LINE
  8
L-ZISSEN
 10
269.8
 20
405.0
 30
0.0
 11
269.8
 21
401.4
 31
0.0
  0
LINE
  8
L-ZISSEN
 10
92.0
 20
409.0
 30
0.0
 11
92.0
 21
412.0
 31
0.0
  0
LINE
  8
L-ZISSEN
 10
276.0
 20
412.0
 30
0.0
 11
276.0
 21
409.0
 31
0.0
  0
LINE
  8
L-ZISSEN
 10
92.0
 20
409.0
 30
0.0
 11
156.0
 21
409.0
 31
0.0
  0
LINE
  8
L-TYUSIN
  6
CENTER
 62
     1
 10
107.05266
 20
64.5
 30
0.0
 11
82.05266
 21
64.5
 31
0.0
  0
LINE
  8
L-TYUSIN
  6
CENTER
 62
     1
 10
260.94734
 20
64.5
 30
0.0
 11
285.94734
 21
64.5
 31
0.0
  0
CIRCLE
  8
L-ZISSEN
 10
97.0
 20
472.0
 30
0.0
 40
4.25
  0
CIRCLE
  8
L-ZISSEN
 10
97.0
 20
428.0
 30
0.0
 40
4.25
  0
CIRCLE
  8
L-ZISSEN
 10
271.0
 20
428.0
 30
0.0
 40
4.25
  0
LINE
  8
L-ZISSEN
 10
441.0
 20
164.0
 30
0.0
 11
431.0
 21
164.0
 31
0.0
  0
LINE
  8
L-ZISSEN
 10
440.25
 20
164.0
 30
0.0
 11
440.25
 21
170.5
 31
0.0
  0
LINE
  8
L-ZISSEN
 10
440.25
 20
170.5
 30
0.0
 11
431.75
 21
170.5
 31
0.0
  0
LINE
  8
L-ZISSEN
 10
431.75
 20
164.0
 30
0.0
 11
431.75
 21
170.5
 31
0.0
  0
LINE
  8
L-ZISSEN
 10
441.0
 20
164.0
 30
0.0
 11
441.0
 21
158.5
 31
0.0
  0
LINE
  8
L-ZISSEN
 10
431.0
 20
164.0
 30
0.0
 11
431.0
 21
158.5
 31
0.0
  0
CIRCLE
  8
L-ZISSEN
 10
271.0
 20
472.0
 30
0.0
 40
4.25
  0
LINE
  8
L-ZISSEN
 10
89.0
 20
412.0
 30
0.0
 11
89.0
 21
488.0
 31
0.0
  0
LINE
  8
L-ZISSEN
 10
279.0
 20
412.0
 30
0.0
 11
279.0
 21
488.0
 31
0.0
  0
LINE
  8
L-ZISSEN
 10
397.0
 20
164.0
 30
0.0
 11
397.0
 21
158.5
 31
0.0
  0
LINE
  8
L-ZISSEN
 10
387.0
 20
164.0
 30
0.0
 11
387.0
 21
158.5
 31
0.0
  0
LINE
  8
L-ZISSEN
 10
396.25
 20
164.0
 30
0.0
 11
396.25
 21
170.5
 31
0.0
  0
LINE
  8
L-ZISSEN
 10
387.75
 20
170.5
 30
0.0
 11
396.25
 21
170.5
 31
0.0
  0
LINE
  8
L-ZISSEN
 10
387.75
 20
164.0
 30
0.0
 11
387.75
 21
170.5
 31
0.0
  0
LINE
  8
L-ZISSEN
 10
387.0
 20
164.0
 30
0.0
 11
397.0
 21
164.0
 31
0.0
  0
LINE
  8
L-TYUSIN
  6
CENTER
 62
     1
 10
401.5
 20
64.5
 30
0.0
 11
426.5
 21
64.5
 31
0.0
  0
LINE
  8
L-ZISSEN
 10
365.4
 20
138.7
 30
0.0
 11
365.4
 21
146.3
 31
0.0
  0
LINE
  8
L-ZISSEN
 10
369.0
 20
146.3
 30
0.0
 11
365.4
 21
146.3
 31
0.0
  0
LINE
  8
L-ZISSEN
 10
369.0
 20
138.7
 30
0.0
 11
365.4
 21
138.7
 31
0.0
  0
LINE
  8
L-ZISSEN
 10
369.0
 20
46.7
 30
0.0
 11
365.4
 21
46.7
 31
0.0
  0
LINE
  8
L-ZISSEN
 10
369.0
 20
54.3
 30
0.0
 11
365.4
 21
54.3
 31
0.0
  0
LINE
  8
L-ZISSEN
 10
365.4
 20
46.7
 30
0.0
 11
365.4
 21
54.3
 31
0.0
  0
LINE
  8
L-ZISSEN
 10
373.0
 20
55.5
 30
0.0
 11
369.0
 21
55.5
 31
0.0
  0
LINE
  8
L-ZISSEN
 10
369.0
 20
55.5
 30
0.0
 11
369.0
 21
45.5
 31
0.0
  0
LINE
  8
L-ZISSEN
 10
373.0
 20
45.5
 30
0.0
 11
369.0
 21
45.5
 31
0.0
  0
LINE
  8
L-ZISSEN
 10
373.0
 20
137.5
 30
0.0
 11
369.0
 21
137.5
 31
0.0
  0
LINE
  8
L-ZISSEN
 10
369.0
 20
147.5
 30
0.0
 11
369.0
 21
137.5
 31
0.0
  0
LINE
  8
L-ZISSEN
 10
373.0
 20
147.5
 30
0.0
 11
369.0
 21
147.5
 31
0.0
  0
LINE
  8
L-ZISSEN
 10
373.0
 20
42.5
 30
0.0
 11
373.0
 21
151.5
 31
0.0
  0
LINE
  8
L-ZISSEN
 10
376.0
 20
42.5
 30
0.0
 11
373.0
 21
42.5
 31
0.0
  0
LINE
  8
L-ZISSEN
 10
373.0
 20
151.5
 30
0.0
 11
376.0
 21
151.5
 31
0.0
  0
CIRCLE
  8
L-ZISSEN
 10
414.0
 20
64.5
 30
0.0
 40
10.5
  0
LINE
  8
L-ZISSEN
 10
376.0
 20
39.5
 30
0.0
 11
452.0
 21
39.5
 31
0.0
  0
LINE
  8
L-ZISSEN
 10
452.0
 20
154.5
 30
0.0
 11
376.0
 21
154.5
 31
0.0
  0
LINE
  8
L-ZISSEN
 10
266.0
 20
164.0
 30
0.0
 11
276.0
 21
164.0
 31
0.0
  0
LINE
  8
L-ZISSEN
 10
266.75
 20
164.0
 30
0.0
 11
266.75
 21
170.5
 31
0.0
  0
LINE
  8
L-ZISSEN
 10
266.75
 20
170.5
 30
0.0
 11
275.25
 21
170.5
 31
0.0
  0
LINE
  8
L-ZISSEN
 10
275.25
 20
164.0
 30
0.0
 11
275.25
 21
170.5
 31
0.0
  0
LINE
  8
L-ZISSEN
 10
266.0
 20
164.0
 30
0.0
 11
266.0
 21
158.5
 31
0.0
  0
LINE
  8
L-ZISSEN
 10
276.0
 20
164.0
 30
0.0
 11
276.0
 21
158.5
 31
0.0
  0
CIRCLE
  8
L-ZISSEN
 10
266.0
 20
142.5
 30
0.0
 40
5.0
  0
CIRCLE
  8
L-ZISSEN
 10
258.0
 20
50.5
 30
0.0
 40
5.0
  0
CIRCLE
  8
L-ZISSEN
 10
184.0
 20
142.5
 30
0.0
 40
5.0
  0
CIRCLE
  8
L-ZISSEN
 10
110.0
 20
50.5
 30
0.0
 40
5.0
  0
CIRCLE
  8
L-ZISSEN
 10
102.0
 20
142.5
 30
0.0
 40
5.0
  0
LINE
  8
L-ZISSEN
 10
279.0
 20
154.5
 30
0.0
 11
269.0
 21
39.5
 31
0.0
  0
LINE
  8
L-ZISSEN
 10
89.0
 20
154.5
 30
0.0
 11
99.0
 21
39.5
 31
0.0
  0
LINE
  8
L-ZISSEN
 10
99.0
 20
39.5
 30
0.0
 11
269.0
 21
39.5
 31
0.0
  0
LINE
  8
L-ZISSEN
 10
92.0
 20
164.0
 30
0.0
 11
92.0
 21
158.5
 31
0.0
  0
LINE
  8
L-ZISSEN
 10
102.0
 20
164.0
 30
0.0
 11
102.0
 21
158.5
 31
0.0
  0
LINE
  8
L-ZISSEN
 10
92.75
 20
164.0
 30
0.0
 11
92.75
 21
170.5
 31
0.0
  0
LINE
  8
L-ZISSEN
 10
101.25
 20
170.5
 30
0.0
 11
92.75
 21
170.5
 31
0.0
  0
LINE
  8
L-ZISSEN
 10
101.25
 20
164.0
 30
0.0
 11
101.25
 21
170.5
 31
0.0
  0
LINE
  8
L-ZISSEN
 10
102.0
 20
164.0
 30
0.0
 11
92.0
 21
164.0
 31
0.0
  0
LINE
  8
L-ZISSEN
 10
97.0
 20
158.5
 30
0.0
 11
102.1
 21
158.5
 31
0.0
  0
LINE
  8
L-ZISSEN
 10
276.5
 20
154.5
 30
0.0
 11
276.5
 21
158.5
 31
0.0
  0
LINE
  8
L-ZISSEN
 10
89.0
 20
154.5
 30
0.0
 11
279.0
 21
154.5
 31
0.0
  0
LINE
  8
L-ZISSEN
 10
91.5
 20
158.5
 30
0.0
 11
91.5
 21
154.5
 31
0.0
  0
LINE
  8
L-ZISSEN
 10
276.5
 20
158.5
 30
0.0
 11
91.5
 21
158.5
 31
0.0
  0
LINE
  8
L-ZISSEN
 10
452.0
 20
39.5
 30
0.0
 11
452.0
 21
163.331325
 31
0.0
  0
LINE
  8
L-ZISSEN
  6
CONTINUOUS
 62
     7
 10
376.0
 20
158.5
 30
0.0
 11
452.0
 21
158.5
 31
0.0
  0
LINE
  8
L-ZISSEN
  6
CONTINUOUS
 62
     7
 10
376.0
 20
39.5
 30
0.0
 11
376.0
 21
178.0
 31
0.0
  0
LINE
  8
L-TYUSIN
  6
CENTER
 62
     1
 10
184.0
 20
360.6
 30
0.0
 11
184.0
 21
29.5
 31
0.0
  0
LINE
  8
L-TYUSIN
  6
CENTER
 62
     1
 10
90.0
 20
200.0
 30
0.0
 11
278.0
 21
200.0
 31
0.0
  0
LINE
  8
L-ZISSEN
  6
CONTINUOUS
 62
     7
 10
100.0
 20
177.0
 30
0.0
 11
100.0
 21
223.0
 31
0.0
  0
LINE
  8
L-ZISSEN
  6
CONTINUOUS
 62
     7
 10
265.0
 20
177.0
 30
0.0
 11
265.0
 21
223.0
 31
0.0
  0
LINE
  8
L-ZISSEN
  6
CONTINUOUS
 62
     7
 10
197.555442
 20
239.5
 30
0.0
 11
256.0
 21
239.5
 31
0.0
  0
LINE
  8
L-ZISSEN
  6
CONTINUOUS
 62
     7
 10
112.0
 20
249.0
 30
0.0
 11
256.0
 21
249.0
 31
0.0
  0
LINE
  8
L-ZISSEN
  6
CONTINUOUS
 62
     7
 10
112.0
 20
239.5
 30
0.0
 11
170.444558
 21
239.5
 31
0.0
  0
LINE
  8
L-ZISSEN
  6
CONTINUOUS
 62
     7
 10
354.0
 20
243.0
 30
0.0
 11
376.0
 21
243.0
 31
0.0
  0
LINE
  8
L-ZISSEN
  6
CONTINUOUS
 62
     7
 10
354.0
 20
243.0
 30
0.0
 11
354.0
 21
187.0
 31
0.0
  0
LINE
  8
L-TYUSIN
  6
CENTER
 62
     1
 10
349.0
 20
215.0
 30
0.0
 11
388.615825
 21
215.0
 31
0.0
  0
LINE
  8
L-ZISSEN
  6
CONTINUOUS
 62
     7
 10
354.0
 20
187.0
 30
0.0
 11
386.0
 21
187.0
 31
0.0
  0
LINE
  8
L-TYUSIN
  6
CENTER
 62
     1
 10
459.951305
 20
171.5
 30
0.0
 11
388.977128
 21
171.5
 31
0.0
  0
LINE
  8
L-ZISSEN
  6
CONTINUOUS
 62
     7
 10
455.5
 20
179.5
 30
0.0
 11
427.052887
 21
180.870945
 31
0.0
  0
LINE
  8
L-ZISSEN
  6
CONTINUOUS
 62
     7
 10
414.0
 20
161.5
 30
0.0
 11
431.0
 21
162.319277
 31
0.0
  0
CIRCLE
  8
L-ZISSEN
  6
CONTINUOUS
 62
     7
 10
414.0
 20
199.808267
 30
0.0
 40
23.0
  0
LINE
  8
L-TYUSIN
  6
CENTER
 62
     1
 10
379.000525
 20
200.0
 30
0.0
 11
448.999475
 21
200.0
 31
0.0
  0
LINE
  8
L-TYUSIN
  6
CENTER
 62
     1
 10
460.5
 20
223.5
 30
0.0
 11
390.435822
 21
223.5
 31
0.0
  0
LINE
  8
L-ZISSEN
  6
CONTINUOUS
 62
     7
 10
414.0
 20
233.5
 30
0.0
 11
455.5
 21
231.5
 31
0.0
  0
LINE
  8
L-ZISSEN
  6
CONTINUOUS
 62
     7
 10
397.0
 20
231.5
 30
0.0
 11
414.0
 21
233.5
 31
0.0
  0
LINE
  8
L-ZISSEN
  6
CONTINUOUS
 62
     7
 10
452.0
 20
239.5
 30
0.0
 11
376.0
 21
239.5
 31
0.0
  0
LINE
  8
L-ZISSEN
  6
CONTINUOUS
 62
     7
 10
452.0
 20
249.0
 30
0.0
 11
376.0
 21
249.0
 31
0.0
  0
LINE
  8
L-ZISSEN
  6
CONTINUOUS
 62
     7
 10
455.5
 20
215.5
 30
0.0
 11
431.566423
 21
214.346575
 31
0.0
  0
LINE
  8
L-ZISSEN
  6
CONTINUOUS
 62
     7
 10
451.0
 20
215.591399
 30
0.0
 11
451.0
 21
179.716867
 31
0.0
  0
CIRCLE
  8
L-ZISSEN
  6
CONTINUOUS
 62
     7
 10
114.0
 20
224.0
 30
0.0
 40
4.3
  0
CIRCLE
  8
L-ZISSEN
  6
CONTINUOUS
 62
     7
 10
114.0
 20
224.0
 30
0.0
 40
8.0
  0
ARC
  8
L-ZISSEN
  6
CONTINUOUS
 62
     7
 10
114.0
 20
224.0
 30
0.0
 40
10.0
 50
90.0
 51
185.73917
  0
LINE
  8
L-ZISSEN
  6
CONTINUOUS
 62
     7
 10
100.0
 20
223.0
 30
0.0
 11
104.050126
 21
223.0
 31
0.0
  0
LINE
  8
L-ZISSEN
  6
CONTINUOUS
 62
     7
 10
114.0
 20
234.0
 30
0.0
 11
114.0
 21
239.5
 31
0.0
  0
LINE
  8
L-ZISSEN
  6
CONTINUOUS
 62
     7
 10
112.0
 20
265.0
 30
0.0
 11
112.0
 21
239.5
 31
0.0
  0
LINE
  8
L-ZISSEN
  6
CONTINUOUS
 62
     7
 10
256.0
 20
257.0
 30
0.0
 11
256.0
 21
239.5
 31
0.0
  0
ARC
  8
L-ZISSEN
  6
CONTINUOUS
 62
     7
 10
254.0
 20
224.0
 30
0.0
 40
10.0
 50
354.26083
 51
90.0
  0
CIRCLE
  8
L-ZISSEN
  6
CONTINUOUS
 62
     7
 10
254.0
 20
224.0
 30
0.0
 40
8.0
  0
CIRCLE
  8
L-ZISSEN
  6
CONTINUOUS
 62
     7
 10
254.0
 20
224.0
 30
0.0
 40
4.3
  0
LINE
  8
L-ZISSEN
  6
CONTINUOUS
 62
     7
 10
254.0
 20
234.0
 30
0.0
 11
254.0
 21
239.5
 31
0.0
  0
CIRCLE
  8
L-ZISSEN
 10
184.0
 20
215.0
 30
0.0
 40
28.0
  0
LINE
  8
L-TYUSIN
  6
CENTER
 62
     1
 10
152.5
 20
215.0
 30
0.0
 11
215.5
 21
215.0
 31
0.0
  0
CIRCLE
  8
L-ZISSEN
  6
CONTINUOUS
 62
     7
 10
114.0
 20
171.5
 30
0.0
 40
8.0
  0
CIRCLE
  8
L-ZISSEN
  6
CONTINUOUS
 62
     7
 10
114.0
 20
171.5
 30
0.0
 40
4.3
  0
ARC
  8
L-ZISSEN
  6
CONTINUOUS
 62
     7
 10
114.0
 20
171.5
 30
0.0
 40
10.0
 50
180.0
 51
270.0
  0
LINE
  8
L-ZISSEN
  6
CONTINUOUS
 62
     7
 10
104.0
 20
171.5
 30
0.0
 11
104.0
 21
177.0
 31
0.0
  0
LINE
  8
L-ZISSEN
  6
CONTINUOUS
 62
     7
 10
114.0
 20
161.5
 30
0.0
 11
119.5
 21
161.5
 31
0.0
  0
CIRCLE
  8
L-ZISSEN
  6
CONTINUOUS
 62
     7
 10
254.0
 20
171.5
 30
0.0
 40
4.3
  0
CIRCLE
  8
L-ZISSEN
  6
CONTINUOUS
 62
     7
 10
254.0
 20
171.5
 30
0.0
 40
8.0
  0
LINE
  8
L-ZISSEN
  6
CONTINUOUS
 62
     7
 10
254.0
 20
161.5
 30
0.0
 11
248.5
 21
161.5
 31
0.0
  0
ARC
  8
L-ZISSEN
  6
CONTINUOUS
 62
     7
 10
254.0
 20
171.5
 30
0.0
 40
10.0
 50
270.0
 51
0.0
  0
LINE
  8
L-ZISSEN
  6
CONTINUOUS
 62
     7
 10
264.0
 20
171.5
 30
0.0
 11
264.0
 21
177.0
 31
0.0
  0
LINE
  8
L-ZISSEN
  6
CONTINUOUS
 62
     7
 10
100.0
 20
177.0
 30
0.0
 11
104.0
 21
177.0
 31
0.0
  0
LINE
  8
L-ZISSEN
  6
CONTINUOUS
 62
     7
 10
397.0
 20
163.5
 30
0.0
 11
414.0
 21
161.5
 31
0.0
  0
LINE
  8
L-ZISSEN
  6
CONTINUOUS
 62
     7
 10
397.0
 20
179.5
 30
0.0
 11
397.0
 21
163.5
 31
0.0
  0
LINE
  8
L-ZISSEN
  6
CONTINUOUS
 62
     7
 10
402.136118
 20
180.104249
 30
0.0
 11
397.0
 21
179.5
 31
0.0
  0
LINE
  8
L-ZISSEN
  6
CONTINUOUS
 62
     7
 10
455.5
 20
163.5
 30
0.0
 11
455.5
 21
179.5
 31
0.0
  0
LINE
  8
L-ZISSEN
  6
CONTINUOUS
 62
     7
 10
455.5
 20
231.5
 30
0.0
 11
455.5
 21
215.5
 31
0.0
  0
LINE
  8
L-ZISSEN
  6
CONTINUOUS
 62
     7
 10
397.0
 20
231.5
 30
0.0
 11
397.0
 21
214.991933
 31
0.0
  0
LINE
  8
L-ZISSEN
  6
CONTINUOUS
 62
     7
 10
376.0
 20
257.0
 30
0.0
 11
376.0
 21
239.5
 31
0.0
  0
LINE
  8
L-ZISSEN
  6
CONTINUOUS
 62
     7
 10
452.0
 20
239.5
 30
0.0
 11
452.0
 21
257.0
 31
0.0
  0
LINE
  8
L-ZISSEN
  6
CONTINUOUS
 62
     7
 10
451.0
 20
239.5
 30
0.0
 11
451.0
 21
232.025134
 31
0.0
  0
LINE
  8
L-TYUSIN
  6
CENTER
 62
     1
 10
414.0
 20
360.6
 30
0.0
 11
414.0
 21
29.5
 31
0.0
  0
LINE
  8
L-TYUSIN
  6
CENTER
 62
     1
 10
114.0
 20
498.0
 30
0.0
 11
114.0
 21
428.0
 31
0.0
  0
LINE
  8
L-ZISSEN
  6
CONTINUOUS
 62
     7
 10
106.0
 20
491.5
 30
0.0
 11
104.0
 21
450.0
 31
0.0
  0
LINE
  8
L-ZISSEN
  6
CONTINUOUS
 62
     7
 10
100.0
 20
473.0
 30
0.0
 11
100.0
 21
427.0
 31
0.0
  0
LINE
  8
L-ZISSEN
  6
CONTINUOUS
 62
     7
 10
100.0
 20
427.0
 30
0.0
 11
112.0
 21
427.0
 31
0.0
  0
LINE
  8
L-ZISSEN
  6
CONTINUOUS
 62
     7
 10
156.0
 20
390.0
 30
0.0
 11
156.0
 21
412.0
 31
0.0
  0
LINE
  8
L-ZISSEN
  6
CONTINUOUS
 62
     7
 10
156.0
 20
390.0
 30
0.0
 11
212.0
 21
390.0
 31
0.0
  0
LINE
  8
L-TYUSIN
  6
CENTER
 62
     1
 10
184.0
 20
379.823083
 30
0.0
 11
184.0
 21
498.0
 31
0.0
  0
LINE
  8
L-ZISSEN
  6
CONTINUOUS
 62
     7
 10
212.0
 20
390.0
 30
0.0
 11
212.0
 21
412.0
 31
0.0
  0
LINE
  8
L-TYUSIN
  6
CENTER
 62
     1
 10
254.0
 20
498.0
 30
0.0
 11
254.0
 21
428.0
 31
0.0
  0
LINE
  8
L-ZISSEN
  6
CONTINUOUS
 62
     7
 10
246.0
 20
491.5
 30
0.0
 11
246.0
 21
487.967994
 31
0.0
  0
LINE
  8
L-ZISSEN
  6
CONTINUOUS
 62
     7
 10
262.0
 20
491.5
 30
0.0
 11
264.0
 21
450.0
 31
0.0
  0
LINE
  8
L-ZISSEN
 10
265.0
 20
427.0
 30
0.0
 11
265.0
 21
473.0
 31
0.0
  0
LINE
  8
L-ZISSEN
  6
CONTINUOUS
 62
     7
 10
104.0
 20
450.0
 30
0.0
 11
106.0
 21
433.0
 31
0.0
  0
LINE
  8
L-ZISSEN
  6
CONTINUOUS
 62
     7
 10
106.0
 20
491.5
 30
0.0
 11
122.0
 21
491.5
 31
0.0
  0
LINE
  8
L-ZISSEN
  6
CONTINUOUS
 62
     7
 10
262.0
 20
491.5
 30
0.0
 11
246.0
 21
491.5
 31
0.0
  0
LINE
  8
L-ZISSEN
  6
CONTINUOUS
 62
     7
 10
264.0
 20
450.0
 30
0.0
 11
262.0
 21
433.0
 31
0.0
  0
LINE
  8
L-ZISSEN
  6
CONTINUOUS
 62
     7
 10
122.0
 20
491.5
 30
0.0
 11
122.0
 21
487.967994
 31
0.0
  0
LINE
  8
L-ZISSEN
  6
CONTINUOUS
 62
     7
 10
265.0
 20
427.0
 30
0.0
 11
256.0
 21
427.0
 31
0.0
  0
LINE
  8
L-ZISSEN
 10
100.0
 20
473.0
 30
0.0
 11
105.108434
 21
473.0
 31
0.0
  0
LINE
  8
L-ZISSEN
 10
265.0
 20
473.0
 30
0.0
 11
262.891566
 21
473.0
 31
0.0
  0
LINE
  8
L-ZISSEN
 10
262.0
 20
433.0
 30
0.0
 11
256.0
 21
433.0
 31
0.0
  0
LINE
  8
L-ZISSEN
 10
112.0
 20
433.0
 30
0.0
 11
106.0
 21
433.0
 31
0.0
  0
LINE
  8
L-ZISSEN
 10
376.0
 20
178.0
 30
0.0
 11
386.0
 21
178.0
 31
0.0
  0
LINE
  8
L-ZISSEN
 10
386.0
 20
178.0
 30
0.0
 11
386.0
 21
187.0
 31
0.0
  0
LINE
  8
L-ZISSEN
 10
119.5
 20
161.5
 30
0.0
 11
119.5
 21
158.5
 31
0.0
  0
LINE
  8
L-ZISSEN
 10
248.5
 20
161.5
 30
0.0
 11
248.5
 21
158.5
 31
0.0
  0
TEXT
  8
L-ZISSEN
 10
45.312491
 20
519.251651
 30
0.0
 40
4.5
  1
MODEL NO.
  0
LINE
  8
L-TYUSIN
  6
CENTER
 62
     1
 10
422.0
 20
277.2
 30
0.0
 11
406.0
 21
277.2
 31
0.0
  0
LINE
  8
L-ZISSEN
 10
255.0
 20
287.2
 30
0.0
 11
235.185185
 21
287.2
 31
0.0
  0
TEXT
  8
L-ZISSEN
 10
283.30716
 20
230.240007
 30
0.0
 40
4.5
  1
IN
  0
LINE
  8
L-ZISSEN
 10
279.30716
 20
232.856027
 30
0.0
 11
281.30716
 21
232.856027
 31
0.0
  0
LINE
  8
L-ZISSEN
 10
265.798481
 20
201.833692
 30
0.0
 11
279.30716
 21
232.856027
 31
0.0
  0
SOLID
  8
L-ZISSEN
 10
265.492866
 20
201.966773
 30
0.0
 11
266.104097
 21
201.700612
 31
0.0
 12
265.0
 22
200.0
 32
0.0
 13
265.0
 23
200.0
 33
0.0
  0
LINE
  8
L-ZISSEN
  6
CONTINUOUS
 62
     7
 10
415.732051
 20
280.2
 30
0.0
 11
412.267949
 21
280.2
 31
0.0
  0
LINE
  8
L-ZISSEN
  6
CONTINUOUS
 62
     7
 10
417.464102
 20
277.2
 30
0.0
 11
415.732051
 21
280.2
 31
0.0
  0
LINE
  8
L-ZISSEN
  6
CONTINUOUS
 62
     7
 10
415.732051
 20
274.2
 30
0.0
 11
417.464102
 21
277.2
 31
0.0
  0
LINE
  8
L-ZISSEN
  6
CONTINUOUS
 62
     7
 10
412.267949
 20
274.2
 30
0.0
 11
415.732051
 21
274.2
 31
0.0
  0
LINE
  8
L-ZISSEN
  6
CONTINUOUS
 62
     7
 10
410.535898
 20
277.2
 30
0.0
 11
412.267949
 21
274.2
 31
0.0
  0
LINE
  8
L-ZISSEN
  6
CONTINUOUS
 62
     7
 10
412.267949
 20
280.2
 30
0.0
 11
410.535898
 21
277.2
 31
0.0
  0
ARC
  8
L-ZISSEN
  6
CONTINUOUS
 62
     7
 10
414.0
 20
277.2
 30
0.0
 40
10.0
 50
0.0
 51
180.0
  0
CIRCLE
  8
L-ZISSEN
  6
CONTINUOUS
 62
     7
 10
414.0
 20
277.2
 30
0.0
 40
6.6
  0
LINE
  8
L-ZISSEN
  6
CONTINUOUS
 62
     7
 10
404.0
 20
277.2
 30
0.0
 11
403.484694
 21
257.0
 31
0.0
  0
LINE
  8
L-ZISSEN
  6
CONTINUOUS
 62
     7
 10
436.5
 20
263.0
 30
0.0
 11
436.5
 21
257.294118
 31
0.0
  0
LINE
  8
L-ZISSEN
  6
CONTINUOUS
 62
     7
 10
449.5
 20
263.0
 30
0.0
 11
449.5
 21
257.0
 31
0.0
  0
LINE
  8
L-ZISSEN
  6
CONTINUOUS
 62
     7
 10
449.5
 20
263.0
 30
0.0
 11
436.5
 21
263.0
 31
0.0
  0
LINE
  8
L-ZISSEN
  6
CONTINUOUS
 62
     7
 10
449.0
 20
270.5
 30
0.0
 11
437.0
 21
270.5
 31
0.0
  0
LINE
  8
L-ZISSEN
  6
CONTINUOUS
 62
     7
 10
449.0
 20
270.5
 30
0.0
 11
449.0
 21
262.998558
 31
0.0
  0
LINE
  8
L-ZISSEN
  6
CONTINUOUS
 62
     7
 10
437.0
 20
270.5
 30
0.0
 11
437.0
 21
262.998558
 31
0.0
  0
LINE
  8
L-ZISSEN
  6
CONTINUOUS
 62
     7
 10
391.5
 20
263.0
 30
0.0
 11
391.5
 21
257.294118
 31
0.0
  0
LINE
  8
L-ZISSEN
  6
CONTINUOUS
 62
     7
 10
391.0
 20
270.5
 30
0.0
 11
391.0
 21
262.998558
 31
0.0
  0
LINE
  8
L-ZISSEN
  6
CONTINUOUS
 62
     7
 10
378.5
 20
263.0
 30
0.0
 11
378.5
 21
257.0
 31
0.0
  0
LINE
  8
L-ZISSEN
  6
CONTINUOUS
 62
     7
 10
379.0
 20
270.5
 30
0.0
 11
379.0
 21
262.998558
 31
0.0
  0
LINE
  8
L-ZISSEN
  6
CONTINUOUS
 62
     7
 10
379.0
 20
270.5
 30
0.0
 11
391.0
 21
270.5
 31
0.0
  0
LINE
  8
L-ZISSEN
  6
CONTINUOUS
 62
     7
 10
378.5
 20
263.0
 30
0.0
 11
391.5
 21
263.0
 31
0.0
  0
CIRCLE
  8
L-ZISSEN
  6
CONTINUOUS
 62
     7
 10
228.0
 20
472.0
 30
0.0
 40
4.25
  0
CIRCLE
  8
L-ZISSEN
  6
CONTINUOUS
 62
     7
 10
140.0
 20
472.0
 30
0.0
 40
4.25
  0
CIRCLE
  8
L-ZISSEN
  6
CONTINUOUS
 62
     7
 10
121.0
 20
479.0
 30
0.0
 40
6.5
  0
CIRCLE
  8
L-ZISSEN
  6
CONTINUOUS
 62
     7
 10
247.0
 20
421.0
 30
0.0
 40
6.5
  0
CIRCLE
  8
L-ZISSEN
  6
CONTINUOUS
 62
     7
 10
247.0
 20
479.0
 30
0.0
 40
6.5
  0
LINE
  8
L-ZISSEN
  6
CONTINUOUS
 62
     7
 10
256.0
 20
488.0
 30
0.0
 11
256.0
 21
412.0
 31
0.0
  0
LINE
  8
L-TYUSIN
  6
CENTER
 62
     1
 10
160.0
 20
435.9375
 30
0.0
 11
160.0
 21
464.0625
 31
0.0
  0
CIRCLE
  8
L-ZISSEN
  6
CONTINUOUS
 62
     7
 10
160.0
 20
450.0
 30
0.0
 40
12.5
  0
LINE
  8
L-ZISSEN
  6
CONTINUOUS
 62
     7
 10
162.856406
 20
486.5
 30
0.0
 11
205.143594
 21
486.5
 31
0.0
  0
LINE
  8
L-ZISSEN
  6
CONTINUOUS
 62
     7
 10
112.0
 20
412.0
 30
0.0
 11
112.0
 21
488.0
 31
0.0
  0
LINE
  8
L-ZISSEN
  6
CONTINUOUS
 62
     7
 10
127.5
 20
263.0
 30
0.0
 11
127.5
 21
258.823529
 31
0.0
  0
LINE
  8
L-ZISSEN
  6
CONTINUOUS
 62
     7
 10
114.5
 20
263.0
 30
0.0
 11
114.5
 21
257.294118
 31
0.0
  0
LINE
  8
L-ZISSEN
  6
CONTINUOUS
 62
     7
 10
115.0
 20
270.5
 30
0.0
 11
115.0
 21
262.998558
 31
0.0
  0
LINE
  8
L-ZISSEN
  6
CONTINUOUS
 62
     7
 10
127.0
 20
270.5
 30
0.0
 11
127.0
 21
262.998558
 31
0.0
  0
LINE
  8
L-ZISSEN
  6
CONTINUOUS
 62
     7
 10
127.5
 20
263.0
 30
0.0
 11
114.5
 21
263.0
 31
0.0
  0
LINE
  8
L-ZISSEN
  6
CONTINUOUS
 62
     7
 10
127.0
 20
270.5
 30
0.0
 11
115.0
 21
270.5
 31
0.0
  0
LINE
  8
L-ZISSEN
  6
CONTINUOUS
 62
     7
 10
253.5
 20
263.0
 30
0.0
 11
253.5
 21
257.294118
 31
0.0
  0
LINE
  8
L-TYUSIN
  6
CENTER
 62
     1
 10
259.848431
 20
277.2
 30
0.0
 11
249.848431
 21
277.2
 31
0.0
  0
LINE
  8
L-ZISSEN
  6
CONTINUOUS
 62
     7
 10
253.0
 20
270.5
 30
0.0
 11
253.0
 21
262.998558
 31
0.0
  0
LINE
  8
L-ZISSEN
  6
CONTINUOUS
 62
     7
 10
240.5
 20
263.0
 30
0.0
 11
240.5
 21
258.823529
 31
0.0
  0
LINE
  8
L-ZISSEN
  6
CONTINUOUS
 62
     7
 10
240.5
 20
263.0
 30
0.0
 11
253.5
 21
263.0
 31
0.0
  0
LINE
  8
L-ZISSEN
  6
CONTINUOUS
 62
     7
 10
241.0
 20
270.5
 30
0.0
 11
241.0
 21
262.998558
 31
0.0
  0
LINE
  8
L-ZISSEN
  6
CONTINUOUS
 62
     7
 10
241.0
 20
270.5
 30
0.0
 11
253.0
 21
270.5
 31
0.0
  0
LINE
  8
L-ZISSEN
  6
CONTINUOUS
 62
     7
 10
162.856406
 20
413.5
 30
0.0
 11
205.143594
 21
413.5
 31
0.0
  0
CIRCLE
  8
L-ZISSEN
  6
CONTINUOUS
 62
     7
 10
121.0
 20
421.0
 30
0.0
 40
6.5
  0
LINE
  8
L-ZISSEN
  6
CONTINUOUS
 62
     7
 10
89.0
 20
412.0
 30
0.0
 11
279.0
 21
412.0
 31
0.0
  0
LINE
  8
L-ZISSEN
  6
CONTINUOUS
 62
     7
 10
235.0
 20
421.5
 30
0.0
 11
205.143594
 21
413.5
 31
0.0
  0
LINE
  8
L-ZISSEN
  6
CONTINUOUS
 62
     7
 10
133.0
 20
421.5
 30
0.0
 11
162.856406
 21
413.5
 31
0.0
  0
LINE
  8
L-ZISSEN
  6
CONTINUOUS
 62
     7
 10
133.0
 20
421.5
 30
0.0
 11
133.0
 21
478.5
 31
0.0
  0
LINE
  8
L-ZISSEN
  6
CONTINUOUS
 62
     7
 10
279.0
 20
488.0
 30
0.0
 11
89.0
 21
488.0
 31
0.0
  0
LINE
  8
L-ZISSEN
  6
CONTINUOUS
 62
     7
 10
235.0
 20
478.5
 30
0.0
 11
205.143594
 21
486.5
 31
0.0
  0
LINE
  8
L-ZISSEN
  6
CONTINUOUS
 62
     7
 10
133.0
 20
478.5
 30
0.0
 11
162.856406
 21
486.5
 31
0.0
  0
LINE
  8
L-TYUSIN
  6
CENTER
 62
     1
 10
283.377171
 20
450.0
 30
0.0
 11
83.438916
 21
450.0
 31
0.0
  0
LINE
  8
L-TYUSIN
  6
CENTER
 62
     1
 10
208.0
 20
435.9375
 30
0.0
 11
208.0
 21
464.0625
 31
0.0
  0
CIRCLE
  8
L-ZISSEN
  6
CONTINUOUS
 62
     7
 10
208.0
 20
450.0
 30
0.0
 40
12.5
  0
LINE
  8
L-ZISSEN
  6
CONTINUOUS
 62
     7
 10
235.0
 20
440.0
 30
0.0
 11
256.0
 21
440.0
 31
0.0
  0
LINE
  8
L-ZISSEN
  6
CONTINUOUS
 62
     7
 10
256.0
 20
460.0
 30
0.0
 11
235.0
 21
460.0
 31
0.0
  0
LINE
  8
L-ZISSEN
  6
CONTINUOUS
 62
     7
 10
235.0
 20
421.5
 30
0.0
 11
235.0
 21
478.5
 31
0.0
  0
LINE
  8
L-ZISSEN
  6
CONTINUOUS
 62
     7
 10
376.0
 20
257.0
 30
0.0
 11
452.0
 21
257.0
 31
0.0
  0
LINE
  8
L-ZISSEN
  6
CONTINUOUS
 62
     7
 10
424.0
 20
277.2
 30
0.0
 11
424.515306
 21
257.0
 31
0.0
  0
LINE
  8
L-ZISSEN
  6
CONTINUOUS
 62
     7
 10
451.536962
 20
257.0
 30
0.0
 11
449.08596
 21
350.6
 31
0.0
  0
LINE
  8
L-ZISSEN
  6
CONTINUOUS
 62
     7
 10
377.5
 20
296.6
 30
0.0
 11
450.5
 21
296.6
 31
0.0
  0
LINE
  8
L-ZISSEN
  6
CONTINUOUS
 62
     7
 10
376.463038
 20
257.0
 30
0.0
 11
378.91404
 21
350.6
 31
0.0
  0
LINE
  8
L-ZISSEN
  6
CONTINUOUS
 62
     7
 10
378.91404
 20
350.6
 30
0.0
 11
449.08596
 21
350.6
 31
0.0
  0
LINE
  8
L-ZISSEN
  6
CONTINUOUS
 62
     7
 10
112.0
 20
257.0
 30
0.0
 11
163.0
 21
263.0
 31
0.0
  0
LINE
  8
L-ZISSEN
  6
CONTINUOUS
 62
     7
 10
256.0
 20
257.0
 30
0.0
 11
205.0
 21
263.0
 31
0.0
  0
LINE
  8
L-ZISSEN
  6
CONTINUOUS
 62
     7
 10
205.0
 20
263.0
 30
0.0
 11
163.0
 21
263.0
 31
0.0
  0
LINE
  8
L-ZISSEN
  6
CONTINUOUS
 62
     7
 10
234.0
 20
350.6
 30
0.0
 11
235.689083
 21
259.38952
 31
0.0
  0
LINE
  8
L-ZISSEN
  6
CONTINUOUS
 62
     7
 10
235.0
 20
296.6
 30
0.0
 11
133.0
 21
296.6
 31
0.0
  0
LINE
  8
L-ZISSEN
  6
CONTINUOUS
 62
     7
 10
134.0
 20
350.6
 30
0.0
 11
132.310917
 21
259.38952
 31
0.0
  0
LINE
  8
L-ZISSEN
  6
CONTINUOUS
 62
     7
 10
234.0
 20
350.6
 30
0.0
 11
134.0
 21
350.6
 31
0.0
  0
LINE
  8
L-ZISSEN
 10
255.0
 20
287.2
 30
0.0
 11
255.0
 21
257.117647
 31
0.0
  0
LINE
  8
L-ZISSEN
 10
112.0
 20
265.0
 30
0.0
 11
115.0
 21
265.0
 31
0.0
  0
LINE
  8
L-ZISSEN
 10
127.0
 20
265.0
 30
0.0
 11
132.414815
 21
265.0
 31
0.0
  0
CIRCLE
  8
L-ZISSEN
  6
CONTINUOUS
 62
     7
 10
140.0
 20
428.0
 30
0.0
 40
4.25
  0
CIRCLE
  8
L-ZISSEN
  6
CONTINUOUS
 62
     7
 10
228.0
 20
428.0
 30
0.0
 40
4.25
  0
LINE
  8
L-ZISSEN
 10
133.0
 20
458.0
 30
0.0
 11
112.0
 21
458.0
 31
0.0
  0
LINE
  8
L-ZISSEN
 10
133.0
 20
442.0
 30
0.0
 11
112.0
 21
442.0
 31
0.0
  0
TEXT
  8
L-ZISSEN
 10
285.383383
 20
221.565749
 30
0.0
 40
4.5
  1
Rc3/4
  0
TEXT
  8
L-ZISSEN
 10
285.680872
 20
212.121857
 30
0.0
 40
4.5
  1
Rc1
  0
LINE
  8
L-TYUSIN
 10
104.0
 20
224.0
 30
0.0
 11
124.0
 21
224.0
 31
0.0
  0
LINE
  8
L-TYUSIN
 10
114.0
 20
234.0
 30
0.0
 11
114.0
 21
214.0
 31
0.0
  0
LINE
  8
L-TYUSIN
 10
244.0
 20
224.0
 30
0.0
 11
264.0
 21
224.0
 31
0.0
  0
LINE
  8
L-TYUSIN
 10
254.0
 20
234.0
 30
0.0
 11
254.0
 21
214.0
 31
0.0
  0
LINE
  8
L-TYUSIN
 10
104.0
 20
171.5
 30
0.0
 11
124.0
 21
171.5
 31
0.0
  0
LINE
  8
L-TYUSIN
 10
114.0
 20
181.5
 30
0.0
 11
114.0
 21
161.5
 31
0.0
  0
LINE
  8
L-TYUSIN
 10
254.0
 20
181.5
 30
0.0
 11
254.0
 21
161.5
 31
0.0
  0
LINE
  8
L-TYUSIN
 10
244.0
 20
171.5
 30
0.0
 11
264.0
 21
171.5
 31
0.0
  0
CIRCLE
  8
L-ZISSEN
 10
184.0
 20
215.0
 30
0.0
 40
19.476
  0
CIRCLE
  8
L-ZISSEN
 10
414.0
 20
200.0
 30
0.0
 40
12.0585
  0
ENDSEC
  0
EOF
