  0
SECTION
  2
HEADER
  9
$ACADVER
  1
AC1006
  9
$INSBASE
 10
0.0
 20
0.0
 30
0.0
  9
$EXTMIN
 10
37.195243
 20
36.5
  9
$EXTMAX
 10
691.887027
 20
499.846557
  9
$LIMMIN
 10
0.0
 20
0.0
  9
$LIMMAX
 10
12.0
 20
9.0
  9
$ORTHOMODE
 70
     1
  9
$REGENMODE
 70
     1
  9
$FILLMODE
 70
     1
  9
$QTEXTMODE
 70
     0
  9
$MIRRTEXT
 70
     1
  9
$DRAGMODE
 70
     2
  9
$LTSCALE
 40
1.0
  9
$OSMODE
 70
     0
  9
$ATTMODE
 70
     1
  9
$TEXTSIZE
 40
0.2
  9
$TRACEWID
 40
0.05
  9
$TEXTSTYLE
  7
STANDARD
  9
$CLAYER
  8
L-ZISSEN
  9
$CELTYPE
  6
BYLAYER
  9
$CECOLOR
 62
   256
  9
$DIMSCALE
 40
1.0
  9
$DIMASZ
 40
1.5
  9
$DIMEXO
 40
1.0
  9
$DIMDLI
 40
0.38
  9
$DIMRND
 40
0.0
  9
$DIMDLE
 40
0.0
  9
$DIMEXE
 40
1.0
  9
$DIMTP
 40
0.0
  9
$DIMTM
 40
0.0
  9
$DIMTXT
 40
2.5
  9
$DIMCEN
 40
0.09
  9
$DIMTSZ
 40
0.0
  9
$DIMTOL
 70
     0
  9
$DIMLIM
 70
     0
  9
$DIMTIH
 70
     0
  9
$DIMTOH
 70
     0
  9
$DIMSE1
 70
     0
  9
$DIMSE2
 70
     0
  9
$DIMTAD
 70
     1
  9
$DIMZIN
 70
     0
  9
$DIMBLK
  1

  9
$DIMASO
 70
     1
  9
$DIMSHO
 70
     0
  9
$DIMPOST
  1

  9
$DIMAPOST
  1

  9
$DIMALT
 70
     0
  9
$DIMALTD
 70
     2
  9
$DIMALTF
 40
25.4
  9
$DIMLFAC
 40
1.0
  9
$DIMTOFL
 70
     1
  9
$DIMTVP
 40
0.0
  9
$DIMTIX
 70
     0
  9
$DIMSOXD
 70
     0
  9
$DIMSAH
 70
     0
  9
$DIMBLK1
  1

  9
$DIMBLK2
  1

  9
$LUNITS
 70
     2
  9
$LUPREC
 70
     4
  9
$AXISMODE
 70
     0
  9
$AXISUNIT
 10
0.0
 20
0.0
  9
$SKETCHINC
 40
0.1
  9
$FILLETRAD
 40
0.0
  9
$AUNITS
 70
     0
  9
$AUPREC
 70
     0
  9
$MENU
  1
acad
  9
$ELEVATION
 40
0.0
  9
$THICKNESS
 40
0.0
  9
$LIMCHECK
 70
     0
  9
$BLIPMODE
 70
     1
  9
$CHAMFERA
 40
0.0
  9
$CHAMFERB
 40
0.0
  9
$SKPOLY
 70
     0
  9
$TDCREATE
 40
2449263.5774773150
  9
$TDUPDATE
 40
2449263.5774773150
  9
$TDINDWG
 40
0.0000000000
  9
$TDUSRTIMER
 40
0.0000000000
  9
$USRTIMER
 70
     1
  9
$ANGBASE
 50
0.0
  9
$ANGDIR
 70
     0
  9
$PDMODE
 70
     0
  9
$PDSIZE
 40
0.0
  9
$PLINEWID
 40
0.0
  9
$COORDS
 70
     0
  9
$SPLFRAME
 70
     0
  9
$SPLINETYPE
 70
     6
  9
$SPLINESEGS
 70
     8
  9
$ATTDIA
 70
     0
  9
$ATTREQ
 70
     1
  9
$HANDLING
 70
     0
  9
$HANDSEED
  5
0
  9
$SURFTAB1
 70
     6
  9
$SURFTAB2
 70
     6
  9
$SURFTYPE
 70
     6
  9
$SURFU
 70
     6
  9
$SURFV
 70
     6
  9
$FLATLAND
 70
     0
  9
$UCSNAME
  2

  9
$UCSORG
 10
0.0
 20
0.0
 30
0.0
  9
$UCSXDIR
 10
1.0
 20
0.0
 30
0.0
  9
$UCSYDIR
 10
0.0
 20
1.0
 30
0.0
  9
$USERI1
 70
     0
  9
$USERI2
 70
     0
  9
$USERI3
 70
     0
  9
$USERI4
 70
     0
  9
$USERI5
 70
     0
  9
$USERR1
 40
0.0
  9
$USERR2
 40
0.0
  9
$USERR3
 40
0.0
  9
$USERR4
 40
0.0
  9
$USERR5
 40
0.0
  9
$WORLDVIEW
 70
     1
  0
ENDSEC
  0
SECTION
  2
TABLES
  0
TABLE
  2
VPORT
 70
     2
  0
VPORT
  2
*ACTIVE
 70
     0
 10
0.0
 20
0.0
 11
1.0
 21
1.0
 12
363.924449
 22
271.409849
 13
0.0
 23
0.0
 14
1.0
 24
1.0
 15
0.0
 25
0.0
 16
0.0
 26
0.0
 36
1.0
 17
0.0
 27
0.0
 37
0.0
 40
516.073744
 41
1.5487
 42
50.0
 43
0.0
 44
0.0
 50
0.0
 51
0.0
 71
     0
 72
   100
 73
     1
 74
     0
 75
     0
 76
     0
 77
     0
 78
     0
  0
ENDTAB
  0
TABLE
  2
LTYPE
 70
     2
  0
LTYPE
  2
CONTINUOUS
 70
    64
  3
Solid line
 72
    65
 73
     0
 40
0.0
  0
LTYPE
  2
CENTER
 70
    64
  3
____ _ ____ _ ____
 72
    65
 73
     4
 40
8.0
 49
5.0
 49
-1.0
 49
1.0
 49
-1.0
  0
ENDTAB
  0
TABLE
  2
LAYER
 70
     3
  0
LAYER
  2
0
 70
     0
 62
     7
  6
CONTINUOUS
  0
LAYER
  2
L-ZISSEN
 70
    64
 62
     7
  6
CONTINUOUS
  0
LAYER
  2
L-TYUSIN
 70
    64
 62
     1
  6
CENTER
  0
ENDTAB
  0
TABLE
  2
STYLE
 70
     1
  0
STYLE
  2
STANDARD
 70
    64
 40
0.0
 41
1.0
 50
0.0
 71
     0
 42
0.2
  3
txt
  4

  0
ENDTAB
  0
TABLE
  2
VIEW
 70
     0
  0
ENDTAB
  0
TABLE
  2
UCS
 70
     0
  0
ENDTAB
  0
TABLE
  2
DWGMGR
 70
     0
  0
ENDTAB
  0
ENDSEC
  0
SECTION
  2
BLOCKS
  0
ENDSEC
  0
SECTION
  2
ENTITIES
  0
LINE
  8
L-ZISSEN
 10
231.0
 20
248.5
 30
0.0
 11
231.0
 21
225.575751
 31
0.0
  0
LINE
  8
L-ZISSEN
 10
67.0
 20
158.5
 30
0.0
 11
251.0
 21
158.5
 31
0.0
  0
LINE
  8
L-ZISSEN
 10
77.0
 20
49.5
 30
0.0
 11
67.0
 21
158.5
 31
0.0
  0
LINE
  8
L-ZISSEN
 10
241.0
 20
49.5
 30
0.0
 11
251.0
 21
158.5
 31
0.0
  0
LINE
  8
L-ZISSEN
 10
77.0
 20
49.5
 30
0.0
 11
241.0
 21
49.5
 31
0.0
  0
LINE
  8
L-ZISSEN
 10
154.0
 20
385.0
 30
0.0
 11
164.0
 21
385.0
 31
0.0
  0
LINE
  8
L-ZISSEN
 10
164.0
 20
389.0
 30
0.0
 11
164.0
 21
385.0
 31
0.0
  0
LINE
  8
L-ZISSEN
 10
162.8
 20
381.4
 30
0.0
 11
155.2
 21
381.4
 31
0.0
  0
LINE
  8
L-ZISSEN
 10
162.8
 20
385.0
 30
0.0
 11
162.8
 21
381.4
 31
0.0
  0
LINE
  8
L-ZISSEN
 10
154.0
 20
389.0
 30
0.0
 11
154.0
 21
385.0
 31
0.0
  0
LINE
  8
L-ZISSEN
 10
155.2
 20
385.0
 30
0.0
 11
155.2
 21
381.4
 31
0.0
  0
LINE
  8
L-ZISSEN
 10
88.8
 20
385.0
 30
0.0
 11
88.8
 21
381.4
 31
0.0
  0
LINE
  8
L-ZISSEN
 10
90.0
 20
389.0
 30
0.0
 11
90.0
 21
385.0
 31
0.0
  0
LINE
  8
L-ZISSEN
 10
81.2
 20
385.0
 30
0.0
 11
81.2
 21
381.4
 31
0.0
  0
LINE
  8
L-ZISSEN
 10
81.2
 20
381.4
 30
0.0
 11
88.8
 21
381.4
 31
0.0
  0
LINE
  8
L-ZISSEN
 10
72.0
 20
389.0
 30
0.0
 11
72.0
 21
385.0
 31
0.0
  0
LINE
  8
L-ZISSEN
 10
90.0
 20
385.0
 30
0.0
 11
72.0
 21
385.0
 31
0.0
  0
LINE
  8
L-ZISSEN
 10
73.2
 20
381.4
 30
0.0
 11
80.8
 21
381.4
 31
0.0
  0
LINE
  8
L-ZISSEN
 10
73.2
 20
385.0
 30
0.0
 11
73.2
 21
381.4
 31
0.0
  0
LINE
  8
L-ZISSEN
 10
82.0
 20
389.0
 30
0.0
 11
82.0
 21
385.0
 31
0.0
  0
LINE
  8
L-ZISSEN
 10
80.8
 20
385.0
 30
0.0
 11
80.8
 21
381.4
 31
0.0
  0
LINE
  8
L-ZISSEN
 10
237.2
 20
385.0
 30
0.0
 11
237.2
 21
381.4
 31
0.0
  0
LINE
  8
L-ZISSEN
 10
236.0
 20
389.0
 30
0.0
 11
236.0
 21
385.0
 31
0.0
  0
LINE
  8
L-ZISSEN
 10
244.8
 20
385.0
 30
0.0
 11
244.8
 21
381.4
 31
0.0
  0
LINE
  8
L-ZISSEN
 10
244.8
 20
381.4
 30
0.0
 11
237.2
 21
381.4
 31
0.0
  0
LINE
  8
L-ZISSEN
 10
228.0
 20
385.0
 30
0.0
 11
246.0
 21
385.0
 31
0.0
  0
LINE
  8
L-ZISSEN
 10
246.0
 20
389.0
 30
0.0
 11
246.0
 21
385.0
 31
0.0
  0
LINE
  8
L-ZISSEN
 10
236.8
 20
381.4
 30
0.0
 11
229.2
 21
381.4
 31
0.0
  0
LINE
  8
L-ZISSEN
 10
236.8
 20
385.0
 30
0.0
 11
236.8
 21
381.4
 31
0.0
  0
LINE
  8
L-ZISSEN
 10
228.0
 20
389.0
 30
0.0
 11
228.0
 21
385.0
 31
0.0
  0
LINE
  8
L-ZISSEN
 10
229.2
 20
385.0
 30
0.0
 11
229.2
 21
381.4
 31
0.0
  0
LINE
  8
L-ZISSEN
 10
67.0
 20
392.0
 30
0.0
 11
67.0
 21
389.0
 31
0.0
  0
LINE
  8
L-ZISSEN
 10
251.0
 20
392.0
 30
0.0
 11
251.0
 21
389.0
 31
0.0
  0
LINE
  8
L-ZISSEN
 10
67.0
 20
389.0
 30
0.0
 11
251.0
 21
389.0
 31
0.0
  0
TEXT
  8
L-ZISSEN
 10
40.277306
 20
487.607211
 30
0.0
 40
4.5
  1
MVS-3506JYCL/YCK
  0
LINE
  8
L-ZISSEN
 10
376.0
 20
170.62963
 30
0.0
 11
359.0
 21
170.0
 31
0.0
  0
TEXT
  8
L-ZISSEN
 10
257.641466
 20
221.497785
 30
0.0
 40
4.5
  1
Rc3/4
  0
LINE
  8
L-TYUSIN
  6
CENTER
 62
     1
 10
82.05266
 20
71.5
 30
0.0
 11
57.05266
 21
71.5
 31
0.0
  0
LINE
  8
L-TYUSIN
  6
CENTER
 62
     1
 10
235.94734
 20
71.5
 30
0.0
 11
260.94734
 21
71.5
 31
0.0
  0
CIRCLE
  8
L-ZISSEN
 10
72.0
 20
452.0
 30
0.0
 40
4.25
  0
CIRCLE
  8
L-ZISSEN
 10
72.0
 20
408.0
 30
0.0
 40
4.25
  0
CIRCLE
  8
L-ZISSEN
 10
246.0
 20
408.0
 30
0.0
 40
4.25
  0
LINE
  8
L-ZISSEN
 10
386.0
 20
171.0
 30
0.0
 11
376.0
 21
171.0
 31
0.0
  0
LINE
  8
L-ZISSEN
 10
385.25
 20
171.0
 30
0.0
 11
385.25
 21
177.5
 31
0.0
  0
LINE
  8
L-ZISSEN
 10
385.25
 20
177.5
 30
0.0
 11
376.75
 21
177.5
 31
0.0
  0
LINE
  8
L-ZISSEN
 10
376.75
 20
171.0
 30
0.0
 11
376.75
 21
177.5
 31
0.0
  0
LINE
  8
L-ZISSEN
 10
386.0
 20
171.0
 30
0.0
 11
386.0
 21
165.5
 31
0.0
  0
LINE
  8
L-ZISSEN
 10
376.0
 20
171.0
 30
0.0
 11
376.0
 21
165.5
 31
0.0
  0
CIRCLE
  8
L-ZISSEN
 10
246.0
 20
452.0
 30
0.0
 40
4.25
  0
LINE
  8
L-ZISSEN
 10
64.0
 20
392.0
 30
0.0
 11
64.0
 21
468.0
 31
0.0
  0
LINE
  8
L-ZISSEN
 10
254.0
 20
392.0
 30
0.0
 11
254.0
 21
468.0
 31
0.0
  0
LINE
  8
L-ZISSEN
 10
342.0
 20
171.0
 30
0.0
 11
342.0
 21
165.5
 31
0.0
  0
LINE
  8
L-ZISSEN
 10
332.0
 20
171.0
 30
0.0
 11
332.0
 21
165.5
 31
0.0
  0
LINE
  8
L-ZISSEN
 10
341.25
 20
171.0
 30
0.0
 11
341.25
 21
177.5
 31
0.0
  0
LINE
  8
L-ZISSEN
 10
332.75
 20
177.5
 30
0.0
 11
341.25
 21
177.5
 31
0.0
  0
LINE
  8
L-ZISSEN
 10
332.75
 20
171.0
 30
0.0
 11
332.75
 21
177.5
 31
0.0
  0
LINE
  8
L-ZISSEN
 10
332.0
 20
171.0
 30
0.0
 11
342.0
 21
171.0
 31
0.0
  0
LINE
  8
L-TYUSIN
  6
CENTER
 62
     1
 10
346.5
 20
71.5
 30
0.0
 11
371.5
 21
71.5
 31
0.0
  0
LINE
  8
L-ZISSEN
 10
310.4
 20
145.7
 30
0.0
 11
310.4
 21
153.3
 31
0.0
  0
LINE
  8
L-ZISSEN
 10
314.0
 20
153.3
 30
0.0
 11
310.4
 21
153.3
 31
0.0
  0
LINE
  8
L-ZISSEN
 10
314.0
 20
145.7
 30
0.0
 11
310.4
 21
145.7
 31
0.0
  0
LINE
  8
L-ZISSEN
 10
314.0
 20
53.7
 30
0.0
 11
310.4
 21
53.7
 31
0.0
  0
LINE
  8
L-ZISSEN
 10
314.0
 20
61.3
 30
0.0
 11
310.4
 21
61.3
 31
0.0
  0
LINE
  8
L-ZISSEN
 10
310.4
 20
53.7
 30
0.0
 11
310.4
 21
61.3
 31
0.0
  0
LINE
  8
L-ZISSEN
 10
318.0
 20
62.5
 30
0.0
 11
314.0
 21
62.5
 31
0.0
  0
LINE
  8
L-ZISSEN
 10
314.0
 20
62.5
 30
0.0
 11
314.0
 21
52.5
 31
0.0
  0
LINE
  8
L-ZISSEN
 10
318.0
 20
52.5
 30
0.0
 11
314.0
 21
52.5
 31
0.0
  0
LINE
  8
L-ZISSEN
 10
318.0
 20
144.5
 30
0.0
 11
314.0
 21
144.5
 31
0.0
  0
LINE
  8
L-ZISSEN
 10
314.0
 20
154.5
 30
0.0
 11
314.0
 21
144.5
 31
0.0
  0
LINE
  8
L-ZISSEN
 10
318.0
 20
154.5
 30
0.0
 11
314.0
 21
154.5
 31
0.0
  0
LINE
  8
L-ZISSEN
 10
318.0
 20
49.5
 30
0.0
 11
318.0
 21
158.5
 31
0.0
  0
LINE
  8
L-ZISSEN
 10
321.0
 20
49.5
 30
0.0
 11
318.0
 21
49.5
 31
0.0
  0
LINE
  8
L-ZISSEN
 10
318.0
 20
158.5
 30
0.0
 11
321.0
 21
158.5
 31
0.0
  0
CIRCLE
  8
L-ZISSEN
 10
359.0
 20
71.5
 30
0.0
 40
10.5
  0
LINE
  8
L-ZISSEN
 10
321.0
 20
46.5
 30
0.0
 11
397.0
 21
46.5
 31
0.0
  0
LINE
  8
L-ZISSEN
 10
397.0
 20
161.5
 30
0.0
 11
321.0
 21
161.5
 31
0.0
  0
LINE
  8
L-ZISSEN
 10
241.0
 20
171.0
 30
0.0
 11
251.0
 21
171.0
 31
0.0
  0
LINE
  8
L-ZISSEN
 10
241.75
 20
171.0
 30
0.0
 11
241.75
 21
177.5
 31
0.0
  0
LINE
  8
L-ZISSEN
 10
241.75
 20
177.5
 30
0.0
 11
250.25
 21
177.5
 31
0.0
  0
LINE
  8
L-ZISSEN
 10
250.25
 20
171.0
 30
0.0
 11
250.25
 21
177.5
 31
0.0
  0
LINE
  8
L-ZISSEN
 10
241.0
 20
171.0
 30
0.0
 11
241.0
 21
165.5
 31
0.0
  0
LINE
  8
L-ZISSEN
 10
251.0
 20
171.0
 30
0.0
 11
251.0
 21
165.5
 31
0.0
  0
CIRCLE
  8
L-ZISSEN
 10
241.0
 20
149.5
 30
0.0
 40
5.0
  0
CIRCLE
  8
L-ZISSEN
 10
233.0
 20
57.5
 30
0.0
 40
5.0
  0
CIRCLE
  8
L-ZISSEN
 10
159.0
 20
149.5
 30
0.0
 40
5.0
  0
CIRCLE
  8
L-ZISSEN
 10
85.0
 20
57.5
 30
0.0
 40
5.0
  0
CIRCLE
  8
L-ZISSEN
 10
77.0
 20
149.5
 30
0.0
 40
5.0
  0
LINE
  8
L-ZISSEN
 10
254.0
 20
161.5
 30
0.0
 11
244.0
 21
46.5
 31
0.0
  0
LINE
  8
L-ZISSEN
 10
64.0
 20
161.5
 30
0.0
 11
74.0
 21
46.5
 31
0.0
  0
LINE
  8
L-ZISSEN
 10
74.0
 20
46.5
 30
0.0
 11
244.0
 21
46.5
 31
0.0
  0
LINE
  8
L-ZISSEN
 10
67.0
 20
171.0
 30
0.0
 11
67.0
 21
165.5
 31
0.0
  0
LINE
  8
L-ZISSEN
 10
77.0
 20
171.0
 30
0.0
 11
77.0
 21
165.5
 31
0.0
  0
LINE
  8
L-ZISSEN
 10
67.75
 20
171.0
 30
0.0
 11
67.75
 21
177.5
 31
0.0
  0
LINE
  8
L-ZISSEN
 10
76.25
 20
177.5
 30
0.0
 11
67.75
 21
177.5
 31
0.0
  0
LINE
  8
L-ZISSEN
 10
76.25
 20
171.0
 30
0.0
 11
76.25
 21
177.5
 31
0.0
  0
LINE
  8
L-ZISSEN
 10
77.0
 20
171.0
 30
0.0
 11
67.0
 21
171.0
 31
0.0
  0
LINE
  8
L-ZISSEN
 10
72.0
 20
165.5
 30
0.0
 11
77.1
 21
165.5
 31
0.0
  0
LINE
  8
L-ZISSEN
 10
251.5
 20
161.5
 30
0.0
 11
251.5
 21
165.5
 31
0.0
  0
LINE
  8
L-ZISSEN
 10
64.0
 20
161.5
 30
0.0
 11
254.0
 21
161.5
 31
0.0
  0
LINE
  8
L-ZISSEN
 10
66.5
 20
165.5
 30
0.0
 11
66.5
 21
161.5
 31
0.0
  0
LINE
  8
L-ZISSEN
 10
251.5
 20
165.5
 30
0.0
 11
66.5
 21
165.5
 31
0.0
  0
LINE
  8
L-ZISSEN
 10
397.0
 20
46.5
 30
0.0
 11
397.0
 21
165.5
 31
0.0
  0
LINE
  8
L-ZISSEN
  6
CONTINUOUS
 62
     7
 10
321.0
 20
165.5
 30
0.0
 11
397.0
 21
165.5
 31
0.0
  0
LINE
  8
L-ZISSEN
  6
CONTINUOUS
 62
     7
 10
321.0
 20
46.5
 30
0.0
 11
321.0
 21
165.5
 31
0.0
  0
TEXT
  8
L-ZISSEN
 10
37.195243
 20
495.346557
 30
0.0
 40
4.5
  1
MODEL NO.
  0
LINE
  8
L-TYUSIN
  6
CENTER
 62
     1
 10
367.0
 20
268.7
 30
0.0
 11
351.0
 21
268.7
 31
0.0
  0
LINE
  8
L-ZISSEN
 10
230.0
 20
278.7
 30
0.0
 11
210.185185
 21
278.7
 31
0.0
  0
TEXT
  8
L-ZISSEN
 10
256.30716
 20
229.46393
 30
0.0
 40
4.5
  1
IN
  0
LINE
  8
L-ZISSEN
 10
252.30716
 20
232.856027
 30
0.0
 11
254.30716
 21
232.856027
 31
0.0
  0
LINE
  8
L-ZISSEN
 10
238.798481
 20
201.833692
 30
0.0
 11
252.30716
 21
232.856027
 31
0.0
  0
SOLID
  8
L-ZISSEN
 10
238.492866
 20
201.966773
 30
0.0
 11
239.104097
 21
201.700612
 31
0.0
 12
238.0
 22
200.0
 32
0.0
 13
238.0
 23
200.0
 33
0.0
  0
LINE
  8
L-TYUSIN
  6
CENTER
 62
     1
 10
314.0
 20
216.0
 30
0.0
 11
324.0
 21
216.0
 31
0.0
  0
LINE
  8
L-ZISSEN
 10
141.0
 20
390.0
 30
0.0
 11
141.0
 21
392.0
 31
0.0
  0
LINE
  8
L-ZISSEN
 10
177.0
 20
390.0
 30
0.0
 11
177.0
 21
392.0
 31
0.0
  0
LINE
  8
L-TYUSIN
  6
CENTER
 62
     1
 10
137.0
 20
216.0
 30
0.0
 11
181.0
 21
216.0
 31
0.0
  0
LINE
  8
L-ZISSEN
 10
397.0
 20
165.5
 30
0.0
 11
397.0
 21
171.407407
 31
0.0
  0
LINE
  8
L-ZISSEN
  6
CONTINUOUS
 62
     7
 10
360.732051
 20
271.7
 30
0.0
 11
357.267949
 21
271.7
 31
0.0
  0
LINE
  8
L-ZISSEN
  6
CONTINUOUS
 62
     7
 10
362.464102
 20
268.7
 30
0.0
 11
360.732051
 21
271.7
 31
0.0
  0
LINE
  8
L-ZISSEN
  6
CONTINUOUS
 62
     7
 10
360.732051
 20
265.7
 30
0.0
 11
362.464102
 21
268.7
 31
0.0
  0
LINE
  8
L-ZISSEN
  6
CONTINUOUS
 62
     7
 10
357.267949
 20
265.7
 30
0.0
 11
360.732051
 21
265.7
 31
0.0
  0
LINE
  8
L-ZISSEN
  6
CONTINUOUS
 62
     7
 10
355.535898
 20
268.7
 30
0.0
 11
357.267949
 21
265.7
 31
0.0
  0
LINE
  8
L-ZISSEN
  6
CONTINUOUS
 62
     7
 10
357.267949
 20
271.7
 30
0.0
 11
355.535898
 21
268.7
 31
0.0
  0
LINE
  8
L-ZISSEN
 10
319.0
 20
234.0
 30
0.0
 11
321.0
 21
234.0
 31
0.0
  0
LINE
  8
L-ZISSEN
  6
CONTINUOUS
 62
     7
 10
397.0
 20
248.5
 30
0.0
 11
397.0
 21
228.592593
 31
0.0
  0
LINE
  8
L-ZISSEN
  6
CONTINUOUS
 62
     7
 10
94.5
 20
169.003125
 30
0.0
 11
94.5
 21
165.5
 31
0.0
  0
ARC
  8
L-ZISSEN
  6
CONTINUOUS
 62
     7
 10
359.0
 20
268.7
 30
0.0
 40
10.0
 50
0.0
 51
180.0
  0
CIRCLE
  8
L-ZISSEN
  6
CONTINUOUS
 62
     7
 10
359.0
 20
268.7
 30
0.0
 40
6.6
  0
LINE
  8
L-ZISSEN
  6
CONTINUOUS
 62
     7
 10
349.0
 20
268.7
 30
0.0
 11
348.484694
 21
248.5
 31
0.0
  0
LINE
  8
L-ZISSEN
  6
CONTINUOUS
 62
     7
 10
381.5
 20
254.5
 30
0.0
 11
381.5
 21
248.794118
 31
0.0
  0
LINE
  8
L-ZISSEN
  6
CONTINUOUS
 62
     7
 10
394.5
 20
254.5
 30
0.0
 11
394.5
 21
248.5
 31
0.0
  0
LINE
  8
L-ZISSEN
  6
CONTINUOUS
 62
     7
 10
394.5
 20
254.5
 30
0.0
 11
381.5
 21
254.5
 31
0.0
  0
LINE
  8
L-ZISSEN
  6
CONTINUOUS
 62
     7
 10
394.0
 20
262.0
 30
0.0
 11
382.0
 21
262.0
 31
0.0
  0
LINE
  8
L-ZISSEN
  6
CONTINUOUS
 62
     7
 10
394.0
 20
262.0
 30
0.0
 11
394.0
 21
254.498558
 31
0.0
  0
LINE
  8
L-ZISSEN
  6
CONTINUOUS
 62
     7
 10
382.0
 20
262.0
 30
0.0
 11
382.0
 21
254.498558
 31
0.0
  0
LINE
  8
L-ZISSEN
  6
CONTINUOUS
 62
     7
 10
336.5
 20
254.5
 30
0.0
 11
336.5
 21
248.794118
 31
0.0
  0
LINE
  8
L-ZISSEN
  6
CONTINUOUS
 62
     7
 10
336.0
 20
262.0
 30
0.0
 11
336.0
 21
254.498558
 31
0.0
  0
LINE
  8
L-ZISSEN
  6
CONTINUOUS
 62
     7
 10
323.5
 20
254.5
 30
0.0
 11
323.5
 21
248.5
 31
0.0
  0
LINE
  8
L-ZISSEN
  6
CONTINUOUS
 62
     7
 10
324.0
 20
262.0
 30
0.0
 11
324.0
 21
254.498558
 31
0.0
  0
LINE
  8
L-ZISSEN
  6
CONTINUOUS
 62
     7
 10
324.0
 20
262.0
 30
0.0
 11
336.0
 21
262.0
 31
0.0
  0
LINE
  8
L-ZISSEN
  6
CONTINUOUS
 62
     7
 10
323.5
 20
254.5
 30
0.0
 11
336.5
 21
254.5
 31
0.0
  0
LINE
  8
L-ZISSEN
  6
CONTINUOUS
 62
     7
 10
321.0
 20
248.5
 30
0.0
 11
321.0
 21
230.5
 31
0.0
  0
LINE
  8
L-TYUSIN
  6
CENTER
 62
     1
 10
341.0
 20
200.0
 30
0.0
 11
377.0
 21
200.0
 31
0.0
  0
LINE
  8
L-ZISSEN
  6
CONTINUOUS
 62
     7
 10
340.5
 20
177.5
 30
0.0
 11
340.5
 21
230.5
 31
0.0
  0
LINE
  8
L-ZISSEN
  6
CONTINUOUS
 62
     7
 10
399.5
 20
171.5
 30
0.0
 11
399.5
 21
186.5
 31
0.0
  0
CIRCLE
  8
L-ZISSEN
  6
CONTINUOUS
 62
     7
 10
203.0
 20
452.0
 30
0.0
 40
4.25
  0
CIRCLE
  8
L-ZISSEN
  6
CONTINUOUS
 62
     7
 10
115.0
 20
452.0
 30
0.0
 40
4.25
  0
CIRCLE
  8
L-ZISSEN
  6
CONTINUOUS
 62
     7
 10
96.0
 20
459.0
 30
0.0
 40
6.5
  0
CIRCLE
  8
L-ZISSEN
  6
CONTINUOUS
 62
     7
 10
222.0
 20
401.0
 30
0.0
 40
6.5
  0
CIRCLE
  8
L-ZISSEN
  6
CONTINUOUS
 62
     7
 10
222.0
 20
459.0
 30
0.0
 40
6.5
  0
LINE
  8
L-ZISSEN
  6
CONTINUOUS
 62
     7
 10
231.0
 20
468.0
 30
0.0
 11
231.0
 21
392.0
 31
0.0
  0
LINE
  8
L-ZISSEN
  6
CONTINUOUS
 62
     7
 10
177.0
 20
390.0
 30
0.0
 11
141.0
 21
390.0
 31
0.0
  0
LINE
  8
L-TYUSIN
  6
CENTER
 62
     1
 10
135.0
 20
415.9375
 30
0.0
 11
135.0
 21
444.0625
 31
0.0
  0
CIRCLE
  8
L-ZISSEN
  6
CONTINUOUS
 62
     7
 10
135.0
 20
430.0
 30
0.0
 40
12.5
  0
LINE
  8
L-ZISSEN
  6
CONTINUOUS
 62
     7
 10
137.856406
 20
466.5
 30
0.0
 11
180.143594
 21
466.5
 31
0.0
  0
LINE
  8
L-ZISSEN
  6
CONTINUOUS
 62
     7
 10
87.0
 20
392.0
 30
0.0
 11
87.0
 21
468.0
 31
0.0
  0
LINE
  8
L-ZISSEN
  6
CONTINUOUS
 62
     7
 10
87.25
 20
470.5
 30
0.0
 11
102.25
 21
470.5
 31
0.0
  0
LINE
  8
L-ZISSEN
  6
CONTINUOUS
 62
     7
 10
87.0
 20
256.5
 30
0.0
 11
87.0
 21
225.575751
 31
0.0
  0
LINE
  8
L-ZISSEN
  6
CONTINUOUS
 62
     7
 10
102.5
 20
254.5
 30
0.0
 11
102.5
 21
250.323529
 31
0.0
  0
LINE
  8
L-ZISSEN
  6
CONTINUOUS
 62
     7
 10
89.5
 20
254.5
 30
0.0
 11
89.5
 21
248.794118
 31
0.0
  0
LINE
  8
L-ZISSEN
  6
CONTINUOUS
 62
     7
 10
90.0
 20
262.0
 30
0.0
 11
90.0
 21
254.498558
 31
0.0
  0
LINE
  8
L-ZISSEN
  6
CONTINUOUS
 62
     7
 10
102.0
 20
262.0
 30
0.0
 11
102.0
 21
254.498558
 31
0.0
  0
LINE
  8
L-ZISSEN
  6
CONTINUOUS
 62
     7
 10
102.5
 20
254.5
 30
0.0
 11
89.5
 21
254.5
 31
0.0
  0
LINE
  8
L-ZISSEN
  6
CONTINUOUS
 62
     7
 10
102.0
 20
262.0
 30
0.0
 11
90.0
 21
262.0
 31
0.0
  0
LINE
  8
L-ZISSEN
  6
CONTINUOUS
 62
     7
 10
228.5
 20
254.5
 30
0.0
 11
228.5
 21
248.794118
 31
0.0
  0
LINE
  8
L-TYUSIN
  6
CENTER
 62
     1
 10
234.848431
 20
268.7
 30
0.0
 11
224.848431
 21
268.7
 31
0.0
  0
LINE
  8
L-ZISSEN
  6
CONTINUOUS
 62
     7
 10
228.0
 20
262.0
 30
0.0
 11
228.0
 21
254.498558
 31
0.0
  0
LINE
  8
L-ZISSEN
  6
CONTINUOUS
 62
     7
 10
215.5
 20
254.5
 30
0.0
 11
215.5
 21
250.323529
 31
0.0
  0
LINE
  8
L-ZISSEN
  6
CONTINUOUS
 62
     7
 10
215.5
 20
254.5
 30
0.0
 11
228.5
 21
254.5
 31
0.0
  0
LINE
  8
L-ZISSEN
  6
CONTINUOUS
 62
     7
 10
216.0
 20
262.0
 30
0.0
 11
216.0
 21
254.498558
 31
0.0
  0
LINE
  8
L-ZISSEN
  6
CONTINUOUS
 62
     7
 10
216.0
 20
262.0
 30
0.0
 11
228.0
 21
262.0
 31
0.0
  0
LINE
  8
L-ZISSEN
  6
CONTINUOUS
 62
     7
 10
137.856406
 20
393.5
 30
0.0
 11
180.143594
 21
393.5
 31
0.0
  0
CIRCLE
  8
L-ZISSEN
  6
CONTINUOUS
 62
     7
 10
96.0
 20
401.0
 30
0.0
 40
6.5
  0
LINE
  8
L-ZISSEN
  6
CONTINUOUS
 62
     7
 10
64.0
 20
392.0
 30
0.0
 11
254.0
 21
392.0
 31
0.0
  0
LINE
  8
L-ZISSEN
  6
CONTINUOUS
 62
     7
 10
210.0
 20
401.5
 30
0.0
 11
180.143594
 21
393.5
 31
0.0
  0
LINE
  8
L-ZISSEN
  6
CONTINUOUS
 62
     7
 10
108.0
 20
401.5
 30
0.0
 11
137.856406
 21
393.5
 31
0.0
  0
LINE
  8
L-ZISSEN
  6
CONTINUOUS
 62
     7
 10
108.0
 20
401.5
 30
0.0
 11
108.0
 21
458.5
 31
0.0
  0
LINE
  8
L-ZISSEN
  6
CONTINUOUS
 62
     7
 10
254.0
 20
468.0
 30
0.0
 11
64.0
 21
468.0
 31
0.0
  0
LINE
  8
L-ZISSEN
  6
CONTINUOUS
 62
     7
 10
210.0
 20
458.5
 30
0.0
 11
180.143594
 21
466.5
 31
0.0
  0
LINE
  8
L-ZISSEN
  6
CONTINUOUS
 62
     7
 10
108.0
 20
458.5
 30
0.0
 11
137.856406
 21
466.5
 31
0.0
  0
LINE
  8
L-TYUSIN
  6
CENTER
 62
     1
 10
259.0
 20
430.0
 30
0.0
 11
59.0
 21
430.0
 31
0.0
  0
LINE
  8
L-TYUSIN
  6
CENTER
 62
     1
 10
159.0
 20
376.4
 30
0.0
 11
159.0
 21
478.0
 31
0.0
  0
LINE
  8
L-TYUSIN
  6
CENTER
 62
     1
 10
183.0
 20
415.9375
 30
0.0
 11
183.0
 21
444.0625
 31
0.0
  0
CIRCLE
  8
L-ZISSEN
  6
CONTINUOUS
 62
     7
 10
183.0
 20
430.0
 30
0.0
 40
12.5
  0
LINE
  8
L-ZISSEN
  6
CONTINUOUS
 62
     7
 10
210.0
 20
420.0
 30
0.0
 11
231.0
 21
420.0
 31
0.0
  0
LINE
  8
L-ZISSEN
  6
CONTINUOUS
 62
     7
 10
231.0
 20
440.0
 30
0.0
 11
210.0
 21
440.0
 31
0.0
  0
LINE
  8
L-ZISSEN
  6
CONTINUOUS
 62
     7
 10
210.0
 20
401.5
 30
0.0
 11
210.0
 21
458.5
 31
0.0
  0
LINE
  8
L-TYUSIN
  6
CENTER
 62
     1
 10
339.0
 20
179.0
 30
0.0
 11
401.5
 21
179.0
 31
0.0
  0
LINE
  8
L-ZISSEN
  6
CONTINUOUS
 62
     7
 10
321.0
 20
165.5
 30
0.0
 11
397.0
 21
165.5
 31
0.0
  0
LINE
  8
L-ZISSEN
  6
CONTINUOUS
 62
     7
 10
321.0
 20
165.5
 30
0.0
 11
321.0
 21
185.0
 31
0.0
  0
LINE
  8
L-ZISSEN
  6
CONTINUOUS
 62
     7
 10
321.0
 20
173.5
 30
0.0
 11
332.75
 21
173.5
 31
0.0
  0
LINE
  8
L-ZISSEN
  6
CONTINUOUS
 62
     7
 10
321.0
 20
185.0
 30
0.0
 11
334.0
 21
185.0
 31
0.0
  0
LINE
  8
L-ZISSEN
  6
CONTINUOUS
 62
     7
 10
319.0
 20
198.0
 30
0.0
 11
334.0
 21
198.0
 31
0.0
  0
LINE
  8
L-ZISSEN
  6
CONTINUOUS
 62
     7
 10
319.0
 20
234.0
 30
0.0
 11
319.0
 21
198.0
 31
0.0
  0
LINE
  8
L-TYUSIN
  6
CENTER
 62
     1
 10
339.0
 20
221.0
 30
0.0
 11
401.5
 21
221.0
 31
0.0
  0
LINE
  8
L-ZISSEN
  6
CONTINUOUS
 62
     7
 10
321.0
 20
230.5
 30
0.0
 11
397.0
 21
230.5
 31
0.0
  0
LINE
  8
L-ZISSEN
  6
CONTINUOUS
 62
     7
 10
321.0
 20
240.5
 30
0.0
 11
397.0
 21
240.5
 31
0.0
  0
LINE
  8
L-ZISSEN
  6
CONTINUOUS
 62
     7
 10
321.0
 20
248.5
 30
0.0
 11
397.0
 21
248.5
 31
0.0
  0
LINE
  8
L-ZISSEN
  6
CONTINUOUS
 62
     7
 10
369.0
 20
268.7
 30
0.0
 11
369.515306
 21
248.5
 31
0.0
  0
LINE
  8
L-ZISSEN
  6
CONTINUOUS
 62
     7
 10
396.536962
 20
248.5
 30
0.0
 11
394.08596
 21
342.1
 31
0.0
  0
LINE
  8
L-TYUSIN
  6
CENTER
 62
     1
 10
359.0
 20
37.5
 30
0.0
 11
359.0
 21
352.1
 31
0.0
  0
LINE
  8
L-ZISSEN
  6
CONTINUOUS
 62
     7
 10
322.5
 20
288.1
 30
0.0
 11
395.5
 21
288.1
 31
0.0
  0
LINE
  8
L-ZISSEN
  6
CONTINUOUS
 62
     7
 10
321.463038
 20
248.5
 30
0.0
 11
323.91404
 21
342.1
 31
0.0
  0
LINE
  8
L-ZISSEN
  6
CONTINUOUS
 62
     7
 10
323.91404
 20
342.1
 30
0.0
 11
394.08596
 21
342.1
 31
0.0
  0
LINE
  8
L-ZISSEN
  6
CONTINUOUS
 62
     7
 10
223.5
 20
165.5
 30
0.0
 11
94.5
 21
165.5
 31
0.0
  0
CIRCLE
  8
L-ZISSEN
 10
159.0
 20
216.0
 30
0.0
 40
18.0
  0
LINE
  8
L-TYUSIN
  6
CENTER
 62
     1
 10
77.0
 20
200.0
 30
0.0
 11
241.0
 21
200.0
 31
0.0
  0
LINE
  8
L-ZISSEN
  6
CONTINUOUS
 62
     7
 10
231.0
 20
231.0
 30
0.0
 11
168.949874
 21
231.0
 31
0.0
  0
LINE
  8
L-ZISSEN
  6
CONTINUOUS
 62
     7
 10
87.0
 20
231.0
 30
0.0
 11
149.050126
 21
231.0
 31
0.0
  0
LINE
  8
L-ZISSEN
  6
CONTINUOUS
 62
     7
 10
231.0
 20
240.5
 30
0.0
 11
87.0
 21
240.5
 31
0.0
  0
LINE
  8
L-ZISSEN
  6
CONTINUOUS
 62
     7
 10
87.0
 20
248.5
 30
0.0
 11
138.0
 21
254.5
 31
0.0
  0
LINE
  8
L-ZISSEN
  6
CONTINUOUS
 62
     7
 10
231.0
 20
248.5
 30
0.0
 11
180.0
 21
254.5
 31
0.0
  0
LINE
  8
L-ZISSEN
  6
CONTINUOUS
 62
     7
 10
180.0
 20
254.5
 30
0.0
 11
138.0
 21
254.5
 31
0.0
  0
LINE
  8
L-ZISSEN
  6
CONTINUOUS
 62
     7
 10
209.0
 20
342.1
 30
0.0
 11
210.689083
 21
250.88952
 31
0.0
  0
LINE
  8
L-ZISSEN
  6
CONTINUOUS
 62
     7
 10
210.0
 20
288.1
 30
0.0
 11
108.0
 21
288.1
 31
0.0
  0
LINE
  8
L-ZISSEN
  6
CONTINUOUS
 62
     7
 10
109.0
 20
342.1
 30
0.0
 11
107.310917
 21
250.88952
 31
0.0
  0
LINE
  8
L-TYUSIN
  6
CENTER
 62
     1
 10
159.0
 20
36.5
 30
0.0
 11
159.0
 21
352.1
 31
0.0
  0
LINE
  8
L-ZISSEN
  6
CONTINUOUS
 62
     7
 10
209.0
 20
342.1
 30
0.0
 11
109.0
 21
342.1
 31
0.0
  0
LINE
  8
L-ZISSEN
 10
230.0
 20
278.7
 30
0.0
 11
230.0
 21
248.617647
 31
0.0
  0
LINE
  8
L-ZISSEN
 10
87.0
 20
256.5
 30
0.0
 11
90.0
 21
256.5
 31
0.0
  0
LINE
  8
L-ZISSEN
 10
102.0
 20
256.5
 30
0.0
 11
107.414815
 21
256.5
 31
0.0
  0
LINE
  8
L-ZISSEN
 10
334.0
 20
185.0
 30
0.0
 11
334.0
 21
198.0
 31
0.0
  0
CIRCLE
  8
L-ZISSEN
  6
CONTINUOUS
 62
     7
 10
115.0
 20
408.0
 30
0.0
 40
4.25
  0
CIRCLE
  8
L-ZISSEN
  6
CONTINUOUS
 62
     7
 10
203.0
 20
408.0
 30
0.0
 40
4.25
  0
LINE
  8
L-ZISSEN
 10
108.0
 20
438.0
 30
0.0
 11
87.0
 21
438.0
 31
0.0
  0
LINE
  8
L-ZISSEN
 10
108.0
 20
422.0
 30
0.0
 11
87.0
 21
422.0
 31
0.0
  0
LINE
  8
L-TYUSIN
 10
84.75
 20
221.0
 30
0.0
 11
104.75
 21
221.0
 31
0.0
  0
LINE
  8
L-TYUSIN
 10
94.75
 20
231.0
 30
0.0
 11
94.75
 21
211.0
 31
0.0
  0
LINE
  8
L-ZISSEN
 10
85.75
 20
218.5
 30
0.0
 11
80.0
 21
218.5
 31
0.0
  0
LINE
  8
L-ZISSEN
 10
80.0
 20
218.5
 30
0.0
 11
80.0
 21
181.5
 31
0.0
  0
LINE
  8
L-ZISSEN
 10
238.0
 20
218.5
 30
0.0
 11
238.0
 21
181.5
 31
0.0
  0
LINE
  8
L-TYUSIN
 10
223.25
 20
169.0
 30
0.0
 11
223.25
 21
189.0
 31
0.0
  0
LINE
  8
L-ZISSEN
 10
232.25
 20
218.5
 30
0.0
 11
238.0
 21
218.5
 31
0.0
  0
LINE
  8
L-ZISSEN
  6
CONTINUOUS
 62
     7
 10
223.5
 20
169.003125
 30
0.0
 11
223.5
 21
165.5
 31
0.0
  0
CIRCLE
  8
L-ZISSEN
 10
94.75
 20
221.0
 30
0.0
 40
3.5
  0
ARC
  8
L-ZISSEN
 10
94.75
 20
221.0
 30
0.0
 40
9.0
 50
149.441568
 51
180.0
  0
LINE
  8
L-ZISSEN
 10
85.75
 20
221.0
 30
0.0
 11
85.75
 21
218.5
 31
0.0
  0
CIRCLE
  8
L-ZISSEN
 10
223.25
 20
221.0
 30
0.0
 40
3.5
  0
LINE
  8
L-TYUSIN
 10
233.25
 20
221.0
 30
0.0
 11
213.25
 21
221.0
 31
0.0
  0
LINE
  8
L-TYUSIN
 10
223.25
 20
231.0
 30
0.0
 11
223.25
 21
211.0
 31
0.0
  0
ARC
  8
L-ZISSEN
 10
223.25
 20
221.0
 30
0.0
 40
9.0
 50
0.0
 51
30.558432
  0
LINE
  8
L-ZISSEN
 10
232.25
 20
221.0
 30
0.0
 11
232.25
 21
218.5
 31
0.0
  0
CIRCLE
  8
L-ZISSEN
 10
94.75
 20
179.0
 30
0.0
 40
3.5
  0
LINE
  8
L-ZISSEN
 10
84.75
 20
181.5
 30
0.0
 11
80.0
 21
181.5
 31
0.0
  0
LINE
  8
L-TYUSIN
 10
94.75
 20
169.0
 30
0.0
 11
94.75
 21
189.0
 31
0.0
  0
LINE
  8
L-TYUSIN
 10
84.75
 20
179.0
 30
0.0
 11
104.75
 21
179.0
 31
0.0
  0
LINE
  8
L-TYUSIN
 10
233.25
 20
179.0
 30
0.0
 11
213.25
 21
179.0
 31
0.0
  0
LINE
  8
L-TYUSIN
 10
223.25
 20
169.0
 30
0.0
 11
223.25
 21
189.0
 31
0.0
  0
CIRCLE
  8
L-ZISSEN
 10
223.25
 20
179.0
 30
0.0
 40
3.5
  0
LINE
  8
L-ZISSEN
 10
233.25
 20
181.5
 30
0.0
 11
238.0
 21
181.5
 31
0.0
  0
ARC
  8
L-ZISSEN
 10
359.0
 20
200.0
 30
0.0
 40
18.5
 50
202.233272
 51
337.766728
  0
LINE
  8
L-ZISSEN
 10
341.875456
 20
207.0
 30
0.0
 11
340.5
 21
207.0
 31
0.0
  0
LINE
  8
L-ZISSEN
 10
340.5
 20
193.0
 30
0.0
 11
341.875456
 21
193.0
 31
0.0
  0
LINE
  8
L-ZISSEN
 10
377.5
 20
187.314815
 30
0.0
 11
377.5
 21
212.685185
 31
0.0
  0
LINE
  8
L-ZISSEN
 10
377.5
 20
193.0
 30
0.0
 11
376.124544
 21
193.0
 31
0.0
  0
LINE
  8
L-ZISSEN
 10
376.124544
 20
207.0
 30
0.0
 11
377.5
 21
207.0
 31
0.0
  0
ARC
  8
L-ZISSEN
 10
359.0
 20
200.0
 30
0.0
 40
18.5
 50
22.233272
 51
157.766728
  0
LINE
  8
L-ZISSEN
 10
359.0
 20
170.0
 30
0.0
 11
341.25
 21
173.358108
 31
0.0
  0
LINE
  8
L-ZISSEN
 10
399.5
 20
171.5
 30
0.0
 11
386.0
 21
171.0
 31
0.0
  0
LINE
  8
L-ZISSEN
 10
399.5
 20
186.5
 30
0.0
 11
377.5
 21
187.314815
 31
0.0
  0
LINE
  8
L-ZISSEN
 10
399.5
 20
213.5
 30
0.0
 11
377.5
 21
212.685185
 31
0.0
  0
LINE
  8
L-ZISSEN
 10
399.5
 20
228.5
 30
0.0
 11
397.0
 21
228.592593
 31
0.0
  0
LINE
  8
L-ZISSEN
  6
CONTINUOUS
 62
     7
 10
399.5
 20
228.5
 30
0.0
 11
399.5
 21
213.5
 31
0.0
  0
LINE
  8
L-ZISSEN
 10
396.0
 20
186.62963
 30
0.0
 11
396.0
 21
213.37037
 31
0.0
  0
LINE
  8
L-ZISSEN
 10
80.0
 20
448.5
 30
0.0
 11
80.0
 21
411.5
 31
0.0
  0
LINE
  8
L-ZISSEN
 10
80.0
 20
411.5
 30
0.0
 11
87.0
 21
411.5
 31
0.0
  0
LINE
  8
L-ZISSEN
 10
80.0
 20
448.5
 30
0.0
 11
86.435185
 21
448.5
 31
0.0
  0
LINE
  8
L-TYUSIN
 10
94.75
 20
475.5
 30
0.0
 11
94.75
 21
460.5
 31
0.0
  0
LINE
  8
L-ZISSEN
 10
87.25
 20
470.5
 30
0.0
 11
87.157407
 21
468.0
 31
0.0
  0
LINE
  8
L-ZISSEN
 10
102.25
 20
470.5
 30
0.0
 11
102.342593
 21
468.0
 31
0.0
  0
LINE
  8
L-ZISSEN
 10
85.75
 20
430.0
 30
0.0
 11
87.0
 21
411.5
 31
0.0
  0
LINE
  8
L-ZISSEN
 10
87.0
 20
463.75
 30
0.0
 11
85.75
 21
430.0
 31
0.0
  0
LINE
  8
L-ZISSEN
 10
215.75
 20
470.5
 30
0.0
 11
215.657407
 21
468.0
 31
0.0
  0
LINE
  8
L-ZISSEN
 10
230.75
 20
470.5
 30
0.0
 11
230.842593
 21
468.0
 31
0.0
  0
LINE
  8
L-ZISSEN
  6
CONTINUOUS
 62
     7
 10
230.75
 20
470.5
 30
0.0
 11
215.75
 21
470.5
 31
0.0
  0
LINE
  8
L-TYUSIN
 10
223.25
 20
475.5
 30
0.0
 11
223.25
 21
460.5
 31
0.0
  0
LINE
  8
L-ZISSEN
 10
232.25
 20
430.0
 30
0.0
 11
231.0
 21
411.5
 31
0.0
  0
LINE
  8
L-ZISSEN
 10
238.0
 20
448.5
 30
0.0
 11
231.564815
 21
448.5
 31
0.0
  0
LINE
  8
L-ZISSEN
 10
238.0
 20
411.5
 30
0.0
 11
231.0
 21
411.5
 31
0.0
  0
LINE
  8
L-ZISSEN
 10
238.0
 20
448.5
 30
0.0
 11
238.0
 21
411.5
 31
0.0
  0
LINE
  8
L-ZISSEN
 10
231.0
 20
463.75
 30
0.0
 11
232.25
 21
430.0
 31
0.0
  0
CIRCLE
  8
L-ZISSEN
 10
159.0
 20
216.0
 30
0.0
 40
12.0585
  0
CIRCLE
  8
L-ZISSEN
 10
359.0
 20
200.0
 30
0.0
 40
12.0585
  0
ARC
  8
L-ZISSEN
 10
94.75
 20
179.0
 30
0.0
 40
10.0
 50
180.0
 51
268.567456
  0
LINE
  8
L-ZISSEN
 10
84.75
 20
179.0
 30
0.0
 11
84.75
 21
181.5
 31
0.0
  0
ARC
  8
L-ZISSEN
 10
223.25
 20
179.0
 30
0.0
 40
10.0
 50
271.432544
 51
0.0
  0
LINE
  8
L-ZISSEN
 10
233.25
 20
179.0
 30
0.0
 11
233.25
 21
181.5
 31
0.0
  0
ENDSEC
  0
EOF
