  0
SECTION
  2
HEADER
  9
$ACADVER
  1
AC1006
  9
$INSBASE
 10
0.0
 20
0.0
 30
0.0
  9
$EXTMIN
 10
34.983541
 20
36.5
  9
$EXTMAX
 10
614.385491
 20
510.126393
  9
$LIMMIN
 10
0.0
 20
0.0
  9
$LIMMAX
 10
12.0
 20
9.0
  9
$ORTHOMODE
 70
     0
  9
$REGENMODE
 70
     1
  9
$FILLMODE
 70
     1
  9
$QTEXTMODE
 70
     0
  9
$MIRRTEXT
 70
     1
  9
$DRAGMODE
 70
     2
  9
$LTSCALE
 40
1.0
  9
$OSMODE
 70
     0
  9
$ATTMODE
 70
     1
  9
$TEXTSIZE
 40
0.2
  9
$TRACEWID
 40
0.05
  9
$TEXTSTYLE
  7
STANDARD
  9
$CLAYER
  8
L-ZISSEN
  9
$CELTYPE
  6
BYLAYER
  9
$CECOLOR
 62
   256
  9
$DIMSCALE
 40
1.0
  9
$DIMASZ
 40
1.5
  9
$DIMEXO
 40
1.0
  9
$DIMDLI
 40
0.38
  9
$DIMRND
 40
0.0
  9
$DIMDLE
 40
0.0
  9
$DIMEXE
 40
1.0
  9
$DIMTP
 40
0.0
  9
$DIMTM
 40
0.0
  9
$DIMTXT
 40
2.5
  9
$DIMCEN
 40
0.09
  9
$DIMTSZ
 40
0.0
  9
$DIMTOL
 70
     0
  9
$DIMLIM
 70
     0
  9
$DIMTIH
 70
     0
  9
$DIMTOH
 70
     0
  9
$DIMSE1
 70
     0
  9
$DIMSE2
 70
     0
  9
$DIMTAD
 70
     1
  9
$DIMZIN
 70
     0
  9
$DIMBLK
  1

  9
$DIMASO
 70
     1
  9
$DIMSHO
 70
     0
  9
$DIMPOST
  1

  9
$DIMAPOST
  1

  9
$DIMALT
 70
     0
  9
$DIMALTD
 70
     2
  9
$DIMALTF
 40
25.4
  9
$DIMLFAC
 40
1.0
  9
$DIMTOFL
 70
     1
  9
$DIMTVP
 40
0.0
  9
$DIMTIX
 70
     0
  9
$DIMSOXD
 70
     0
  9
$DIMSAH
 70
     0
  9
$DIMBLK1
  1

  9
$DIMBLK2
  1

  9
$LUNITS
 70
     2
  9
$LUPREC
 70
     4
  9
$AXISMODE
 70
     0
  9
$AXISUNIT
 10
0.0
 20
0.0
  9
$SKETCHINC
 40
0.1
  9
$FILLETRAD
 40
0.0
  9
$AUNITS
 70
     0
  9
$AUPREC
 70
     0
  9
$MENU
  1
acad
  9
$ELEVATION
 40
0.0
  9
$THICKNESS
 40
0.0
  9
$LIMCHECK
 70
     0
  9
$BLIPMODE
 70
     1
  9
$CHAMFERA
 40
0.0
  9
$CHAMFERB
 40
0.0
  9
$SKPOLY
 70
     0
  9
$TDCREATE
 40
2449263.5766858798
  9
$TDUPDATE
 40
2449263.5766858798
  9
$TDINDWG
 40
0.0000000000
  9
$TDUSRTIMER
 40
0.0000000000
  9
$USRTIMER
 70
     1
  9
$ANGBASE
 50
0.0
  9
$ANGDIR
 70
     0
  9
$PDMODE
 70
     0
  9
$PDSIZE
 40
0.0
  9
$PLINEWID
 40
0.0
  9
$COORDS
 70
     0
  9
$SPLFRAME
 70
     0
  9
$SPLINETYPE
 70
     6
  9
$SPLINESEGS
 70
     8
  9
$ATTDIA
 70
     0
  9
$ATTREQ
 70
     1
  9
$HANDLING
 70
     0
  9
$HANDSEED
  5
0
  9
$SURFTAB1
 70
     6
  9
$SURFTAB2
 70
     6
  9
$SURFTYPE
 70
     6
  9
$SURFU
 70
     6
  9
$SURFV
 70
     6
  9
$FLATLAND
 70
     0
  9
$UCSNAME
  2

  9
$UCSORG
 10
0.0
 20
0.0
 30
0.0
  9
$UCSXDIR
 10
1.0
 20
0.0
 30
0.0
  9
$UCSYDIR
 10
0.0
 20
1.0
 30
0.0
  9
$USERI1
 70
     0
  9
$USERI2
 70
     0
  9
$USERI3
 70
     0
  9
$USERI4
 70
     0
  9
$USERI5
 70
     0
  9
$USERR1
 40
0.0
  9
$USERR2
 40
0.0
  9
$USERR3
 40
0.0
  9
$USERR4
 40
0.0
  9
$USERR5
 40
0.0
  9
$WORLDVIEW
 70
     1
  0
ENDSEC
  0
SECTION
  2
TABLES
  0
TABLE
  2
VPORT
 70
     2
  0
VPORT
  2
*ACTIVE
 70
     0
 10
0.0
 20
0.0
 11
1.0
 21
1.0
 12
412.533647
 22
277.021868
 13
0.0
 23
0.0
 14
1.0
 24
1.0
 15
0.0
 25
0.0
 16
0.0
 26
0.0
 36
1.0
 17
0.0
 27
0.0
 37
0.0
 40
541.985713
 41
1.5487
 42
50.0
 43
0.0
 44
0.0
 50
0.0
 51
0.0
 71
     0
 72
   100
 73
     1
 74
     0
 75
     0
 76
     0
 77
     0
 78
     0
  0
ENDTAB
  0
TABLE
  2
LTYPE
 70
     2
  0
LTYPE
  2
CONTINUOUS
 70
    64
  3
Solid line
 72
    65
 73
     0
 40
0.0
  0
LTYPE
  2
CENTER
 70
    64
  3
____ _ ____ _ ____
 72
    65
 73
     4
 40
8.0
 49
5.0
 49
-1.0
 49
1.0
 49
-1.0
  0
ENDTAB
  0
TABLE
  2
LAYER
 70
     3
  0
LAYER
  2
0
 70
     0
 62
     7
  6
CONTINUOUS
  0
LAYER
  2
L-ZISSEN
 70
    64
 62
     7
  6
CONTINUOUS
  0
LAYER
  2
L-TYUSIN
 70
    64
 62
     1
  6
CENTER
  0
ENDTAB
  0
TABLE
  2
STYLE
 70
     1
  0
STYLE
  2
STANDARD
 70
    64
 40
0.0
 41
1.0
 50
0.0
 71
     0
 42
0.2
  3
txt
  4

  0
ENDTAB
  0
TABLE
  2
VIEW
 70
     0
  0
ENDTAB
  0
TABLE
  2
UCS
 70
     0
  0
ENDTAB
  0
TABLE
  2
DWGMGR
 70
     0
  0
ENDTAB
  0
ENDSEC
  0
SECTION
  2
BLOCKS
  0
ENDSEC
  0
SECTION
  2
ENTITIES
  0
LINE
  8
L-ZISSEN
 10
65.0
 20
158.5
 30
0.0
 11
249.0
 21
158.5
 31
0.0
  0
LINE
  8
L-ZISSEN
 10
75.0
 20
49.5
 30
0.0
 11
65.0
 21
158.5
 31
0.0
  0
LINE
  8
L-ZISSEN
 10
239.0
 20
49.5
 30
0.0
 11
249.0
 21
158.5
 31
0.0
  0
LINE
  8
L-ZISSEN
 10
75.0
 20
49.5
 30
0.0
 11
239.0
 21
49.5
 31
0.0
  0
LINE
  8
L-ZISSEN
 10
152.0
 20
385.0
 30
0.0
 11
162.0
 21
385.0
 31
0.0
  0
LINE
  8
L-ZISSEN
 10
160.8
 20
385.0
 30
0.0
 11
160.8
 21
381.4
 31
0.0
  0
LINE
  8
L-ZISSEN
 10
153.2
 20
385.0
 30
0.0
 11
153.2
 21
381.4
 31
0.0
  0
LINE
  8
L-ZISSEN
 10
160.8
 20
381.4
 30
0.0
 11
153.2
 21
381.4
 31
0.0
  0
LINE
  8
L-ZISSEN
 10
152.0
 20
389.0
 30
0.0
 11
152.0
 21
385.0
 31
0.0
  0
LINE
  8
L-ZISSEN
 10
162.0
 20
389.0
 30
0.0
 11
162.0
 21
385.0
 31
0.0
  0
LINE
  8
L-ZISSEN
 10
71.2
 20
385.0
 30
0.0
 11
71.2
 21
381.4
 31
0.0
  0
LINE
  8
L-ZISSEN
 10
78.8
 20
385.0
 30
0.0
 11
78.8
 21
381.4
 31
0.0
  0
LINE
  8
L-ZISSEN
 10
71.2
 20
381.4
 30
0.0
 11
78.8
 21
381.4
 31
0.0
  0
LINE
  8
L-ZISSEN
 10
80.0
 20
389.0
 30
0.0
 11
80.0
 21
385.0
 31
0.0
  0
LINE
  8
L-ZISSEN
 10
88.0
 20
385.0
 30
0.0
 11
70.0
 21
385.0
 31
0.0
  0
LINE
  8
L-ZISSEN
 10
70.0
 20
389.0
 30
0.0
 11
70.0
 21
385.0
 31
0.0
  0
LINE
  8
L-ZISSEN
 10
88.0
 20
389.0
 30
0.0
 11
88.0
 21
385.0
 31
0.0
  0
LINE
  8
L-ZISSEN
 10
79.2
 20
381.4
 30
0.0
 11
86.8
 21
381.4
 31
0.0
  0
LINE
  8
L-ZISSEN
 10
86.8
 20
385.0
 30
0.0
 11
86.8
 21
381.4
 31
0.0
  0
LINE
  8
L-ZISSEN
 10
79.2
 20
385.0
 30
0.0
 11
79.2
 21
381.4
 31
0.0
  0
LINE
  8
L-ZISSEN
 10
234.8
 20
385.0
 30
0.0
 11
234.8
 21
381.4
 31
0.0
  0
LINE
  8
L-ZISSEN
 10
227.2
 20
385.0
 30
0.0
 11
227.2
 21
381.4
 31
0.0
  0
LINE
  8
L-ZISSEN
 10
234.8
 20
381.4
 30
0.0
 11
227.2
 21
381.4
 31
0.0
  0
LINE
  8
L-ZISSEN
 10
226.0
 20
389.0
 30
0.0
 11
226.0
 21
385.0
 31
0.0
  0
LINE
  8
L-ZISSEN
 10
244.0
 20
389.0
 30
0.0
 11
244.0
 21
385.0
 31
0.0
  0
LINE
  8
L-ZISSEN
 10
226.0
 20
385.0
 30
0.0
 11
244.0
 21
385.0
 31
0.0
  0
LINE
  8
L-ZISSEN
 10
234.0
 20
389.0
 30
0.0
 11
234.0
 21
385.0
 31
0.0
  0
LINE
  8
L-ZISSEN
 10
242.8
 20
381.4
 30
0.0
 11
235.2
 21
381.4
 31
0.0
  0
LINE
  8
L-ZISSEN
 10
235.2
 20
385.0
 30
0.0
 11
235.2
 21
381.4
 31
0.0
  0
LINE
  8
L-ZISSEN
 10
242.8
 20
385.0
 30
0.0
 11
242.8
 21
381.4
 31
0.0
  0
LINE
  8
L-ZISSEN
 10
65.0
 20
392.0
 30
0.0
 11
65.0
 21
389.0
 31
0.0
  0
LINE
  8
L-ZISSEN
 10
249.0
 20
392.0
 30
0.0
 11
249.0
 21
389.0
 31
0.0
  0
LINE
  8
L-ZISSEN
 10
65.0
 20
389.0
 30
0.0
 11
249.0
 21
389.0
 31
0.0
  0
TEXT
  8
L-ZISSEN
 10
35.140113
 20
487.534375
 30
0.0
 40
4.5
  1
MVS-3504YCL/YCK
  0
TEXT
  8
L-ZISSEN
 10
34.983541
 20
496.139012
 30
0.0
 40
4.5
  1
MVS-3503YCL/YCK
  0
LINE
  8
L-TYUSIN
  6
CENTER
 62
     1
 10
80.05266
 20
71.5
 30
0.0
 11
55.05266
 21
71.5
 31
0.0
  0
LINE
  8
L-TYUSIN
  6
CENTER
 62
     1
 10
233.94734
 20
71.5
 30
0.0
 11
258.94734
 21
71.5
 31
0.0
  0
CIRCLE
  8
L-ZISSEN
 10
70.0
 20
452.0
 30
0.0
 40
4.25
  0
CIRCLE
  8
L-ZISSEN
 10
70.0
 20
408.0
 30
0.0
 40
4.25
  0
CIRCLE
  8
L-ZISSEN
 10
244.0
 20
408.0
 30
0.0
 40
4.25
  0
LINE
  8
L-ZISSEN
  6
CONTINUOUS
 62
     7
 10
374.75
 20
173.376543
 30
0.0
 11
357.0
 21
172.5
 31
0.0
  0
LINE
  8
L-ZISSEN
 10
384.0
 20
171.0
 30
0.0
 11
374.0
 21
171.0
 31
0.0
  0
LINE
  8
L-ZISSEN
 10
383.25
 20
171.0
 30
0.0
 11
383.25
 21
177.5
 31
0.0
  0
LINE
  8
L-ZISSEN
 10
383.25
 20
177.5
 30
0.0
 11
374.75
 21
177.5
 31
0.0
  0
LINE
  8
L-ZISSEN
 10
374.75
 20
171.0
 30
0.0
 11
374.75
 21
177.5
 31
0.0
  0
LINE
  8
L-ZISSEN
 10
384.0
 20
171.0
 30
0.0
 11
384.0
 21
165.5
 31
0.0
  0
LINE
  8
L-ZISSEN
 10
374.0
 20
171.0
 30
0.0
 11
374.0
 21
165.5
 31
0.0
  0
CIRCLE
  8
L-ZISSEN
 10
244.0
 20
452.0
 30
0.0
 40
4.25
  0
LINE
  8
L-ZISSEN
 10
62.0
 20
392.0
 30
0.0
 11
62.0
 21
468.0
 31
0.0
  0
LINE
  8
L-ZISSEN
 10
252.0
 20
392.0
 30
0.0
 11
252.0
 21
468.0
 31
0.0
  0
SOLID
  8
L-ZISSEN
 10
234.962937
 20
201.784338
 30
0.0
 11
235.489591
 21
201.375584
 31
0.0
 12
234.0
 22
200.0
 32
0.0
 13
234.0
 23
200.0
 33
0.0
  0
LINE
  8
L-ZISSEN
 10
235.226264
 20
201.579961
 30
0.0
 11
251.009031
 21
221.915022
 31
0.0
  0
LINE
  8
L-ZISSEN
 10
251.009031
 20
221.915022
 30
0.0
 11
253.009031
 21
221.915022
 31
0.0
  0
LINE
  8
L-ZISSEN
 10
340.0
 20
171.0
 30
0.0
 11
340.0
 21
165.5
 31
0.0
  0
LINE
  8
L-ZISSEN
 10
330.0
 20
171.0
 30
0.0
 11
330.0
 21
165.5
 31
0.0
  0
LINE
  8
L-ZISSEN
 10
339.25
 20
171.0
 30
0.0
 11
339.25
 21
177.5
 31
0.0
  0
LINE
  8
L-ZISSEN
 10
330.75
 20
177.5
 30
0.0
 11
339.25
 21
177.5
 31
0.0
  0
LINE
  8
L-ZISSEN
 10
330.75
 20
171.0
 30
0.0
 11
330.75
 21
177.5
 31
0.0
  0
LINE
  8
L-ZISSEN
 10
330.0
 20
171.0
 30
0.0
 11
340.0
 21
171.0
 31
0.0
  0
LINE
  8
L-TYUSIN
  6
CENTER
 62
     1
 10
344.5
 20
71.5
 30
0.0
 11
369.5
 21
71.5
 31
0.0
  0
LINE
  8
L-ZISSEN
 10
308.4
 20
145.7
 30
0.0
 11
308.4
 21
153.3
 31
0.0
  0
LINE
  8
L-ZISSEN
 10
312.0
 20
153.3
 30
0.0
 11
308.4
 21
153.3
 31
0.0
  0
LINE
  8
L-ZISSEN
 10
312.0
 20
145.7
 30
0.0
 11
308.4
 21
145.7
 31
0.0
  0
LINE
  8
L-ZISSEN
 10
312.0
 20
53.7
 30
0.0
 11
308.4
 21
53.7
 31
0.0
  0
LINE
  8
L-ZISSEN
 10
312.0
 20
61.3
 30
0.0
 11
308.4
 21
61.3
 31
0.0
  0
LINE
  8
L-ZISSEN
 10
308.4
 20
53.7
 30
0.0
 11
308.4
 21
61.3
 31
0.0
  0
LINE
  8
L-ZISSEN
 10
316.0
 20
62.5
 30
0.0
 11
312.0
 21
62.5
 31
0.0
  0
LINE
  8
L-ZISSEN
 10
312.0
 20
62.5
 30
0.0
 11
312.0
 21
52.5
 31
0.0
  0
LINE
  8
L-ZISSEN
 10
316.0
 20
52.5
 30
0.0
 11
312.0
 21
52.5
 31
0.0
  0
LINE
  8
L-ZISSEN
 10
316.0
 20
144.5
 30
0.0
 11
312.0
 21
144.5
 31
0.0
  0
LINE
  8
L-ZISSEN
 10
312.0
 20
154.5
 30
0.0
 11
312.0
 21
144.5
 31
0.0
  0
LINE
  8
L-ZISSEN
 10
316.0
 20
154.5
 30
0.0
 11
312.0
 21
154.5
 31
0.0
  0
LINE
  8
L-ZISSEN
 10
316.0
 20
49.5
 30
0.0
 11
316.0
 21
158.5
 31
0.0
  0
LINE
  8
L-ZISSEN
 10
319.0
 20
49.5
 30
0.0
 11
316.0
 21
49.5
 31
0.0
  0
LINE
  8
L-ZISSEN
 10
316.0
 20
158.5
 30
0.0
 11
319.0
 21
158.5
 31
0.0
  0
CIRCLE
  8
L-ZISSEN
 10
357.0
 20
71.5
 30
0.0
 40
10.5
  0
LINE
  8
L-ZISSEN
 10
319.0
 20
46.5
 30
0.0
 11
395.0
 21
46.5
 31
0.0
  0
LINE
  8
L-ZISSEN
 10
395.0
 20
161.5
 30
0.0
 11
319.0
 21
161.5
 31
0.0
  0
LINE
  8
L-ZISSEN
 10
239.0
 20
171.0
 30
0.0
 11
249.0
 21
171.0
 31
0.0
  0
LINE
  8
L-ZISSEN
 10
239.75
 20
171.0
 30
0.0
 11
239.75
 21
177.5
 31
0.0
  0
LINE
  8
L-ZISSEN
 10
239.75
 20
177.5
 30
0.0
 11
248.25
 21
177.5
 31
0.0
  0
LINE
  8
L-ZISSEN
 10
248.25
 20
171.0
 30
0.0
 11
248.25
 21
177.5
 31
0.0
  0
LINE
  8
L-ZISSEN
 10
239.0
 20
171.0
 30
0.0
 11
239.0
 21
165.5
 31
0.0
  0
LINE
  8
L-ZISSEN
 10
249.0
 20
171.0
 30
0.0
 11
249.0
 21
165.5
 31
0.0
  0
CIRCLE
  8
L-ZISSEN
 10
239.0
 20
149.5
 30
0.0
 40
5.0
  0
CIRCLE
  8
L-ZISSEN
 10
231.0
 20
57.5
 30
0.0
 40
5.0
  0
CIRCLE
  8
L-ZISSEN
 10
157.0
 20
149.5
 30
0.0
 40
5.0
  0
CIRCLE
  8
L-ZISSEN
 10
83.0
 20
57.5
 30
0.0
 40
5.0
  0
CIRCLE
  8
L-ZISSEN
 10
75.0
 20
149.5
 30
0.0
 40
5.0
  0
LINE
  8
L-ZISSEN
 10
252.0
 20
161.5
 30
0.0
 11
242.0
 21
46.5
 31
0.0
  0
LINE
  8
L-ZISSEN
 10
62.0
 20
161.5
 30
0.0
 11
72.0
 21
46.5
 31
0.0
  0
LINE
  8
L-ZISSEN
 10
72.0
 20
46.5
 30
0.0
 11
242.0
 21
46.5
 31
0.0
  0
LINE
  8
L-ZISSEN
 10
65.0
 20
171.0
 30
0.0
 11
65.0
 21
165.5
 31
0.0
  0
LINE
  8
L-ZISSEN
 10
75.0
 20
171.0
 30
0.0
 11
75.0
 21
165.5
 31
0.0
  0
LINE
  8
L-ZISSEN
 10
65.75
 20
171.0
 30
0.0
 11
65.75
 21
177.5
 31
0.0
  0
LINE
  8
L-ZISSEN
 10
74.25
 20
177.5
 30
0.0
 11
65.75
 21
177.5
 31
0.0
  0
LINE
  8
L-ZISSEN
 10
74.25
 20
171.0
 30
0.0
 11
74.25
 21
177.5
 31
0.0
  0
LINE
  8
L-ZISSEN
 10
75.0
 20
171.0
 30
0.0
 11
65.0
 21
171.0
 31
0.0
  0
LINE
  8
L-ZISSEN
 10
70.0
 20
165.5
 30
0.0
 11
75.1
 21
165.5
 31
0.0
  0
LINE
  8
L-ZISSEN
 10
249.5
 20
161.5
 30
0.0
 11
249.5
 21
165.5
 31
0.0
  0
LINE
  8
L-ZISSEN
 10
62.0
 20
161.5
 30
0.0
 11
252.0
 21
161.5
 31
0.0
  0
LINE
  8
L-ZISSEN
 10
64.5
 20
165.5
 30
0.0
 11
64.5
 21
161.5
 31
0.0
  0
LINE
  8
L-ZISSEN
 10
249.5
 20
165.5
 30
0.0
 11
64.5
 21
165.5
 31
0.0
  0
TEXT
  8
L-ZISSEN
 10
35.195243
 20
505.626393
 30
0.0
 40
4.5
  1
MODEL NO.
  0
LINE
  8
L-ZISSEN
  6
CONTINUOUS
 62
     7
 10
213.5
 20
470.5
 30
0.0
 11
213.376543
 21
468.0
 31
0.0
  0
LINE
  8
L-TYUSIN
  6
CENTER
 62
     1
 10
365.0
 20
268.7
 30
0.0
 11
349.0
 21
268.7
 31
0.0
  0
LINE
  8
L-ZISSEN
 10
228.0
 20
278.7
 30
0.0
 11
208.185185
 21
278.7
 31
0.0
  0
TEXT
  8
L-ZISSEN
 10
254.970014
 20
204.216823
 30
0.0
 40
4.5
  1
Rc1/2
  0
TEXT
  8
L-ZISSEN
 10
255.370085
 20
211.545155
 30
0.0
 40
4.5
  1
Rc3/8
  0
TEXT
  8
L-ZISSEN
 10
255.212691
 20
219.554821
 30
0.0
 40
4.5
  1
IN
  0
LINE
  8
L-TYUSIN
  6
CENTER
 62
     1
 10
312.0
 20
216.0
 30
0.0
 11
322.0
 21
216.0
 31
0.0
  0
LINE
  8
L-ZISSEN
 10
139.0
 20
390.0
 30
0.0
 11
139.0
 21
392.0
 31
0.0
  0
LINE
  8
L-ZISSEN
 10
175.0
 20
390.0
 30
0.0
 11
175.0
 21
392.0
 31
0.0
  0
LINE
  8
L-TYUSIN
  6
CENTER
 62
     1
 10
135.0
 20
216.0
 30
0.0
 11
179.0
 21
216.0
 31
0.0
  0
LINE
  8
L-ZISSEN
 10
231.5
 20
217.5
 30
0.0
 11
231.5
 21
216.0
 31
0.0
  0
ARC
  8
L-ZISSEN
  6
CONTINUOUS
 62
     7
 10
221.5
 20
217.5
 30
0.0
 40
10.0
 50
0.0
 51
41.409622
  0
LINE
  8
L-ZISSEN
  6
CONTINUOUS
 62
     7
 10
229.0
 20
248.5
 30
0.0
 11
229.0
 21
224.114378
 31
0.0
  0
LINE
  8
L-ZISSEN
 10
395.0
 20
46.5
 30
0.0
 11
395.0
 21
174.376543
 31
0.0
  0
LINE
  8
L-ZISSEN
 10
395.0
 20
230.5
 30
0.0
 11
395.0
 21
225.623457
 31
0.0
  0
LINE
  8
L-ZISSEN
  6
CONTINUOUS
 62
     7
 10
358.732051
 20
271.7
 30
0.0
 11
355.267949
 21
271.7
 31
0.0
  0
LINE
  8
L-ZISSEN
  6
CONTINUOUS
 62
     7
 10
360.464102
 20
268.7
 30
0.0
 11
358.732051
 21
271.7
 31
0.0
  0
LINE
  8
L-ZISSEN
  6
CONTINUOUS
 62
     7
 10
358.732051
 20
265.7
 30
0.0
 11
360.464102
 21
268.7
 31
0.0
  0
LINE
  8
L-ZISSEN
  6
CONTINUOUS
 62
     7
 10
355.267949
 20
265.7
 30
0.0
 11
358.732051
 21
265.7
 31
0.0
  0
LINE
  8
L-ZISSEN
  6
CONTINUOUS
 62
     7
 10
353.535898
 20
268.7
 30
0.0
 11
355.267949
 21
265.7
 31
0.0
  0
LINE
  8
L-ZISSEN
  6
CONTINUOUS
 62
     7
 10
355.267949
 20
271.7
 30
0.0
 11
353.535898
 21
268.7
 31
0.0
  0
LINE
  8
L-ZISSEN
 10
317.0
 20
234.0
 30
0.0
 11
319.0
 21
234.0
 31
0.0
  0
LINE
  8
L-ZISSEN
  6
CONTINUOUS
 62
     7
 10
395.0
 20
248.5
 30
0.0
 11
395.0
 21
230.5
 31
0.0
  0
LINE
  8
L-ZISSEN
  6
CONTINUOUS
 62
     7
 10
92.5
 20
172.5
 30
0.0
 11
92.5
 21
165.5
 31
0.0
  0
CIRCLE
  8
L-ZISSEN
  6
CONTINUOUS
 62
     7
 10
92.5
 20
217.5
 30
0.0
 40
4.3
  0
CIRCLE
  8
L-ZISSEN
  6
CONTINUOUS
 62
     7
 10
92.5
 20
217.5
 30
0.0
 40
8.0
  0
CIRCLE
  8
L-ZISSEN
  6
CONTINUOUS
 62
     7
 10
92.5
 20
182.5
 30
0.0
 40
4.3
  0
CIRCLE
  8
L-ZISSEN
  6
CONTINUOUS
 62
     7
 10
92.5
 20
182.5
 30
0.0
 40
8.0
  0
LINE
  8
L-ZISSEN
  6
CONTINUOUS
 62
     7
 10
80.0
 20
184.0
 30
0.0
 11
82.5
 21
184.0
 31
0.0
  0
LINE
  8
L-ZISSEN
  6
CONTINUOUS
 62
     7
 10
339.0
 20
190.5
 30
0.0
 11
343.484147
 21
191.43719
 31
0.0
  0
LINE
  8
L-ZISSEN
  6
CONTINUOUS
 62
     7
 10
339.0
 20
209.5
 30
0.0
 11
343.818561
 21
209.06916
 31
0.0
  0
ARC
  8
L-ZISSEN
  6
CONTINUOUS
 62
     7
 10
357.0
 20
268.7
 30
0.0
 40
10.0
 50
0.0
 51
180.0
  0
CIRCLE
  8
L-ZISSEN
  6
CONTINUOUS
 62
     7
 10
357.0
 20
268.7
 30
0.0
 40
6.6
  0
LINE
  8
L-ZISSEN
  6
CONTINUOUS
 62
     7
 10
347.0
 20
268.7
 30
0.0
 11
346.484694
 21
248.5
 31
0.0
  0
LINE
  8
L-ZISSEN
  6
CONTINUOUS
 62
     7
 10
379.5
 20
254.5
 30
0.0
 11
379.5
 21
248.794118
 31
0.0
  0
LINE
  8
L-ZISSEN
  6
CONTINUOUS
 62
     7
 10
392.5
 20
254.5
 30
0.0
 11
392.5
 21
248.5
 31
0.0
  0
LINE
  8
L-ZISSEN
  6
CONTINUOUS
 62
     7
 10
392.5
 20
254.5
 30
0.0
 11
379.5
 21
254.5
 31
0.0
  0
LINE
  8
L-ZISSEN
  6
CONTINUOUS
 62
     7
 10
392.0
 20
262.0
 30
0.0
 11
380.0
 21
262.0
 31
0.0
  0
LINE
  8
L-ZISSEN
  6
CONTINUOUS
 62
     7
 10
392.0
 20
262.0
 30
0.0
 11
392.0
 21
254.498558
 31
0.0
  0
LINE
  8
L-ZISSEN
  6
CONTINUOUS
 62
     7
 10
380.0
 20
262.0
 30
0.0
 11
380.0
 21
254.498558
 31
0.0
  0
LINE
  8
L-ZISSEN
  6
CONTINUOUS
 62
     7
 10
334.5
 20
254.5
 30
0.0
 11
334.5
 21
248.794118
 31
0.0
  0
LINE
  8
L-ZISSEN
  6
CONTINUOUS
 62
     7
 10
334.0
 20
262.0
 30
0.0
 11
334.0
 21
254.498558
 31
0.0
  0
LINE
  8
L-ZISSEN
  6
CONTINUOUS
 62
     7
 10
321.5
 20
254.5
 30
0.0
 11
321.5
 21
248.5
 31
0.0
  0
LINE
  8
L-ZISSEN
  6
CONTINUOUS
 62
     7
 10
322.0
 20
262.0
 30
0.0
 11
322.0
 21
254.498558
 31
0.0
  0
LINE
  8
L-ZISSEN
  6
CONTINUOUS
 62
     7
 10
322.0
 20
262.0
 30
0.0
 11
334.0
 21
262.0
 31
0.0
  0
LINE
  8
L-ZISSEN
  6
CONTINUOUS
 62
     7
 10
321.5
 20
254.5
 30
0.0
 11
334.5
 21
254.5
 31
0.0
  0
LINE
  8
L-ZISSEN
  6
CONTINUOUS
 62
     7
 10
319.0
 20
248.5
 30
0.0
 11
319.0
 21
230.5
 31
0.0
  0
LINE
  8
L-TYUSIN
  6
CENTER
 62
     1
 10
339.0
 20
200.0
 30
0.0
 11
375.0
 21
200.0
 31
0.0
  0
CIRCLE
  8
L-ZISSEN
  6
CONTINUOUS
 62
     7
 10
357.0
 20
200.0
 30
0.0
 40
16.0
  0
LINE
  8
L-ZISSEN
  6
CONTINUOUS
 62
     7
 10
339.0
 20
190.5
 30
0.0
 11
339.0
 21
177.5
 31
0.0
  0
LINE
  8
L-ZISSEN
  6
CONTINUOUS
 62
     7
 10
339.0
 20
209.5
 30
0.0
 11
339.0
 21
225.5
 31
0.0
  0
LINE
  8
L-ZISSEN
  6
CONTINUOUS
 62
     7
 10
397.5
 20
174.5
 30
0.0
 11
397.5
 21
190.5
 31
0.0
  0
LINE
  8
L-ZISSEN
  6
CONTINUOUS
 62
     7
 10
397.5
 20
209.5
 30
0.0
 11
397.5
 21
225.5
 31
0.0
  0
LINE
  8
L-TYUSIN
  6
CENTER
 62
     1
 10
92.5
 20
475.5
 30
0.0
 11
92.5
 21
463.0
 31
0.0
  0
LINE
  8
L-TYUSIN
  6
CENTER
 62
     1
 10
221.5
 20
475.5
 30
0.0
 11
221.5
 21
463.0
 31
0.0
  0
CIRCLE
  8
L-ZISSEN
  6
CONTINUOUS
 62
     7
 10
201.0
 20
452.0
 30
0.0
 40
4.25
  0
CIRCLE
  8
L-ZISSEN
  6
CONTINUOUS
 62
     7
 10
113.0
 20
452.0
 30
0.0
 40
4.25
  0
LINE
  8
L-ZISSEN
  6
CONTINUOUS
 62
     7
 10
100.5
 20
470.5
 30
0.0
 11
100.631019
 21
468.0
 31
0.0
  0
CIRCLE
  8
L-ZISSEN
  6
CONTINUOUS
 62
     7
 10
94.0
 20
459.0
 30
0.0
 40
6.5
  0
CIRCLE
  8
L-ZISSEN
  6
CONTINUOUS
 62
     7
 10
220.0
 20
401.0
 30
0.0
 40
6.5
  0
CIRCLE
  8
L-ZISSEN
  6
CONTINUOUS
 62
     7
 10
220.0
 20
459.0
 30
0.0
 40
6.5
  0
LINE
  8
L-ZISSEN
  6
CONTINUOUS
 62
     7
 10
234.0
 20
446.0
 30
0.0
 11
230.709877
 21
446.0
 31
0.0
  0
LINE
  8
L-ZISSEN
  6
CONTINUOUS
 62
     7
 10
234.0
 20
414.0
 30
0.0
 11
229.714401
 21
414.0
 31
0.0
  0
LINE
  8
L-ZISSEN
  6
CONTINUOUS
 62
     7
 10
234.0
 20
446.0
 30
0.0
 11
234.0
 21
414.0
 31
0.0
  0
LINE
  8
L-ZISSEN
  6
CONTINUOUS
 62
     7
 10
229.0
 20
407.5
 30
0.0
 11
231.5
 21
430.0
 31
0.0
  0
LINE
  8
L-ZISSEN
  6
CONTINUOUS
 62
     7
 10
229.5
 20
470.5
 30
0.0
 11
231.5
 21
430.0
 31
0.0
  0
LINE
  8
L-ZISSEN
  6
CONTINUOUS
 62
     7
 10
229.0
 20
468.0
 30
0.0
 11
229.0
 21
392.0
 31
0.0
  0
LINE
  8
L-ZISSEN
  6
CONTINUOUS
 62
     7
 10
229.5
 20
470.5
 30
0.0
 11
213.5
 21
470.5
 31
0.0
  0
LINE
  8
L-ZISSEN
  6
CONTINUOUS
 62
     7
 10
175.0
 20
390.0
 30
0.0
 11
139.0
 21
390.0
 31
0.0
  0
LINE
  8
L-TYUSIN
  6
CENTER
 62
     1
 10
133.0
 20
415.9375
 30
0.0
 11
133.0
 21
444.0625
 31
0.0
  0
CIRCLE
  8
L-ZISSEN
  6
CONTINUOUS
 62
     7
 10
133.0
 20
430.0
 30
0.0
 40
12.5
  0
LINE
  8
L-ZISSEN
  6
CONTINUOUS
 62
     7
 10
135.856406
 20
466.5
 30
0.0
 11
178.143594
 21
466.5
 31
0.0
  0
LINE
  8
L-ZISSEN
  6
CONTINUOUS
 62
     7
 10
85.0
 20
392.0
 30
0.0
 11
85.0
 21
468.0
 31
0.0
  0
LINE
  8
L-ZISSEN
  6
CONTINUOUS
 62
     7
 10
85.0
 20
407.5
 30
0.0
 11
82.5
 21
430.0
 31
0.0
  0
LINE
  8
L-ZISSEN
  6
CONTINUOUS
 62
     7
 10
80.0
 20
446.0
 30
0.0
 11
83.290123
 21
446.0
 31
0.0
  0
LINE
  8
L-ZISSEN
  6
CONTINUOUS
 62
     7
 10
80.0
 20
446.0
 30
0.0
 11
80.0
 21
414.0
 31
0.0
  0
LINE
  8
L-ZISSEN
  6
CONTINUOUS
 62
     7
 10
84.5
 20
470.5
 30
0.0
 11
82.5
 21
430.0
 31
0.0
  0
LINE
  8
L-ZISSEN
  6
CONTINUOUS
 62
     7
 10
84.5
 20
470.5
 30
0.0
 11
100.5
 21
470.5
 31
0.0
  0
LINE
  8
L-ZISSEN
  6
CONTINUOUS
 62
     7
 10
85.0
 20
256.5
 30
0.0
 11
85.0
 21
224.114378
 31
0.0
  0
LINE
  8
L-ZISSEN
 10
80.0
 20
216.0
 30
0.0
 11
82.5
 21
216.0
 31
0.0
  0
LINE
  8
L-ZISSEN
 10
82.5
 20
217.5
 30
0.0
 11
82.5
 21
216.0
 31
0.0
  0
ARC
  8
L-ZISSEN
  6
CONTINUOUS
 62
     7
 10
92.5
 20
217.5
 30
0.0
 40
10.0
 50
138.590378
 51
180.0
  0
LINE
  8
L-ZISSEN
  6
CONTINUOUS
 62
     7
 10
100.5
 20
254.5
 30
0.0
 11
100.5
 21
250.323529
 31
0.0
  0
LINE
  8
L-ZISSEN
  6
CONTINUOUS
 62
     7
 10
87.5
 20
254.5
 30
0.0
 11
87.5
 21
248.794118
 31
0.0
  0
LINE
  8
L-ZISSEN
  6
CONTINUOUS
 62
     7
 10
88.0
 20
262.0
 30
0.0
 11
88.0
 21
254.498558
 31
0.0
  0
LINE
  8
L-ZISSEN
  6
CONTINUOUS
 62
     7
 10
100.0
 20
262.0
 30
0.0
 11
100.0
 21
254.498558
 31
0.0
  0
LINE
  8
L-ZISSEN
  6
CONTINUOUS
 62
     7
 10
100.5
 20
254.5
 30
0.0
 11
87.5
 21
254.5
 31
0.0
  0
LINE
  8
L-ZISSEN
  6
CONTINUOUS
 62
     7
 10
100.0
 20
262.0
 30
0.0
 11
88.0
 21
262.0
 31
0.0
  0
LINE
  8
L-ZISSEN
  6
CONTINUOUS
 62
     7
 10
221.5
 20
172.5
 30
0.0
 11
221.5
 21
165.5
 31
0.0
  0
CIRCLE
  8
L-ZISSEN
  6
CONTINUOUS
 62
     7
 10
221.5
 20
182.5
 30
0.0
 40
4.3
  0
CIRCLE
  8
L-ZISSEN
  6
CONTINUOUS
 62
     7
 10
221.5
 20
182.5
 30
0.0
 40
8.0
  0
LINE
  8
L-ZISSEN
  6
CONTINUOUS
 62
     7
 10
234.0
 20
184.0
 30
0.0
 11
231.5
 21
184.0
 31
0.0
  0
LINE
  8
L-ZISSEN
 10
234.0
 20
216.0
 30
0.0
 11
231.5
 21
216.0
 31
0.0
  0
CIRCLE
  8
L-ZISSEN
  6
CONTINUOUS
 62
     7
 10
221.5
 20
217.5
 30
0.0
 40
4.3
  0
LINE
  8
L-ZISSEN
  6
CONTINUOUS
 62
     7
 10
80.0
 20
184.0
 30
0.0
 11
80.0
 21
216.0
 31
0.0
  0
LINE
  8
L-ZISSEN
  6
CONTINUOUS
 62
     7
 10
234.0
 20
184.0
 30
0.0
 11
234.0
 21
216.0
 31
0.0
  0
CIRCLE
  8
L-ZISSEN
  6
CONTINUOUS
 62
     7
 10
221.5
 20
217.5
 30
0.0
 40
8.0
  0
LINE
  8
L-ZISSEN
  6
CONTINUOUS
 62
     7
 10
226.5
 20
254.5
 30
0.0
 11
226.5
 21
248.794118
 31
0.0
  0
LINE
  8
L-TYUSIN
  6
CENTER
 62
     1
 10
232.848431
 20
268.7
 30
0.0
 11
222.848431
 21
268.7
 31
0.0
  0
LINE
  8
L-ZISSEN
  6
CONTINUOUS
 62
     7
 10
226.0
 20
262.0
 30
0.0
 11
226.0
 21
254.498558
 31
0.0
  0
LINE
  8
L-ZISSEN
  6
CONTINUOUS
 62
     7
 10
213.5
 20
254.5
 30
0.0
 11
213.5
 21
250.323529
 31
0.0
  0
LINE
  8
L-ZISSEN
  6
CONTINUOUS
 62
     7
 10
213.5
 20
254.5
 30
0.0
 11
226.5
 21
254.5
 31
0.0
  0
LINE
  8
L-ZISSEN
  6
CONTINUOUS
 62
     7
 10
214.0
 20
262.0
 30
0.0
 11
214.0
 21
254.498558
 31
0.0
  0
LINE
  8
L-ZISSEN
  6
CONTINUOUS
 62
     7
 10
214.0
 20
262.0
 30
0.0
 11
226.0
 21
262.0
 31
0.0
  0
LINE
  8
L-ZISSEN
  6
CONTINUOUS
 62
     7
 10
135.856406
 20
393.5
 30
0.0
 11
178.143594
 21
393.5
 31
0.0
  0
LINE
  8
L-ZISSEN
  6
CONTINUOUS
 62
     7
 10
80.0
 20
414.0
 30
0.0
 11
84.285599
 21
414.0
 31
0.0
  0
CIRCLE
  8
L-ZISSEN
  6
CONTINUOUS
 62
     7
 10
94.0
 20
401.0
 30
0.0
 40
6.5
  0
LINE
  8
L-ZISSEN
  6
CONTINUOUS
 62
     7
 10
62.0
 20
392.0
 30
0.0
 11
252.0
 21
392.0
 31
0.0
  0
LINE
  8
L-ZISSEN
  6
CONTINUOUS
 62
     7
 10
208.0
 20
401.5
 30
0.0
 11
178.143594
 21
393.5
 31
0.0
  0
LINE
  8
L-ZISSEN
  6
CONTINUOUS
 62
     7
 10
106.0
 20
401.5
 30
0.0
 11
135.856406
 21
393.5
 31
0.0
  0
LINE
  8
L-ZISSEN
  6
CONTINUOUS
 62
     7
 10
106.0
 20
401.5
 30
0.0
 11
106.0
 21
458.5
 31
0.0
  0
LINE
  8
L-ZISSEN
  6
CONTINUOUS
 62
     7
 10
252.0
 20
468.0
 30
0.0
 11
62.0
 21
468.0
 31
0.0
  0
LINE
  8
L-ZISSEN
  6
CONTINUOUS
 62
     7
 10
208.0
 20
458.5
 30
0.0
 11
178.143594
 21
466.5
 31
0.0
  0
LINE
  8
L-ZISSEN
  6
CONTINUOUS
 62
     7
 10
106.0
 20
458.5
 30
0.0
 11
135.856406
 21
466.5
 31
0.0
  0
LINE
  8
L-TYUSIN
  6
CENTER
 62
     1
 10
257.0
 20
430.0
 30
0.0
 11
57.0
 21
430.0
 31
0.0
  0
LINE
  8
L-TYUSIN
  6
CENTER
 62
     1
 10
157.0
 20
376.4
 30
0.0
 11
157.0
 21
478.0
 31
0.0
  0
LINE
  8
L-TYUSIN
  6
CENTER
 62
     1
 10
181.0
 20
415.9375
 30
0.0
 11
181.0
 21
444.0625
 31
0.0
  0
CIRCLE
  8
L-ZISSEN
  6
CONTINUOUS
 62
     7
 10
181.0
 20
430.0
 30
0.0
 40
12.5
  0
LINE
  8
L-ZISSEN
  6
CONTINUOUS
 62
     7
 10
208.0
 20
420.0
 30
0.0
 11
229.0
 21
420.0
 31
0.0
  0
LINE
  8
L-ZISSEN
  6
CONTINUOUS
 62
     7
 10
229.0
 20
440.0
 30
0.0
 11
208.0
 21
440.0
 31
0.0
  0
LINE
  8
L-ZISSEN
  6
CONTINUOUS
 62
     7
 10
208.0
 20
401.5
 30
0.0
 11
208.0
 21
458.5
 31
0.0
  0
LINE
  8
L-ZISSEN
  6
CONTINUOUS
 62
     7
 10
357.0
 20
172.5
 30
0.0
 11
339.25
 21
174.472222
 31
0.0
  0
LINE
  8
L-TYUSIN
  6
CENTER
 62
     1
 10
337.0
 20
182.5
 30
0.0
 11
399.5
 21
182.5
 31
0.0
  0
LINE
  8
L-ZISSEN
  6
CONTINUOUS
 62
     7
 10
397.5
 20
190.5
 30
0.0
 11
371.033652
 21
192.31517
 31
0.0
  0
LINE
  8
L-ZISSEN
  6
CONTINUOUS
 62
     7
 10
397.5
 20
174.5
 30
0.0
 11
383.25
 21
173.796296
 31
0.0
  0
LINE
  8
L-ZISSEN
  6
CONTINUOUS
 62
     7
 10
319.0
 20
165.5
 30
0.0
 11
395.0
 21
165.5
 31
0.0
  0
LINE
  8
L-ZISSEN
  6
CONTINUOUS
 62
     7
 10
319.0
 20
46.5
 30
0.0
 11
319.0
 21
185.0
 31
0.0
  0
LINE
  8
L-ZISSEN
  6
CONTINUOUS
 62
     7
 10
319.0
 20
173.5
 30
0.0
 11
330.75
 21
173.5
 31
0.0
  0
LINE
  8
L-ZISSEN
  6
CONTINUOUS
 62
     7
 10
319.0
 20
185.0
 30
0.0
 11
332.0
 21
185.0
 31
0.0
  0
LINE
  8
L-ZISSEN
  6
CONTINUOUS
 62
     7
 10
317.0
 20
198.0
 30
0.0
 11
332.0
 21
198.0
 31
0.0
  0
LINE
  8
L-ZISSEN
  6
CONTINUOUS
 62
     7
 10
317.0
 20
234.0
 30
0.0
 11
317.0
 21
198.0
 31
0.0
  0
LINE
  8
L-ZISSEN
  6
CONTINUOUS
 62
     7
 10
339.0
 20
225.5
 30
0.0
 11
357.0
 21
227.5
 31
0.0
  0
LINE
  8
L-ZISSEN
  6
CONTINUOUS
 62
     7
 10
393.936226
 20
190.744418
 30
0.0
 11
393.936226
 21
209.377911
 31
0.0
  0
LINE
  8
L-ZISSEN
  6
CONTINUOUS
 62
     7
 10
397.5
 20
209.5
 30
0.0
 11
370.507933
 21
208.575299
 31
0.0
  0
LINE
  8
L-TYUSIN
  6
CENTER
 62
     1
 10
337.0
 20
217.5
 30
0.0
 11
399.5
 21
217.5
 31
0.0
  0
LINE
  8
L-ZISSEN
  6
CONTINUOUS
 62
     7
 10
397.5
 20
225.5
 30
0.0
 11
357.0
 21
227.5
 31
0.0
  0
LINE
  8
L-ZISSEN
  6
CONTINUOUS
 62
     7
 10
319.0
 20
230.5
 30
0.0
 11
395.0
 21
230.5
 31
0.0
  0
LINE
  8
L-ZISSEN
  6
CONTINUOUS
 62
     7
 10
319.0
 20
240.5
 30
0.0
 11
395.0
 21
240.5
 31
0.0
  0
LINE
  8
L-ZISSEN
  6
CONTINUOUS
 62
     7
 10
319.0
 20
248.5
 30
0.0
 11
395.0
 21
248.5
 31
0.0
  0
LINE
  8
L-ZISSEN
  6
CONTINUOUS
 62
     7
 10
367.0
 20
268.7
 30
0.0
 11
367.515306
 21
248.5
 31
0.0
  0
LINE
  8
L-ZISSEN
  6
CONTINUOUS
 62
     7
 10
394.536962
 20
248.5
 30
0.0
 11
392.08596
 21
342.1
 31
0.0
  0
LINE
  8
L-TYUSIN
  6
CENTER
 62
     1
 10
357.0
 20
36.5
 30
0.0
 11
357.0
 21
352.1
 31
0.0
  0
LINE
  8
L-ZISSEN
  6
CONTINUOUS
 62
     7
 10
320.5
 20
288.1
 30
0.0
 11
393.5
 21
288.1
 31
0.0
  0
LINE
  8
L-ZISSEN
  6
CONTINUOUS
 62
     7
 10
319.463038
 20
248.5
 30
0.0
 11
321.91404
 21
342.1
 31
0.0
  0
LINE
  8
L-ZISSEN
  6
CONTINUOUS
 62
     7
 10
321.91404
 20
342.1
 30
0.0
 11
392.08596
 21
342.1
 31
0.0
  0
LINE
  8
L-ZISSEN
  6
CONTINUOUS
 62
     7
 10
221.5
 20
166.5
 30
0.0
 11
92.5
 21
166.5
 31
0.0
  0
CIRCLE
  8
L-ZISSEN
 10
157.0
 20
216.0
 30
0.0
 40
18.0
  0
LINE
  8
L-TYUSIN
  6
CENTER
 62
     1
 10
75.0
 20
200.0
 30
0.0
 11
239.0
 21
200.0
 31
0.0
  0
LINE
  8
L-ZISSEN
  6
CONTINUOUS
 62
     7
 10
229.0
 20
240.5
 30
0.0
 11
85.0
 21
240.5
 31
0.0
  0
LINE
  8
L-ZISSEN
  6
CONTINUOUS
 62
     7
 10
85.0
 20
248.5
 30
0.0
 11
136.0
 21
254.5
 31
0.0
  0
LINE
  8
L-ZISSEN
  6
CONTINUOUS
 62
     7
 10
229.0
 20
248.5
 30
0.0
 11
178.0
 21
254.5
 31
0.0
  0
LINE
  8
L-ZISSEN
  6
CONTINUOUS
 62
     7
 10
178.0
 20
254.5
 30
0.0
 11
136.0
 21
254.5
 31
0.0
  0
LINE
  8
L-ZISSEN
  6
CONTINUOUS
 62
     7
 10
207.0
 20
342.1
 30
0.0
 11
208.689083
 21
250.88952
 31
0.0
  0
LINE
  8
L-ZISSEN
  6
CONTINUOUS
 62
     7
 10
208.0
 20
288.1
 30
0.0
 11
106.0
 21
288.1
 31
0.0
  0
LINE
  8
L-ZISSEN
  6
CONTINUOUS
 62
     7
 10
107.0
 20
342.1
 30
0.0
 11
105.310917
 21
250.88952
 31
0.0
  0
LINE
  8
L-TYUSIN
  6
CENTER
 62
     1
 10
157.0
 20
36.5
 30
0.0
 11
157.0
 21
352.1
 31
0.0
  0
LINE
  8
L-ZISSEN
  6
CONTINUOUS
 62
     7
 10
207.0
 20
342.1
 30
0.0
 11
107.0
 21
342.1
 31
0.0
  0
LINE
  8
L-ZISSEN
 10
228.0
 20
278.7
 30
0.0
 11
228.0
 21
248.617647
 31
0.0
  0
LINE
  8
L-ZISSEN
 10
85.0
 20
256.5
 30
0.0
 11
88.0
 21
256.5
 31
0.0
  0
LINE
  8
L-ZISSEN
 10
100.0
 20
256.5
 30
0.0
 11
105.414815
 21
256.5
 31
0.0
  0
LINE
  8
L-ZISSEN
 10
332.0
 20
185.0
 30
0.0
 11
332.0
 21
198.0
 31
0.0
  0
CIRCLE
  8
L-ZISSEN
  6
CONTINUOUS
 62
     7
 10
113.0
 20
408.0
 30
0.0
 40
4.25
  0
CIRCLE
  8
L-ZISSEN
  6
CONTINUOUS
 62
     7
 10
201.0
 20
408.0
 30
0.0
 40
4.25
  0
LINE
  8
L-ZISSEN
 10
106.0
 20
438.0
 30
0.0
 11
85.0
 21
438.0
 31
0.0
  0
LINE
  8
L-ZISSEN
 10
106.0
 20
422.0
 30
0.0
 11
85.0
 21
422.0
 31
0.0
  0
LINE
  8
L-TYUSIN
 10
82.5
 20
217.5
 30
0.0
 11
102.5
 21
217.5
 31
0.0
  0
LINE
  8
L-TYUSIN
 10
92.5
 20
227.5
 30
0.0
 11
92.5
 21
207.5
 31
0.0
  0
LINE
  8
L-TYUSIN
 10
82.5
 20
182.5
 30
0.0
 11
102.5
 21
182.5
 31
0.0
  0
LINE
  8
L-TYUSIN
 10
92.5
 20
192.5
 30
0.0
 11
92.5
 21
172.5
 31
0.0
  0
LINE
  8
L-TYUSIN
 10
221.5
 20
192.5
 30
0.0
 11
221.5
 21
172.5
 31
0.0
  0
LINE
  8
L-TYUSIN
 10
211.5
 20
182.5
 30
0.0
 11
231.5
 21
182.5
 31
0.0
  0
LINE
  8
L-TYUSIN
 10
221.5
 20
227.5
 30
0.0
 11
221.5
 21
207.5
 31
0.0
  0
LINE
  8
L-TYUSIN
 10
211.5
 20
217.5
 30
0.0
 11
231.5
 21
217.5
 31
0.0
  0
CIRCLE
  8
L-ZISSEN
 10
157.0
 20
216.0
 30
0.0
 40
12.0585
  0
CIRCLE
  8
L-ZISSEN
 10
357.0
 20
200.0
 30
0.0
 40
7.475
  0
ARC
  8
L-ZISSEN
 10
92.5
 20
182.5
 30
0.0
 40
10.0
 50
180.0
 51
270.0
  0
LINE
  8
L-ZISSEN
 10
82.5
 20
182.5
 30
0.0
 11
82.5
 21
184.0
 31
0.0
  0
CIRCLE
  8
L-ZISSEN
 10
221.5
 20
182.5
 30
0.0
 40
20.0
  0
ARC
  8
L-ZISSEN
 10
221.5
 20
182.5
 30
0.0
 40
10.0
 50
270.0
 51
0.0
  0
LINE
  8
L-ZISSEN
 10
231.5
 20
182.5
 30
0.0
 11
231.5
 21
184.0
 31
0.0
  0
LINE
  8
L-ZISSEN
  6
CONTINUOUS
 62
     7
 10
229.0
 20
231.0
 30
0.0
 11
166.949874
 21
231.0
 31
0.0
  0
LINE
  8
L-ZISSEN
  6
CONTINUOUS
 62
     7
 10
147.050126
 20
231.0
 30
0.0
 11
85.0
 21
231.0
 31
0.0
  0
ENDSEC
  0
EOF
