  0
SECTION
  2
HEADER
  9
$ACADVER
  1
AC1012
  9
$DWGCODEPAGE
  3
dos932
  9
$INSBASE
 10
0.0
 20
0.0
 30
0.0
  9
$EXTMIN
 10
-34.99999999999994
 20
-5.0
 30
0.0
  9
$EXTMAX
 10
1719.999999999999
 20
1000.0
 30
0.0
  9
$LIMMIN
 10
0.0
 20
0.0
  9
$LIMMAX
 10
841.0
 20
594.0
  9
$ORTHOMODE
 70
     1
  9
$REGENMODE
 70
     1
  9
$FILLMODE
 70
     1
  9
$QTEXTMODE
 70
     0
  9
$MIRRTEXT
 70
     1
  9
$DRAGMODE
 70
     2
  9
$LTSCALE
 40
1.0
  9
$OSMODE
 70
    39
  9
$ATTMODE
 70
     1
  9
$TEXTSIZE
 40
4.5
  9
$TRACEWID
 40
0.05
  9
$TEXTSTYLE
  7
STANDARD
  9
$CLAYER
  8
L-TYUSIN
  9
$CELTYPE
  6
BYLAYER
  9
$CECOLOR
 62
   256
  9
$CELTSCALE
 40
1.0
  9
$DELOBJ
 70
     1
  9
$DISPSILH
 70
     0
  9
$DIMSCALE
 40
1.0
  9
$DIMASZ
 40
2.0
  9
$DIMEXO
 40
1.0
  9
$DIMDLI
 40
0.38
  9
$DIMRND
 40
0.0
  9
$DIMDLE
 40
1.0
  9
$DIMEXE
 40
1.0
  9
$DIMTP
 40
0.0
  9
$DIMTM
 40
0.0
  9
$DIMTXT
 40
4.5
  9
$DIMCEN
 40
0.09
  9
$DIMTSZ
 40
0.0
  9
$DIMTOL
 70
     0
  9
$DIMLIM
 70
     0
  9
$DIMTIH
 70
     0
  9
$DIMTOH
 70
     0
  9
$DIMSE1
 70
     0
  9
$DIMSE2
 70
     0
  9
$DIMTAD
 70
     1
  9
$DIMZIN
 70
     0
  9
$DIMBLK
  1

  9
$DIMASO
 70
     0
  9
$DIMSHO
 70
     0
  9
$DIMPOST
  1

  9
$DIMAPOST
  1

  9
$DIMALT
 70
     0
  9
$DIMALTD
 70
     2
  9
$DIMALTF
 40
25.4
  9
$DIMLFAC
 40
1.0
  9
$DIMTOFL
 70
     1
  9
$DIMTVP
 40
0.0
  9
$DIMTIX
 70
     0
  9
$DIMSOXD
 70
     0
  9
$DIMSAH
 70
     0
  9
$DIMBLK1
  1

  9
$DIMBLK2
  1

  9
$DIMSTYLE
  2
STANDARD
  9
$DIMCLRD
 70
     0
  9
$DIMCLRE
 70
     0
  9
$DIMCLRT
 70
     0
  9
$DIMTFAC
 40
1.0
  9
$DIMGAP
 40
0.09
  9
$DIMJUST
 70
     0
  9
$DIMSD1
 70
     0
  9
$DIMSD2
 70
     0
  9
$DIMTOLJ
 70
     1
  9
$DIMTZIN
 70
     0
  9
$DIMALTZ
 70
     0
  9
$DIMALTTZ
 70
     0
  9
$DIMFIT
 70
     5
  9
$DIMUPT
 70
     0
  9
$DIMUNIT
 70
     2
  9
$DIMDEC
 70
     4
  9
$DIMTDEC
 70
     4
  9
$DIMALTU
 70
     2
  9
$DIMALTTD
 70
     2
  9
$DIMTXSTY
  7
STANDARD
  9
$DIMAUNIT
 70
     0
  9
$LUNITS
 70
     2
  9
$LUPREC
 70
     4
  9
$SKETCHINC
 40
0.1
  9
$FILLETRAD
 40
0.0
  9
$AUNITS
 70
     0
  9
$AUPREC
 70
     0
  9
$MENU
  1
acad
  9
$ELEVATION
 40
0.0
  9
$PELEVATION
 40
0.0
  9
$THICKNESS
 40
0.0
  9
$LIMCHECK
 70
     0
  9
$BLIPMODE
 70
     0
  9
$CHAMFERA
 40
0.0
  9
$CHAMFERB
 40
0.0
  9
$CHAMFERC
 40
0.0
  9
$CHAMFERD
 40
0.0
  9
$SKPOLY
 70
     0
  9
$TDCREATE
 40
2449598.489242361
  9
$TDUPDATE
 40
2455533.640064733
  9
$TDINDWG
 40
0.0986423958
  9
$TDUSRTIMER
 40
0.0986423958
  9
$USRTIMER
 70
     1
  9
$ANGBASE
 50
0.0
  9
$ANGDIR
 70
     0
  9
$PDMODE
 70
     0
  9
$PDSIZE
 40
0.0
  9
$PLINEWID
 40
0.0
  9
$COORDS
 70
     0
  9
$SPLFRAME
 70
     0
  9
$SPLINETYPE
 70
     6
  9
$SPLINESEGS
 70
     8
  9
$ATTDIA
 70
     0
  9
$ATTREQ
 70
     1
  9
$HANDLING
 70
-16383
  9
$HANDSEED
  5
60D
  9
$SURFTAB1
 70
     6
  9
$SURFTAB2
 70
     6
  9
$SURFTYPE
 70
     6
  9
$SURFU
 70
     6
  9
$SURFV
 70
     6
  9
$UCSNAME
  2

  9
$UCSORG
 10
0.0
 20
0.0
 30
0.0
  9
$UCSXDIR
 10
1.0
 20
0.0
 30
0.0
  9
$UCSYDIR
 10
0.0
 20
1.0
 30
0.0
  9
$PUCSNAME
  2

  9
$PUCSORG
 10
0.0
 20
0.0
 30
0.0
  9
$PUCSXDIR
 10
1.0
 20
0.0
 30
0.0
  9
$PUCSYDIR
 10
0.0
 20
1.0
 30
0.0
  9
$USERI1
 70
     0
  9
$USERI2
 70
     0
  9
$USERI3
 70
     0
  9
$USERI4
 70
     0
  9
$USERI5
 70
     0
  9
$USERR1
 40
0.0
  9
$USERR2
 40
0.0
  9
$USERR3
 40
0.0
  9
$USERR4
 40
0.0
  9
$USERR5
 40
0.0
  9
$WORLDVIEW
 70
     1
  9
$SHADEDGE
 70
     3
  9
$SHADEDIF
 70
    70
  9
$TILEMODE
 70
     1
  9
$MAXACTVP
 70
    64
  9
$PINSBASE
 10
0.0
 20
0.0
 30
0.0
  9
$PLIMCHECK
 70
     0
  9
$PEXTMIN
 10
1.000000000000000E+20
 20
1.000000000000000E+20
 30
1.000000000000000E+20
  9
$PEXTMAX
 10
-1.000000000000000E+20
 20
-1.000000000000000E+20
 30
-1.000000000000000E+20
  9
$PLIMMIN
 10
0.0
 20
0.0
  9
$PLIMMAX
 10
12.0
 20
9.0
  9
$UNITMODE
 70
     0
  9
$VISRETAIN
 70
     1
  9
$PLINEGEN
 70
     0
  9
$PSLTSCALE
 70
     0
  9
$TREEDEPTH
 70
  3020
  9
$PICKSTYLE
 70
     0
  9
$CMLSTYLE
  2
STANDARD
  9
$CMLJUST
 70
     0
  9
$CMLSCALE
 40
1.0
  9
$SAVEIMAGES
 70
     1
  0
ENDSEC
  0
SECTION
  2
CLASSES
  0
CLASS
  1
ACDBDICTIONARYWDFLT
  2
AcDbDictionaryWithDefault
  3
AutoCAD 2000
 90
    32768
280
     0
281
     0
  0
CLASS
  1
ACDBPLACEHOLDER
  2
AcDbPlaceHolder
  3
AutoCAD 2000
 90
    32768
280
     0
281
     0
  0
CLASS
  1
LAYOUT
  2
AcDbLayout
  3
AutoCAD 2000
 90
    32768
280
     0
281
     0
  0
CLASS
  1
LONG_TRANSACTION
  2
AcDbLongTransaction
  3
AutoCAD 2000
 90
    32768
280
     0
281
     0
  0
CLASS
  1
LWPOLYLINE
  2
AcDbPolyline
  3
AutoCAD 2000
 90
    32768
280
     0
281
     1
  0
CLASS
  1
HATCH
  2
AcDbHatch
  3
AutoCAD 2000
 90
    32768
280
     0
281
     1
  0
CLASS
  1
XRECORD
  2
AcDbXrecord
  3
AutoCAD 2000
 90
    32768
280
     0
281
     0
  0
ENDSEC
  0
SECTION
  2
TABLES
  0
TABLE
  2
VPORT
  5
19
330
0
100
AcDbSymbolTable
 70
     3
  0
VPORT
  5
608
330
19
100
AcDbSymbolTableRecord
100
AcDbViewportTableRecord
  2
*ACTIVE
 70
     0
 10
0.0
 20
0.0
 11
1.0
 21
1.0
 12
842.501421516763
 22
497.5121628713236
 13
0.0
 23
0.0
 14
5.0
 24
5.0
 15
0.0
 25
0.0
 16
0.0
 26
0.0
 36
1.0
 17
0.0
 27
0.0
 37
0.0
 40
1438.177199445269
 41
1.614406779661016
 42
50.0
 43
0.0
 44
0.0
 50
0.0
 51
0.0
 71
     0
 72
   100
 73
     1
 74
     0
 75
     0
 76
     0
 77
     0
 78
     0
  0
ENDTAB
  0
TABLE
  2
LTYPE
  5
14
330
0
100
AcDbSymbolTable
 70
     2
  0
LTYPE
  5
15
330
14
100
AcDbSymbolTableRecord
100
AcDbLinetypeTableRecord
  2
BYBLOCK
 70
     0
  3

 72
    65
 73
     0
 40
0.0
  0
LTYPE
  5
16
330
14
100
AcDbSymbolTableRecord
100
AcDbLinetypeTableRecord
  2
BYLAYER
 70
     0
  3

 72
    65
 73
     0
 40
0.0
  0
LTYPE
  5
8
330
14
100
AcDbSymbolTableRecord
100
AcDbLinetypeTableRecord
  2
CONTINUOUS
 70
     0
  3
Solid line
 72
    65
 73
     0
 40
0.0
  0
LTYPE
  5
24
330
14
100
AcDbSymbolTableRecord
100
AcDbLinetypeTableRecord
  2
CENTER
 70
     0
  3
____ _ ____ _ ____ _ ____ _ 
 72
    65
 73
     4
 40
60.0
 49
45.0
 74
     0
 49
-5.0
 74
     0
 49
5.0
 74
     0
 49
-5.0
 74
     0
  0
ENDTAB
  0
TABLE
  2
LAYER
  5
10
330
0
100
AcDbSymbolTable
 70
     3
  0
LAYER
  5
4
330
10
100
AcDbSymbolTableRecord
100
AcDbLayerTableRecord
  2
0
 70
     0
 62
     7
  6
CONTINUOUS
  0
LAYER
  5
27
330
10
100
AcDbSymbolTableRecord
100
AcDbLayerTableRecord
  2
L-ZISSEN
 70
     0
 62
     7
  6
CONTINUOUS
  0
LAYER
  5
23
330
10
100
AcDbSymbolTableRecord
100
AcDbLayerTableRecord
  2
L-TYUSIN
 70
     0
 62
     1
  6
CENTER
  0
ENDTAB
  0
TABLE
  2
STYLE
  5
11
330
0
100
AcDbSymbolTable
 70
     1
  0
STYLE
  5
12
330
11
100
AcDbSymbolTableRecord
100
AcDbTextStyleTableRecord
  2
STANDARD
 70
     0
 40
0.0
 41
1.0
 50
0.0
 71
     0
 42
4.5
  3
TXT
  4

  0
ENDTAB
  0
TABLE
  2
VIEW
  5
17
330
0
100
AcDbSymbolTable
 70
     0
  0
ENDTAB
  0
TABLE
  2
UCS
  5
18
330
0
100
AcDbSymbolTable
 70
     0
  0
ENDTAB
  0
TABLE
  2
APPID
  5
1B
330
0
100
AcDbSymbolTable
 70
     1
  0
APPID
  5
1C
330
1B
100
AcDbSymbolTableRecord
100
AcDbRegAppTableRecord
  2
ACAD
 70
     0
  0
ENDTAB
  0
TABLE
  2
DIMSTYLE
  5
1D
330
0
100
AcDbSymbolTable
 70
     1
  0
DIMSTYLE
105
1E
330
1D
100
AcDbSymbolTableRecord
100
AcDbDimStyleTableRecord
  2
STANDARD
 70
     0
  3

  4

  5

  6

  7

 40
1.0
 41
0.18
 42
0.0625
 43
0.38
 44
0.18
 45
0.0
 46
0.0
 47
0.0
 48
0.0
140
0.18
141
0.09
142
0.0
143
25.4
144
1.0
145
0.0
146
1.0
147
0.09
 71
     0
 72
     0
 73
     1
 74
     1
 75
     0
 76
     0
 77
     0
 78
     0
170
     0
171
     2
172
     0
173
     0
174
     0
175
     0
176
     0
177
     0
178
     0
270
     2
271
     4
272
     4
273
     2
274
     2
340
12
275
     0
280
     0
281
     0
282
     0
283
     1
284
     0
285
     0
286
     0
287
     3
288
     0
  0
ENDTAB
  0
TABLE
  2
BLOCK_RECORD
  5
1
330
0
100
AcDbSymbolTable
 70
     0
  0
BLOCK_RECORD
  5
2
102
{ACAD_XDICTIONARY
360
609
102
}
330
1
100
AcDbSymbolTableRecord
100
AcDbBlockTableRecord
  2
*MODEL_SPACE
  0
BLOCK_RECORD
  5
C
102
{ACAD_XDICTIONARY
360
60B
102
}
330
1
100
AcDbSymbolTableRecord
100
AcDbBlockTableRecord
  2
*PAPER_SPACE
  0
ENDTAB
  0
ENDSEC
  0
SECTION
  2
BLOCKS
  0
BLOCK
  5
3
330
2
100
AcDbEntity
  8
0
100
AcDbBlockBegin
  2
*MODEL_SPACE
 70
     0
 10
0.0
 20
0.0
 30
0.0
  3
*MODEL_SPACE
  1

  0
ENDBLK
  5
9
330
2
100
AcDbEntity
  8
0
100
AcDbBlockEnd
  0
BLOCK
  5
D
330
C
100
AcDbEntity
 67
     1
  8
0
100
AcDbBlockBegin
  2
*PAPER_SPACE
 70
     0
 10
0.0
 20
0.0
 30
0.0
  3
*PAPER_SPACE
  1

  0
ENDBLK
  5
E
330
C
100
AcDbEntity
 67
     1
  8
0
100
AcDbBlockEnd
  0
ENDSEC
  0
SECTION
  2
ENTITIES
  0
LINE
  5
26
330
2
100
AcDbEntity
  8
L-ZISSEN
  6
CONTINUOUS
 62
     7
100
AcDbLine
 10
386.0
 20
232.4999999999998
 30
0.0
 11
386.0
 21
412.4999999999998
 31
0.0
  0
LINE
  5
28
330
2
100
AcDbEntity
  8
L-ZISSEN
  6
CONTINUOUS
 62
     7
100
AcDbLine
 10
365.0
 20
412.4999999999998
 30
0.0
 11
365.0
 21
232.4999999999998
 31
0.0
  0
LINE
  5
29
330
2
100
AcDbEntity
  8
L-ZISSEN
  6
CONTINUOUS
 62
     7
100
AcDbLine
 10
381.5
 20
232.4999999999998
 30
0.0
 11
381.5
 21
412.4999999999998
 31
0.0
  0
LINE
  5
2A
330
2
100
AcDbEntity
  8
L-ZISSEN
  6
CONTINUOUS
 62
     7
100
AcDbLine
 10
360.0
 20
345.9999999999999
 30
0.0
 11
360.0
 21
207.4999999999998
 31
0.0
  0
LINE
  5
2B
330
2
100
AcDbEntity
  8
L-ZISSEN
100
AcDbLine
 10
166.6274669424135
 20
299.8375236125616
 30
0.0
 11
200.0
 21
275.9999999999998
 31
0.0
  0
LINE
  5
2C
330
2
100
AcDbEntity
  8
L-ZISSEN
100
AcDbLine
 10
96.20000000000011
 20
299.3999999999998
 30
0.0
 11
155.0
 21
220.9999999999999
 31
0.0
  0
LINE
  5
2D
330
2
100
AcDbEntity
  8
L-ZISSEN
  6
CONTINUOUS
 62
     7
100
AcDbLine
 10
140.0
 20
207.4999999999998
 30
0.0
 11
140.0
 21
434.9999999999998
 31
0.0
  0
LINE
  5
2E
330
2
100
AcDbEntity
  8
L-ZISSEN
  6
CONTINUOUS
 62
     7
100
AcDbLine
 10
50.00000000000006
 20
434.9999999999999
 30
0.0
 11
50.00000000000006
 21
207.4999999999998
 31
0.0
  0
LINE
  5
2F
330
2
100
AcDbEntity
  8
L-ZISSEN
  6
CONTINUOUS
 62
     7
100
AcDbLine
 10
270.0
 20
345.9999999999997
 30
0.0
 11
270.0000000000001
 21
207.4999999999998
 31
0.0
  0
LINE
  5
30
330
2
100
AcDbEntity
  8
L-ZISSEN
  6
CONTINUOUS
 62
     7
100
AcDbLine
 10
190.0000000000001
 20
412.4999999999999
 30
0.0
 11
190.0000000000001
 21
232.4999999999998
 31
0.0
  0
LINE
  5
31
330
2
100
AcDbEntity
  8
L-ZISSEN
  6
CONTINUOUS
 62
     7
100
AcDbLine
 10
0.0000000000001705
 20
412.4999999999999
 30
0.0
 11
0.0000000000001705
 21
232.4999999999998
 31
0.0
  0
LINE
  5
32
330
2
100
AcDbEntity
  8
L-ZISSEN
  6
CONTINUOUS
 62
     7
100
AcDbLine
 10
25.00000000000005
 20
260.9999999999998
 30
0.0
 11
25.00000000000005
 21
340.9999999999999
 31
0.0
  0
LINE
  5
33
330
2
100
AcDbEntity
  8
L-ZISSEN
  6
CONTINUOUS
 62
     7
100
AcDbLine
 10
40.00000000000011
 20
255.9999999999998
 30
0.0
 11
40.00000000000006
 21
345.9999999999999
 31
0.0
  0
LINE
  5
34
330
2
100
AcDbEntity
  8
L-ZISSEN
  6
CONTINUOUS
 62
     7
100
AcDbLine
 10
150.0
 20
255.9999999999998
 30
0.0
 11
150.0
 21
345.9999999999999
 31
0.0
  0
LINE
  5
35
330
2
100
AcDbEntity
  8
L-ZISSEN
  6
CONTINUOUS
 62
     7
100
AcDbLine
 10
165.0
 20
260.9999999999998
 30
0.0
 11
165.0
 21
340.9999999999999
 31
0.0
  0
LINE
  5
36
330
2
100
AcDbEntity
  8
L-TYUSIN
  6
CENTER
 62
     1
100
AcDbLine
 10
315.0
 20
501.4999999999998
 30
0.0
 11
315.0
 21
202.4999999999998
 31
0.0
  0
LINE
  5
37
330
2
100
AcDbEntity
  8
L-TYUSIN
  6
CENTER
 62
     1
100
AcDbLine
 10
95.00000000000005
 20
501.4999999999997
 30
0.0
 11
95.00000000000005
 21
202.4999999999999
 31
0.0
  0
CIRCLE
  5
38
330
2
100
AcDbEntity
  8
L-ZISSEN
  6
CONTINUOUS
 62
     7
100
AcDbCircle
 10
315.0
 20
300.9999999999998
 30
0.0
 40
40.0
  0
CIRCLE
  5
39
330
2
100
AcDbEntity
  8
L-ZISSEN
100
AcDbCircle
 10
315.0
 20
300.9999999999998
 30
0.0
 40
22.42249999999999
  0
LINE
  5
3A
330
2
100
AcDbEntity
  8
L-ZISSEN
  6
CONTINUOUS
 62
     7
100
AcDbLine
 10
162.5
 20
273.4999999999998
 30
0.0
 11
150.0
 21
273.4999999999998
 31
0.0
  0
LINE
  5
3B
330
2
100
AcDbEntity
  8
L-ZISSEN
  6
CONTINUOUS
 62
     7
100
AcDbLine
 10
150.0
 20
257.4999999999998
 30
0.0
 11
162.5000000000001
 21
257.4999999999998
 31
0.0
  0
LINE
  5
3C
330
2
100
AcDbEntity
  8
L-TYUSIN
  6
CENTER
 62
     1
100
AcDbLine
 10
184.9999999999999
 20
247.4999999999998
 30
0.0
 11
155.0000000000001
 21
247.4999999999998
 31
0.0
  0
LINE
  5
3D
330
2
100
AcDbEntity
  8
L-ZISSEN
  6
CONTINUOUS
 62
     7
100
AcDbLine
 10
190.0000000000001
 20
232.4999999999998
 30
0.0
 11
140.0
 21
232.4999999999998
 31
0.0
  0
LINE
  5
3E
330
2
100
AcDbEntity
  8
L-ZISSEN
  6
CONTINUOUS
 62
     7
100
AcDbLine
 10
150.0
 20
114.4999999999999
 30
0.0
 11
162.5000000000001
 21
114.4999999999999
 31
0.0
  0
LINE
  5
3F
330
2
100
AcDbEntity
  8
L-ZISSEN
  6
CONTINUOUS
 62
     7
100
AcDbLine
 10
162.5
 20
98.49999999999994
 30
0.0
 11
150.0
 21
98.49999999999994
 31
0.0
  0
LINE
  5
40
330
2
100
AcDbEntity
  8
L-ZISSEN
  6
CONTINUOUS
 62
     7
100
AcDbLine
 10
162.5
 20
43.5
 30
0.0
 11
150.0
 21
43.5
 31
0.0
  0
LINE
  5
41
330
2
100
AcDbEntity
  8
L-ZISSEN
  6
CONTINUOUS
 62
     7
100
AcDbLine
 10
150.0
 20
27.5
 30
0.0
 11
162.5000000000001
 21
27.5
 31
0.0
  0
LINE
  5
42
330
2
100
AcDbEntity
  8
L-ZISSEN
100
AcDbLine
 10
190.0000000000001
 20
0.0000000000001137
 30
0.0
 11
143.4999999999999
 21
0.0000000000001137
 31
0.0
  0
LINE
  5
43
330
2
100
AcDbEntity
  8
L-ZISSEN
100
AcDbLine
 10
190.0000000000001
 20
4.500000000000113
 30
0.0
 11
147.9999999999999
 21
4.500000000000113
 31
0.0
  0
LINE
  5
44
330
2
100
AcDbEntity
  8
L-TYUSIN
  6
CENTER
 62
     1
100
AcDbLine
 10
170.0
 20
70.99999999999994
 30
0.0
 11
20.00000000000011
 21
70.99999999999994
 31
0.0
  0
LINE
  5
45
330
2
100
AcDbEntity
  8
L-ZISSEN
100
AcDbLine
 10
120.5000000000001
 20
106.4999999999999
 30
0.0
 11
120.5000000000001
 21
115.9999999999999
 31
0.0
  0
CIRCLE
  5
46
330
2
100
AcDbEntity
  8
L-ZISSEN
  6
CONTINUOUS
 62
     7
100
AcDbCircle
 10
130.5
 20
106.4999999999999
 30
0.0
 40
8.0
  0
LINE
  5
47
330
2
100
AcDbEntity
  8
L-TYUSIN
  6
CENTER
 62
     1
100
AcDbLine
 10
95.00000000000005
 20
14.0
 30
0.0
 11
95.00000000000005
 21
130.4999999999998
 31
0.0
  0
LINE
  5
48
330
2
100
AcDbEntity
  8
L-ZISSEN
  6
CONTINUOUS
 62
     7
100
AcDbLine
 10
139.9999999999999
 20
20.99999999999988
 30
0.0
 11
140.0
 21
125.4999999999999
 31
0.0
  0
LINE
  5
49
330
2
100
AcDbEntity
  8
L-ZISSEN
  6
CONTINUOUS
 62
     7
100
AcDbLine
 10
150.0
 20
115.9999999999999
 30
0.0
 11
150.0
 21
26.0
 31
0.0
  0
LINE
  5
4A
330
2
100
AcDbEntity
  8
L-ZISSEN
100
AcDbLine
 10
69.50000000000006
 20
106.4999999999999
 30
0.0
 11
69.50000000000006
 21
115.9999999999999
 31
0.0
  0
LINE
  5
4B
330
2
100
AcDbEntity
  8
L-ZISSEN
  6
CONTINUOUS
 62
     7
100
AcDbLine
 10
27.50000000000005
 20
114.4999999999999
 30
0.0
 11
27.50000000000005
 21
98.49999999999994
 31
0.0
  0
CIRCLE
  5
4C
330
2
100
AcDbEntity
  8
L-ZISSEN
  6
CONTINUOUS
 62
     7
100
AcDbCircle
 10
59.50000000000006
 20
106.4999999999999
 30
0.0
 40
8.0
  0
LINE
  5
4D
330
2
100
AcDbEntity
  8
L-ZISSEN
  6
CONTINUOUS
 62
     7
100
AcDbLine
 10
49.99999999999994
 20
20.99999999999988
 30
0.0
 11
50.0
 21
125.4999999999997
 31
0.0
  0
LINE
  5
4E
330
2
100
AcDbEntity
  8
L-ZISSEN
  6
CONTINUOUS
 62
     7
100
AcDbLine
 10
40.00000000000011
 20
115.9999999999999
 30
0.0
 11
40.00000000000006
 21
26.0
 31
0.0
  0
LINE
  5
4F
330
2
100
AcDbEntity
  8
L-ZISSEN
  6
CONTINUOUS
 62
     7
100
AcDbLine
 10
27.50000000000005
 20
110.9999999999999
 30
0.0
 11
25.00000000000005
 21
110.9999999999999
 31
0.0
  0
LINE
  5
50
330
2
100
AcDbEntity
  8
L-ZISSEN
  6
CONTINUOUS
 62
     7
100
AcDbLine
 10
27.50000000000005
 20
31.0
 30
0.0
 11
25.00000000000005
 21
31.0
 31
0.0
  0
LINE
  5
51
330
2
100
AcDbEntity
  8
L-ZISSEN
100
AcDbLine
 10
0.0
 20
4.500000000000113
 30
0.0
 11
42.00000000000017
 21
4.500000000000113
 31
0.0
  0
LINE
  5
52
330
2
100
AcDbEntity
  8
L-ZISSEN
100
AcDbLine
 10
0.0
 20
0.0000000000001137
 30
0.0
 11
46.50000000000017
 21
0.0000000000001137
 31
0.0
  0
LINE
  5
53
330
2
100
AcDbEntity
  8
L-TYUSIN
  6
CENTER
 62
     1
100
AcDbLine
 10
20.0
 20
-5.0
 30
0.0
 11
20.0
 21
9.499999999999886
 31
0.0
  0
LINE
  5
54
330
2
100
AcDbEntity
  8
L-ZISSEN
100
AcDbLine
 10
0.0
 20
4.500000000000113
 30
0.0
 11
0.0
 21
0.0
 31
0.0
  0
LINE
  5
55
330
2
100
AcDbEntity
  8
L-ZISSEN
  6
CONTINUOUS
 62
     7
100
AcDbLine
 10
25.00000000000005
 20
110.9999999999999
 30
0.0
 11
25.00000000000005
 21
30.99999999999988
 31
0.0
  0
LINE
  5
56
330
2
100
AcDbEntity
  8
L-ZISSEN
100
AcDbLine
 10
147.9999999999999
 20
21.0
 30
0.0
 11
147.9999999999999
 21
4.500000000000113
 31
0.0
  0
LINE
  5
57
330
2
100
AcDbEntity
  8
L-ZISSEN
100
AcDbLine
 10
42.00000000000017
 20
21.0
 30
0.0
 11
42.00000000000017
 21
4.500000000000113
 31
0.0
  0
LINE
  5
58
330
2
100
AcDbEntity
  8
L-ZISSEN
100
AcDbLine
 10
143.4999999999998
 20
16.49999999999977
 30
0.0
 11
46.50000000000022
 21
16.49999999999988
 31
0.0
  0
LINE
  5
59
330
2
100
AcDbEntity
  8
L-ZISSEN
  6
CONTINUOUS
 62
     7
100
AcDbLine
 10
67.50000000000011
 20
3.999999999999772
 30
0.0
 11
51.50000000000011
 21
3.999999999999886
 31
0.0
  0
LINE
  5
5A
330
2
100
AcDbEntity
  8
L-ZISSEN
100
AcDbLine
 10
46.50000000000022
 20
16.49999999999988
 30
0.0
 11
46.50000000000017
 21
0.0000000000001137
 31
0.0
  0
LINE
  5
5B
330
2
100
AcDbEntity
  8
L-ZISSEN
  6
CONTINUOUS
 62
     7
100
AcDbLine
 10
51.50000000000011
 20
3.999999999999886
 30
0.0
 11
51.50000000000011
 21
16.5
 31
0.0
  0
LINE
  5
5C
330
2
100
AcDbEntity
  8
L-ZISSEN
  6
CONTINUOUS
 62
     7
100
AcDbLine
 10
67.50000000000011
 20
16.5
 30
0.0
 11
67.50000000000011
 21
3.999999999999772
 31
0.0
  0
LINE
  5
5D
330
2
100
AcDbEntity
  8
L-ZISSEN
  6
CONTINUOUS
 62
     7
100
AcDbLine
 10
138.5
 20
3.999999999999772
 30
0.0
 11
122.5
 21
3.999999999999886
 31
0.0
  0
LINE
  5
5E
330
2
100
AcDbEntity
  8
L-ZISSEN
  6
CONTINUOUS
 62
     7
100
AcDbLine
 10
122.5
 20
3.999999999999886
 30
0.0
 11
122.5
 21
16.5
 31
0.0
  0
LINE
  5
5F
330
2
100
AcDbEntity
  8
L-ZISSEN
  6
CONTINUOUS
 62
     7
100
AcDbLine
 10
138.5
 20
16.5
 30
0.0
 11
138.5
 21
3.999999999999772
 31
0.0
  0
LINE
  5
60
330
2
100
AcDbEntity
  8
L-ZISSEN
100
AcDbLine
 10
143.4999999999998
 20
16.49999999999988
 30
0.0
 11
143.4999999999999
 21
0.0000000000001137
 31
0.0
  0
CIRCLE
  5
61
330
2
100
AcDbEntity
  8
L-ZISSEN
100
AcDbCircle
 10
95.00000000000008
 20
70.99999999999994
 30
0.0
 40
22.42249999999999
  0
LINE
  5
62
330
2
100
AcDbEntity
  8
L-ZISSEN
100
AcDbLine
 10
148.0000000000001
 20
20.99999999999988
 30
0.0
 11
42.00000000000005
 21
20.99999999999988
 31
0.0
  0
LINE
  5
63
330
2
100
AcDbEntity
  8
L-ZISSEN
  6
CONTINUOUS
 62
     7
100
AcDbLine
 10
150.0
 20
25.99999999999988
 30
0.0
 11
40.00000000000006
 21
26.0
 31
0.0
  0
LINE
  5
64
330
2
100
AcDbEntity
  8
L-ZISSEN
100
AcDbLine
 10
59.50000000000006
 20
45.49999999999999
 30
0.0
 11
49.99999999999997
 21
45.49999999999999
 31
0.0
  0
CIRCLE
  5
65
330
2
100
AcDbEntity
  8
L-ZISSEN
  6
CONTINUOUS
 62
     7
100
AcDbCircle
 10
59.50000000000006
 20
35.5
 30
0.0
 40
8.0
  0
LINE
  5
66
330
2
100
AcDbEntity
  8
L-ZISSEN
  6
CONTINUOUS
 62
     7
100
AcDbLine
 10
27.50000000000005
 20
27.5
 30
0.0
 11
27.50000000000005
 21
43.5
 31
0.0
  0
LINE
  5
67
330
2
100
AcDbEntity
  8
L-ZISSEN
  6
CONTINUOUS
 62
     7
100
AcDbLine
 10
40.00000000000011
 20
27.5
 30
0.0
 11
27.50000000000005
 21
27.5
 31
0.0
  0
LINE
  5
68
330
2
100
AcDbEntity
  8
L-ZISSEN
  6
CONTINUOUS
 62
     7
100
AcDbLine
 10
27.50000000000005
 20
43.5
 30
0.0
 11
40.00000000000011
 21
43.5
 31
0.0
  0
ARC
  5
69
330
2
100
AcDbEntity
  8
L-ZISSEN
100
AcDbCircle
 10
59.50000000000006
 20
35.49999999999994
 30
0.0
 40
10.0
100
AcDbArc
 50
0.0
 51
90.00000000000003
  0
LINE
  5
6A
330
2
100
AcDbEntity
  8
L-ZISSEN
100
AcDbLine
 10
69.50000000000006
 20
35.49999999999994
 30
0.0
 11
69.50000000000006
 21
25.99999999999994
 31
0.0
  0
LINE
  5
6B
330
2
100
AcDbEntity
  8
L-ZISSEN
100
AcDbLine
 10
59.50000000000006
 20
96.49999999999989
 30
0.0
 11
49.99999999999997
 21
96.49999999999989
 31
0.0
  0
LINE
  5
6C
330
2
100
AcDbEntity
  8
L-ZISSEN
  6
CONTINUOUS
 62
     7
100
AcDbLine
 10
27.50000000000005
 20
98.49999999999994
 30
0.0
 11
40.00000000000011
 21
98.49999999999994
 31
0.0
  0
ARC
  5
6D
330
2
100
AcDbEntity
  8
L-ZISSEN
100
AcDbCircle
 10
59.50000000000006
 20
106.4999999999999
 30
0.0
 40
10.0
100
AcDbArc
 50
270.0
 51
0.0
  0
ARC
  5
6E
330
2
100
AcDbEntity
  8
L-ZISSEN
100
AcDbCircle
 10
130.5000000000001
 20
35.49999999999994
 30
0.0
 40
10.0
100
AcDbArc
 50
89.99999999999998
 51
180.0
  0
CIRCLE
  5
6F
330
2
100
AcDbEntity
  8
L-ZISSEN
  6
CONTINUOUS
 62
     7
100
AcDbCircle
 10
130.5
 20
35.5
 30
0.0
 40
8.0
  0
LINE
  5
70
330
2
100
AcDbEntity
  8
L-ZISSEN
100
AcDbLine
 10
120.5000000000001
 20
35.49999999999994
 30
0.0
 11
120.5000000000001
 21
25.99999999999994
 31
0.0
  0
LINE
  5
71
330
2
100
AcDbEntity
  8
L-ZISSEN
100
AcDbLine
 10
130.5000000000001
 20
45.49999999999999
 30
0.0
 11
140.0000000000001
 21
45.49999999999999
 31
0.0
  0
ARC
  5
72
330
2
100
AcDbEntity
  8
L-ZISSEN
100
AcDbCircle
 10
130.5000000000001
 20
106.4999999999999
 30
0.0
 40
10.0
100
AcDbArc
 50
180.0
 51
270.0
  0
LINE
  5
73
330
2
100
AcDbEntity
  8
L-ZISSEN
100
AcDbLine
 10
130.5000000000001
 20
96.49999999999989
 30
0.0
 11
140.0000000000001
 21
96.49999999999989
 31
0.0
  0
LINE
  5
74
330
2
100
AcDbEntity
  8
L-ZISSEN
  6
CONTINUOUS
 62
     7
100
AcDbLine
 10
27.50000000000005
 20
260.9999999999998
 30
0.0
 11
25.00000000000005
 21
260.9999999999998
 31
0.0
  0
ARC
  5
75
330
2
100
AcDbEntity
  8
L-ZISSEN
  6
CONTINUOUS
 62
     7
100
AcDbCircle
 10
25.00000000000008
 20
247.4999999999999
 30
0.0
 40
5.599999999999999
100
AcDbArc
 50
270.0000000000002
 51
89.99999999999884
  0
LINE
  5
76
330
2
100
AcDbEntity
  8
L-TYUSIN
  6
CENTER
 62
     1
100
AcDbLine
 10
5.000000000000227
 20
247.4999999999998
 30
0.0
 11
35.00000000000005
 21
247.4999999999998
 31
0.0
  0
LINE
  5
77
330
2
100
AcDbEntity
  8
L-ZISSEN
  6
CONTINUOUS
 62
     7
100
AcDbLine
 10
50.00000000000006
 20
232.4999999999998
 30
0.0
 11
0.0000000000001705
 21
232.4999999999998
 31
0.0
  0
ARC
  5
78
330
2
100
AcDbEntity
  8
L-ZISSEN
  6
CONTINUOUS
 62
     7
100
AcDbCircle
 10
15.00000000000019
 20
247.4999999999999
 30
0.0
 40
5.599999999999999
100
AcDbArc
 50
90.00000000000031
 51
269.9999999999997
  0
LINE
  5
79
330
2
100
AcDbEntity
  8
L-TYUSIN
  6
CENTER
 62
     1
100
AcDbLine
 10
20.00000000000017
 20
257.4999999999997
 30
0.0
 11
20.00000000000017
 21
237.5
 31
0.0
  0
LINE
  5
7A
330
2
100
AcDbEntity
  8
L-ZISSEN
  6
CONTINUOUS
 62
     7
100
AcDbLine
 10
25.00000000000017
 20
241.8999999999999
 30
0.0
 11
15.00000000000017
 21
241.8999999999999
 31
0.0
  0
LINE
  5
7B
330
2
100
AcDbEntity
  8
L-ZISSEN
  6
CONTINUOUS
 62
     7
100
AcDbLine
 10
25.00000000000017
 20
253.0999999999999
 30
0.0
 11
15.00000000000017
 21
253.0999999999999
 31
0.0
  0
LINE
  5
7C
330
2
100
AcDbEntity
  8
L-ZISSEN
  6
CONTINUOUS
 62
     7
100
AcDbLine
 10
50.0
 20
120.9999999999997
 30
0.0
 11
140.0
 21
120.9999999999999
 31
0.0
  0
LINE
  5
7D
330
2
100
AcDbEntity
  8
L-ZISSEN
  6
CONTINUOUS
 62
     7
100
AcDbLine
 10
150.0
 20
115.9999999999999
 30
0.0
 11
40.00000000000006
 21
115.9999999999999
 31
0.0
  0
LINE
  5
7E
330
2
100
AcDbEntity
  8
L-ZISSEN
  6
CONTINUOUS
 62
     7
100
AcDbLine
 10
50.0
 20
125.4999999999997
 30
0.0
 11
140.0
 21
125.4999999999999
 31
0.0
  0
LINE
  5
7F
330
2
100
AcDbEntity
  8
L-ZISSEN
  6
CONTINUOUS
 62
     7
100
AcDbLine
 10
51.5
 20
137.9999999999999
 30
0.0
 11
67.5
 21
137.9999999999999
 31
0.0
  0
LINE
  5
80
330
2
100
AcDbEntity
  8
L-ZISSEN
  6
CONTINUOUS
 62
     7
100
AcDbLine
 10
51.5
 20
125.4999999999998
 30
0.0
 11
51.5
 21
137.9999999999999
 31
0.0
  0
LINE
  5
81
330
2
100
AcDbEntity
  8
L-ZISSEN
  6
CONTINUOUS
 62
     7
100
AcDbLine
 10
40.00000000000011
 20
114.4999999999999
 30
0.0
 11
27.50000000000005
 21
114.4999999999999
 31
0.0
  0
LINE
  5
82
330
2
100
AcDbEntity
  8
L-ZISSEN
  6
CONTINUOUS
 62
     7
100
AcDbLine
 10
67.5
 20
137.9999999999999
 30
0.0
 11
67.5
 21
125.4999999999998
 31
0.0
  0
LINE
  5
83
330
2
100
AcDbEntity
  8
L-ZISSEN
  6
CONTINUOUS
 62
     7
100
AcDbLine
 10
138.5
 20
138.0
 30
0.0
 11
122.5
 21
137.9999999999999
 31
0.0
  0
LINE
  5
84
330
2
100
AcDbEntity
  8
L-ZISSEN
  6
CONTINUOUS
 62
     7
100
AcDbLine
 10
122.5
 20
137.9999999999999
 30
0.0
 11
122.5
 21
125.4999999999998
 31
0.0
  0
LINE
  5
85
330
2
100
AcDbEntity
  8
L-ZISSEN
  6
CONTINUOUS
 62
     7
100
AcDbLine
 10
138.5
 20
125.4999999999999
 30
0.0
 11
138.5
 21
138.0
 31
0.0
  0
LINE
  5
86
330
2
100
AcDbEntity
  8
L-ZISSEN
  6
CONTINUOUS
 62
     7
100
AcDbLine
 10
50.00000000000011
 20
229.9999999999998
 30
0.0
 11
140.0
 21
229.9999999999998
 31
0.0
  0
LINE
  5
87
330
2
100
AcDbEntity
  8
L-ZISSEN
  6
CONTINUOUS
 62
     7
100
AcDbLine
 10
50.00000000000011
 20
207.4999999999998
 30
0.0
 11
140.0
 21
207.4999999999998
 31
0.0
  0
LINE
  5
88
330
2
100
AcDbEntity
  8
L-ZISSEN
  6
CONTINUOUS
 62
     7
100
AcDbLine
 10
42.00000000000017
 20
255.9999999999998
 30
0.0
 11
42.00000000000017
 21
232.4999999999998
 31
0.0
  0
LINE
  5
89
330
2
100
AcDbEntity
  8
L-ZISSEN
  6
CONTINUOUS
 62
     7
100
AcDbLine
 10
50.00000000000011
 20
219.9999999999998
 30
0.0
 11
69.49999999999994
 21
219.9999999999998
 31
0.0
  0
LINE
  5
8A
330
2
100
AcDbEntity
  8
L-ZISSEN
  6
CONTINUOUS
 62
     7
100
AcDbLine
 10
51.50000000000005
 20
207.4999999999998
 30
0.0
 11
51.50000000000005
 21
219.9999999999998
 31
0.0
  0
LINE
  5
8B
330
2
100
AcDbEntity
  8
L-ZISSEN
  6
CONTINUOUS
 62
     7
100
AcDbLine
 10
67.50000000000006
 20
219.9999999999998
 30
0.0
 11
67.50000000000006
 21
207.4999999999998
 31
0.0
  0
LINE
  5
8C
330
2
100
AcDbEntity
  8
L-ZISSEN
100
AcDbLine
 10
69.49999999999994
 20
219.9999999999998
 30
0.0
 11
69.49999999999994
 21
207.4999999999998
 31
0.0
  0
LINE
  5
8D
330
2
100
AcDbEntity
  8
L-ZISSEN
  6
CONTINUOUS
 62
     7
100
AcDbLine
 10
50.00000000000006
 20
255.9999999999998
 30
0.0
 11
40.00000000000006
 21
255.9999999999998
 31
0.0
  0
LINE
  5
8E
330
2
100
AcDbEntity
  8
L-ZISSEN
  6
CONTINUOUS
 62
     7
100
AcDbLine
 10
27.50000000000005
 20
257.4999999999998
 30
0.0
 11
27.50000000000005
 21
273.4999999999998
 31
0.0
  0
LINE
  5
8F
330
2
100
AcDbEntity
  8
L-ZISSEN
  6
CONTINUOUS
 62
     7
100
AcDbLine
 10
40.00000000000011
 20
257.4999999999998
 30
0.0
 11
27.50000000000005
 21
257.4999999999998
 31
0.0
  0
LINE
  5
90
330
2
100
AcDbEntity
  8
L-ZISSEN
  6
CONTINUOUS
 62
     7
100
AcDbLine
 10
27.50000000000005
 20
273.4999999999998
 30
0.0
 11
40.00000000000011
 21
273.4999999999998
 31
0.0
  0
LINE
  5
91
330
2
100
AcDbEntity
  8
L-ZISSEN
  6
CONTINUOUS
 62
     7
100
AcDbLine
 10
148.0000000000001
 20
255.9999999999998
 30
0.0
 11
148.0000000000001
 21
232.4999999999998
 31
0.0
  0
LINE
  5
92
330
2
100
AcDbEntity
  8
L-ZISSEN
  6
CONTINUOUS
 62
     7
100
AcDbLine
 10
120.5000000000001
 20
219.9999999999998
 30
0.0
 11
140.0
 21
219.9999999999998
 31
0.0
  0
LINE
  5
93
330
2
100
AcDbEntity
  8
L-ZISSEN
  6
CONTINUOUS
 62
     7
100
AcDbLine
 10
122.5
 20
219.9999999999998
 30
0.0
 11
122.5
 21
207.4999999999998
 31
0.0
  0
LINE
  5
94
330
2
100
AcDbEntity
  8
L-ZISSEN
100
AcDbLine
 10
120.5000000000001
 20
219.9999999999998
 30
0.0
 11
120.5000000000001
 21
207.4999999999998
 31
0.0
  0
LINE
  5
95
330
2
100
AcDbEntity
  8
L-ZISSEN
  6
CONTINUOUS
 62
     7
100
AcDbLine
 10
138.5
 20
207.4999999999998
 30
0.0
 11
138.5
 21
219.9999999999998
 31
0.0
  0
LINE
  5
96
330
2
100
AcDbEntity
  8
L-ZISSEN
100
AcDbLine
 10
155.0
 20
220.9999999999999
 30
0.0
 11
157.0
 21
220.9999999999999
 31
0.0
  0
LINE
  5
97
330
2
100
AcDbEntity
  8
L-ZISSEN
  6
CONTINUOUS
 62
     7
100
AcDbLine
 10
140.0
 20
255.9999999999998
 30
0.0
 11
150.0
 21
255.9999999999998
 31
0.0
  0
LINE
  5
98
330
2
100
AcDbEntity
  8
L-ZISSEN
  6
CONTINUOUS
 62
     7
100
AcDbLine
 10
162.5000000000001
 20
114.4999999999999
 30
0.0
 11
162.5
 21
98.49999999999994
 31
0.0
  0
LINE
  5
99
330
2
100
AcDbEntity
  8
L-TYUSIN
  6
CENTER
 62
     1
100
AcDbLine
 10
170.0
 20
-5.0
 30
0.0
 11
170.0
 21
9.499999999999886
 31
0.0
  0
LINE
  5
9A
330
2
100
AcDbEntity
  8
L-ZISSEN
100
AcDbLine
 10
190.0000000000001
 20
4.500000000000113
 30
0.0
 11
190.0000000000001
 21
0.0
 31
0.0
  0
LINE
  5
9B
330
2
100
AcDbEntity
  8
L-ZISSEN
  6
CONTINUOUS
 62
     7
100
AcDbLine
 10
165.0
 20
110.9999999999999
 30
0.0
 11
165.0
 21
30.99999999999988
 31
0.0
  0
LINE
  5
9C
330
2
100
AcDbEntity
  8
L-ZISSEN
  6
CONTINUOUS
 62
     7
100
AcDbLine
 10
162.5000000000001
 20
27.5
 30
0.0
 11
162.5
 21
43.5
 31
0.0
  0
LINE
  5
9D
330
2
100
AcDbEntity
  8
L-ZISSEN
  6
CONTINUOUS
 62
     7
100
AcDbLine
 10
162.5
 20
31.0
 30
0.0
 11
165.0
 21
31.0
 31
0.0
  0
LINE
  5
9E
330
2
100
AcDbEntity
  8
L-ZISSEN
  6
CONTINUOUS
 62
     7
100
AcDbLine
 10
162.5
 20
110.9999999999999
 30
0.0
 11
165.0
 21
110.9999999999999
 31
0.0
  0
LINE
  5
9F
330
2
100
AcDbEntity
  8
L-ZISSEN
  6
CONTINUOUS
 62
     7
100
AcDbLine
 10
270.0
 20
219.9999999999998
 30
0.0
 11
289.4999999999999
 21
219.9999999999998
 31
0.0
  0
LINE
  5
A0
330
2
100
AcDbEntity
  8
L-ZISSEN
  6
CONTINUOUS
 62
     7
100
AcDbLine
 10
270.0
 20
255.9999999999998
 30
0.0
 11
360.0
 21
255.9999999999998
 31
0.0
  0
LINE
  5
A1
330
2
100
AcDbEntity
  8
L-ZISSEN
  6
CONTINUOUS
 62
     7
100
AcDbLine
 10
270.0
 20
207.4999999999998
 30
0.0
 11
359.9999999999999
 21
207.4999999999998
 31
0.0
  0
LINE
  5
A2
330
2
100
AcDbEntity
  8
L-ZISSEN
  6
CONTINUOUS
 62
     7
100
AcDbLine
 10
270.0
 20
229.9999999999998
 30
0.0
 11
359.9999999999999
 21
229.9999999999998
 31
0.0
  0
TEXT
  5
A3
330
2
100
AcDbEntity
  8
L-ZISSEN
100
AcDbText
 10
205.0
 20
265.9999999999998
 30
0.0
 40
4.5
  1
Rc 1-1/4
100
AcDbText
  0
TEXT
  5
A4
330
2
100
AcDbEntity
  8
L-ZISSEN
100
AcDbText
 10
205.0
 20
257.9862641244971
 30
0.0
 40
4.5
  1
Rc 1-1/2
100
AcDbText
  0
TEXT
  5
A5
330
2
100
AcDbEntity
  8
L-ZISSEN
100
AcDbText
 10
205.0
 20
249.9725282489943
 30
0.0
 40
4.5
  1
Rc 2
100
AcDbText
  0
ARC
  5
A6
330
2
100
AcDbEntity
  8
L-ZISSEN
  6
CONTINUOUS
 62
     7
100
AcDbCircle
 10
175.0
 20
247.4999999999999
 30
0.0
 40
5.599999999999999
100
AcDbArc
 50
270.0000000000002
 51
89.99999999999969
  0
ARC
  5
A7
330
2
100
AcDbEntity
  8
L-ZISSEN
  6
CONTINUOUS
 62
     7
100
AcDbCircle
 10
165.0000000000001
 20
247.4999999999999
 30
0.0
 40
5.599999999999999
100
AcDbArc
 50
90.0
 51
269.9999999999997
  0
LINE
  5
A8
330
2
100
AcDbEntity
  8
L-TYUSIN
  6
CENTER
 62
     1
100
AcDbLine
 10
170.0
 20
257.4999999999997
 30
0.0
 11
170.0
 21
237.5
 31
0.0
  0
TEXT
  5
A9
330
2
100
AcDbEntity
  8
L-ZISSEN
100
AcDbText
 10
159.0
 20
218.7499999999999
 30
0.0
 40
4.5
  1
P.P
100
AcDbText
  0
LINE
  5
AA
330
2
100
AcDbEntity
  8
L-ZISSEN
  6
CONTINUOUS
 62
     7
100
AcDbLine
 10
165.0000000000001
 20
241.8999999999999
 30
0.0
 11
175.0
 21
241.8999999999999
 31
0.0
  0
LINE
  5
AB
330
2
100
AcDbEntity
  8
L-ZISSEN
  6
CONTINUOUS
 62
     7
100
AcDbLine
 10
165.0000000000001
 20
253.0999999999999
 30
0.0
 11
175.0
 21
253.0999999999999
 31
0.0
  0
LINE
  5
AC
330
2
100
AcDbEntity
  8
L-ZISSEN
  6
CONTINUOUS
 62
     7
100
AcDbLine
 10
162.5000000000001
 20
257.4999999999998
 30
0.0
 11
162.5
 21
273.4999999999998
 31
0.0
  0
LINE
  5
AD
330
2
100
AcDbEntity
  8
L-ZISSEN
  6
CONTINUOUS
 62
     7
100
AcDbLine
 10
162.5
 20
260.9999999999998
 30
0.0
 11
165.0
 21
260.9999999999998
 31
0.0
  0
TEXT
  5
AE
330
2
100
AcDbEntity
  8
L-ZISSEN
100
AcDbText
 10
204.0
 20
273.7499999999998
 30
0.0
 40
4.5
  1
IN
100
AcDbText
  0
LINE
  5
AF
330
2
100
AcDbEntity
  8
L-ZISSEN
100
AcDbLine
 10
200.0
 20
275.9999999999998
 30
0.0
 11
202.0
 21
275.9999999999998
 31
0.0
  0
LINE
  5
B0
330
2
100
AcDbEntity
  8
L-ZISSEN
  6
CONTINUOUS
 62
     7
100
AcDbLine
 10
271.4999999999999
 20
207.4999999999998
 30
0.0
 11
271.4999999999999
 21
219.9999999999998
 31
0.0
  0
LINE
  5
B1
330
2
100
AcDbEntity
  8
L-ZISSEN
  6
CONTINUOUS
 62
     7
100
AcDbLine
 10
287.4999999999999
 20
219.9999999999998
 30
0.0
 11
287.4999999999999
 21
207.4999999999997
 31
0.0
  0
CIRCLE
  5
B2
330
2
100
AcDbEntity
  8
L-ZISSEN
  6
CONTINUOUS
 62
     7
100
AcDbCircle
 10
279.5
 20
265.4999999999998
 30
0.0
 40
8.0
  0
CIRCLE
  5
B3
330
2
100
AcDbEntity
  8
L-ZISSEN
  6
CONTINUOUS
 62
     7
100
AcDbCircle
 10
350.5
 20
265.4999999999998
 30
0.0
 40
8.0
  0
LINE
  5
B4
330
2
100
AcDbEntity
  8
L-ZISSEN
  6
CONTINUOUS
 62
     7
100
AcDbLine
 10
340.5000000000001
 20
219.9999999999998
 30
0.0
 11
359.9999999999999
 21
219.9999999999998
 31
0.0
  0
LINE
  5
B5
330
2
100
AcDbEntity
  8
L-ZISSEN
100
AcDbLine
 10
289.4999999999999
 20
219.9999999999998
 30
0.0
 11
289.4999999999999
 21
207.4999999999998
 31
0.0
  0
LINE
  5
B6
330
2
100
AcDbEntity
  8
L-ZISSEN
100
AcDbLine
 10
340.5000000000001
 20
219.9999999999998
 30
0.0
 11
340.5000000000001
 21
207.4999999999998
 31
0.0
  0
LINE
  5
B7
330
2
100
AcDbEntity
  8
L-ZISSEN
  6
CONTINUOUS
 62
     7
100
AcDbLine
 10
342.4999999999999
 20
219.9999999999998
 30
0.0
 11
342.4999999999999
 21
207.4999999999997
 31
0.0
  0
LINE
  5
B8
330
2
100
AcDbEntity
  8
L-TYUSIN
  6
CENTER
 62
     1
100
AcDbLine
 10
391.0
 20
247.4999999999998
 30
0.0
 11
376.5
 21
247.4999999999998
 31
0.0
  0
LINE
  5
B9
330
2
100
AcDbEntity
  8
L-ZISSEN
  6
CONTINUOUS
 62
     7
100
AcDbLine
 10
358.4999999999999
 20
207.4999999999998
 30
0.0
 11
358.4999999999999
 21
219.9999999999998
 31
0.0
  0
LINE
  5
BA
330
2
100
AcDbEntity
  8
L-ZISSEN
  6
CONTINUOUS
 62
     7
100
AcDbLine
 10
365.0
 20
232.4999999999998
 30
0.0
 11
386.0
 21
232.4999999999998
 31
0.0
  0
LINE
  5
BB
330
2
100
AcDbEntity
  8
L-ZISSEN
  6
CONTINUOUS
 62
     7
100
AcDbLine
 10
162.5000000000001
 20
669.4999999999999
 30
0.0
 11
162.5
 21
653.4999999999999
 31
0.0
  0
LINE
  5
BC
330
2
100
AcDbEntity
  8
L-ZISSEN
  6
CONTINUOUS
 62
     7
100
AcDbLine
 10
139.9999999999999
 20
676.0
 30
0.0
 11
139.9999999999999
 21
651.7590466698827
 31
0.0
  0
LINE
  5
BD
330
2
100
AcDbEntity
  8
L-ZISSEN
  6
CONTINUOUS
 62
     7
100
AcDbLine
 10
150.0
 20
651.4098389450755
 30
0.0
 11
150.0
 21
670.9999999999999
 31
0.0
  0
CIRCLE
  5
BE
330
2
100
AcDbEntity
  8
L-ZISSEN
  6
CONTINUOUS
 62
     7
100
AcDbCircle
 10
130.5
 20
661.4999999999999
 30
0.0
 40
8.0
  0
LINE
  5
BF
330
2
100
AcDbEntity
  8
L-TYUSIN
  6
CENTER
 62
     1
100
AcDbLine
 10
95.00000000000005
 20
682.9999999999999
 30
0.0
 11
95.00000000000005
 21
566.5
 31
0.0
  0
CIRCLE
  5
C0
330
2
100
AcDbEntity
  8
L-ZISSEN
  6
CONTINUOUS
 62
     7
100
AcDbCircle
 10
59.50000000000006
 20
661.4999999999999
 30
0.0
 40
8.0
  0
LINE
  5
C1
330
2
100
AcDbEntity
  8
L-ZISSEN
  6
CONTINUOUS
 62
     7
100
AcDbLine
 10
27.50000000000005
 20
669.4999999999999
 30
0.0
 11
27.50000000000005
 21
653.4999999999999
 31
0.0
  0
LINE
  5
C2
330
2
100
AcDbEntity
  8
L-ZISSEN
  6
CONTINUOUS
 62
     7
100
AcDbLine
 10
40.00000000000011
 20
580.9999999999998
 30
0.0
 11
40.00000000000006
 21
670.9999999999999
 31
0.0
  0
LINE
  5
C3
330
2
100
AcDbEntity
  8
L-ZISSEN
  6
CONTINUOUS
 62
     7
100
AcDbLine
 10
49.99999999999994
 20
676.0
 30
0.0
 11
50.0
 21
571.5000000000001
 31
0.0
  0
LINE
  5
C4
330
2
100
AcDbEntity
  8
L-ZISSEN
  6
CONTINUOUS
 62
     7
100
AcDbLine
 10
162.5
 20
653.4999999999999
 30
0.0
 11
150.0
 21
653.4999999999999
 31
0.0
  0
LINE
  5
C5
330
2
100
AcDbEntity
  8
L-ZISSEN
  6
CONTINUOUS
 62
     7
100
AcDbLine
 10
133.1000000000001
 20
651.9999999999998
 30
0.0
 11
179.1000000000003
 21
650.3936444658863
 31
0.0
  0
LINE
  5
C6
330
2
100
AcDbEntity
  8
L-ZISSEN
  6
CONTINUOUS
 62
     7
100
AcDbLine
 10
162.5
 20
598.4999999999999
 30
0.0
 11
150.0
 21
598.4999999999999
 31
0.0
  0
LINE
  5
C7
330
2
100
AcDbEntity
  8
L-ZISSEN
  6
CONTINUOUS
 62
     7
100
AcDbLine
 10
150.0
 20
582.4999999999999
 30
0.0
 11
162.5000000000001
 21
582.4999999999999
 31
0.0
  0
LINE
  5
C8
330
2
100
AcDbEntity
  8
L-ZISSEN
  6
CONTINUOUS
 62
     7
100
AcDbLine
 10
133.1
 20
599.9999999999999
 30
0.0
 11
179.1000000000003
 21
601.606355534114
 31
0.0
  0
LINE
  5
C9
330
2
100
AcDbEntity
  8
L-ZISSEN
  6
CONTINUOUS
 62
     7
100
AcDbLine
 10
138.5
 20
435.1885721713956
 30
0.0
 11
179.1000000000003
 21
436.6063555341137
 31
0.0
  0
LINE
  5
CA
330
2
100
AcDbEntity
  8
L-ZISSEN
  6
CONTINUOUS
 62
     7
100
AcDbLine
 10
133.1
 20
486.9999999999996
 30
0.0
 11
179.1000000000003
 21
485.3936444658859
 31
0.0
  0
LINE
  5
CB
330
2
100
AcDbEntity
  8
L-ZISSEN
  6
CONTINUOUS
 62
     7
100
AcDbLine
 10
140.0
 20
412.4999999999998
 30
0.0
 11
190.0000000000001
 21
412.4999999999999
 31
0.0
  0
LINE
  5
CC
330
2
100
AcDbEntity
  8
L-TYUSIN
  6
CENTER
 62
     1
100
AcDbLine
 10
184.9999999999999
 20
387.4999999999999
 30
0.0
 11
155.0000000000001
 21
387.4999999999999
 31
0.0
  0
LINE
  5
CD
330
2
100
AcDbEntity
  8
L-ZISSEN
  6
CONTINUOUS
 62
     7
100
AcDbLine
 10
150.0
 20
344.4999999999998
 30
0.0
 11
162.5000000000001
 21
344.4999999999998
 31
0.0
  0
LINE
  5
CE
330
2
100
AcDbEntity
  8
L-TYUSIN
  6
CENTER
 62
     1
100
AcDbLine
 10
185.1000000000004
 20
625.9999999999998
 30
0.0
 11
20.00000000000011
 21
625.9999999999998
 31
0.0
  0
LINE
  5
CF
330
2
100
AcDbEntity
  8
L-ZISSEN
  6
CONTINUOUS
 62
     7
100
AcDbLine
 10
162.5
 20
328.4999999999998
 30
0.0
 11
150.0
 21
328.4999999999998
 31
0.0
  0
LINE
  5
D0
330
2
100
AcDbEntity
  8
L-TYUSIN
  6
CENTER
 62
     1
100
AcDbLine
 10
170.0
 20
300.9999999999998
 30
0.0
 11
20.00000000000011
 21
300.9999999999998
 31
0.0
  0
CIRCLE
  5
D1
330
2
100
AcDbEntity
  8
L-ZISSEN
100
AcDbCircle
 10
95.00000000000005
 20
481.9999999999998
 30
0.0
 40
9.3
  0
ARC
  5
D2
330
2
100
AcDbEntity
  8
L-ZISSEN
100
AcDbCircle
 10
95.00000000000005
 20
481.9999999999998
 30
0.0
 40
13.0
100
AcDbArc
 50
125.2344180000008
 51
54.76558199999915
  0
LINE
  5
D3
330
2
100
AcDbEntity
  8
L-ZISSEN
100
AcDbLine
 10
123.1
 20
486.9999999999998
 30
0.0
 11
123.1
 21
437.4999999999999
 31
0.0
  0
LINE
  5
D4
330
2
100
AcDbEntity
  8
L-ZISSEN
  6
CONTINUOUS
 62
     7
100
AcDbLine
 10
61.60000000000042
 20
485.4999999999998
 30
0.0
 11
61.60000000000042
 21
476.4999999999998
 31
0.0
  0
LINE
  5
D5
330
2
100
AcDbEntity
  8
L-ZISSEN
100
AcDbLine
 10
64.90000000000003
 20
486.9999999999998
 30
0.0
 11
64.90000000000003
 21
437.4999999999999
 31
0.0
  0
LINE
  5
D6
330
2
100
AcDbEntity
  8
L-ZISSEN
100
AcDbLine
 10
66.90000000000003
 20
486.9999999999998
 30
0.0
 11
66.90000000000003
 21
437.4999999999999
 31
0.0
  0
ARC
  5
D7
330
2
100
AcDbEntity
  8
L-ZISSEN
  6
CONTINUOUS
 62
     7
100
AcDbCircle
 10
25.00000000000008
 20
387.4999999999999
 30
0.0
 40
5.599999999999999
100
AcDbArc
 50
270.0000000000002
 51
89.99999999999973
  0
LINE
  5
D8
330
2
100
AcDbEntity
  8
L-ZISSEN
  6
CONTINUOUS
 62
     7
100
AcDbLine
 10
27.50000000000005
 20
340.9999999999998
 30
0.0
 11
25.00000000000005
 21
340.9999999999998
 31
0.0
  0
LINE
  5
D9
330
2
100
AcDbEntity
  8
L-ZISSEN
  6
CONTINUOUS
 62
     7
100
AcDbLine
 10
0.0000000000001705
 20
412.4999999999999
 30
0.0
 11
50.00000000000006
 21
412.4999999999999
 31
0.0
  0
LINE
  5
DA
330
2
100
AcDbEntity
  8
L-TYUSIN
  6
CENTER
 62
     1
100
AcDbLine
 10
5.000000000000227
 20
387.4999999999999
 30
0.0
 11
35.00000000000005
 21
387.4999999999999
 31
0.0
  0
ARC
  5
DB
330
2
100
AcDbEntity
  8
L-ZISSEN
  6
CONTINUOUS
 62
     7
100
AcDbCircle
 10
15.00000000000019
 20
387.4999999999999
 30
0.0
 40
5.599999999999999
100
AcDbArc
 50
90.00000000000031
 51
269.9999999999997
  0
LINE
  5
DC
330
2
100
AcDbEntity
  8
L-TYUSIN
  6
CENTER
 62
     1
100
AcDbLine
 10
20.00000000000017
 20
397.4999999999997
 30
0.0
 11
20.00000000000017
 21
377.4999999999999
 31
0.0
  0
LINE
  5
DD
330
2
100
AcDbEntity
  8
L-ZISSEN
  6
CONTINUOUS
 62
     7
100
AcDbLine
 10
25.00000000000005
 20
381.8999999999999
 30
0.0
 11
15.00000000000017
 21
381.8999999999999
 31
0.0
  0
LINE
  5
DE
330
2
100
AcDbEntity
  8
L-ZISSEN
  6
CONTINUOUS
 62
     7
100
AcDbLine
 10
25.00000000000005
 20
393.0999999999999
 30
0.0
 11
15.00000000000017
 21
393.0999999999999
 31
0.0
  0
LINE
  5
DF
330
2
100
AcDbEntity
  8
L-ZISSEN
  6
CONTINUOUS
 62
     7
100
AcDbLine
 10
148.0000000000001
 20
412.4999999999999
 30
0.0
 11
148.0000000000001
 21
345.9999999999999
 31
0.0
  0
CIRCLE
  5
E0
330
2
100
AcDbEntity
  8
L-ZISSEN
  6
CONTINUOUS
 62
     7
100
AcDbCircle
 10
130.5
 20
392.4999999999998
 30
0.0
 40
8.0
  0
CIRCLE
  5
E1
330
2
100
AcDbEntity
  8
L-ZISSEN
  6
CONTINUOUS
 62
     7
100
AcDbCircle
 10
59.50000000000009
 20
392.4999999999998
 30
0.0
 40
8.0
  0
LINE
  5
E2
330
2
100
AcDbEntity
  8
L-ZISSEN
  6
CONTINUOUS
 62
     7
100
AcDbLine
 10
42.00000000000017
 20
412.4999999999999
 30
0.0
 11
42.00000000000017
 21
345.9999999999999
 31
0.0
  0
LINE
  5
E3
330
2
100
AcDbEntity
  8
L-ZISSEN
  6
CONTINUOUS
 62
     7
100
AcDbLine
 10
50.00000000000006
 20
311.9999999999998
 30
0.0
 11
140.0
 21
311.9999999999998
 31
0.0
  0
LINE
  5
E4
330
2
100
AcDbEntity
  8
L-ZISSEN
  6
CONTINUOUS
 62
     7
100
AcDbLine
 10
27.50000000000005
 20
344.4999999999998
 30
0.0
 11
27.50000000000005
 21
328.4999999999998
 31
0.0
  0
CIRCLE
  5
E5
330
2
100
AcDbEntity
  8
L-ZISSEN
  6
CONTINUOUS
 62
     7
100
AcDbCircle
 10
59.50000000000009
 20
321.4999999999998
 30
0.0
 40
8.0
  0
LINE
  5
E6
330
2
100
AcDbEntity
  8
L-ZISSEN
  6
CONTINUOUS
 62
     7
100
AcDbLine
 10
27.50000000000005
 20
328.4999999999998
 30
0.0
 11
40.00000000000011
 21
328.4999999999998
 31
0.0
  0
LINE
  5
E7
330
2
100
AcDbEntity
  8
L-ZISSEN
  6
CONTINUOUS
 62
     7
100
AcDbLine
 10
50.00000000000006
 20
345.9999999999999
 30
0.0
 11
40.00000000000006
 21
345.9999999999999
 31
0.0
  0
LINE
  5
E8
330
2
100
AcDbEntity
  8
L-ZISSEN
  6
CONTINUOUS
 62
     7
100
AcDbLine
 10
40.00000000000011
 20
344.4999999999998
 30
0.0
 11
27.50000000000005
 21
344.4999999999998
 31
0.0
  0
CIRCLE
  5
E9
330
2
100
AcDbEntity
  8
L-ZISSEN
  6
CONTINUOUS
 62
     7
100
AcDbCircle
 10
130.5
 20
321.4999999999998
 30
0.0
 40
8.0
  0
SOLID
  5
EA
330
2
100
AcDbEntity
  8
L-ZISSEN
100
AcDbTrace
 10
95.93333333333346
 20
299.1999999999998
 30
0.0
 11
96.46666666666678
 21
299.5999999999999
 31
0.0
 12
95.00000000000012
 22
300.9999999999998
 32
0.0
 13
95.00000000000012
 23
300.9999999999998
 33
0.0
  0
LINE
  5
EB
330
2
100
AcDbEntity
  8
L-ZISSEN
  6
CONTINUOUS
 62
     7
100
AcDbLine
 10
140.0
 20
345.9999999999999
 30
0.0
 11
150.0
 21
345.9999999999999
 31
0.0
  0
LINE
  5
EC
330
2
100
AcDbEntity
  8
L-ZISSEN
  6
CONTINUOUS
 62
     7
100
AcDbLine
 10
140.0
 20
414.9999999999998
 30
0.0
 11
50.00000000000006
 21
414.9999999999998
 31
0.0
  0
LINE
  5
ED
330
2
100
AcDbEntity
  8
L-ZISSEN
  6
CONTINUOUS
 62
     7
100
AcDbLine
 10
140.0
 20
401.9999999999998
 30
0.0
 11
50.00000000000006
 21
401.9999999999998
 31
0.0
  0
LINE
  5
EE
330
2
100
AcDbEntity
  8
L-ZISSEN
  6
CONTINUOUS
 62
     7
100
AcDbLine
 10
67.50000000000011
 20
434.9999999999998
 30
0.0
 11
122.5
 21
434.9999999999997
 31
0.0
  0
LINE
  5
EF
330
2
100
AcDbEntity
  8
L-ZISSEN
  6
CONTINUOUS
 62
     7
100
AcDbLine
 10
140.0
 20
424.9999999999999
 30
0.0
 11
50.00000000000006
 21
424.9999999999999
 31
0.0
  0
LINE
  5
F0
330
2
100
AcDbEntity
  8
L-ZISSEN
100
AcDbLine
 10
93.45346441900728
 20
436.2681591764139
 30
0.0
 11
45.00000000000006
 21
476.0
 31
0.0
  0
LINE
  5
F1
330
2
100
AcDbEntity
  8
L-ZISSEN
  6
CONTINUOUS
 62
     7
100
AcDbLine
 10
67.50000000000006
 20
424.9999999999998
 30
0.0
 11
67.50000000000006
 21
437.4999999999999
 31
0.0
  0
LINE
  5
F2
330
2
100
AcDbEntity
  8
L-ZISSEN
  6
CONTINUOUS
 62
     7
100
AcDbLine
 10
51.50000000000005
 20
437.4999999999999
 30
0.0
 11
51.50000000000005
 21
424.9999999999998
 31
0.0
  0
LINE
  5
F3
330
2
100
AcDbEntity
  8
L-ZISSEN
100
AcDbLine
 10
51.50000000000005
 20
434.9999999999999
 30
0.0
 11
50.00000000000006
 21
434.9999999999998
 31
0.0
  0
LINE
  5
F4
330
2
100
AcDbEntity
  8
L-ZISSEN
100
AcDbLine
 10
72.69012900282183
 20
434.9999999999998
 30
0.0
 11
67.50000000000006
 21
434.9999999999999
 31
0.0
  0
LINE
  5
F5
330
2
100
AcDbEntity
  8
L-ZISSEN
  6
CONTINUOUS
 62
     7
100
AcDbLine
 10
67.50000000000006
 20
437.4999999999999
 30
0.0
 11
51.50000000000005
 21
437.4999999999999
 31
0.0
  0
TEXT
  5
F6
330
2
100
AcDbEntity
  8
L-ZISSEN
100
AcDbText
 10
32.00000000000005
 20
473.75
 30
0.0
 40
4.5
  1
P.P
100
AcDbText
  0
LINE
  5
F7
330
2
100
AcDbEntity
  8
L-ZISSEN
100
AcDbLine
 10
45.00000000000006
 20
476.0
 30
0.0
 11
43.00000000000006
 21
476.0
 31
0.0
  0
LINE
  5
F8
330
2
100
AcDbEntity
  8
L-ZISSEN
  6
CONTINUOUS
 62
     7
100
AcDbLine
 10
61.60000000000042
 20
445.4999999999998
 30
0.0
 11
61.60000000000042
 21
437.4999999999999
 31
0.0
  0
LINE
  5
F9
330
2
100
AcDbEntity
  8
L-ZISSEN
  6
CONTINUOUS
 62
     7
100
AcDbLine
 10
64.90000000000015
 20
445.4999999999997
 30
0.0
 11
61.60000000000042
 21
445.4999999999997
 31
0.0
  0
LINE
  5
FA
330
2
100
AcDbEntity
  8
L-ZISSEN
  6
CONTINUOUS
 62
     7
100
AcDbLine
 10
64.90000000000015
 20
476.4999999999998
 30
0.0
 11
61.60000000000042
 21
476.4999999999998
 31
0.0
  0
SOLID
  5
FB
330
2
100
AcDbEntity
  8
L-ZISSEN
100
AcDbTrace
 10
93.66482428174291
 20
436.5259151065793
 30
0.0
 11
93.24210455627156
 21
436.0104032462484
 31
0.0
 12
95.00000000000003
 22
434.9999999999998
 32
0.0
 13
95.00000000000003
 23
434.9999999999998
 33
0.0
  0
LINE
  5
FC
330
2
100
AcDbEntity
  8
L-ZISSEN
  6
CONTINUOUS
 62
     7
100
AcDbLine
 10
122.5
 20
437.4999999999999
 30
0.0
 11
122.5
 21
424.9999999999998
 31
0.0
  0
LINE
  5
FD
330
2
100
AcDbEntity
  8
L-ZISSEN
  6
CONTINUOUS
 62
     7
100
AcDbLine
 10
138.5
 20
424.9999999999998
 30
0.0
 11
138.5
 21
437.4999999999999
 31
0.0
  0
LINE
  5
FE
330
2
100
AcDbEntity
  8
L-TYUSIN
  6
CENTER
 62
     1
100
AcDbLine
 10
145.0
 20
425.9999999999998
 30
0.0
 11
135.0
 21
425.9999999999998
 31
0.0
  0
LINE
  5
FF
330
2
100
AcDbEntity
  8
L-ZISSEN
  6
CONTINUOUS
 62
     7
100
AcDbLine
 10
138.5
 20
434.9999999999997
 30
0.0
 11
140.0
 21
434.9999999999997
 31
0.0
  0
LINE
  5
100
330
2
100
AcDbEntity
  8
L-ZISSEN
  6
CONTINUOUS
 62
     7
100
AcDbLine
 10
138.5
 20
437.4999999999999
 30
0.0
 11
122.5
 21
437.4999999999999
 31
0.0
  0
LINE
  5
101
330
2
100
AcDbEntity
  8
L-ZISSEN
  6
CONTINUOUS
 62
     7
100
AcDbLine
 10
27.50000000000005
 20
665.9999999999999
 30
0.0
 11
25.00000000000005
 21
665.9999999999999
 31
0.0
  0
LINE
  5
102
330
2
100
AcDbEntity
  8
L-ZISSEN
  6
CONTINUOUS
 62
     7
100
AcDbLine
 10
27.50000000000005
 20
585.9999999999998
 30
0.0
 11
25.00000000000005
 21
585.9999999999998
 31
0.0
  0
LINE
  5
103
330
2
100
AcDbEntity
  8
L-ZISSEN
  6
CONTINUOUS
 62
     7
100
AcDbLine
 10
25.00000000000005
 20
585.9999999999998
 30
0.0
 11
25.00000000000005
 21
666.0
 31
0.0
  0
LINE
  5
104
330
2
100
AcDbEntity
  8
L-ZISSEN
  6
CONTINUOUS
 62
     7
100
AcDbLine
 10
140.0
 20
600.240953330117
 30
0.0
 11
140.0
 21
571.4999999999998
 31
0.0
  0
LINE
  5
105
330
2
100
AcDbEntity
  8
L-ZISSEN
100
AcDbLine
 10
95.51532530112075
 20
624.0675301207974
 30
0.0
 11
115.0
 21
550.9999999999998
 31
0.0
  0
LINE
  5
106
330
2
100
AcDbEntity
  8
L-ZISSEN
  6
CONTINUOUS
 62
     7
100
AcDbLine
 10
50.0
 20
571.5000000000001
 30
0.0
 11
140.0
 21
571.4999999999998
 31
0.0
  0
LINE
  5
107
330
2
100
AcDbEntity
  8
L-ZISSEN
100
AcDbLine
 10
121.0
 20
494.9999999999998
 30
0.0
 11
69.00000000000005
 21
494.9999999999998
 31
0.0
  0
LINE
  5
108
330
2
100
AcDbEntity
  8
L-ZISSEN
100
AcDbLine
 10
69.00000000000005
 20
496.4999999999998
 30
0.0
 11
121.0
 21
496.4999999999998
 31
0.0
  0
LINE
  5
109
330
2
100
AcDbEntity
  8
L-ZISSEN
  6
CONTINUOUS
 62
     7
100
AcDbLine
 10
76.49999999999983
 20
500.0999999999997
 30
0.0
 11
69.49999999999983
 21
500.0999999999996
 31
0.0
  0
LINE
  5
10A
330
2
100
AcDbEntity
  8
L-ZISSEN
100
AcDbLine
 10
69.00000000000005
 20
496.4999999999998
 30
0.0
 11
69.00000000000005
 21
486.9999999999998
 31
0.0
  0
LINE
  5
10B
330
2
100
AcDbEntity
  8
L-ZISSEN
100
AcDbLine
 10
64.90000000000003
 20
486.9999999999998
 30
0.0
 11
69.00000000000005
 21
486.9999999999998
 31
0.0
  0
LINE
  5
10C
330
2
100
AcDbEntity
  8
L-ZISSEN
  6
CONTINUOUS
 62
     7
100
AcDbLine
 10
64.90000000000015
 20
485.4999999999996
 30
0.0
 11
61.60000000000042
 21
485.4999999999996
 31
0.0
  0
LINE
  5
10D
330
2
100
AcDbEntity
  8
L-ZISSEN
  6
CONTINUOUS
 62
     7
100
AcDbLine
 10
69.49999999999983
 20
496.4999999999998
 30
0.0
 11
69.49999999999983
 21
500.0999999999997
 31
0.0
  0
LINE
  5
10E
330
2
100
AcDbEntity
  8
L-ZISSEN
100
AcDbLine
 10
87.50000000000005
 20
494.9999999999998
 30
0.0
 11
87.50000000000005
 21
492.618381
 31
0.0
  0
LINE
  5
10F
330
2
100
AcDbEntity
  8
L-ZISSEN
  6
CONTINUOUS
 62
     7
100
AcDbLine
 10
76.49999999999983
 20
496.4999999999998
 30
0.0
 11
76.49999999999983
 21
500.0999999999997
 31
0.0
  0
LINE
  5
110
330
2
100
AcDbEntity
  8
L-ZISSEN
  6
CONTINUOUS
 62
     7
100
AcDbLine
 10
51.5
 20
558.9999999999998
 30
0.0
 11
67.5
 21
558.9999999999998
 31
0.0
  0
LINE
  5
111
330
2
100
AcDbEntity
  8
L-ZISSEN
  6
CONTINUOUS
 62
     7
100
AcDbLine
 10
51.5
 20
571.4999999999999
 30
0.0
 11
51.5
 21
558.9999999999998
 31
0.0
  0
LINE
  5
112
330
2
100
AcDbEntity
  8
L-ZISSEN
  6
CONTINUOUS
 62
     7
100
AcDbLine
 10
67.5
 20
558.9999999999998
 30
0.0
 11
67.5
 21
571.4999999999999
 31
0.0
  0
LINE
  5
113
330
2
100
AcDbEntity
  8
L-ZISSEN
100
AcDbLine
 10
121.0
 20
486.9999999999998
 30
0.0
 11
133.1
 21
486.9999999999998
 31
0.0
  0
LINE
  5
114
330
2
100
AcDbEntity
  8
L-ZISSEN
100
AcDbLine
 10
102.5
 20
494.9999999999998
 30
0.0
 11
102.5
 21
492.618381
 31
0.0
  0
LINE
  5
115
330
2
100
AcDbEntity
  8
L-ZISSEN
100
AcDbLine
 10
121.0
 20
496.4999999999998
 30
0.0
 11
121.0
 21
486.9999999999998
 31
0.0
  0
LINE
  5
116
330
2
100
AcDbEntity
  8
L-ZISSEN
  6
CONTINUOUS
 62
     7
100
AcDbLine
 10
120.4999999999998
 20
500.0999999999997
 30
0.0
 11
113.4999999999998
 21
500.0999999999996
 31
0.0
  0
LINE
  5
117
330
2
100
AcDbEntity
  8
L-ZISSEN
  6
CONTINUOUS
 62
     7
100
AcDbLine
 10
113.4999999999998
 20
496.4999999999998
 30
0.0
 11
113.4999999999998
 21
500.0999999999997
 31
0.0
  0
LINE
  5
118
330
2
100
AcDbEntity
  8
L-ZISSEN
  6
CONTINUOUS
 62
     7
100
AcDbLine
 10
120.4999999999998
 20
496.4999999999998
 30
0.0
 11
120.4999999999998
 21
500.0999999999997
 31
0.0
  0
TEXT
  5
119
330
2
100
AcDbEntity
  8
L-ZISSEN
100
AcDbText
 10
119.0
 20
548.7499999999998
 30
0.0
 40
4.5
  1
P.P
100
AcDbText
  0
LINE
  5
11A
330
2
100
AcDbEntity
  8
L-ZISSEN
  6
CONTINUOUS
 62
     7
100
AcDbLine
 10
138.5
 20
558.9999999999998
 30
0.0
 11
122.5
 21
558.9999999999998
 31
0.0
  0
LINE
  5
11B
330
2
100
AcDbEntity
  8
L-ZISSEN
100
AcDbLine
 10
115.0
 20
550.9999999999998
 30
0.0
 11
117.0
 21
550.9999999999998
 31
0.0
  0
LINE
  5
11C
330
2
100
AcDbEntity
  8
L-ZISSEN
  6
CONTINUOUS
 62
     7
100
AcDbLine
 10
122.5
 20
558.9999999999998
 30
0.0
 11
122.5
 21
571.4999999999999
 31
0.0
  0
LINE
  5
11D
330
2
100
AcDbEntity
  8
L-ZISSEN
  6
CONTINUOUS
 62
     7
100
AcDbLine
 10
138.5
 20
571.4999999999998
 30
0.0
 11
138.5
 21
558.9999999999998
 31
0.0
  0
LINE
  5
11E
330
2
100
AcDbEntity
  8
L-ZISSEN
100
AcDbLine
 10
108.0000000000002
 20
654.0000000000003
 30
0.0
 11
82.00000000000063
 21
654.0000000000003
 31
0.0
  0
LINE
  5
11F
330
2
100
AcDbEntity
  8
L-ZISSEN
100
AcDbLine
 10
108.0000000000002
 20
598.0000000000002
 30
0.0
 11
82.0000000000005
 21
598.0000000000002
 31
0.0
  0
LINE
  5
120
330
2
100
AcDbEntity
  8
L-ZISSEN
100
AcDbLine
 10
139.9999999999999
 20
599.9999999999999
 30
0.0
 11
49.99999999999994
 21
599.9999999999999
 31
0.0
  0
LINE
  5
121
330
2
100
AcDbEntity
  8
L-ZISSEN
100
AcDbLine
 10
139.9999999999999
 20
651.9999999999998
 30
0.0
 11
49.99999999999994
 21
651.9999999999998
 31
0.0
  0
LINE
  5
122
330
2
100
AcDbEntity
  8
L-ZISSEN
  6
CONTINUOUS
 62
     7
100
AcDbLine
 10
150.0
 20
580.9999999999998
 30
0.0
 11
40.00000000000006
 21
580.9999999999998
 31
0.0
  0
LINE
  5
123
330
2
100
AcDbEntity
  8
L-ZISSEN
  6
CONTINUOUS
 62
     7
100
AcDbLine
 10
50.0
 20
576.0000000000001
 30
0.0
 11
140.0
 21
575.9999999999998
 31
0.0
  0
LINE
  5
124
330
2
100
AcDbEntity
  8
L-ZISSEN
  6
CONTINUOUS
 62
     7
100
AcDbLine
 10
66.90000000000003
 20
600.0
 30
0.0
 11
66.90000000000003
 21
652.0000000000003
 31
0.0
  0
LINE
  5
125
330
2
100
AcDbEntity
  8
L-ZISSEN
  6
CONTINUOUS
 62
     7
100
AcDbLine
 10
64.90000000000003
 20
652.0000000000001
 30
0.0
 11
64.90000000000003
 21
600.0
 31
0.0
  0
LINE
  5
126
330
2
100
AcDbEntity
  8
L-ZISSEN
100
AcDbLine
 10
69.00000000000005
 20
600.0000000000002
 30
0.0
 11
69.00000000000005
 21
652.0000000000003
 31
0.0
  0
CIRCLE
  5
127
330
2
100
AcDbEntity
  8
L-ZISSEN
  6
CONTINUOUS
 62
     7
100
AcDbCircle
 10
59.50000000000006
 20
590.4999999999999
 30
0.0
 40
8.0
  0
LINE
  5
128
330
2
100
AcDbEntity
  8
L-ZISSEN
  6
CONTINUOUS
 62
     7
100
AcDbLine
 10
27.50000000000005
 20
582.4999999999999
 30
0.0
 11
27.50000000000005
 21
598.4999999999999
 31
0.0
  0
LINE
  5
129
330
2
100
AcDbEntity
  8
L-ZISSEN
  6
CONTINUOUS
 62
     7
100
AcDbLine
 10
40.00000000000011
 20
582.4999999999999
 30
0.0
 11
27.50000000000005
 21
582.4999999999999
 31
0.0
  0
LINE
  5
12A
330
2
100
AcDbEntity
  8
L-ZISSEN
  6
CONTINUOUS
 62
     7
100
AcDbLine
 10
27.50000000000005
 20
598.4999999999999
 30
0.0
 11
40.00000000000011
 21
598.4999999999999
 31
0.0
  0
LINE
  5
12B
330
2
100
AcDbEntity
  8
L-ZISSEN
100
AcDbLine
 10
82.00000000000017
 20
600.0000000000002
 30
0.0
 11
82.00000000000017
 21
598.0000000000002
 31
0.0
  0
CIRCLE
  5
12C
330
2
100
AcDbEntity
  8
L-ZISSEN
100
AcDbCircle
 10
73.00000000000017
 20
604.0000000000002
 30
0.0
 40
3.499999999999772
  0
LINE
  5
12D
330
2
100
AcDbEntity
  8
L-ZISSEN
  6
CONTINUOUS
 62
     7
100
AcDbLine
 10
61.60000000000019
 20
610.5000000000002
 30
0.0
 11
61.60000000000019
 21
601.5000000000002
 31
0.0
  0
LINE
  5
12E
330
2
100
AcDbEntity
  8
L-ZISSEN
  6
CONTINUOUS
 62
     7
100
AcDbLine
 10
64.90000000000003
 20
601.5000000000002
 30
0.0
 11
61.60000000000019
 21
601.5000000000002
 31
0.0
  0
LINE
  5
12F
330
2
100
AcDbEntity
  8
L-ZISSEN
  6
CONTINUOUS
 62
     7
100
AcDbLine
 10
64.90000000000003
 20
610.5000000000001
 30
0.0
 11
61.60000000000019
 21
610.5000000000001
 31
0.0
  0
LINE
  5
130
330
2
100
AcDbEntity
  8
L-ZISSEN
  6
CONTINUOUS
 62
     7
100
AcDbLine
 10
27.50000000000005
 20
653.4999999999999
 30
0.0
 11
40.00000000000011
 21
653.4999999999999
 31
0.0
  0
LINE
  5
131
330
2
100
AcDbEntity
  8
L-ZISSEN
  6
CONTINUOUS
 62
     7
100
AcDbLine
 10
61.60000000000019
 20
650.5000000000001
 30
0.0
 11
61.60000000000019
 21
641.5000000000003
 31
0.0
  0
CIRCLE
  5
132
330
2
100
AcDbEntity
  8
L-ZISSEN
100
AcDbCircle
 10
73.00000000000017
 20
648.0000000000003
 30
0.0
 40
3.499999999999772
  0
LINE
  5
133
330
2
100
AcDbEntity
  8
L-ZISSEN
  6
CONTINUOUS
 62
     7
100
AcDbLine
 10
64.90000000000003
 20
641.5
 30
0.0
 11
61.60000000000019
 21
641.5
 31
0.0
  0
LINE
  5
134
330
2
100
AcDbEntity
  8
L-ZISSEN
  6
CONTINUOUS
 62
     7
100
AcDbLine
 10
64.90000000000003
 20
650.5000000000001
 30
0.0
 11
61.60000000000019
 21
650.5000000000001
 31
0.0
  0
LINE
  5
135
330
2
100
AcDbEntity
  8
L-ZISSEN
100
AcDbLine
 10
82.00000000000029
 20
654.0000000000003
 30
0.0
 11
82.00000000000029
 21
652.0000000000003
 31
0.0
  0
LINE
  5
136
330
2
100
AcDbEntity
  8
L-ZISSEN
  6
CONTINUOUS
 62
     7
100
AcDbLine
 10
123.1
 20
599.9999999999999
 30
0.0
 11
123.1000000000001
 21
652.0000000000001
 31
0.0
  0
LINE
  5
137
330
2
100
AcDbEntity
  8
L-ZISSEN
100
AcDbLine
 10
121.0
 20
600.0
 30
0.0
 11
121.0
 21
652.0000000000001
 31
0.0
  0
CIRCLE
  5
138
330
2
100
AcDbEntity
  8
L-ZISSEN
  6
CONTINUOUS
 62
     7
100
AcDbCircle
 10
130.5
 20
590.4999999999999
 30
0.0
 40
8.0
  0
LINE
  5
139
330
2
100
AcDbEntity
  8
L-ZISSEN
100
AcDbLine
 10
108.0000000000002
 20
600.0000000000002
 30
0.0
 11
108.0000000000002
 21
598.0000000000002
 31
0.0
  0
CIRCLE
  5
13A
330
2
100
AcDbEntity
  8
L-ZISSEN
100
AcDbCircle
 10
117.0
 20
604.0000000000002
 30
0.0
 40
3.499999999999772
  0
LINE
  5
13B
330
2
100
AcDbEntity
  8
L-ZISSEN
  6
CONTINUOUS
 62
     7
100
AcDbLine
 10
150.0
 20
580.9999999999998
 30
0.0
 11
150.0
 21
600.5901610549244
 31
0.0
  0
CIRCLE
  5
13C
330
2
100
AcDbEntity
  8
L-ZISSEN
100
AcDbCircle
 10
117.0
 20
648.0000000000003
 30
0.0
 40
3.499999999999772
  0
SOLID
  5
13D
330
2
100
AcDbEntity
  8
L-ZISSEN
100
AcDbTrace
 10
95.19324698792031
 20
623.9816425706107
 30
0.0
 11
95.83740361432115
 21
624.1534176709843
 31
0.0
 12
95.00000000000005
 22
626.0
 32
0.0
 13
95.00000000000005
 23
626.0
 33
0.0
  0
LINE
  5
13E
330
2
100
AcDbEntity
  8
L-ZISSEN
100
AcDbLine
 10
108.0000000000002
 20
654.0000000000003
 30
0.0
 11
108.0000000000002
 21
652.0000000000003
 31
0.0
  0
LINE
  5
13F
330
2
100
AcDbEntity
  8
L-ZISSEN
100
AcDbLine
 10
343.0
 20
469.0000000000002
 30
0.0
 11
343.0
 21
494.9999999999998
 31
0.0
  0
LINE
  5
140
330
2
100
AcDbEntity
  8
L-ZISSEN
100
AcDbLine
 10
340.9999999999998
 20
496.4999999999998
 30
0.0
 11
340.9999999999998
 21
424.9999999999999
 31
0.0
  0
LINE
  5
141
330
2
100
AcDbEntity
  8
L-ZISSEN
100
AcDbLine
 10
287.0
 20
469.0000000000002
 30
0.0
 11
287.0
 21
494.9999999999998
 31
0.0
  0
LINE
  5
142
330
2
100
AcDbEntity
  8
L-ZISSEN
100
AcDbLine
 10
289.0
 20
424.9999999999999
 30
0.0
 11
289.0
 21
496.4999999999998
 31
0.0
  0
LINE
  5
143
330
2
100
AcDbEntity
  8
L-ZISSEN
  6
CONTINUOUS
 62
     7
100
AcDbLine
 10
179.1000000000003
 20
436.6063555341137
 30
0.0
 11
179.0999999999998
 21
485.3936444658859
 31
0.0
  0
LINE
  5
144
330
2
100
AcDbEntity
  8
L-ZISSEN
  6
CONTINUOUS
 62
     7
100
AcDbLine
 10
360.0000000000001
 20
345.9999999999999
 30
0.0
 11
270.0
 21
345.9999999999998
 31
0.0
  0
LINE
  5
145
330
2
100
AcDbEntity
  8
L-ZISSEN
  6
CONTINUOUS
 62
     7
100
AcDbLine
 10
360.0
 20
414.9999999999998
 30
0.0
 11
270.0
 21
414.9999999999998
 31
0.0
  0
LINE
  5
146
330
2
100
AcDbEntity
  8
L-ZISSEN
100
AcDbLine
 10
341.0
 20
434.9999999999998
 30
0.0
 11
289.0
 21
434.9999999999998
 31
0.0
  0
LINE
  5
147
330
2
100
AcDbEntity
  8
L-TYUSIN
  6
CENTER
 62
     1
100
AcDbLine
 10
365.0
 20
300.9999999999998
 30
0.0
 11
265.0
 21
300.9999999999998
 31
0.0
  0
LINE
  5
148
330
2
100
AcDbEntity
  8
L-ZISSEN
  6
CONTINUOUS
 62
     7
100
AcDbLine
 10
247.9999999999999
 20
400.4999999999999
 30
0.0
 11
247.9999999999999
 21
384.4999999999998
 31
0.0
  0
ARC
  5
149
330
2
100
AcDbEntity
  8
L-ZISSEN
  6
CONTINUOUS
 62
     7
100
AcDbCircle
 10
175.0
 20
387.4999999999999
 30
0.0
 40
5.599999999999999
100
AcDbArc
 50
270.0000000000002
 51
89.99999999999969
  0
ARC
  5
14A
330
2
100
AcDbEntity
  8
L-ZISSEN
  6
CONTINUOUS
 62
     7
100
AcDbCircle
 10
165.0000000000001
 20
387.4999999999999
 30
0.0
 40
5.599999999999999
100
AcDbArc
 50
90.0000000000003
 51
269.9999999999997
  0
LINE
  5
14B
330
2
100
AcDbEntity
  8
L-TYUSIN
  6
CENTER
 62
     1
100
AcDbLine
 10
170.0
 20
397.4999999999997
 30
0.0
 11
170.0
 21
377.4999999999999
 31
0.0
  0
LINE
  5
14C
330
2
100
AcDbEntity
  8
L-ZISSEN
  6
CONTINUOUS
 62
     7
100
AcDbLine
 10
265.0
 20
401.9999999999998
 30
0.0
 11
264.9999999999999
 21
311.9999999999998
 31
0.0
  0
LINE
  5
14D
330
2
100
AcDbEntity
  8
L-ZISSEN
  6
CONTINUOUS
 62
     7
100
AcDbLine
 10
260.5
 20
401.9999999999998
 30
0.0
 11
260.4999999999999
 21
311.9999999999998
 31
0.0
  0
LINE
  5
14E
330
2
100
AcDbEntity
  8
L-ZISSEN
  6
CONTINUOUS
 62
     7
100
AcDbLine
 10
162.5000000000001
 20
344.4999999999998
 30
0.0
 11
162.5
 21
328.4999999999998
 31
0.0
  0
SOLID
  5
14F
330
2
100
AcDbEntity
  8
L-ZISSEN
100
AcDbTrace
 10
166.4337208778405
 20
299.5662791221594
 30
0.0
 11
166.8212130069866
 21
300.1087681029639
 31
0.0
 12
165.0000000000001
 22
300.9999999999998
 32
0.0
 13
165.0000000000001
 23
300.9999999999998
 33
0.0
  0
LINE
  5
150
330
2
100
AcDbEntity
  8
L-ZISSEN
  6
CONTINUOUS
 62
     7
100
AcDbLine
 10
162.5
 20
340.9999999999998
 30
0.0
 11
165.0
 21
340.9999999999998
 31
0.0
  0
LINE
  5
151
330
2
100
AcDbEntity
  8
L-ZISSEN
  6
CONTINUOUS
 62
     7
100
AcDbLine
 10
165.0000000000001
 20
381.8999999999999
 30
0.0
 11
175.0000000000001
 21
381.8999999999999
 31
0.0
  0
CIRCLE
  5
152
330
2
100
AcDbEntity
  8
L-ZISSEN
  6
CONTINUOUS
 62
     7
100
AcDbCircle
 10
279.5
 20
336.4999999999998
 30
0.0
 40
8.0
  0
LINE
  5
153
330
2
100
AcDbEntity
  8
L-ZISSEN
  6
CONTINUOUS
 62
     7
100
AcDbLine
 10
247.9999999999999
 20
329.4999999999999
 30
0.0
 11
260.4999999999999
 21
329.4999999999999
 31
0.0
  0
LINE
  5
154
330
2
100
AcDbEntity
  8
L-ZISSEN
  6
CONTINUOUS
 62
     7
100
AcDbLine
 10
260.4999999999999
 20
313.4999999999998
 30
0.0
 11
247.9999999999999
 21
313.4999999999998
 31
0.0
  0
LINE
  5
155
330
2
100
AcDbEntity
  8
L-ZISSEN
  6
CONTINUOUS
 62
     7
100
AcDbLine
 10
247.9999999999999
 20
313.4999999999998
 30
0.0
 11
247.9999999999999
 21
329.4999999999999
 31
0.0
  0
LINE
  5
156
330
2
100
AcDbEntity
  8
L-ZISSEN
  6
CONTINUOUS
 62
     7
100
AcDbLine
 10
270.0
 20
311.9999999999998
 30
0.0
 11
260.4999999999999
 21
311.9999999999998
 31
0.0
  0
LINE
  5
157
330
2
100
AcDbEntity
  8
L-ZISSEN
  6
CONTINUOUS
 62
     7
100
AcDbLine
 10
247.9999999999999
 20
384.4999999999998
 30
0.0
 11
260.4999999999999
 21
384.4999999999998
 31
0.0
  0
LINE
  5
158
330
2
100
AcDbEntity
  8
L-ZISSEN
  6
CONTINUOUS
 62
     7
100
AcDbLine
 10
165.0000000000001
 20
393.0999999999999
 30
0.0
 11
175.0000000000001
 21
393.0999999999999
 31
0.0
  0
LINE
  5
159
330
2
100
AcDbEntity
  8
L-ZISSEN
  6
CONTINUOUS
 62
     7
100
AcDbLine
 10
180.1000000000002
 20
471.9999999999996
 30
0.0
 11
180.1000000000002
 21
449.9999999999996
 31
0.0
  0
LINE
  5
15A
330
2
100
AcDbEntity
  8
L-ZISSEN
  6
CONTINUOUS
 62
     7
100
AcDbLine
 10
180.1000000000002
 20
449.9999999999996
 30
0.0
 11
179.1000000000003
 21
449.9999999999996
 31
0.0
  0
LINE
  5
15B
330
2
100
AcDbEntity
  8
L-ZISSEN
  6
CONTINUOUS
 62
     7
100
AcDbLine
 10
180.1000000000002
 20
471.9999999999996
 30
0.0
 11
179.0999999999998
 21
471.9999999999996
 31
0.0
  0
LINE
  5
15C
330
2
100
AcDbEntity
  8
L-ZISSEN
  6
CONTINUOUS
 62
     7
100
AcDbLine
 10
271.5
 20
437.4999999999999
 30
0.0
 11
271.5
 21
424.9999999999998
 31
0.0
  0
LINE
  5
15D
330
2
100
AcDbEntity
  8
L-ZISSEN
  6
CONTINUOUS
 62
     7
100
AcDbLine
 10
287.5
 20
424.9999999999998
 30
0.0
 11
287.5
 21
437.4999999999999
 31
0.0
  0
LINE
  5
15E
330
2
100
AcDbEntity
  8
L-ZISSEN
  6
CONTINUOUS
 62
     7
100
AcDbLine
 10
260.4999999999999
 20
400.4999999999999
 30
0.0
 11
247.9999999999999
 21
400.4999999999999
 31
0.0
  0
LINE
  5
15F
330
2
100
AcDbEntity
  8
L-ZISSEN
  6
CONTINUOUS
 62
     7
100
AcDbLine
 10
270.0
 20
424.9999999999999
 30
0.0
 11
270.0
 21
401.9999999999998
 31
0.0
  0
LINE
  5
160
330
2
100
AcDbEntity
  8
L-ZISSEN
  6
CONTINUOUS
 62
     7
100
AcDbLine
 10
270.0
 20
401.9999999999998
 30
0.0
 11
260.5
 21
401.9999999999998
 31
0.0
  0
LINE
  5
161
330
2
100
AcDbEntity
  8
L-ZISSEN
  6
CONTINUOUS
 62
     7
100
AcDbLine
 10
289.0
 20
424.9999999999999
 30
0.0
 11
270.0
 21
424.9999999999999
 31
0.0
  0
LINE
  5
162
330
2
100
AcDbEntity
  8
L-ZISSEN
  6
CONTINUOUS
 62
     7
100
AcDbLine
 10
287.5
 20
437.4999999999999
 30
0.0
 11
271.5
 21
437.4999999999999
 31
0.0
  0
LINE
  5
163
330
2
100
AcDbEntity
  8
L-ZISSEN
100
AcDbLine
 10
287.0
 20
469.0000000000002
 30
0.0
 11
289.0
 21
469.0000000000002
 31
0.0
  0
LINE
  5
164
330
2
100
AcDbEntity
  8
L-ZISSEN
  6
CONTINUOUS
 62
     7
100
AcDbLine
 10
365.0
 20
401.9999999999998
 30
0.0
 11
365.0000000000001
 21
311.9999999999998
 31
0.0
  0
CIRCLE
  5
165
330
2
100
AcDbEntity
  8
L-ZISSEN
  6
CONTINUOUS
 62
     7
100
AcDbCircle
 10
350.5
 20
336.4999999999998
 30
0.0
 40
8.0
  0
LINE
  5
166
330
2
100
AcDbEntity
  8
L-ZISSEN
  6
CONTINUOUS
 62
     7
100
AcDbLine
 10
365.0000000000001
 20
311.9999999999998
 30
0.0
 11
360.0000000000001
 21
311.9999999999998
 31
0.0
  0
LINE
  5
167
330
2
100
AcDbEntity
  8
L-TYUSIN
  6
CENTER
 62
     1
100
AcDbLine
 10
391.0
 20
387.4999999999999
 30
0.0
 11
376.5
 21
387.4999999999999
 31
0.0
  0
LINE
  5
168
330
2
100
AcDbEntity
  8
L-ZISSEN
  6
CONTINUOUS
 62
     7
100
AcDbLine
 10
358.5
 20
437.4999999999998
 30
0.0
 11
342.5
 21
437.4999999999997
 31
0.0
  0
TEXT
  5
169
330
2
100
AcDbEntity
  8
L-ZISSEN
100
AcDbText
 10
351.4999999999999
 20
448.75
 30
0.0
 40
4.5
  1
P.P
100
AcDbText
  0
LINE
  5
16A
330
2
100
AcDbEntity
  8
L-ZISSEN
  6
CONTINUOUS
 62
     7
100
AcDbLine
 10
360.0
 20
424.9999999999999
 30
0.0
 11
341.0
 21
424.9999999999999
 31
0.0
  0
LINE
  5
16B
330
2
100
AcDbEntity
  8
L-ZISSEN
  6
CONTINUOUS
 62
     7
100
AcDbLine
 10
342.5
 20
437.4999999999997
 30
0.0
 11
342.5
 21
424.9999999999996
 31
0.0
  0
LINE
  5
16C
330
2
100
AcDbEntity
  8
L-ZISSEN
100
AcDbLine
 10
316.794341352081
 20
435.883368050255
 30
0.0
 11
347.4999999999999
 21
451.0
 31
0.0
  0
LINE
  5
16D
330
2
100
AcDbEntity
  8
L-TYUSIN
  6
CENTER
 62
     1
100
AcDbLine
 10
305.0
 20
425.9999999999998
 30
0.0
 11
325.0
 21
425.9999999999998
 31
0.0
  0
CIRCLE
  5
16E
330
2
100
AcDbEntity
  8
L-ZISSEN
100
AcDbCircle
 10
315.0
 20
425.9999999999998
 30
0.0
 40
4.283
  0
SOLID
  5
16F
330
2
100
AcDbEntity
  8
L-ZISSEN
100
AcDbTrace
 10
316.941569360457
 20
435.5843111582417
 30
0.0
 11
316.6471133437052
 21
436.1824249422687
 31
0.0
 12
315.0
 22
434.9999999999998
 32
0.0
 13
315.0
 23
434.9999999999998
 33
0.0
  0
CIRCLE
  5
170
330
2
100
AcDbEntity
  8
L-ZISSEN
100
AcDbCircle
 10
315.0
 20
460.9999999999998
 30
0.0
 40
10.99999999999971
  0
LINE
  5
171
330
2
100
AcDbEntity
  8
L-ZISSEN
100
AcDbLine
 10
347.4999999999999
 20
451.0
 30
0.0
 11
349.4999999999999
 21
451.0
 31
0.0
  0
LINE
  5
172
330
2
100
AcDbEntity
  8
L-ZISSEN
100
AcDbLine
 10
341.0
 20
469.0000000000002
 30
0.0
 11
343.0
 21
469.0000000000002
 31
0.0
  0
LINE
  5
173
330
2
100
AcDbEntity
  8
L-ZISSEN
  6
CONTINUOUS
 62
     7
100
AcDbLine
 10
358.5
 20
424.9999999999996
 30
0.0
 11
358.5
 21
437.4999999999998
 31
0.0
  0
LINE
  5
174
330
2
100
AcDbEntity
  8
L-ZISSEN
  6
CONTINUOUS
 62
     7
100
AcDbLine
 10
360.0
 20
401.9999999999998
 30
0.0
 11
360.0
 21
424.9999999999999
 31
0.0
  0
LINE
  5
175
330
2
100
AcDbEntity
  8
L-ZISSEN
  6
CONTINUOUS
 62
     7
100
AcDbLine
 10
386.0
 20
412.4999999999998
 30
0.0
 11
365.0
 21
412.4999999999998
 31
0.0
  0
LINE
  5
176
330
2
100
AcDbEntity
  8
L-ZISSEN
  6
CONTINUOUS
 62
     7
100
AcDbLine
 10
365.0000000000001
 20
401.9999999999998
 30
0.0
 11
360.0
 21
401.9999999999998
 31
0.0
  0
LINE
  5
177
330
2
100
AcDbEntity
  8
L-ZISSEN
100
AcDbLine
 10
289.0
 20
496.4999999999998
 30
0.0
 11
341.0
 21
496.4999999999998
 31
0.0
  0
LINE
  5
178
330
2
100
AcDbEntity
  8
L-ZISSEN
100
AcDbLine
 10
287.0
 20
494.9999999999998
 30
0.0
 11
343.0
 21
494.9999999999999
 31
0.0
  0
LINE
  5
179
330
2
100
AcDbEntity
  8
L-ZISSEN
100
AcDbLine
 10
289.0
 20
486.9999999999998
 30
0.0
 11
341.0
 21
486.9999999999998
 31
0.0
  0
LINE
  5
17A
330
2
100
AcDbEntity
  8
L-ZISSEN
  6
CONTINUOUS
 62
     7
100
AcDbLine
 10
180.1000000000004
 20
636.9999999999999
 30
0.0
 11
180.1000000000004
 21
614.9999999999998
 31
0.0
  0
LINE
  5
17B
330
2
100
AcDbEntity
  8
L-ZISSEN
  6
CONTINUOUS
 62
     7
100
AcDbLine
 10
179.1000000000003
 20
601.606355534114
 30
0.0
 11
179.1
 21
650.3936444658863
 31
0.0
  0
LINE
  5
17C
330
2
100
AcDbEntity
  8
L-ZISSEN
  6
CONTINUOUS
 62
     7
100
AcDbLine
 10
165.0
 20
585.9999999999998
 30
0.0
 11
165.0
 21
601.1139726421354
 31
0.0
  0
LINE
  5
17D
330
2
100
AcDbEntity
  8
L-ZISSEN
  6
CONTINUOUS
 62
     7
100
AcDbLine
 10
162.5000000000001
 20
582.4999999999999
 30
0.0
 11
162.5
 21
598.4999999999999
 31
0.0
  0
LINE
  5
17E
330
2
100
AcDbEntity
  8
L-ZISSEN
  6
CONTINUOUS
 62
     7
100
AcDbLine
 10
162.5
 20
585.9999999999998
 30
0.0
 11
165.0
 21
585.9999999999998
 31
0.0
  0
LINE
  5
17F
330
2
100
AcDbEntity
  8
L-ZISSEN
  6
CONTINUOUS
 62
     7
100
AcDbLine
 10
180.1000000000004
 20
614.9999999999998
 30
0.0
 11
179.1000000000004
 21
614.9999999999998
 31
0.0
  0
LINE
  5
180
330
2
100
AcDbEntity
  8
L-ZISSEN
  6
CONTINUOUS
 62
     7
100
AcDbLine
 10
180.1000000000004
 20
636.9999999999999
 30
0.0
 11
179.0999999999999
 21
636.9999999999999
 31
0.0
  0
LINE
  5
181
330
2
100
AcDbEntity
  8
L-ZISSEN
  6
CONTINUOUS
 62
     7
100
AcDbLine
 10
165.0
 20
650.8860273578646
 30
0.0
 11
165.0
 21
666.0
 31
0.0
  0
LINE
  5
182
330
2
100
AcDbEntity
  8
L-ZISSEN
  6
CONTINUOUS
 62
     7
100
AcDbLine
 10
162.5
 20
665.9999999999999
 30
0.0
 11
165.0
 21
665.9999999999999
 31
0.0
  0
LINE
  5
183
330
2
100
AcDbEntity
  8
L-ZISSEN
  6
CONTINUOUS
 62
     7
100
AcDbLine
 10
296.4999999999999
 20
496.4999999999998
 30
0.0
 11
296.4999999999999
 21
500.0999999999997
 31
0.0
  0
LINE
  5
184
330
2
100
AcDbEntity
  8
L-ZISSEN
  6
CONTINUOUS
 62
     7
100
AcDbLine
 10
289.4999999999999
 20
496.4999999999998
 30
0.0
 11
289.4999999999999
 21
500.0999999999997
 31
0.0
  0
LINE
  5
185
330
2
100
AcDbEntity
  8
L-ZISSEN
  6
CONTINUOUS
 62
     7
100
AcDbLine
 10
296.4999999999999
 20
500.0999999999997
 30
0.0
 11
289.4999999999999
 21
500.0999999999997
 31
0.0
  0
LINE
  5
186
330
2
100
AcDbEntity
  8
L-ZISSEN
  6
CONTINUOUS
 62
     7
100
AcDbLine
 10
333.4999999999999
 20
500.0999999999997
 30
0.0
 11
340.5
 21
500.0999999999997
 31
0.0
  0
LINE
  5
187
330
2
100
AcDbEntity
  8
L-ZISSEN
  6
CONTINUOUS
 62
     7
100
AcDbLine
 10
333.4999999999999
 20
496.4999999999998
 30
0.0
 11
333.4999999999999
 21
500.0999999999997
 31
0.0
  0
LINE
  5
188
330
2
100
AcDbEntity
  8
L-ZISSEN
  6
CONTINUOUS
 62
     7
100
AcDbLine
 10
340.5
 20
496.4999999999998
 30
0.0
 11
340.5
 21
500.0999999999997
 31
0.0
  0
LINE
  5
189
330
2
100
AcDbEntity
  8
L-ZISSEN
  6
CONTINUOUS
 62
     7
100
AcDbLine
 10
150.0
 20
669.4999999999999
 30
0.0
 11
162.5000000000001
 21
669.4999999999999
 31
0.0
  0
LINE
  5
18A
330
2
100
AcDbEntity
  8
L-ZISSEN
100
AcDbLine
 10
190.0000000000001
 20
692.4999999999998
 30
0.0
 11
147.9999999999999
 21
692.4999999999998
 31
0.0
  0
LINE
  5
18B
330
2
100
AcDbEntity
  8
L-ZISSEN
100
AcDbLine
 10
190.0000000000001
 20
696.9999999999997
 30
0.0
 11
143.4999999999999
 21
696.9999999999997
 31
0.0
  0
TEXT
  5
18C
330
2
100
AcDbEntity
  8
L-ZISSEN
100
AcDbText
 10
-34.99999999999994
 20
715.9999999999999
 30
0.0
 40
4.5
  1
MODEL NO. : 36B- 00-81B0
100
AcDbText
  0
LINE
  5
18D
330
2
100
AcDbEntity
  8
L-ZISSEN
100
AcDbLine
 10
0.0
 20
696.9999999999997
 30
0.0
 11
46.50000000000017
 21
696.9999999999997
 31
0.0
  0
LINE
  5
18E
330
2
100
AcDbEntity
  8
L-ZISSEN
100
AcDbLine
 10
0.0
 20
692.4999999999998
 30
0.0
 11
42.00000000000017
 21
692.4999999999998
 31
0.0
  0
LINE
  5
18F
330
2
100
AcDbEntity
  8
L-TYUSIN
  6
CENTER
 62
     1
100
AcDbLine
 10
20.0
 20
701.9999999999998
 30
0.0
 11
20.0
 21
687.5
 31
0.0
  0
LINE
  5
190
330
2
100
AcDbEntity
  8
L-ZISSEN
100
AcDbLine
 10
0.0
 20
692.4999999999998
 30
0.0
 11
0.0
 21
696.9999999999998
 31
0.0
  0
LINE
  5
191
330
2
100
AcDbEntity
  8
L-ZISSEN
100
AcDbLine
 10
143.4999999999998
 20
680.5000000000001
 30
0.0
 11
46.50000000000022
 21
680.4999999999999
 31
0.0
  0
LINE
  5
192
330
2
100
AcDbEntity
  8
L-ZISSEN
  6
CONTINUOUS
 62
     7
100
AcDbLine
 10
150.0
 20
671.0
 30
0.0
 11
40.00000000000006
 21
670.9999999999999
 31
0.0
  0
LINE
  5
193
330
2
100
AcDbEntity
  8
L-ZISSEN
100
AcDbLine
 10
148.0000000000001
 20
676.0
 30
0.0
 11
42.00000000000005
 21
676.0
 31
0.0
  0
TEXT
  5
194
330
2
100
AcDbEntity
  8
L-ZISSEN
100
AcDbText
 10
31.00000000000005
 20
712.9999999999999
 30
0.0
 40
4.5
  1
B
100
AcDbText
  0
LINE
  5
195
330
2
100
AcDbEntity
  8
L-ZISSEN
  6
CONTINUOUS
 62
     7
100
AcDbLine
 10
67.50000000000011
 20
693.0000000000001
 30
0.0
 11
51.50000000000011
 21
693.0
 31
0.0
  0
LINE
  5
196
330
2
100
AcDbEntity
  8
L-ZISSEN
  6
CONTINUOUS
 62
     7
100
AcDbLine
 10
51.50000000000011
 20
693.0
 30
0.0
 11
51.50000000000011
 21
680.4999999999998
 31
0.0
  0
LINE
  5
197
330
2
100
AcDbEntity
  8
L-ZISSEN
100
AcDbLine
 10
42.00000000000017
 20
675.9999999999998
 30
0.0
 11
42.00000000000017
 21
692.4999999999998
 31
0.0
  0
LINE
  5
198
330
2
100
AcDbEntity
  8
L-ZISSEN
100
AcDbLine
 10
46.50000000000022
 20
680.4999999999999
 30
0.0
 11
46.50000000000017
 21
696.9999999999997
 31
0.0
  0
LINE
  5
199
330
2
100
AcDbEntity
  8
L-ZISSEN
  6
CONTINUOUS
 62
     7
100
AcDbLine
 10
40.00000000000011
 20
669.4999999999999
 30
0.0
 11
27.50000000000005
 21
669.4999999999999
 31
0.0
  0
LINE
  5
19A
330
2
100
AcDbEntity
  8
L-ZISSEN
  6
CONTINUOUS
 62
     7
100
AcDbLine
 10
67.50000000000011
 20
680.4999999999998
 30
0.0
 11
67.50000000000011
 21
693.0000000000001
 31
0.0
  0
TEXT
  5
19B
330
2
100
AcDbEntity
  8
L-ZISSEN
100
AcDbText
 10
31.00000000000005
 20
718.9999999999998
 30
0.0
 40
4.5
  1
A
100
AcDbText
  0
LINE
  5
19C
330
2
100
AcDbEntity
  8
L-ZISSEN
  6
CONTINUOUS
 62
     7
100
AcDbLine
 10
138.5
 20
693.0000000000001
 30
0.0
 11
122.5
 21
693.0
 31
0.0
  0
LINE
  5
19D
330
2
100
AcDbEntity
  8
L-ZISSEN
  6
CONTINUOUS
 62
     7
100
AcDbLine
 10
122.5
 20
693.0
 30
0.0
 11
122.5
 21
680.4999999999998
 31
0.0
  0
LINE
  5
19E
330
2
100
AcDbEntity
  8
L-ZISSEN
  6
CONTINUOUS
 62
     7
100
AcDbLine
 10
138.5
 20
680.4999999999998
 30
0.0
 11
138.5
 21
693.0000000000001
 31
0.0
  0
LINE
  5
19F
330
2
100
AcDbEntity
  8
L-ZISSEN
100
AcDbLine
 10
143.4999999999998
 20
680.4999999999999
 30
0.0
 11
143.4999999999999
 21
696.9999999999997
 31
0.0
  0
LINE
  5
1A0
330
2
100
AcDbEntity
  8
L-ZISSEN
100
AcDbLine
 10
147.9999999999999
 20
675.9999999999998
 30
0.0
 11
147.9999999999999
 21
692.4999999999998
 31
0.0
  0
LINE
  5
1A1
330
2
100
AcDbEntity
  8
L-TYUSIN
  6
CENTER
 62
     1
100
AcDbLine
 10
170.0
 20
701.9999999999998
 30
0.0
 11
170.0
 21
687.5
 31
0.0
  0
LINE
  5
1A2
330
2
100
AcDbEntity
  8
L-ZISSEN
100
AcDbLine
 10
190.0000000000001
 20
692.4999999999998
 30
0.0
 11
190.0000000000001
 21
696.9999999999998
 31
0.0
  0
CIRCLE
  5
1A3
330
2
100
AcDbEntity
  8
L-ZISSEN
100
AcDbCircle
 10
964.9999999999995
 20
310.0
 30
0.0
 40
18.99999999999977
  0
LINE
  5
1A4
330
2
100
AcDbEntity
  8
L-ZISSEN
100
AcDbLine
 10
872.7000000000002
 20
328.9999999999995
 30
0.0
 11
872.7
 21
290.9999999999995
 31
0.0
  0
LINE
  5
1A5
330
2
100
AcDbEntity
  8
L-TYUSIN
  6
CENTER
 62
     1
100
AcDbLine
 10
535.0
 20
501.4999999999997
 30
0.0
 11
535.0
 21
202.4999999999999
 31
0.0
  0
LINE
  5
1A6
330
2
100
AcDbEntity
  8
L-ZISSEN
  6
CONTINUOUS
 62
     7
100
AcDbLine
 10
629.9999999999998
 20
412.4999999999999
 30
0.0
 11
629.9999999999998
 21
232.4999999999998
 31
0.0
  0
LINE
  5
1A7
330
2
100
AcDbEntity
  8
L-ZISSEN
  6
CONTINUOUS
 62
     7
100
AcDbLine
 10
439.9999999999998
 20
412.4999999999999
 30
0.0
 11
439.9999999999998
 21
232.4999999999998
 31
0.0
  0
LINE
  5
1A8
330
2
100
AcDbEntity
  8
L-ZISSEN
  6
CONTINUOUS
 62
     7
100
AcDbLine
 10
486.4999999999998
 20
412.4999999999999
 30
0.0
 11
486.4999999999998
 21
232.4999999999998
 31
0.0
  0
LINE
  5
1A9
330
2
100
AcDbEntity
  8
L-ZISSEN
  6
CONTINUOUS
 62
     7
100
AcDbLine
 10
583.4999999999998
 20
412.4999999999999
 30
0.0
 11
583.4999999999999
 21
232.4999999999998
 31
0.0
  0
LINE
  5
1AA
330
2
100
AcDbEntity
  8
L-TYUSIN
100
AcDbLine
 10
1029.999999999999
 20
1000.0
 30
0.0
 11
1029.999999999999
 21
0.0
 31
0.0
  0
LINE
  5
1AB
330
2
100
AcDbEntity
  8
L-TYUSIN
100
AcDbLine
 10
1469.999999999999
 20
1000.0
 30
0.0
 11
1469.999999999999
 21
0.0
 31
0.0
  0
LINE
  5
1AC
330
2
100
AcDbEntity
  8
L-TYUSIN
100
AcDbLine
 10
709.9999999999997
 20
1000.0
 30
0.0
 11
709.9999999999997
 21
250.0
 31
0.0
  0
LINE
  5
1AD
330
2
100
AcDbEntity
  8
L-ZISSEN
100
AcDbLine
 10
733.8999999999991
 20
336.0
 30
0.0
 11
733.8999999999991
 21
284.0
 31
0.0
  0
LINE
  5
1AE
330
2
100
AcDbEntity
  8
L-ZISSEN
100
AcDbLine
 10
731.8999999999991
 20
336.0
 30
0.0
 11
731.8999999999991
 21
284.0
 31
0.0
  0
LINE
  5
1AF
330
2
100
AcDbEntity
  8
L-ZISSEN
100
AcDbLine
 10
790.0999999999992
 20
336.0
 30
0.0
 11
790.0999999999992
 21
284.0
 31
0.0
  0
LINE
  5
1B0
330
2
100
AcDbEntity
  8
L-ZISSEN
100
AcDbLine
 10
938.9999999999995
 20
284.0
 30
0.0
 11
938.9999999999995
 21
345.5
 31
0.0
  0
LINE
  5
1B1
330
2
100
AcDbEntity
  8
L-ZISSEN
100
AcDbLine
 10
862.0999999999998
 20
335.9999999999995
 30
0.0
 11
862.0999999999996
 21
283.9999999999995
 31
0.0
  0
LINE
  5
1B2
330
2
100
AcDbEntity
  8
L-ZISSEN
100
AcDbLine
 10
990.9999999999994
 20
345.5
 30
0.0
 11
990.9999999999994
 21
284.0
 31
0.0
  0
LINE
  5
1B3
330
2
100
AcDbEntity
  8
L-ZISSEN
  6
CONTINUOUS
 62
     7
100
AcDbLine
 10
1164.899999999999
 20
283.9999999999995
 30
0.0
 11
1164.899999999999
 21
335.9999999999995
 31
0.0
  0
LINE
  5
1B4
330
2
100
AcDbEntity
  8
L-ZISSEN
  6
CONTINUOUS
 62
     7
100
AcDbLine
 10
1164.899999999999
 20
283.9999999999997
 30
0.0
 11
1164.899999999999
 21
335.9999999999997
 31
0.0
  0
LINE
  5
1B5
330
2
100
AcDbEntity
  8
L-ZISSEN
  6
CONTINUOUS
 62
     7
100
AcDbLine
 10
1164.899999999999
 20
283.9999999999995
 30
0.0
 11
1164.899999999999
 21
335.9999999999995
 31
0.0
  0
LINE
  5
1B6
330
2
100
AcDbEntity
  8
L-ZISSEN
  6
CONTINUOUS
 62
     7
100
AcDbLine
 10
1164.899999999999
 20
283.9999999999997
 30
0.0
 11
1164.899999999999
 21
335.9999999999997
 31
0.0
  0
LINE
  5
1B7
330
2
100
AcDbEntity
  8
L-ZISSEN
  6
CONTINUOUS
 62
     7
100
AcDbLine
 10
1108.899999999999
 20
285.6063555341138
 30
0.0
 11
1108.899999999999
 21
334.3936444658859
 31
0.0
  0
LINE
  5
1B8
330
2
100
AcDbEntity
  8
L-ZISSEN
  6
CONTINUOUS
 62
     7
100
AcDbLine
 10
1295.099999999999
 20
285.6063555341138
 30
0.0
 11
1295.099999999999
 21
334.3936444658859
 31
0.0
  0
LINE
  5
1B9
330
2
100
AcDbEntity
  8
L-ZISSEN
  6
CONTINUOUS
 62
     7
100
AcDbLine
 10
1239.099999999999
 20
283.9999999999997
 30
0.0
 11
1239.099999999999
 21
335.9999999999997
 31
0.0
  0
LINE
  5
1BA
330
2
100
AcDbEntity
  8
L-ZISSEN
  6
CONTINUOUS
 62
     7
100
AcDbLine
 10
1239.099999999999
 20
283.9999999999995
 30
0.0
 11
1239.099999999999
 21
335.9999999999995
 31
0.0
  0
LINE
  5
1BB
330
2
100
AcDbEntity
  8
L-ZISSEN
100
AcDbLine
 10
1431.0
 20
345.5
 30
0.0
 11
1431.0
 21
284.0
 31
0.0
  0
LINE
  5
1BC
330
2
100
AcDbEntity
  8
L-ZISSEN
100
AcDbLine
 10
1378.999999999999
 20
284.0
 30
0.0
 11
1378.999999999999
 21
345.5
 31
0.0
  0
LINE
  5
1BD
330
2
100
AcDbEntity
  8
L-TYUSIN
100
AcDbLine
 10
709.9999999999997
 20
250.0
 30
0.0
 11
1719.999999999999
 21
250.0
 31
0.0
  0
LINE
  5
1BE
330
2
100
AcDbEntity
  8
L-ZISSEN
100
AcDbLine
 10
938.9999999999995
 20
284.0
 30
0.0
 11
990.9999999999994
 21
284.0
 31
0.0
  0
CIRCLE
  5
1BF
330
2
100
AcDbEntity
  8
L-ZISSEN
100
AcDbCircle
 10
944.9999999999995
 20
289.9999999999997
 30
0.0
 40
4.499950000000126
  0
LINE
  5
1C0
330
2
100
AcDbEntity
  8
L-ZISSEN
  6
CONTINUOUS
 62
     7
100
AcDbLine
 10
579.9999999999998
 20
207.4999999999998
 30
0.0
 11
489.9999999999999
 21
207.4999999999998
 31
0.0
  0
LINE
  5
1C1
330
2
100
AcDbEntity
  8
L-ZISSEN
  6
CONTINUOUS
 62
     7
100
AcDbLine
 10
579.9999999999998
 20
229.9999999999998
 30
0.0
 11
489.9999999999999
 21
229.9999999999998
 31
0.0
  0
LINE
  5
1C2
330
2
100
AcDbEntity
  8
L-ZISSEN
  6
CONTINUOUS
 62
     7
100
AcDbLine
 10
439.9999999999998
 20
232.4999999999998
 30
0.0
 11
629.9999999999998
 21
232.4999999999998
 31
0.0
  0
ARC
  5
1C3
330
2
100
AcDbEntity
  8
L-ZISSEN
  6
CONTINUOUS
 62
     7
100
AcDbCircle
 10
454.9999999999999
 20
247.4999999999999
 30
0.0
 40
5.599999999999999
100
AcDbArc
 50
90.0000000000003
 51
269.9999999999997
  0
LINE
  5
1C4
330
2
100
AcDbEntity
  8
L-TYUSIN
  6
CENTER
 62
     1
100
AcDbLine
 10
459.9999999999999
 20
257.4999999999997
 30
0.0
 11
459.9999999999999
 21
237.5
 31
0.0
  0
ARC
  5
1C5
330
2
100
AcDbEntity
  8
L-ZISSEN
  6
CONTINUOUS
 62
     7
100
AcDbCircle
 10
464.9999999999998
 20
247.4999999999999
 30
0.0
 40
5.599999999999999
100
AcDbArc
 50
270.0000000000002
 51
90.0
  0
LINE
  5
1C6
330
2
100
AcDbEntity
  8
L-TYUSIN
  6
CENTER
 62
     1
100
AcDbLine
 10
445.0000000000001
 20
247.4999999999998
 30
0.0
 11
474.9999999999998
 21
247.4999999999998
 31
0.0
  0
LINE
  5
1C7
330
2
100
AcDbEntity
  8
L-ZISSEN
  6
CONTINUOUS
 62
     7
100
AcDbLine
 10
464.9999999999998
 20
241.8999999999999
 30
0.0
 11
454.9999999999999
 21
241.8999999999999
 31
0.0
  0
LINE
  5
1C8
330
2
100
AcDbEntity
  8
L-ZISSEN
  6
CONTINUOUS
 62
     7
100
AcDbLine
 10
464.9999999999998
 20
253.0999999999999
 30
0.0
 11
454.9999999999999
 21
253.0999999999999
 31
0.0
  0
LINE
  5
1C9
330
2
100
AcDbEntity
  8
L-ZISSEN
  6
CONTINUOUS
 62
     7
100
AcDbLine
 10
489.9999999999999
 20
207.4999999999998
 30
0.0
 11
489.9999999999999
 21
232.4999999999998
 31
0.0
  0
LINE
  5
1CA
330
2
100
AcDbEntity
  8
L-ZISSEN
  6
CONTINUOUS
 62
     7
100
AcDbLine
 10
509.4999999999997
 20
219.9999999999998
 30
0.0
 11
489.9999999999999
 21
219.9999999999998
 31
0.0
  0
LINE
  5
1CB
330
2
100
AcDbEntity
  8
L-ZISSEN
  6
CONTINUOUS
 62
     7
100
AcDbLine
 10
491.4999999999999
 20
207.4999999999998
 30
0.0
 11
491.4999999999999
 21
219.9999999999998
 31
0.0
  0
LINE
  5
1CC
330
2
100
AcDbEntity
  8
L-ZISSEN
100
AcDbLine
 10
509.4999999999997
 20
219.9999999999998
 30
0.0
 11
509.4999999999997
 21
207.4999999999998
 31
0.0
  0
LINE
  5
1CD
330
2
100
AcDbEntity
  8
L-ZISSEN
  6
CONTINUOUS
 62
     7
100
AcDbLine
 10
507.4999999999999
 20
219.9999999999998
 30
0.0
 11
507.4999999999999
 21
207.4999999999998
 31
0.0
  0
ARC
  5
1CE
330
2
100
AcDbEntity
  8
L-ZISSEN
  6
CONTINUOUS
 62
     7
100
AcDbCircle
 10
614.9999999999997
 20
247.4999999999999
 30
0.0
 40
5.599999999999999
100
AcDbArc
 50
270.0000000000002
 51
89.99999999999969
  0
LINE
  5
1CF
330
2
100
AcDbEntity
  8
L-TYUSIN
  6
CENTER
 62
     1
100
AcDbLine
 10
624.9999999999998
 20
247.4999999999998
 30
0.0
 11
595.0
 21
247.4999999999998
 31
0.0
  0
ARC
  5
1D0
330
2
100
AcDbEntity
  8
L-ZISSEN
  6
CONTINUOUS
 62
     7
100
AcDbCircle
 10
605.0
 20
247.4999999999999
 30
0.0
 40
5.599999999999999
100
AcDbArc
 50
90.00000000000115
 51
269.9999999999997
  0
LINE
  5
1D1
330
2
100
AcDbEntity
  8
L-TYUSIN
  6
CENTER
 62
     1
100
AcDbLine
 10
609.9999999999997
 20
257.4999999999997
 30
0.0
 11
609.9999999999997
 21
237.5
 31
0.0
  0
LINE
  5
1D2
330
2
100
AcDbEntity
  8
L-ZISSEN
  6
CONTINUOUS
 62
     7
100
AcDbLine
 10
580.0
 20
232.4999999999998
 30
0.0
 11
580.0
 21
207.4999999999998
 31
0.0
  0
LINE
  5
1D3
330
2
100
AcDbEntity
  8
L-ZISSEN
  6
CONTINUOUS
 62
     7
100
AcDbLine
 10
579.9999999999998
 20
219.9999999999998
 30
0.0
 11
560.5
 21
219.9999999999998
 31
0.0
  0
LINE
  5
1D4
330
2
100
AcDbEntity
  8
L-ZISSEN
100
AcDbLine
 10
560.5
 20
219.9999999999998
 30
0.0
 11
560.5
 21
207.4999999999998
 31
0.0
  0
LINE
  5
1D5
330
2
100
AcDbEntity
  8
L-ZISSEN
  6
CONTINUOUS
 62
     7
100
AcDbLine
 10
562.5
 20
219.9999999999998
 30
0.0
 11
562.5
 21
207.4999999999998
 31
0.0
  0
LINE
  5
1D6
330
2
100
AcDbEntity
  8
L-ZISSEN
  6
CONTINUOUS
 62
     7
100
AcDbLine
 10
578.5
 20
207.4999999999998
 30
0.0
 11
578.5
 21
219.9999999999998
 31
0.0
  0
LINE
  5
1D7
330
2
100
AcDbEntity
  8
L-ZISSEN
  6
CONTINUOUS
 62
     7
100
AcDbLine
 10
604.9999999999998
 20
241.8999999999999
 30
0.0
 11
614.9999999999997
 21
241.8999999999999
 31
0.0
  0
LINE
  5
1D8
330
2
100
AcDbEntity
  8
L-ZISSEN
  6
CONTINUOUS
 62
     7
100
AcDbLine
 10
604.9999999999998
 20
253.0999999999999
 30
0.0
 11
614.9999999999997
 21
253.0999999999999
 31
0.0
  0
LINE
  5
1D9
330
2
100
AcDbEntity
  8
L-ZISSEN
100
AcDbLine
 10
731.8999999999991
 20
284.0
 30
0.0
 11
862.0999999999996
 21
284.0
 31
0.0
  0
LINE
  5
1DA
330
2
100
AcDbEntity
  8
L-ZISSEN
  6
CONTINUOUS
 62
     7
100
AcDbLine
 10
728.5999999999996
 20
294.4999999999999
 30
0.0
 11
728.5999999999996
 21
285.5
 31
0.0
  0
LINE
  5
1DB
330
2
100
AcDbEntity
  8
L-ZISSEN
  6
CONTINUOUS
 62
     7
100
AcDbLine
 10
731.8999999999994
 20
285.5
 30
0.0
 11
728.5999999999996
 21
285.5
 31
0.0
  0
LINE
  5
1DC
330
2
100
AcDbEntity
  8
L-ZISSEN
  6
CONTINUOUS
 62
     7
100
AcDbLine
 10
731.8999999999994
 20
294.4999999999998
 30
0.0
 11
728.5999999999996
 21
294.4999999999998
 31
0.0
  0
LINE
  5
1DD
330
2
100
AcDbEntity
  8
L-ZISSEN
100
AcDbLine
 10
779.9999999999998
 20
265.0
 30
0.0
 11
781.9999999999997
 21
265.0
 31
0.0
  0
LINE
  5
1DE
330
2
100
AcDbEntity
  8
L-ZISSEN
100
AcDbLine
 10
763.3754892958209
 20
282.5480946321884
 30
0.0
 11
779.9999999999998
 21
265.0
 31
0.0
  0
SOLID
  5
1DF
330
2
100
AcDbEntity
  8
L-ZISSEN
100
AcDbTrace
 10
763.1335050678524
 20
282.3188464162181
 30
0.0
 11
763.6174735237895
 21
282.7773428481585
 31
0.0
 12
761.9999999999993
 22
284.0
 32
0.0
 13
761.9999999999993
 23
284.0
 33
0.0
  0
TEXT
  5
1E0
330
2
100
AcDbEntity
  8
L-ZISSEN
100
AcDbText
 10
783.9999999999998
 20
262.7499999999999
 30
0.0
 40
4.5
  1
P.P
100
AcDbText
  0
LINE
  5
1E1
330
2
100
AcDbEntity
  8
L-ZISSEN
100
AcDbLine
 10
866.7428199999998
 20
294.4999500000003
 30
0.0
 11
862.1000000000002
 21
294.4999500000003
 31
0.0
  0
LINE
  5
1E2
330
2
100
AcDbEntity
  8
L-ZISSEN
100
AcDbLine
 10
866.7428199999998
 20
285.5000499999998
 30
0.0
 11
862.1000000000002
 21
285.5000499999998
 31
0.0
  0
LINE
  5
1E3
330
2
100
AcDbEntity
  8
L-ZISSEN
100
AcDbLine
 10
866.7428199999998
 20
290.9999999999995
 30
0.0
 11
872.7
 21
290.9999999999995
 31
0.0
  0
LINE
  5
1E4
330
2
100
AcDbEntity
  8
L-ZISSEN
100
AcDbLine
 10
866.7428199999998
 20
294.4999500000003
 30
0.0
 11
866.7428199999998
 21
285.5000499999998
 31
0.0
  0
LINE
  5
1E5
330
2
100
AcDbEntity
  8
L-ZISSEN
100
AcDbLine
 10
1203.375489295821
 20
282.5480946321881
 30
0.0
 11
1219.999999999999
 21
264.9999999999997
 31
0.0
  0
LINE
  5
1E6
330
2
100
AcDbEntity
  8
L-ZISSEN
100
AcDbLine
 10
1154.899999999995
 20
284.0
 30
0.0
 11
1249.099999999999
 21
283.9999999999998
 31
0.0
  0
TEXT
  5
1E7
330
2
100
AcDbEntity
  8
L-ZISSEN
100
AcDbText
 10
1189.999999999999
 20
205.0
 30
0.0
 40
4.5
  1
DC-100V
100
AcDbText
  0
TEXT
  5
1E8
330
2
100
AcDbEntity
  8
L-ZISSEN
100
AcDbText
 10
1189.999999999999
 20
215.0
 30
0.0
 40
4.5
  1
DC-24V
100
AcDbText
  0
LINE
  5
1E9
330
2
100
AcDbEntity
  8
L-ZISSEN
100
AcDbLine
 10
1214.999999999999
 20
178.0000000000004
 30
0.0
 11
1188.999999999999
 21
178.0000000000004
 31
0.0
  0
CIRCLE
  5
1EA
330
2
100
AcDbEntity
  8
L-ZISSEN
100
AcDbCircle
 10
1201.999999999999
 20
80.99999999999978
 30
0.0
 40
9.3155
  0
LINE
  5
1EB
330
2
100
AcDbEntity
  8
L-ZISSEN
100
AcDbLine
 10
1214.999999999999
 20
121.9999999999995
 30
0.0
 11
1188.999999999999
 21
121.9999999999995
 31
0.0
  0
ARC
  5
1EC
330
2
100
AcDbEntity
  8
L-ZISSEN
  6
CONTINUOUS
 62
     7
100
AcDbCircle
 10
1201.999999999999
 20
80.99999999999978
 30
0.0
 40
13.0
100
AcDbArc
 50
125.2344179999978
 51
54.76558200000211
  0
LINE
  5
1ED
330
2
100
AcDbEntity
  8
L-ZISSEN
  6
CONTINUOUS
 62
     7
100
AcDbLine
 10
1236.899999999999
 20
93.99999999999977
 30
0.0
 11
1166.999999999999
 21
93.99999999999977
 31
0.0
  0
LINE
  5
1EE
330
2
100
AcDbEntity
  8
L-ZISSEN
  6
CONTINUOUS
 62
     7
100
AcDbLine
 10
1166.999999999999
 20
95.49999999999977
 30
0.0
 11
1236.899999999999
 21
95.49999999999977
 31
0.0
  0
LINE
  5
1EF
330
2
100
AcDbEntity
  8
L-ZISSEN
100
AcDbLine
 10
1203.375489295821
 20
32.54809463218816
 30
0.0
 11
1219.999999999999
 21
14.99999999999977
 31
0.0
  0
LINE
  5
1F0
330
2
100
AcDbEntity
  8
L-ZISSEN
100
AcDbLine
 10
1202.996942248515
 20
148.2661873938849
 30
0.0
 11
1224.999999999999
 21
110.0000000000001
 31
0.0
  0
LINE
  5
1F1
330
2
100
AcDbEntity
  8
L-ZISSEN
100
AcDbLine
 10
1311.1
 20
176.0
 30
0.0
 11
1092.899999999998
 21
176.0
 31
0.0
  0
LINE
  5
1F2
330
2
100
AcDbEntity
  8
L-ZISSEN
100
AcDbLine
 10
1311.1
 20
124.0
 30
0.0
 11
1092.899999999998
 21
124.0
 31
0.0
  0
LINE
  5
1F3
330
2
100
AcDbEntity
  8
L-ZISSEN
100
AcDbLine
 10
1092.899999999998
 20
34.00000000000011
 30
0.0
 11
1311.1
 21
33.99999999999977
 31
0.0
  0
LINE
  5
1F4
330
2
100
AcDbEntity
  8
L-ZISSEN
100
AcDbLine
 10
1082.299999999998
 20
71.00000000000022
 30
0.0
 11
1069.299999999999
 21
71.00000000000022
 31
0.0
  0
LINE
  5
1F5
330
2
100
AcDbEntity
  8
L-ZISSEN
100
AcDbLine
 10
1082.299999999998
 20
49.0
 30
0.0
 11
1069.299999999999
 21
49.0
 31
0.0
  0
LINE
  5
1F6
330
2
100
AcDbEntity
  8
L-ZISSEN
  6
CONTINUOUS
 62
     7
100
AcDbLine
 10
1069.299999999999
 20
71.00000000000022
 30
0.0
 11
1069.299999999999
 21
49.0
 31
0.0
  0
LINE
  5
1F7
330
2
100
AcDbEntity
  8
L-ZISSEN
  6
CONTINUOUS
 62
     7
100
AcDbLine
 10
1055.999999999998
 20
67.25000000000022
 30
0.0
 11
1055.999999999998
 21
52.75
 31
0.0
  0
LINE
  5
1F8
330
2
100
AcDbEntity
  8
L-ZISSEN
  6
CONTINUOUS
 62
     7
100
AcDbLine
 10
1063.299999999998
 20
69.00000000000023
 30
0.0
 11
1063.299999999998
 21
51.0
 31
0.0
  0
LINE
  5
1F9
330
2
100
AcDbEntity
  8
L-ZISSEN
  6
CONTINUOUS
 62
     7
100
AcDbLine
 10
1063.299999999998
 20
52.75
 30
0.0
 11
1055.999999999998
 21
52.75
 31
0.0
  0
LINE
  5
1FA
330
2
100
AcDbEntity
  8
L-ZISSEN
  6
CONTINUOUS
 62
     7
100
AcDbLine
 10
1069.299999999999
 20
51.0
 30
0.0
 11
1063.299999999998
 21
51.0
 31
0.0
  0
LINE
  5
1FB
330
2
100
AcDbEntity
  8
L-ZISSEN
  6
CONTINUOUS
 62
     7
100
AcDbLine
 10
1063.299999999998
 20
67.25000000000022
 30
0.0
 11
1055.999999999998
 21
67.25000000000022
 31
0.0
  0
LINE
  5
1FC
330
2
100
AcDbEntity
  8
L-ZISSEN
  6
CONTINUOUS
 62
     7
100
AcDbLine
 10
1069.299999999999
 20
69.00000000000023
 30
0.0
 11
1063.299999999998
 21
69.00000000000023
 31
0.0
  0
LINE
  5
1FD
330
2
100
AcDbEntity
  8
L-ZISSEN
100
AcDbLine
 10
1166.999999999998
 20
86.0
 30
0.0
 11
1092.899999999998
 21
85.99999999999978
 31
0.0
  0
LINE
  5
1FE
330
2
100
AcDbEntity
  8
L-ZISSEN
100
AcDbLine
 10
1082.299999999998
 20
78.99999999999977
 30
0.0
 11
1082.299999999998
 21
40.99999999999977
 31
0.0
  0
LINE
  5
1FF
330
2
100
AcDbEntity
  8
L-ZISSEN
100
AcDbLine
 10
1092.899999999998
 20
85.99999999999978
 30
0.0
 11
1092.899999999998
 21
33.99999999999977
 31
0.0
  0
LINE
  5
200
330
2
100
AcDbEntity
  8
L-ZISSEN
100
AcDbLine
 10
1088.257179999998
 20
44.49995000000058
 30
0.0
 11
1088.257179999998
 21
35.5000500000001
 31
0.0
  0
LINE
  5
201
330
2
100
AcDbEntity
  8
L-ZISSEN
100
AcDbLine
 10
1088.257179999998
 20
40.99999999999977
 30
0.0
 11
1082.299999999998
 21
40.99999999999977
 31
0.0
  0
LINE
  5
202
330
2
100
AcDbEntity
  8
L-ZISSEN
100
AcDbLine
 10
1088.257179999998
 20
35.5000500000001
 30
0.0
 11
1092.899999999998
 21
35.5000500000001
 31
0.0
  0
LINE
  5
203
330
2
100
AcDbEntity
  8
L-ZISSEN
100
AcDbLine
 10
1088.257179999998
 20
44.49995000000058
 30
0.0
 11
1092.899999999998
 21
44.49995000000058
 31
0.0
  0
LINE
  5
204
330
2
100
AcDbEntity
  8
L-ZISSEN
100
AcDbLine
 10
1088.257179999998
 20
75.50004999999941
 30
0.0
 11
1088.257179999998
 21
84.4999499999999
 31
0.0
  0
LINE
  5
205
330
2
100
AcDbEntity
  8
L-ZISSEN
100
AcDbLine
 10
1088.257179999998
 20
75.50004999999941
 30
0.0
 11
1092.899999999998
 21
75.50004999999941
 31
0.0
  0
LINE
  5
206
330
2
100
AcDbEntity
  8
L-ZISSEN
100
AcDbLine
 10
1088.257179999998
 20
78.99999999999977
 30
0.0
 11
1082.299999999998
 21
78.99999999999977
 31
0.0
  0
LINE
  5
207
330
2
100
AcDbEntity
  8
L-ZISSEN
100
AcDbLine
 10
1088.257179999998
 20
84.4999499999999
 30
0.0
 11
1092.899999999998
 21
84.4999499999999
 31
0.0
  0
LINE
  5
208
330
2
100
AcDbEntity
  8
L-ZISSEN
  6
CONTINUOUS
 62
     7
100
AcDbLine
 10
1164.899999999999
 20
33.99999999999954
 30
0.0
 11
1164.899999999999
 21
85.99999999999955
 31
0.0
  0
LINE
  5
209
330
2
100
AcDbEntity
  8
L-ZISSEN
  6
CONTINUOUS
 62
     7
100
AcDbLine
 10
1164.899999999999
 20
33.99999999999977
 30
0.0
 11
1164.899999999999
 21
85.99999999999978
 31
0.0
  0
SOLID
  5
20A
330
2
100
AcDbEntity
  8
L-ZISSEN
100
AcDbTrace
 10
1203.133505067852
 20
32.31884641621786
 30
0.0
 11
1203.617473523789
 21
32.77734284815835
 31
0.0
 12
1201.999999999999
 22
33.99999999999977
 32
0.0
 13
1201.999999999999
 23
33.99999999999977
 33
0.0
  0
LINE
  5
20B
330
2
100
AcDbEntity
  8
L-ZISSEN
  6
CONTINUOUS
 62
     7
100
AcDbLine
 10
1166.999999999999
 20
95.49999999999977
 30
0.0
 11
1166.999999999999
 21
85.99999999999978
 31
0.0
  0
LINE
  5
20C
330
2
100
AcDbEntity
  8
L-ZISSEN
  6
CONTINUOUS
 62
     7
100
AcDbLine
 10
1174.499999999999
 20
99.09999999999968
 30
0.0
 11
1167.499999999999
 21
99.09999999999968
 31
0.0
  0
LINE
  5
20D
330
2
100
AcDbEntity
  8
L-ZISSEN
  6
CONTINUOUS
 62
     7
100
AcDbLine
 10
1167.499999999999
 20
95.49999999999977
 30
0.0
 11
1167.499999999999
 21
99.09999999999968
 31
0.0
  0
LINE
  5
20E
330
2
100
AcDbEntity
  8
L-ZISSEN
  6
CONTINUOUS
 62
     7
100
AcDbLine
 10
1174.499999999999
 20
95.49999999999977
 30
0.0
 11
1174.499999999999
 21
99.09999999999968
 31
0.0
  0
LINE
  5
20F
330
2
100
AcDbEntity
  8
L-ZISSEN
  6
CONTINUOUS
 62
     7
100
AcDbLine
 10
1194.499999999999
 20
93.99999999999977
 30
0.0
 11
1194.499999999999
 21
91.618381
 31
0.0
  0
LINE
  5
210
330
2
100
AcDbEntity
  8
L-ZISSEN
100
AcDbLine
 10
1082.299999999998
 20
161.0000000000002
 30
0.0
 11
1069.299999999999
 21
161.0000000000002
 31
0.0
  0
LINE
  5
211
330
2
100
AcDbEntity
  8
L-ZISSEN
100
AcDbLine
 10
1082.299999999998
 20
139.0
 30
0.0
 11
1069.299999999999
 21
139.0
 31
0.0
  0
LINE
  5
212
330
2
100
AcDbEntity
  8
L-ZISSEN
  6
CONTINUOUS
 62
     7
100
AcDbLine
 10
1063.299999999998
 20
159.0000000000002
 30
0.0
 11
1063.299999999998
 21
141.0
 31
0.0
  0
LINE
  5
213
330
2
100
AcDbEntity
  8
L-ZISSEN
  6
CONTINUOUS
 62
     7
100
AcDbLine
 10
1069.299999999999
 20
161.0000000000002
 30
0.0
 11
1069.299999999999
 21
139.0
 31
0.0
  0
LINE
  5
214
330
2
100
AcDbEntity
  8
L-ZISSEN
  6
CONTINUOUS
 62
     7
100
AcDbLine
 10
1063.299999999998
 20
157.2500000000002
 30
0.0
 11
1055.999999999998
 21
157.2500000000002
 31
0.0
  0
LINE
  5
215
330
2
100
AcDbEntity
  8
L-ZISSEN
  6
CONTINUOUS
 62
     7
100
AcDbLine
 10
1063.299999999998
 20
142.75
 30
0.0
 11
1055.999999999998
 21
142.75
 31
0.0
  0
LINE
  5
216
330
2
100
AcDbEntity
  8
L-ZISSEN
  6
CONTINUOUS
 62
     7
100
AcDbLine
 10
1055.999999999998
 20
157.2500000000002
 30
0.0
 11
1055.999999999998
 21
142.75
 31
0.0
  0
LINE
  5
217
330
2
100
AcDbEntity
  8
L-ZISSEN
  6
CONTINUOUS
 62
     7
100
AcDbLine
 10
1069.299999999999
 20
141.0
 30
0.0
 11
1063.299999999998
 21
141.0
 31
0.0
  0
LINE
  5
218
330
2
100
AcDbEntity
  8
L-ZISSEN
  6
CONTINUOUS
 62
     7
100
AcDbLine
 10
1069.299999999999
 20
159.0000000000002
 30
0.0
 11
1063.299999999998
 21
159.0000000000002
 31
0.0
  0
LINE
  5
219
330
2
100
AcDbEntity
  8
L-ZISSEN
100
AcDbLine
 10
966.2392885771581
 20
282.4302344689331
 30
0.0
 11
980.0
 21
265.0
 31
0.0
  0
SOLID
  5
21A
330
2
100
AcDbEntity
  8
L-ZISSEN
100
AcDbTrace
 10
965.9776609886469
 20
282.2236863727401
 30
0.0
 11
966.5009161656692
 21
282.6367825651261
 31
0.0
 12
965.0
 22
284.0
 32
0.0
 13
965.0
 23
284.0
 33
0.0
  0
TEXT
  5
21B
330
2
100
AcDbEntity
  8
L-ZISSEN
100
AcDbText
 10
984.0
 20
262.7499999999999
 30
0.0
 40
4.5
  1
P.P
100
AcDbText
  0
LINE
  5
21C
330
2
100
AcDbEntity
  8
L-ZISSEN
100
AcDbLine
 10
980.0
 20
265.0
 30
0.0
 11
982.0
 21
265.0
 31
0.0
  0
CIRCLE
  5
21D
330
2
100
AcDbEntity
  8
L-ZISSEN
100
AcDbCircle
 10
984.999999999999
 20
289.9999999999997
 30
0.0
 40
4.499950000000126
  0
LINE
  5
21E
330
2
100
AcDbEntity
  8
L-ZISSEN
100
AcDbLine
 10
1092.899999999998
 20
175.9999999999997
 30
0.0
 11
1092.899999999998
 21
123.9999999999997
 31
0.0
  0
LINE
  5
21F
330
2
100
AcDbEntity
  8
L-ZISSEN
100
AcDbLine
 10
1082.299999999998
 20
168.9999999999997
 30
0.0
 11
1082.299999999998
 21
130.9999999999997
 31
0.0
  0
LINE
  5
220
330
2
100
AcDbEntity
  8
L-ZISSEN
100
AcDbLine
 10
1088.257179999998
 20
130.9999999999997
 30
0.0
 11
1082.299999999998
 21
130.9999999999997
 31
0.0
  0
LINE
  5
221
330
2
100
AcDbEntity
  8
L-ZISSEN
100
AcDbLine
 10
1088.257179999998
 20
134.4999500000005
 30
0.0
 11
1088.257179999998
 21
125.5000500000001
 31
0.0
  0
LINE
  5
222
330
2
100
AcDbEntity
  8
L-ZISSEN
100
AcDbLine
 10
1088.257179999998
 20
125.5000500000001
 30
0.0
 11
1092.899999999998
 21
125.5000500000001
 31
0.0
  0
LINE
  5
223
330
2
100
AcDbEntity
  8
L-ZISSEN
100
AcDbLine
 10
1088.257179999998
 20
134.4999500000005
 30
0.0
 11
1092.899999999998
 21
134.4999500000005
 31
0.0
  0
LINE
  5
224
330
2
100
AcDbEntity
  8
L-ZISSEN
100
AcDbLine
 10
1088.257179999998
 20
165.5000499999994
 30
0.0
 11
1088.257179999998
 21
174.4999499999998
 31
0.0
  0
LINE
  5
225
330
2
100
AcDbEntity
  8
L-ZISSEN
100
AcDbLine
 10
1088.257179999998
 20
168.9999999999997
 30
0.0
 11
1082.299999999998
 21
168.9999999999997
 31
0.0
  0
LINE
  5
226
330
2
100
AcDbEntity
  8
L-ZISSEN
100
AcDbLine
 10
1088.257179999998
 20
165.5000499999994
 30
0.0
 11
1092.899999999998
 21
165.5000499999994
 31
0.0
  0
LINE
  5
227
330
2
100
AcDbEntity
  8
L-ZISSEN
100
AcDbLine
 10
1088.257179999998
 20
174.4999499999998
 30
0.0
 11
1092.899999999998
 21
174.4999499999998
 31
0.0
  0
LINE
  5
228
330
2
100
AcDbEntity
  8
L-ZISSEN
100
AcDbLine
 10
1166.999999999998
 20
124.0
 30
0.0
 11
1166.999999999999
 21
176.0
 31
0.0
  0
LINE
  5
229
330
2
100
AcDbEntity
  8
L-ZISSEN
  6
CONTINUOUS
 62
     7
100
AcDbLine
 10
1164.899999999999
 20
123.9999999999997
 30
0.0
 11
1164.899999999999
 21
175.9999999999997
 31
0.0
  0
CIRCLE
  5
22A
330
2
100
AcDbEntity
  8
L-ZISSEN
100
AcDbCircle
 10
1170.999999999999
 20
128.0
 30
0.0
 40
3.5
  0
LINE
  5
22B
330
2
100
AcDbEntity
  8
L-ZISSEN
100
AcDbLine
 10
1188.999999999999
 20
121.9999999999995
 30
0.0
 11
1188.999999999999
 21
123.9999999999995
 31
0.0
  0
SOLID
  5
22C
330
2
100
AcDbEntity
  8
L-ZISSEN
100
AcDbTrace
 10
1202.707973480829
 20
148.1000303524655
 30
0.0
 11
1203.285911016201
 21
148.4323444353043
 31
0.0
 12
1201.999999999999
 22
150.0
 32
0.0
 13
1201.999999999999
 23
150.0
 33
0.0
  0
CIRCLE
  5
22D
330
2
100
AcDbEntity
  8
L-ZISSEN
100
AcDbCircle
 10
1170.999999999999
 20
172.0
 30
0.0
 40
3.5
  0
LINE
  5
22E
330
2
100
AcDbEntity
  8
L-ZISSEN
100
AcDbLine
 10
1188.999999999999
 20
178.0000000000004
 30
0.0
 11
1188.999999999999
 21
176.0000000000004
 31
0.0
  0
LINE
  5
22F
330
2
100
AcDbEntity
  8
L-ZISSEN
  6
CONTINUOUS
 62
     7
100
AcDbLine
 10
1154.899999999999
 20
283.9999999999997
 30
0.0
 11
1108.899999999999
 21
285.6063555341138
 31
0.0
  0
TEXT
  5
230
330
2
100
AcDbEntity
  8
L-ZISSEN
100
AcDbText
 10
1084.999999999999
 20
210.0
 30
0.0
 40
4.5
  1
MODEL NO. : 36B-*00-91R0
100
AcDbText
  0
TEXT
  5
231
330
2
100
AcDbEntity
  8
L-ZISSEN
100
AcDbText
 10
1084.999999999999
 20
220.0
 30
0.0
 40
4.5
  1
PILOT VALVE
100
AcDbText
  0
SOLID
  5
232
330
2
100
AcDbEntity
  8
L-ZISSEN
100
AcDbTrace
 10
1203.133505067852
 20
282.3188464162178
 30
0.0
 11
1203.617473523789
 21
282.7773428481583
 31
0.0
 12
1201.999999999999
 22
283.9999999999997
 32
0.0
 13
1201.999999999999
 23
283.9999999999997
 33
0.0
  0
TEXT
  5
233
330
2
100
AcDbEntity
  8
L-ZISSEN
100
AcDbText
 10
1228.999999999999
 20
107.7500000000001
 30
0.0
 40
4.5
  1
P.P
100
AcDbText
  0
LINE
  5
234
330
2
100
AcDbEntity
  8
L-ZISSEN
  6
CONTINUOUS
 62
     7
100
AcDbLine
 10
1334.7
 20
69.00000000000023
 30
0.0
 11
1340.7
 21
69.00000000000023
 31
0.0
  0
LINE
  5
235
330
2
100
AcDbEntity
  8
L-ZISSEN
  6
CONTINUOUS
 62
     7
100
AcDbLine
 10
1334.7
 20
51.0
 30
0.0
 11
1340.7
 21
51.0
 31
0.0
  0
TEXT
  5
236
330
2
100
AcDbEntity
  8
L-ZISSEN
100
AcDbText
 10
1223.999999999999
 20
12.74999999999977
 30
0.0
 40
4.5
  1
P.P
100
AcDbText
  0
LINE
  5
237
330
2
100
AcDbEntity
  8
L-ZISSEN
100
AcDbLine
 10
1219.999999999999
 20
14.99999999999977
 30
0.0
 11
1221.999999999999
 21
14.99999999999977
 31
0.0
  0
LINE
  5
238
330
2
100
AcDbEntity
  8
L-ZISSEN
100
AcDbLine
 10
1236.999999999999
 20
86.0
 30
0.0
 11
1311.1
 21
85.99999999999978
 31
0.0
  0
LINE
  5
239
330
2
100
AcDbEntity
  8
L-ZISSEN
  6
CONTINUOUS
 62
     7
100
AcDbLine
 10
1239.099999999999
 20
33.99999999999977
 30
0.0
 11
1239.099999999999
 21
85.99999999999978
 31
0.0
  0
LINE
  5
23A
330
2
100
AcDbEntity
  8
L-ZISSEN
  6
CONTINUOUS
 62
     7
100
AcDbLine
 10
1239.099999999999
 20
33.99999999999954
 30
0.0
 11
1239.099999999999
 21
85.99999999999955
 31
0.0
  0
LINE
  5
23B
330
2
100
AcDbEntity
  8
L-ZISSEN
  6
CONTINUOUS
 62
     7
100
AcDbLine
 10
1236.999999999999
 20
95.49999999999977
 30
0.0
 11
1236.999999999999
 21
86.0
 31
0.0
  0
LINE
  5
23C
330
2
100
AcDbEntity
  8
L-ZISSEN
100
AcDbLine
 10
1224.999999999999
 20
110.0000000000001
 30
0.0
 11
1226.999999999999
 21
110.0000000000001
 31
0.0
  0
LINE
  5
23D
330
2
100
AcDbEntity
  8
L-ZISSEN
  6
CONTINUOUS
 62
     7
100
AcDbLine
 10
1209.499999999999
 20
93.99999999999977
 30
0.0
 11
1209.499999999999
 21
91.618381
 31
0.0
  0
LINE
  5
23E
330
2
100
AcDbEntity
  8
L-ZISSEN
  6
CONTINUOUS
 62
     7
100
AcDbLine
 10
1229.499999999999
 20
99.09999999999968
 30
0.0
 11
1236.499999999999
 21
99.09999999999968
 31
0.0
  0
LINE
  5
23F
330
2
100
AcDbEntity
  8
L-ZISSEN
  6
CONTINUOUS
 62
     7
100
AcDbLine
 10
1229.499999999999
 20
95.49999999999977
 30
0.0
 11
1229.499999999999
 21
99.09999999999968
 31
0.0
  0
LINE
  5
240
330
2
100
AcDbEntity
  8
L-ZISSEN
  6
CONTINUOUS
 62
     7
100
AcDbLine
 10
1236.499999999999
 20
95.49999999999977
 30
0.0
 11
1236.499999999999
 21
99.09999999999968
 31
0.0
  0
LINE
  5
241
330
2
100
AcDbEntity
  8
L-ZISSEN
  6
CONTINUOUS
 62
     7
100
AcDbLine
 10
1334.7
 20
71.00000000000022
 30
0.0
 11
1334.7
 21
49.0
 31
0.0
  0
LINE
  5
242
330
2
100
AcDbEntity
  8
L-ZISSEN
100
AcDbLine
 10
1311.1
 20
85.99999999999978
 30
0.0
 11
1311.1
 21
33.99999999999977
 31
0.0
  0
LINE
  5
243
330
2
100
AcDbEntity
  8
L-ZISSEN
100
AcDbLine
 10
1321.7
 20
78.99999999999977
 30
0.0
 11
1321.7
 21
40.99999999999977
 31
0.0
  0
LINE
  5
244
330
2
100
AcDbEntity
  8
L-ZISSEN
100
AcDbLine
 10
1315.74282
 20
44.49995000000058
 30
0.0
 11
1315.74282
 21
35.5000500000001
 31
0.0
  0
LINE
  5
245
330
2
100
AcDbEntity
  8
L-ZISSEN
100
AcDbLine
 10
1315.74282
 20
35.5000500000001
 30
0.0
 11
1311.1
 21
35.5000500000001
 31
0.0
  0
LINE
  5
246
330
2
100
AcDbEntity
  8
L-ZISSEN
100
AcDbLine
 10
1315.74282
 20
40.99999999999977
 30
0.0
 11
1321.7
 21
40.99999999999977
 31
0.0
  0
LINE
  5
247
330
2
100
AcDbEntity
  8
L-ZISSEN
100
AcDbLine
 10
1321.7
 20
49.0
 30
0.0
 11
1334.7
 21
49.0
 31
0.0
  0
LINE
  5
248
330
2
100
AcDbEntity
  8
L-ZISSEN
100
AcDbLine
 10
1315.74282
 20
44.49995000000058
 30
0.0
 11
1311.1
 21
44.49995000000058
 31
0.0
  0
LINE
  5
249
330
2
100
AcDbEntity
  8
L-ZISSEN
100
AcDbLine
 10
1321.7
 20
71.00000000000022
 30
0.0
 11
1334.7
 21
71.00000000000022
 31
0.0
  0
LINE
  5
24A
330
2
100
AcDbEntity
  8
L-ZISSEN
100
AcDbLine
 10
1315.74282
 20
75.50004999999941
 30
0.0
 11
1315.74282
 21
84.4999499999999
 31
0.0
  0
LINE
  5
24B
330
2
100
AcDbEntity
  8
L-ZISSEN
100
AcDbLine
 10
1315.74282
 20
75.50004999999941
 30
0.0
 11
1311.1
 21
75.50004999999941
 31
0.0
  0
LINE
  5
24C
330
2
100
AcDbEntity
  8
L-ZISSEN
100
AcDbLine
 10
1315.74282
 20
84.4999499999999
 30
0.0
 11
1311.1
 21
84.4999499999999
 31
0.0
  0
LINE
  5
24D
330
2
100
AcDbEntity
  8
L-ZISSEN
100
AcDbLine
 10
1315.74282
 20
78.99999999999977
 30
0.0
 11
1321.7
 21
78.99999999999977
 31
0.0
  0
LINE
  5
24E
330
2
100
AcDbEntity
  8
L-ZISSEN
100
AcDbLine
 10
1406.239288577157
 20
32.43023446893312
 30
0.0
 11
1419.999999999999
 21
15.0
 31
0.0
  0
LINE
  5
24F
330
2
100
AcDbEntity
  8
L-ZISSEN
100
AcDbLine
 10
1419.999999999999
 20
15.0
 30
0.0
 11
1421.999999999999
 21
15.0
 31
0.0
  0
TEXT
  5
250
330
2
100
AcDbEntity
  8
L-ZISSEN
100
AcDbText
 10
1423.999999999999
 20
12.75
 30
0.0
 40
4.5
  1
P.P
100
AcDbText
  0
SOLID
  5
251
330
2
100
AcDbEntity
  8
L-ZISSEN
100
AcDbTrace
 10
1405.977660988646
 20
32.22368637274019
 30
0.0
 11
1406.500916165668
 21
32.63678256512617
 31
0.0
 12
1404.999999999999
 22
34.0
 32
0.0
 13
1404.999999999999
 23
34.0
 33
0.0
  0
CIRCLE
  5
252
330
2
100
AcDbEntity
  8
L-ZISSEN
100
AcDbCircle
 10
1404.999999999999
 20
60.0
 30
0.0
 40
7.25000000000022
  0
CIRCLE
  5
253
330
2
100
AcDbEntity
  8
L-ZISSEN
100
AcDbCircle
 10
1404.999999999999
 20
60.0
 30
0.0
 40
9.000000000000227
  0
CIRCLE
  5
254
330
2
100
AcDbEntity
  8
L-ZISSEN
100
AcDbCircle
 10
1404.999999999999
 20
60.0
 30
0.0
 40
11.00000000000023
  0
LINE
  5
255
330
2
100
AcDbEntity
  8
L-ZISSEN
100
AcDbLine
 10
1378.999999999999
 20
86.0
 30
0.0
 11
1431.0
 21
86.0
 31
0.0
  0
LINE
  5
256
330
2
100
AcDbEntity
  8
L-ZISSEN
100
AcDbLine
 10
1378.999999999999
 20
95.5
 30
0.0
 11
1431.0
 21
95.5
 31
0.0
  0
LINE
  5
257
330
2
100
AcDbEntity
  8
L-ZISSEN
100
AcDbLine
 10
1376.999999999999
 20
94.0
 30
0.0
 11
1432.999999999999
 21
94.0
 31
0.0
  0
LINE
  5
258
330
2
100
AcDbEntity
  8
L-ZISSEN
100
AcDbLine
 10
1378.999999999999
 20
34.0
 30
0.0
 11
1431.0
 21
34.0
 31
0.0
  0
CIRCLE
  5
259
330
2
100
AcDbEntity
  8
L-ZISSEN
100
AcDbCircle
 10
1404.999999999999
 20
60.0
 30
0.0
 40
18.99999999999977
  0
LINE
  5
25A
330
2
100
AcDbEntity
  8
L-ZISSEN
100
AcDbLine
 10
1378.999999999999
 20
34.0
 30
0.0
 11
1378.999999999999
 21
95.5
 31
0.0
  0
LINE
  5
25B
330
2
100
AcDbEntity
  8
L-ZISSEN
  6
CONTINUOUS
 62
     7
100
AcDbLine
 10
1348.0
 20
67.25000000000022
 30
0.0
 11
1348.0
 21
52.75
 31
0.0
  0
LINE
  5
25C
330
2
100
AcDbEntity
  8
L-ZISSEN
  6
CONTINUOUS
 62
     7
100
AcDbLine
 10
1340.7
 20
69.00000000000023
 30
0.0
 11
1340.7
 21
51.0
 31
0.0
  0
LINE
  5
25D
330
2
100
AcDbEntity
  8
L-ZISSEN
  6
CONTINUOUS
 62
     7
100
AcDbLine
 10
1340.7
 20
52.75
 30
0.0
 11
1348.0
 21
52.75
 31
0.0
  0
CIRCLE
  5
25E
330
2
100
AcDbEntity
  8
L-ZISSEN
100
AcDbCircle
 10
1384.999999999999
 20
39.99999999999977
 30
0.0
 40
4.499950000000126
  0
LINE
  5
25F
330
2
100
AcDbEntity
  8
L-ZISSEN
  6
CONTINUOUS
 62
     7
100
AcDbLine
 10
1340.7
 20
67.25000000000022
 30
0.0
 11
1348.0
 21
67.25000000000022
 31
0.0
  0
LINE
  5
260
330
2
100
AcDbEntity
  8
L-ZISSEN
100
AcDbLine
 10
1376.999999999999
 20
68.00000000000022
 30
0.0
 11
1376.999999999999
 21
94.0
 31
0.0
  0
CIRCLE
  5
261
330
2
100
AcDbEntity
  8
L-ZISSEN
100
AcDbCircle
 10
1384.999999999999
 20
80.0
 30
0.0
 40
4.499950000000126
  0
LINE
  5
262
330
2
100
AcDbEntity
  8
L-ZISSEN
100
AcDbLine
 10
1376.999999999999
 20
68.00000000000022
 30
0.0
 11
1378.999999999999
 21
68.00000000000022
 31
0.0
  0
LINE
  5
263
330
2
100
AcDbEntity
  8
L-ZISSEN
  6
CONTINUOUS
 62
     7
100
AcDbLine
 10
1386.499999999999
 20
99.09999999999991
 30
0.0
 11
1379.499999999999
 21
99.09999999999991
 31
0.0
  0
LINE
  5
264
330
2
100
AcDbEntity
  8
L-ZISSEN
  6
CONTINUOUS
 62
     7
100
AcDbLine
 10
1379.499999999999
 20
95.5
 30
0.0
 11
1379.499999999999
 21
99.09999999999991
 31
0.0
  0
LINE
  5
265
330
2
100
AcDbEntity
  8
L-ZISSEN
  6
CONTINUOUS
 62
     7
100
AcDbLine
 10
1386.499999999999
 20
95.5
 30
0.0
 11
1386.499999999999
 21
99.09999999999991
 31
0.0
  0
LINE
  5
266
330
2
100
AcDbEntity
  8
L-ZISSEN
100
AcDbLine
 10
1431.0
 20
95.5
 30
0.0
 11
1431.0
 21
34.0
 31
0.0
  0
CIRCLE
  5
267
330
2
100
AcDbEntity
  8
L-ZISSEN
100
AcDbCircle
 10
1424.999999999999
 20
39.99999999999977
 30
0.0
 40
4.499950000000126
  0
LINE
  5
268
330
2
100
AcDbEntity
  8
L-ZISSEN
100
AcDbLine
 10
1432.999999999999
 20
68.00000000000022
 30
0.0
 11
1432.999999999999
 21
94.0
 31
0.0
  0
CIRCLE
  5
269
330
2
100
AcDbEntity
  8
L-ZISSEN
100
AcDbCircle
 10
1424.999999999999
 20
80.0
 30
0.0
 40
4.499950000000126
  0
LINE
  5
26A
330
2
100
AcDbEntity
  8
L-ZISSEN
100
AcDbLine
 10
1431.0
 20
68.00000000000022
 30
0.0
 11
1432.999999999999
 21
68.00000000000022
 31
0.0
  0
LINE
  5
26B
330
2
100
AcDbEntity
  8
L-ZISSEN
  6
CONTINUOUS
 62
     7
100
AcDbLine
 10
1430.499999999999
 20
95.5
 30
0.0
 11
1430.499999999999
 21
99.09999999999991
 31
0.0
  0
LINE
  5
26C
330
2
100
AcDbEntity
  8
L-ZISSEN
  6
CONTINUOUS
 62
     7
100
AcDbLine
 10
1423.499999999999
 20
95.5
 30
0.0
 11
1423.499999999999
 21
99.09999999999991
 31
0.0
  0
LINE
  5
26D
330
2
100
AcDbEntity
  8
L-ZISSEN
  6
CONTINUOUS
 62
     7
100
AcDbLine
 10
1423.499999999999
 20
99.09999999999991
 30
0.0
 11
1430.499999999999
 21
99.09999999999991
 31
0.0
  0
LINE
  5
26E
330
2
100
AcDbEntity
  8
L-ZISSEN
  6
CONTINUOUS
 62
     7
100
AcDbLine
 10
1334.7
 20
159.0000000000002
 30
0.0
 11
1340.7
 21
159.0000000000002
 31
0.0
  0
LINE
  5
26F
330
2
100
AcDbEntity
  8
L-ZISSEN
  6
CONTINUOUS
 62
     7
100
AcDbLine
 10
1334.7
 20
141.0
 30
0.0
 11
1340.7
 21
141.0
 31
0.0
  0
LINE
  5
270
330
2
100
AcDbEntity
  8
L-ZISSEN
  6
CONTINUOUS
 62
     7
100
AcDbLine
 10
1239.099999999999
 20
123.9999999999997
 30
0.0
 11
1239.099999999999
 21
175.9999999999997
 31
0.0
  0
LINE
  5
271
330
2
100
AcDbEntity
  8
L-ZISSEN
100
AcDbLine
 10
1236.999999999999
 20
124.0
 30
0.0
 11
1236.999999999999
 21
176.0
 31
0.0
  0
LINE
  5
272
330
2
100
AcDbEntity
  8
L-ZISSEN
100
AcDbLine
 10
1214.999999999999
 20
121.9999999999995
 30
0.0
 11
1214.999999999999
 21
123.9999999999995
 31
0.0
  0
CIRCLE
  5
273
330
2
100
AcDbEntity
  8
L-ZISSEN
100
AcDbCircle
 10
1232.999999999999
 20
128.0
 30
0.0
 40
3.5
  0
LINE
  5
274
330
2
100
AcDbEntity
  8
L-ZISSEN
100
AcDbLine
 10
1214.999999999999
 20
178.0000000000004
 30
0.0
 11
1214.999999999999
 21
176.0000000000004
 31
0.0
  0
CIRCLE
  5
275
330
2
100
AcDbEntity
  8
L-ZISSEN
100
AcDbCircle
 10
1232.999999999999
 20
172.0
 30
0.0
 40
3.5
  0
LINE
  5
276
330
2
100
AcDbEntity
  8
L-ZISSEN
  6
CONTINUOUS
 62
     7
100
AcDbLine
 10
1334.7
 20
161.0000000000002
 30
0.0
 11
1334.7
 21
139.0
 31
0.0
  0
LINE
  5
277
330
2
100
AcDbEntity
  8
L-ZISSEN
100
AcDbLine
 10
1321.7
 20
168.9999999999997
 30
0.0
 11
1321.7
 21
130.9999999999997
 31
0.0
  0
LINE
  5
278
330
2
100
AcDbEntity
  8
L-ZISSEN
100
AcDbLine
 10
1311.1
 20
175.9999999999997
 30
0.0
 11
1311.1
 21
123.9999999999997
 31
0.0
  0
LINE
  5
279
330
2
100
AcDbEntity
  8
L-ZISSEN
100
AcDbLine
 10
1315.74282
 20
134.4999500000005
 30
0.0
 11
1311.1
 21
134.4999500000005
 31
0.0
  0
LINE
  5
27A
330
2
100
AcDbEntity
  8
L-ZISSEN
100
AcDbLine
 10
1315.74282
 20
125.5000500000001
 30
0.0
 11
1311.1
 21
125.5000500000001
 31
0.0
  0
LINE
  5
27B
330
2
100
AcDbEntity
  8
L-ZISSEN
100
AcDbLine
 10
1315.74282
 20
134.4999500000005
 30
0.0
 11
1315.74282
 21
125.5000500000001
 31
0.0
  0
LINE
  5
27C
330
2
100
AcDbEntity
  8
L-ZISSEN
100
AcDbLine
 10
1315.74282
 20
130.9999999999997
 30
0.0
 11
1321.7
 21
130.9999999999997
 31
0.0
  0
LINE
  5
27D
330
2
100
AcDbEntity
  8
L-ZISSEN
100
AcDbLine
 10
1321.7
 20
139.0
 30
0.0
 11
1334.7
 21
139.0
 31
0.0
  0
LINE
  5
27E
330
2
100
AcDbEntity
  8
L-ZISSEN
100
AcDbLine
 10
1321.7
 20
161.0000000000002
 30
0.0
 11
1334.7
 21
161.0000000000002
 31
0.0
  0
LINE
  5
27F
330
2
100
AcDbEntity
  8
L-ZISSEN
100
AcDbLine
 10
1315.74282
 20
165.5000499999994
 30
0.0
 11
1315.74282
 21
174.4999499999998
 31
0.0
  0
LINE
  5
280
330
2
100
AcDbEntity
  8
L-ZISSEN
100
AcDbLine
 10
1315.74282
 20
165.5000499999994
 30
0.0
 11
1311.1
 21
165.5000499999994
 31
0.0
  0
LINE
  5
281
330
2
100
AcDbEntity
  8
L-ZISSEN
100
AcDbLine
 10
1315.74282
 20
168.9999999999997
 30
0.0
 11
1321.7
 21
168.9999999999997
 31
0.0
  0
LINE
  5
282
330
2
100
AcDbEntity
  8
L-ZISSEN
100
AcDbLine
 10
1315.74282
 20
174.4999499999998
 30
0.0
 11
1311.1
 21
174.4999499999998
 31
0.0
  0
LINE
  5
283
330
2
100
AcDbEntity
  8
L-ZISSEN
  6
CONTINUOUS
 62
     7
100
AcDbLine
 10
1249.099999999999
 20
283.9999999999997
 30
0.0
 11
1295.099999999999
 21
285.6063555341138
 31
0.0
  0
TEXT
  5
284
330
2
100
AcDbEntity
  8
L-ZISSEN
100
AcDbText
 10
1223.999999999999
 20
262.7499999999997
 30
0.0
 40
4.5
  1
P.P
100
AcDbText
  0
LINE
  5
285
330
2
100
AcDbEntity
  8
L-ZISSEN
100
AcDbLine
 10
1219.999999999999
 20
264.9999999999997
 30
0.0
 11
1221.999999999999
 21
264.9999999999997
 31
0.0
  0
LINE
  5
286
330
2
100
AcDbEntity
  8
L-ZISSEN
  6
CONTINUOUS
 62
     7
100
AcDbLine
 10
1340.7
 20
159.0000000000002
 30
0.0
 11
1340.7
 21
141.0
 31
0.0
  0
LINE
  5
287
330
2
100
AcDbEntity
  8
L-ZISSEN
  6
CONTINUOUS
 62
     7
100
AcDbLine
 10
1348.0
 20
157.2500000000002
 30
0.0
 11
1348.0
 21
142.75
 31
0.0
  0
LINE
  5
288
330
2
100
AcDbEntity
  8
L-ZISSEN
  6
CONTINUOUS
 62
     7
100
AcDbLine
 10
1340.7
 20
142.75
 30
0.0
 11
1348.0
 21
142.75
 31
0.0
  0
LINE
  5
289
330
2
100
AcDbEntity
  8
L-ZISSEN
  6
CONTINUOUS
 62
     7
100
AcDbLine
 10
1340.7
 20
157.2500000000002
 30
0.0
 11
1348.0
 21
157.2500000000002
 31
0.0
  0
SOLID
  5
28A
330
2
100
AcDbEntity
  8
L-ZISSEN
100
AcDbTrace
 10
1405.977660988646
 20
282.2236863727401
 30
0.0
 11
1406.500916165668
 21
282.6367825651261
 31
0.0
 12
1404.999999999999
 22
284.0
 32
0.0
 13
1404.999999999999
 23
284.0
 33
0.0
  0
LINE
  5
28B
330
2
100
AcDbEntity
  8
L-ZISSEN
100
AcDbLine
 10
1378.999999999999
 20
284.0
 30
0.0
 11
1431.0
 21
284.0
 31
0.0
  0
LINE
  5
28C
330
2
100
AcDbEntity
  8
L-ZISSEN
100
AcDbLine
 10
1406.239288577157
 20
282.4302344689331
 30
0.0
 11
1419.999999999999
 21
265.0
 31
0.0
  0
LINE
  5
28D
330
2
100
AcDbEntity
  8
L-ZISSEN
100
AcDbLine
 10
1419.999999999999
 20
265.0
 30
0.0
 11
1421.999999999999
 21
265.0
 31
0.0
  0
TEXT
  5
28E
330
2
100
AcDbEntity
  8
L-ZISSEN
100
AcDbText
 10
1423.999999999999
 20
262.7499999999999
 30
0.0
 40
4.5
  1
P.P
100
AcDbText
  0
LINE
  5
28F
330
2
100
AcDbEntity
  8
L-TYUSIN
100
AcDbLine
 10
709.9999999999997
 20
500.0
 30
0.0
 11
1719.999999999999
 21
500.0
 31
0.0
  0
LINE
  5
290
330
2
100
AcDbEntity
  8
L-TYUSIN
100
AcDbLine
 10
709.9999999999997
 20
750.0
 30
0.0
 11
1719.999999999999
 21
750.0
 31
0.0
  0
LINE
  5
291
330
2
100
AcDbEntity
  8
L-ZISSEN
  6
CONTINUOUS
 62
     7
100
AcDbLine
 10
946.4999999999998
 20
849.0999999999999
 30
0.0
 11
939.4999999999997
 21
849.0999999999999
 31
0.0
  0
LINE
  5
292
330
2
100
AcDbEntity
  8
L-ZISSEN
100
AcDbLine
 10
938.9999999999998
 20
845.5
 30
0.0
 11
990.9999999999998
 21
845.5
 31
0.0
  0
CIRCLE
  5
293
330
2
100
AcDbEntity
  8
L-ZISSEN
100
AcDbCircle
 10
944.9999999999997
 20
830.0
 30
0.0
 40
4.499950000000126
  0
LINE
  5
294
330
2
100
AcDbEntity
  8
L-ZISSEN
100
AcDbLine
 10
938.9999999999998
 20
836.0
 30
0.0
 11
990.9999999999998
 21
836.0
 31
0.0
  0
CIRCLE
  5
295
330
2
100
AcDbEntity
  8
L-ZISSEN
100
AcDbCircle
 10
944.9999999999997
 20
789.9999999999997
 30
0.0
 40
4.499950000000126
  0
LINE
  5
296
330
2
100
AcDbEntity
  8
L-ZISSEN
100
AcDbLine
 10
938.9999999999998
 20
784.0
 30
0.0
 11
990.9999999999998
 21
784.0
 31
0.0
  0
CIRCLE
  5
297
330
2
100
AcDbEntity
  8
L-ZISSEN
100
AcDbCircle
 10
964.9999999999998
 20
810.0
 30
0.0
 40
18.99999999999977
  0
LINE
  5
298
330
2
100
AcDbEntity
  8
L-ZISSEN
100
AcDbLine
 10
936.9999999999997
 20
844.0
 30
0.0
 11
992.9999999999997
 21
844.0
 31
0.0
  0
LINE
  5
299
330
2
100
AcDbEntity
  8
L-ZISSEN
  6
CONTINUOUS
 62
     7
100
AcDbLine
 10
946.4999999999996
 20
599.0999999999999
 30
0.0
 11
939.4999999999996
 21
599.0999999999999
 31
0.0
  0
LINE
  5
29A
330
2
100
AcDbEntity
  8
L-ZISSEN
100
AcDbLine
 10
938.9999999999995
 20
595.5
 30
0.0
 11
990.9999999999994
 21
595.5
 31
0.0
  0
LINE
  5
29B
330
2
100
AcDbEntity
  8
L-ZISSEN
100
AcDbLine
 10
938.9999999999995
 20
586.0
 30
0.0
 11
990.9999999999994
 21
586.0
 31
0.0
  0
LINE
  5
29C
330
2
100
AcDbEntity
  8
L-ZISSEN
100
AcDbLine
 10
938.9999999999995
 20
534.0
 30
0.0
 11
990.9999999999994
 21
534.0
 31
0.0
  0
LINE
  5
29D
330
2
100
AcDbEntity
  8
L-ZISSEN
100
AcDbLine
 10
936.9999999999995
 20
594.0
 30
0.0
 11
992.9999999999996
 21
594.0
 31
0.0
  0
LINE
  5
29E
330
2
100
AcDbEntity
  8
L-ZISSEN
  6
CONTINUOUS
 62
     7
100
AcDbLine
 10
946.4999999999996
 20
349.0999999999999
 30
0.0
 11
939.4999999999996
 21
349.0999999999999
 31
0.0
  0
LINE
  5
29F
330
2
100
AcDbEntity
  8
L-ZISSEN
100
AcDbLine
 10
938.9999999999995
 20
345.5
 30
0.0
 11
990.9999999999994
 21
345.5
 31
0.0
  0
LINE
  5
2A0
330
2
100
AcDbEntity
  8
L-ZISSEN
100
AcDbLine
 10
938.9999999999995
 20
336.0
 30
0.0
 11
990.9999999999994
 21
336.0
 31
0.0
  0
LINE
  5
2A1
330
2
100
AcDbEntity
  8
L-ZISSEN
100
AcDbLine
 10
936.9999999999995
 20
344.0
 30
0.0
 11
992.9999999999996
 21
344.0
 31
0.0
  0
CIRCLE
  5
2A2
330
2
100
AcDbEntity
  8
L-ZISSEN
100
AcDbCircle
 10
944.9999999999995
 20
330.0
 30
0.0
 40
4.499950000000126
  0
LINE
  5
2A3
330
2
100
AcDbEntity
  8
L-ZISSEN
  6
CONTINUOUS
 62
     7
100
AcDbLine
 10
846.0999999999996
 20
625.6063555341135
 30
0.0
 11
846.0999999999994
 21
674.3936444658859
 31
0.0
  0
LINE
  5
2A4
330
2
100
AcDbEntity
  8
L-ZISSEN
  6
CONTINUOUS
 62
     7
100
AcDbLine
 10
733.8999999999994
 20
623.9999999999996
 30
0.0
 11
733.8999999999994
 21
676.0
 31
0.0
  0
LINE
  5
2A5
330
2
100
AcDbEntity
  8
L-ZISSEN
  6
CONTINUOUS
 62
     7
100
AcDbLine
 10
731.8999999999994
 20
675.9999999999998
 30
0.0
 11
731.8999999999994
 21
623.9999999999996
 31
0.0
  0
LINE
  5
2A6
330
2
100
AcDbEntity
  8
L-ZISSEN
100
AcDbLine
 10
735.9999999999995
 20
623.9999999999999
 30
0.0
 11
735.9999999999995
 21
676.0
 31
0.0
  0
LINE
  5
2A7
330
2
100
AcDbEntity
  8
L-ZISSEN
  6
CONTINUOUS
 62
     7
100
AcDbLine
 10
790.0999999999994
 20
623.9999999999995
 30
0.0
 11
790.0999999999997
 21
675.9999999999998
 31
0.0
  0
LINE
  5
2A8
330
2
100
AcDbEntity
  8
L-ZISSEN
100
AcDbLine
 10
787.9999999999995
 20
623.9999999999997
 30
0.0
 11
787.9999999999995
 21
675.9999999999998
 31
0.0
  0
LINE
  5
2A9
330
2
100
AcDbEntity
  8
L-ZISSEN
  6
CONTINUOUS
 62
     7
100
AcDbLine
 10
728.5999999999996
 20
674.4999999999997
 30
0.0
 11
728.5999999999996
 21
665.5
 31
0.0
  0
LINE
  5
2AA
330
2
100
AcDbEntity
  8
L-ZISSEN
  6
CONTINUOUS
 62
     7
100
AcDbLine
 10
568.3999999999996
 20
485.4999999999998
 30
0.0
 11
568.3999999999996
 21
476.4999999999998
 31
0.0
  0
LINE
  5
2AB
330
2
100
AcDbEntity
  8
L-ZISSEN
100
AcDbLine
 10
565.0999999999998
 20
486.9999999999998
 30
0.0
 11
565.0999999999998
 21
437.4999999999999
 31
0.0
  0
LINE
  5
2AC
330
2
100
AcDbEntity
  8
L-ZISSEN
100
AcDbLine
 10
563.0999999999999
 20
486.9999999999998
 30
0.0
 11
563.0999999999999
 21
437.4999999999999
 31
0.0
  0
LINE
  5
2AD
330
2
100
AcDbEntity
  8
L-ZISSEN
100
AcDbLine
 10
506.8999999999999
 20
486.9999999999998
 30
0.0
 11
506.8999999999999
 21
437.4999999999999
 31
0.0
  0
ARC
  5
2AE
330
2
100
AcDbEntity
  8
L-ZISSEN
100
AcDbCircle
 10
535.0
 20
481.9999999999998
 30
0.0
 40
13.0
100
AcDbArc
 50
125.2344180000008
 51
54.76558199999915
  0
CIRCLE
  5
2AF
330
2
100
AcDbEntity
  8
L-ZISSEN
100
AcDbCircle
 10
535.0
 20
481.9999999999998
 30
0.0
 40
9.3
  0
LINE
  5
2B0
330
2
100
AcDbEntity
  8
L-ZISSEN
  6
CONTINUOUS
 62
     7
100
AcDbLine
 10
450.8999999999996
 20
436.6063555341137
 30
0.0
 11
450.9000000000001
 21
485.3936444658859
 31
0.0
  0
CIRCLE
  5
2B1
330
2
100
AcDbEntity
  8
L-ZISSEN
100
AcDbCircle
 10
546.9999999999995
 20
455.9999999999998
 30
0.0
 40
5.7225
  0
LINE
  5
2B2
330
2
100
AcDbEntity
  8
L-TYUSIN
  6
CENTER
 62
     1
100
AcDbLine
 10
555.9999999999995
 20
455.9999999999998
 30
0.0
 11
537.9999999999995
 21
455.9999999999998
 31
0.0
  0
LINE
  5
2B3
330
2
100
AcDbEntity
  8
L-ZISSEN
  6
CONTINUOUS
 62
     7
100
AcDbLine
 10
562.4999999999998
 20
434.9999999999998
 30
0.0
 11
507.4999999999999
 21
434.9999999999997
 31
0.0
  0
LINE
  5
2B4
330
2
100
AcDbEntity
  8
L-ZISSEN
  6
CONTINUOUS
 62
     7
100
AcDbLine
 10
489.9999999999999
 20
424.9999999999999
 30
0.0
 11
580.0
 21
424.9999999999999
 31
0.0
  0
LINE
  5
2B5
330
2
100
AcDbEntity
  8
L-ZISSEN
  6
CONTINUOUS
 62
     7
100
AcDbLine
 10
489.9999999999999
 20
414.9999999999998
 30
0.0
 11
580.0
 21
414.9999999999998
 31
0.0
  0
LINE
  5
2B6
330
2
100
AcDbEntity
  8
L-ZISSEN
  6
CONTINUOUS
 62
     7
100
AcDbLine
 10
629.9999999999998
 20
412.4999999999999
 30
0.0
 11
439.9999999999998
 21
412.4999999999998
 31
0.0
  0
CIRCLE
  5
2B7
330
2
100
AcDbEntity
  8
L-ZISSEN
  6
CONTINUOUS
 62
     7
100
AcDbCircle
 10
499.4999999999999
 20
392.4999999999998
 30
0.0
 40
8.0
  0
ARC
  5
2B8
330
2
100
AcDbEntity
  8
L-ZISSEN
  6
CONTINUOUS
 62
     7
100
AcDbCircle
 10
454.9999999999999
 20
387.4999999999999
 30
0.0
 40
5.599999999999999
100
AcDbArc
 50
90.0000000000003
 51
269.9999999999997
  0
LINE
  5
2B9
330
2
100
AcDbEntity
  8
L-TYUSIN
  6
CENTER
 62
     1
100
AcDbLine
 10
459.9999999999999
 20
397.4999999999997
 30
0.0
 11
459.9999999999999
 21
377.4999999999999
 31
0.0
  0
ARC
  5
2BA
330
2
100
AcDbEntity
  8
L-ZISSEN
  6
CONTINUOUS
 62
     7
100
AcDbCircle
 10
464.9999999999998
 20
387.4999999999999
 30
0.0
 40
5.599999999999999
100
AcDbArc
 50
270.0000000000002
 51
89.99999999999971
  0
LINE
  5
2BB
330
2
100
AcDbEntity
  8
L-TYUSIN
  6
CENTER
 62
     1
100
AcDbLine
 10
445.0000000000001
 20
387.4999999999999
 30
0.0
 11
474.9999999999998
 21
387.4999999999999
 31
0.0
  0
LINE
  5
2BC
330
2
100
AcDbEntity
  8
L-ZISSEN
  6
CONTINUOUS
 62
     7
100
AcDbLine
 10
464.9999999999998
 20
381.8999999999999
 30
0.0
 11
454.9999999999998
 21
381.8999999999999
 31
0.0
  0
CIRCLE
  5
2BD
330
2
100
AcDbEntity
  8
L-ZISSEN
  6
CONTINUOUS
 62
     7
100
AcDbCircle
 10
499.4999999999999
 20
321.4999999999998
 30
0.0
 40
8.0
  0
LINE
  5
2BE
330
2
100
AcDbEntity
  8
L-TYUSIN
  6
CENTER
 62
     1
100
AcDbLine
 10
484.9999999999999
 20
425.9999999999998
 30
0.0
 11
494.9999999999999
 21
425.9999999999998
 31
0.0
  0
LINE
  5
2BF
330
2
100
AcDbEntity
  8
L-ZISSEN
  6
CONTINUOUS
 62
     7
100
AcDbLine
 10
491.4999999999998
 20
435.1885721713956
 30
0.0
 11
450.8999999999996
 21
436.6063555341137
 31
0.0
  0
LINE
  5
2C0
330
2
100
AcDbEntity
  8
L-ZISSEN
  6
CONTINUOUS
 62
     7
100
AcDbLine
 10
464.9999999999998
 20
393.0999999999999
 30
0.0
 11
454.9999999999998
 21
393.0999999999999
 31
0.0
  0
LINE
  5
2C1
330
2
100
AcDbEntity
  8
L-ZISSEN
  6
CONTINUOUS
 62
     7
100
AcDbLine
 10
449.8999999999997
 20
471.9999999999996
 30
0.0
 11
449.8999999999997
 21
449.9999999999996
 31
0.0
  0
LINE
  5
2C2
330
2
100
AcDbEntity
  8
L-ZISSEN
  6
CONTINUOUS
 62
     7
100
AcDbLine
 10
449.8999999999997
 20
449.9999999999996
 30
0.0
 11
450.8999999999996
 21
449.9999999999996
 31
0.0
  0
LINE
  5
2C3
330
2
100
AcDbEntity
  8
L-ZISSEN
  6
CONTINUOUS
 62
     7
100
AcDbLine
 10
449.8999999999997
 20
471.9999999999996
 30
0.0
 11
450.9000000000001
 21
471.9999999999996
 31
0.0
  0
LINE
  5
2C4
330
2
100
AcDbEntity
  8
L-ZISSEN
  6
CONTINUOUS
 62
     7
100
AcDbLine
 10
491.4999999999999
 20
424.9999999999998
 30
0.0
 11
491.4999999999999
 21
437.4999999999999
 31
0.0
  0
LINE
  5
2C5
330
2
100
AcDbEntity
  8
L-ZISSEN
  6
CONTINUOUS
 62
     7
100
AcDbLine
 10
507.4999999999999
 20
437.4999999999999
 30
0.0
 11
507.4999999999999
 21
424.9999999999998
 31
0.0
  0
LINE
  5
2C6
330
2
100
AcDbEntity
  8
L-ZISSEN
  6
CONTINUOUS
 62
     7
100
AcDbLine
 10
489.9999999999999
 20
412.4999999999998
 30
0.0
 11
489.9999999999999
 21
434.9999999999998
 31
0.0
  0
LINE
  5
2C7
330
2
100
AcDbEntity
  8
L-ZISSEN
  6
CONTINUOUS
 62
     7
100
AcDbLine
 10
491.4999999999999
 20
434.9999999999997
 30
0.0
 11
489.9999999999999
 21
434.9999999999997
 31
0.0
  0
LINE
  5
2C8
330
2
100
AcDbEntity
  8
L-ZISSEN
  6
CONTINUOUS
 62
     7
100
AcDbLine
 10
491.4999999999999
 20
437.4999999999999
 30
0.0
 11
507.4999999999999
 21
437.4999999999999
 31
0.0
  0
LINE
  5
2C9
330
2
100
AcDbEntity
  8
L-TYUSIN
  6
CENTER
 62
     1
100
AcDbLine
 10
546.9999999999995
 20
447.000000000002
 30
0.0
 11
546.9999999999995
 21
464.9999999999992
 31
0.0
  0
ARC
  5
2CA
330
2
100
AcDbEntity
  8
L-ZISSEN
  6
CONTINUOUS
 62
     7
100
AcDbCircle
 10
614.9999999999997
 20
387.4999999999999
 30
0.0
 40
5.599999999999999
100
AcDbArc
 50
270.0000000000002
 51
89.99999999999969
  0
ARC
  5
2CB
330
2
100
AcDbEntity
  8
L-ZISSEN
  6
CONTINUOUS
 62
     7
100
AcDbCircle
 10
605.0
 20
387.4999999999999
 30
0.0
 40
5.599999999999999
100
AcDbArc
 50
90.00000000000026
 51
269.9999999999997
  0
LINE
  5
2CC
330
2
100
AcDbEntity
  8
L-TYUSIN
  6
CENTER
 62
     1
100
AcDbLine
 10
609.9999999999997
 20
397.4999999999997
 30
0.0
 11
609.9999999999997
 21
377.4999999999999
 31
0.0
  0
CIRCLE
  5
2CD
330
2
100
AcDbEntity
  8
L-ZISSEN
  6
CONTINUOUS
 62
     7
100
AcDbCircle
 10
570.5
 20
392.4999999999998
 30
0.0
 40
8.0
  0
LINE
  5
2CE
330
2
100
AcDbEntity
  8
L-TYUSIN
  6
CENTER
 62
     1
100
AcDbLine
 10
624.9999999999998
 20
387.4999999999999
 30
0.0
 11
595.0
 21
387.4999999999999
 31
0.0
  0
CIRCLE
  5
2CF
330
2
100
AcDbEntity
  8
L-ZISSEN
  6
CONTINUOUS
 62
     7
100
AcDbCircle
 10
570.5
 20
321.4999999999998
 30
0.0
 40
8.0
  0
LINE
  5
2D0
330
2
100
AcDbEntity
  8
L-ZISSEN
  6
CONTINUOUS
 62
     7
100
AcDbLine
 10
605.0
 20
381.8999999999999
 30
0.0
 11
614.9999999999997
 21
381.8999999999999
 31
0.0
  0
LINE
  5
2D1
330
2
100
AcDbEntity
  8
L-ZISSEN
  6
CONTINUOUS
 62
     7
100
AcDbLine
 10
578.5
 20
437.4999999999999
 30
0.0
 11
578.5
 21
424.9999999999998
 31
0.0
  0
LINE
  5
2D2
330
2
100
AcDbEntity
  8
L-ZISSEN
  6
CONTINUOUS
 62
     7
100
AcDbLine
 10
562.5
 20
424.9999999999998
 30
0.0
 11
562.5
 21
437.4999999999999
 31
0.0
  0
LINE
  5
2D3
330
2
100
AcDbEntity
  8
L-ZISSEN
  6
CONTINUOUS
 62
     7
100
AcDbLine
 10
580.0
 20
434.9999999999999
 30
0.0
 11
580.0
 21
412.4999999999999
 31
0.0
  0
LINE
  5
2D4
330
2
100
AcDbEntity
  8
L-ZISSEN
100
AcDbLine
 10
557.3098709971782
 20
434.9999999999998
 30
0.0
 11
562.5
 21
434.9999999999999
 31
0.0
  0
LINE
  5
2D5
330
2
100
AcDbEntity
  8
L-ZISSEN
100
AcDbLine
 10
578.5
 20
434.9999999999999
 30
0.0
 11
580.0
 21
434.9999999999998
 31
0.0
  0
LINE
  5
2D6
330
2
100
AcDbEntity
  8
L-ZISSEN
  6
CONTINUOUS
 62
     7
100
AcDbLine
 10
605.0
 20
393.0999999999999
 30
0.0
 11
614.9999999999997
 21
393.0999999999999
 31
0.0
  0
LINE
  5
2D7
330
2
100
AcDbEntity
  8
L-ZISSEN
  6
CONTINUOUS
 62
     7
100
AcDbLine
 10
562.5
 20
437.4999999999999
 30
0.0
 11
578.5
 21
437.4999999999999
 31
0.0
  0
LINE
  5
2D8
330
2
100
AcDbEntity
  8
L-ZISSEN
  6
CONTINUOUS
 62
     7
100
AcDbLine
 10
565.0999999999998
 20
445.4999999999997
 30
0.0
 11
568.3999999999996
 21
445.4999999999997
 31
0.0
  0
LINE
  5
2D9
330
2
100
AcDbEntity
  8
L-ZISSEN
  6
CONTINUOUS
 62
     7
100
AcDbLine
 10
568.3999999999996
 20
445.4999999999998
 30
0.0
 11
568.3999999999996
 21
437.4999999999999
 31
0.0
  0
LINE
  5
2DA
330
2
100
AcDbEntity
  8
L-ZISSEN
  6
CONTINUOUS
 62
     7
100
AcDbLine
 10
565.0999999999998
 20
476.4999999999998
 30
0.0
 11
568.3999999999996
 21
476.4999999999998
 31
0.0
  0
LINE
  5
2DB
330
2
100
AcDbEntity
  8
L-ZISSEN
100
AcDbLine
 10
561.0
 20
496.4999999999998
 30
0.0
 11
508.9999999999999
 21
496.4999999999998
 31
0.0
  0
LINE
  5
2DC
330
2
100
AcDbEntity
  8
L-ZISSEN
100
AcDbLine
 10
508.9999999999999
 20
494.9999999999998
 30
0.0
 11
561.0
 21
494.9999999999998
 31
0.0
  0
LINE
  5
2DD
330
2
100
AcDbEntity
  8
L-ZISSEN
  6
CONTINUOUS
 62
     7
100
AcDbLine
 10
496.8999999999999
 20
486.9999999999996
 30
0.0
 11
450.8999999999996
 21
485.3936444658859
 31
0.0
  0
LINE
  5
2DE
330
2
100
AcDbEntity
  8
L-ZISSEN
100
AcDbLine
 10
508.9999999999999
 20
486.9999999999998
 30
0.0
 11
496.8999999999999
 21
486.9999999999998
 31
0.0
  0
LINE
  5
2DF
330
2
100
AcDbEntity
  8
L-ZISSEN
100
AcDbLine
 10
508.9999999999999
 20
496.4999999999998
 30
0.0
 11
508.9999999999999
 21
486.9999999999998
 31
0.0
  0
LINE
  5
2E0
330
2
100
AcDbEntity
  8
L-ZISSEN
  6
CONTINUOUS
 62
     7
100
AcDbLine
 10
509.5000000000001
 20
500.0999999999997
 30
0.0
 11
516.5000000000002
 21
500.0999999999996
 31
0.0
  0
LINE
  5
2E1
330
2
100
AcDbEntity
  8
L-ZISSEN
  6
CONTINUOUS
 62
     7
100
AcDbLine
 10
509.5000000000001
 20
496.4999999999998
 30
0.0
 11
509.5000000000001
 21
500.0999999999997
 31
0.0
  0
LINE
  5
2E2
330
2
100
AcDbEntity
  8
L-ZISSEN
  6
CONTINUOUS
 62
     7
100
AcDbLine
 10
516.5000000000002
 20
496.4999999999998
 30
0.0
 11
516.5000000000002
 21
500.0999999999997
 31
0.0
  0
LINE
  5
2E3
330
2
100
AcDbEntity
  8
L-ZISSEN
100
AcDbLine
 10
527.5
 20
494.9999999999998
 30
0.0
 11
527.5
 21
492.618381
 31
0.0
  0
LINE
  5
2E4
330
2
100
AcDbEntity
  8
L-ZISSEN
100
AcDbLine
 10
542.4999999999999
 20
494.9999999999998
 30
0.0
 11
542.4999999999999
 21
492.618381
 31
0.0
  0
LINE
  5
2E5
330
2
100
AcDbEntity
  8
L-ZISSEN
  6
CONTINUOUS
 62
     7
100
AcDbLine
 10
565.0999999999998
 20
485.4999999999996
 30
0.0
 11
568.3999999999996
 21
485.4999999999996
 31
0.0
  0
LINE
  5
2E6
330
2
100
AcDbEntity
  8
L-ZISSEN
100
AcDbLine
 10
561.0
 20
496.4999999999998
 30
0.0
 11
561.0
 21
486.9999999999998
 31
0.0
  0
LINE
  5
2E7
330
2
100
AcDbEntity
  8
L-ZISSEN
100
AcDbLine
 10
565.0999999999998
 20
486.9999999999998
 30
0.0
 11
561.0
 21
486.9999999999998
 31
0.0
  0
LINE
  5
2E8
330
2
100
AcDbEntity
  8
L-ZISSEN
  6
CONTINUOUS
 62
     7
100
AcDbLine
 10
553.5000000000002
 20
500.0999999999997
 30
0.0
 11
560.5000000000002
 21
500.0999999999996
 31
0.0
  0
LINE
  5
2E9
330
2
100
AcDbEntity
  8
L-ZISSEN
  6
CONTINUOUS
 62
     7
100
AcDbLine
 10
553.5000000000002
 20
496.4999999999998
 30
0.0
 11
553.5000000000002
 21
500.0999999999997
 31
0.0
  0
LINE
  5
2EA
330
2
100
AcDbEntity
  8
L-ZISSEN
  6
CONTINUOUS
 62
     7
100
AcDbLine
 10
560.5000000000002
 20
496.4999999999998
 30
0.0
 11
560.5000000000002
 21
500.0999999999997
 31
0.0
  0
TEXT
  5
2EB
330
2
100
AcDbEntity
  8
L-ZISSEN
100
AcDbText
 10
729.9999999999998
 20
460.0
 30
0.0
 40
4.5
  1
MODEL NO. : 36B-*00-81R0
100
AcDbText
  0
LINE
  5
2EC
330
2
100
AcDbEntity
  8
L-ZISSEN
100
AcDbLine
 10
862.0999999999996
 20
373.9999999999997
 30
0.0
 11
731.8999999999994
 21
374.0
 31
0.0
  0
LINE
  5
2ED
330
2
100
AcDbEntity
  8
L-ZISSEN
100
AcDbLine
 10
862.0999999999998
 20
425.9999999999995
 30
0.0
 11
731.8999999999994
 21
426.0
 31
0.0
  0
LINE
  5
2EE
330
2
100
AcDbEntity
  8
L-ZISSEN
100
AcDbLine
 10
787.9999999999993
 20
336.0
 30
0.0
 11
862.0999999999998
 21
336.0
 31
0.0
  0
LINE
  5
2EF
330
2
100
AcDbEntity
  8
L-ZISSEN
100
AcDbLine
 10
762.9969422485157
 20
398.2661873938845
 30
0.0
 11
784.9999999999997
 21
359.9999999999997
 31
0.0
  0
LINE
  5
2F0
330
2
100
AcDbEntity
  8
L-ZISSEN
100
AcDbLine
 10
735.9999999999995
 20
373.9999999999998
 30
0.0
 11
735.9999999999995
 21
426.0
 31
0.0
  0
LINE
  5
2F1
330
2
100
AcDbEntity
  8
L-ZISSEN
  6
CONTINUOUS
 62
     7
100
AcDbLine
 10
731.8999999999994
 20
425.9999999999998
 30
0.0
 11
731.8999999999994
 21
373.9999999999996
 31
0.0
  0
LINE
  5
2F2
330
2
100
AcDbEntity
  8
L-ZISSEN
  6
CONTINUOUS
 62
     7
100
AcDbLine
 10
733.8999999999994
 20
373.9999999999996
 30
0.0
 11
733.8999999999994
 21
426.0
 31
0.0
  0
LINE
  5
2F3
330
2
100
AcDbEntity
  8
L-ZISSEN
100
AcDbLine
 10
787.9999999999995
 20
373.9999999999997
 30
0.0
 11
787.9999999999995
 21
425.9999999999998
 31
0.0
  0
LINE
  5
2F4
330
2
100
AcDbEntity
  8
L-ZISSEN
100
AcDbLine
 10
790.0999999999994
 20
373.9999999999997
 30
0.0
 11
790.0999999999997
 21
425.9999999999998
 31
0.0
  0
LINE
  5
2F5
330
2
100
AcDbEntity
  8
L-ZISSEN
100
AcDbLine
 10
787.9999999999993
 20
344.0
 30
0.0
 11
735.9999999999993
 21
344.0
 31
0.0
  0
LINE
  5
2F6
330
2
100
AcDbEntity
  8
L-ZISSEN
100
AcDbLine
 10
735.9999999999993
 20
345.5
 30
0.0
 11
787.9999999999993
 21
345.5
 31
0.0
  0
LINE
  5
2F7
330
2
100
AcDbEntity
  8
L-ZISSEN
100
AcDbLine
 10
774.9999999999998
 20
371.9999999999998
 30
0.0
 11
749.0
 21
371.9999999999998
 31
0.0
  0
ARC
  5
2F8
330
2
100
AcDbEntity
  8
L-ZISSEN
100
AcDbCircle
 10
761.9999999999993
 20
331.0
 30
0.0
 40
13.0
100
AcDbArc
 50
125.2344179999978
 51
54.76558200000211
  0
LINE
  5
2F9
330
2
100
AcDbEntity
  8
L-ZISSEN
100
AcDbLine
 10
735.9999999999993
 20
345.5
 30
0.0
 11
735.9999999999993
 21
336.0
 31
0.0
  0
LINE
  5
2FA
330
2
100
AcDbEntity
  8
L-ZISSEN
100
AcDbLine
 10
731.8999999999991
 20
336.0
 30
0.0
 11
735.9999999999993
 21
336.0
 31
0.0
  0
LINE
  5
2FB
330
2
100
AcDbEntity
  8
L-ZISSEN
  6
CONTINUOUS
 62
     7
100
AcDbLine
 10
728.5999999999996
 20
334.5
 30
0.0
 11
728.5999999999996
 21
325.4999999999999
 31
0.0
  0
LINE
  5
2FC
330
2
100
AcDbEntity
  8
L-ZISSEN
  6
CONTINUOUS
 62
     7
100
AcDbLine
 10
731.8999999999994
 20
325.4999999999999
 30
0.0
 11
728.5999999999996
 21
325.4999999999999
 31
0.0
  0
LINE
  5
2FD
330
2
100
AcDbEntity
  8
L-ZISSEN
  6
CONTINUOUS
 62
     7
100
AcDbLine
 10
731.8999999999994
 20
334.4999999999998
 30
0.0
 11
728.5999999999996
 21
334.4999999999998
 31
0.0
  0
LINE
  5
2FE
330
2
100
AcDbEntity
  8
L-ZISSEN
  6
CONTINUOUS
 62
     7
100
AcDbLine
 10
743.499999999999
 20
349.0999999999999
 30
0.0
 11
736.4999999999991
 21
349.0999999999997
 31
0.0
  0
LINE
  5
2FF
330
2
100
AcDbEntity
  8
L-ZISSEN
  6
CONTINUOUS
 62
     7
100
AcDbLine
 10
736.4999999999991
 20
345.5
 30
0.0
 11
736.4999999999991
 21
349.0999999999999
 31
0.0
  0
LINE
  5
300
330
2
100
AcDbEntity
  8
L-ZISSEN
  6
CONTINUOUS
 62
     7
100
AcDbLine
 10
743.499999999999
 20
345.5
 30
0.0
 11
743.499999999999
 21
349.0999999999999
 31
0.0
  0
LINE
  5
301
330
2
100
AcDbEntity
  8
L-ZISSEN
  6
CONTINUOUS
 62
     7
100
AcDbLine
 10
728.5999999999996
 20
384.4999999999998
 30
0.0
 11
728.5999999999996
 21
375.4999999999999
 31
0.0
  0
LINE
  5
302
330
2
100
AcDbEntity
  8
L-ZISSEN
  6
CONTINUOUS
 62
     7
100
AcDbLine
 10
731.8999999999994
 20
375.4999999999999
 30
0.0
 11
728.5999999999996
 21
375.4999999999999
 31
0.0
  0
LINE
  5
303
330
2
100
AcDbEntity
  8
L-ZISSEN
  6
CONTINUOUS
 62
     7
100
AcDbLine
 10
731.8999999999994
 20
384.4999999999997
 30
0.0
 11
728.5999999999996
 21
384.4999999999997
 31
0.0
  0
CIRCLE
  5
304
330
2
100
AcDbEntity
  8
L-ZISSEN
100
AcDbCircle
 10
739.9999999999995
 20
377.9999999999998
 30
0.0
 40
3.499999999999772
  0
LINE
  5
305
330
2
100
AcDbEntity
  8
L-ZISSEN
100
AcDbLine
 10
748.9999999999995
 20
373.9999999999998
 30
0.0
 11
748.9999999999995
 21
371.9999999999998
 31
0.0
  0
LINE
  5
306
330
2
100
AcDbEntity
  8
L-ZISSEN
100
AcDbLine
 10
787.9999999999993
 20
345.5
 30
0.0
 11
787.9999999999993
 21
336.0
 31
0.0
  0
LINE
  5
307
330
2
100
AcDbEntity
  8
L-ZISSEN
100
AcDbLine
 10
769.4999999999993
 20
344.0
 30
0.0
 11
769.4999999999993
 21
341.6183810000002
 31
0.0
  0
LINE
  5
308
330
2
100
AcDbEntity
  8
L-ZISSEN
100
AcDbLine
 10
754.4999999999993
 20
344.0
 30
0.0
 11
754.4999999999993
 21
341.6183810000002
 31
0.0
  0
CIRCLE
  5
309
330
2
100
AcDbEntity
  8
L-ZISSEN
100
AcDbCircle
 10
761.9999999999993
 20
331.0
 30
0.0
 40
9.3
  0
LINE
  5
30A
330
2
100
AcDbEntity
  8
L-ZISSEN
  6
CONTINUOUS
 62
     7
100
AcDbLine
 10
787.4999999999991
 20
349.0999999999999
 30
0.0
 11
780.499999999999
 21
349.0999999999997
 31
0.0
  0
CIRCLE
  5
30B
330
2
100
AcDbEntity
  8
L-ZISSEN
100
AcDbCircle
 10
783.9999999999995
 20
377.9999999999998
 30
0.0
 40
3.499999999999772
  0
LINE
  5
30C
330
2
100
AcDbEntity
  8
L-ZISSEN
  6
CONTINUOUS
 62
     7
100
AcDbLine
 10
780.499999999999
 20
345.5
 30
0.0
 11
780.499999999999
 21
349.0999999999999
 31
0.0
  0
LINE
  5
30D
330
2
100
AcDbEntity
  8
L-ZISSEN
100
AcDbLine
 10
774.9999999999998
 20
373.9999999999998
 30
0.0
 11
774.9999999999998
 21
371.9999999999998
 31
0.0
  0
LINE
  5
30E
330
2
100
AcDbEntity
  8
L-ZISSEN
  6
CONTINUOUS
 62
     7
100
AcDbLine
 10
787.4999999999991
 20
345.5
 30
0.0
 11
787.4999999999991
 21
349.0999999999999
 31
0.0
  0
TEXT
  5
30F
330
2
100
AcDbEntity
  8
L-ZISSEN
100
AcDbText
 10
788.9999999999997
 20
357.7499999999997
 30
0.0
 40
4.5
  1
P.P
100
AcDbText
  0
LINE
  5
310
330
2
100
AcDbEntity
  8
L-ZISSEN
100
AcDbLine
 10
784.9999999999997
 20
359.9999999999997
 30
0.0
 11
786.9999999999998
 21
359.9999999999997
 31
0.0
  0
LINE
  5
311
330
2
100
AcDbEntity
  8
L-ZISSEN
100
AcDbLine
 10
774.9999999999998
 20
428.0
 30
0.0
 11
749.0
 21
428.0
 31
0.0
  0
TEXT
  5
312
330
2
100
AcDbEntity
  8
L-ZISSEN
100
AcDbText
 10
729.9999999999998
 20
470.0
 30
0.0
 40
4.5
  1
PILOT VALVE
100
AcDbText
  0
LINE
  5
313
330
2
100
AcDbEntity
  8
L-ZISSEN
  6
CONTINUOUS
 62
     7
100
AcDbLine
 10
728.5999999999996
 20
424.4999999999997
 30
0.0
 11
728.5999999999996
 21
415.5
 31
0.0
  0
LINE
  5
314
330
2
100
AcDbEntity
  8
L-ZISSEN
  6
CONTINUOUS
 62
     7
100
AcDbLine
 10
731.8999999999994
 20
424.4999999999997
 30
0.0
 11
728.5999999999996
 21
424.4999999999997
 31
0.0
  0
LINE
  5
315
330
2
100
AcDbEntity
  8
L-ZISSEN
  6
CONTINUOUS
 62
     7
100
AcDbLine
 10
731.8999999999994
 20
415.4999999999997
 30
0.0
 11
728.5999999999996
 21
415.4999999999997
 31
0.0
  0
CIRCLE
  5
316
330
2
100
AcDbEntity
  8
L-ZISSEN
100
AcDbCircle
 10
739.9999999999995
 20
422.0
 30
0.0
 40
3.499999999999772
  0
LINE
  5
317
330
2
100
AcDbEntity
  8
L-ZISSEN
100
AcDbLine
 10
748.9999999999997
 20
428.0
 30
0.0
 11
748.9999999999997
 21
426.0
 31
0.0
  0
CIRCLE
  5
318
330
2
100
AcDbEntity
  8
L-ZISSEN
100
AcDbCircle
 10
783.9999999999995
 20
422.0
 30
0.0
 40
3.499999999999772
  0
SOLID
  5
319
330
2
100
AcDbEntity
  8
L-ZISSEN
100
AcDbTrace
 10
762.7079734808298
 20
398.1000303524652
 30
0.0
 11
763.2859110162014
 21
398.4323444353039
 31
0.0
 12
761.9999999999995
 22
399.9999999999996
 32
0.0
 13
761.9999999999995
 23
399.9999999999996
 33
0.0
  0
LINE
  5
31A
330
2
100
AcDbEntity
  8
L-ZISSEN
100
AcDbLine
 10
774.9999999999998
 20
428.0
 30
0.0
 11
774.9999999999998
 21
426.0
 31
0.0
  0
LINE
  5
31B
330
2
100
AcDbEntity
  8
L-ZISSEN
  6
CONTINUOUS
 62
     7
100
AcDbLine
 10
885.6999999999995
 20
411.0
 30
0.0
 11
885.6999999999995
 21
388.9999999999997
 31
0.0
  0
LINE
  5
31C
330
2
100
AcDbEntity
  8
L-ZISSEN
100
AcDbLine
 10
872.7000000000002
 20
418.9999999999995
 30
0.0
 11
872.7
 21
380.9999999999995
 31
0.0
  0
LINE
  5
31D
330
2
100
AcDbEntity
  8
L-ZISSEN
100
AcDbLine
 10
862.0999999999998
 20
425.9999999999995
 30
0.0
 11
862.0999999999996
 21
373.9999999999995
 31
0.0
  0
LINE
  5
31E
330
2
100
AcDbEntity
  8
L-ZISSEN
100
AcDbLine
 10
872.7
 20
388.9999999999997
 30
0.0
 11
885.6999999999995
 21
388.9999999999997
 31
0.0
  0
LINE
  5
31F
330
2
100
AcDbEntity
  8
L-ZISSEN
100
AcDbLine
 10
872.7
 20
321.0
 30
0.0
 11
885.6999999999995
 21
321.0
 31
0.0
  0
LINE
  5
320
330
2
100
AcDbEntity
  8
L-ZISSEN
100
AcDbLine
 10
872.7
 20
298.9999999999998
 30
0.0
 11
885.6999999999995
 21
298.9999999999998
 31
0.0
  0
LINE
  5
321
330
2
100
AcDbEntity
  8
L-ZISSEN
100
AcDbLine
 10
866.7428199999998
 20
334.4999499999996
 30
0.0
 11
862.1000000000002
 21
334.4999499999996
 31
0.0
  0
LINE
  5
322
330
2
100
AcDbEntity
  8
L-ZISSEN
100
AcDbLine
 10
866.7428199999998
 20
325.5000499999991
 30
0.0
 11
862.1000000000002
 21
325.5000499999991
 31
0.0
  0
LINE
  5
323
330
2
100
AcDbEntity
  8
L-ZISSEN
100
AcDbLine
 10
866.7428199999998
 20
325.5000499999991
 30
0.0
 11
866.7428199999998
 21
334.4999499999996
 31
0.0
  0
LINE
  5
324
330
2
100
AcDbEntity
  8
L-ZISSEN
100
AcDbLine
 10
866.7428199999998
 20
328.9999999999995
 30
0.0
 11
872.7000000000002
 21
328.9999999999995
 31
0.0
  0
LINE
  5
325
330
2
100
AcDbEntity
  8
L-ZISSEN
100
AcDbLine
 10
866.7428199999998
 20
384.4999500000003
 30
0.0
 11
862.1000000000002
 21
384.4999500000003
 31
0.0
  0
LINE
  5
326
330
2
100
AcDbEntity
  8
L-ZISSEN
100
AcDbLine
 10
866.7428199999998
 20
375.5000499999998
 30
0.0
 11
862.1000000000002
 21
375.5000499999998
 31
0.0
  0
LINE
  5
327
330
2
100
AcDbEntity
  8
L-ZISSEN
100
AcDbLine
 10
866.7428199999998
 20
384.4999500000003
 30
0.0
 11
866.7428199999998
 21
375.5000499999998
 31
0.0
  0
LINE
  5
328
330
2
100
AcDbEntity
  8
L-ZISSEN
100
AcDbLine
 10
866.7428199999998
 20
380.9999999999995
 30
0.0
 11
872.7
 21
380.9999999999995
 31
0.0
  0
LINE
  5
329
330
2
100
AcDbEntity
  8
L-ZISSEN
100
AcDbLine
 10
936.9999999999995
 20
318.0000000000002
 30
0.0
 11
936.9999999999995
 21
344.0
 31
0.0
  0
LINE
  5
32A
330
2
100
AcDbEntity
  8
L-ZISSEN
  6
CONTINUOUS
 62
     7
100
AcDbLine
 10
885.6999999999995
 20
321.0
 30
0.0
 11
885.6999999999995
 21
298.9999999999998
 31
0.0
  0
LINE
  5
32B
330
2
100
AcDbEntity
  8
L-ZISSEN
  6
CONTINUOUS
 62
     7
100
AcDbLine
 10
891.6999999999999
 20
302.7499999999997
 30
0.0
 11
898.9999999999998
 21
302.7499999999997
 31
0.0
  0
LINE
  5
32C
330
2
100
AcDbEntity
  8
L-ZISSEN
  6
CONTINUOUS
 62
     7
100
AcDbLine
 10
891.6999999999999
 20
317.2499999999999
 30
0.0
 11
898.9999999999998
 21
317.2499999999999
 31
0.0
  0
LINE
  5
32D
330
2
100
AcDbEntity
  8
L-ZISSEN
  6
CONTINUOUS
 62
     7
100
AcDbLine
 10
891.6999999999999
 20
319.0
 30
0.0
 11
891.6999999999999
 21
300.9999999999998
 31
0.0
  0
LINE
  5
32E
330
2
100
AcDbEntity
  8
L-ZISSEN
  6
CONTINUOUS
 62
     7
100
AcDbLine
 10
885.6999999999995
 20
300.9999999999998
 30
0.0
 11
891.6999999999999
 21
300.9999999999998
 31
0.0
  0
LINE
  5
32F
330
2
100
AcDbEntity
  8
L-ZISSEN
  6
CONTINUOUS
 62
     7
100
AcDbLine
 10
885.6999999999995
 20
319.0
 30
0.0
 11
891.6999999999999
 21
319.0
 31
0.0
  0
LINE
  5
330
330
2
100
AcDbEntity
  8
L-ZISSEN
  6
CONTINUOUS
 62
     7
100
AcDbLine
 10
898.9999999999998
 20
317.2499999999999
 30
0.0
 11
898.9999999999998
 21
302.7499999999997
 31
0.0
  0
LINE
  5
331
330
2
100
AcDbEntity
  8
L-ZISSEN
100
AcDbLine
 10
936.9999999999995
 20
318.0000000000002
 30
0.0
 11
938.9999999999995
 21
318.0000000000002
 31
0.0
  0
LINE
  5
332
330
2
100
AcDbEntity
  8
L-ZISSEN
  6
CONTINUOUS
 62
     7
100
AcDbLine
 10
939.4999999999996
 20
345.5
 30
0.0
 11
939.4999999999996
 21
349.0999999999999
 31
0.0
  0
LINE
  5
333
330
2
100
AcDbEntity
  8
L-ZISSEN
100
AcDbLine
 10
872.7
 20
411.0
 30
0.0
 11
885.6999999999995
 21
411.0
 31
0.0
  0
LINE
  5
334
330
2
100
AcDbEntity
  8
L-ZISSEN
100
AcDbLine
 10
866.7428199999998
 20
415.5000499999991
 30
0.0
 11
862.1000000000002
 21
415.5000499999991
 31
0.0
  0
LINE
  5
335
330
2
100
AcDbEntity
  8
L-ZISSEN
100
AcDbLine
 10
866.7428199999998
 20
424.4999499999996
 30
0.0
 11
862.1000000000002
 21
424.4999499999996
 31
0.0
  0
LINE
  5
336
330
2
100
AcDbEntity
  8
L-ZISSEN
100
AcDbLine
 10
866.7428199999998
 20
418.9999999999995
 30
0.0
 11
872.7000000000002
 21
418.9999999999995
 31
0.0
  0
LINE
  5
337
330
2
100
AcDbEntity
  8
L-ZISSEN
100
AcDbLine
 10
866.7428199999998
 20
415.5000499999991
 30
0.0
 11
866.7428199999998
 21
424.4999499999996
 31
0.0
  0
TEXT
  5
338
330
2
100
AcDbEntity
  8
L-ZISSEN
100
AcDbText
 10
834.9999999999997
 20
465.0
 30
0.0
 40
4.5
  1
DC-24V
100
AcDbText
  0
TEXT
  5
339
330
2
100
AcDbEntity
  8
L-ZISSEN
100
AcDbText
 10
834.9999999999997
 20
455.0
 30
0.0
 40
4.5
  1
DC-100V
100
AcDbText
  0
LINE
  5
33A
330
2
100
AcDbEntity
  8
L-ZISSEN
  6
CONTINUOUS
 62
     7
100
AcDbLine
 10
891.6999999999999
 20
392.7499999999998
 30
0.0
 11
898.9999999999998
 21
392.7499999999998
 31
0.0
  0
LINE
  5
33B
330
2
100
AcDbEntity
  8
L-ZISSEN
  6
CONTINUOUS
 62
     7
100
AcDbLine
 10
891.6999999999999
 20
407.2499999999999
 30
0.0
 11
898.9999999999998
 21
407.2499999999999
 31
0.0
  0
LINE
  5
33C
330
2
100
AcDbEntity
  8
L-ZISSEN
  6
CONTINUOUS
 62
     7
100
AcDbLine
 10
891.6999999999999
 20
409.0
 30
0.0
 11
891.6999999999999
 21
390.9999999999998
 31
0.0
  0
LINE
  5
33D
330
2
100
AcDbEntity
  8
L-ZISSEN
  6
CONTINUOUS
 62
     7
100
AcDbLine
 10
885.6999999999995
 20
390.9999999999998
 30
0.0
 11
891.6999999999999
 21
390.9999999999998
 31
0.0
  0
LINE
  5
33E
330
2
100
AcDbEntity
  8
L-ZISSEN
  6
CONTINUOUS
 62
     7
100
AcDbLine
 10
885.6999999999995
 20
409.0
 30
0.0
 11
891.6999999999999
 21
409.0
 31
0.0
  0
LINE
  5
33F
330
2
100
AcDbEntity
  8
L-ZISSEN
  6
CONTINUOUS
 62
     7
100
AcDbLine
 10
898.9999999999998
 20
407.2499999999999
 30
0.0
 11
898.9999999999998
 21
392.7499999999998
 31
0.0
  0
LINE
  5
340
330
2
100
AcDbEntity
  8
L-ZISSEN
  6
CONTINUOUS
 62
     7
100
AcDbLine
 10
800.0999999999994
 20
623.9999999999995
 30
0.0
 11
846.0999999999996
 21
625.6063555341135
 31
0.0
  0
LINE
  5
341
330
2
100
AcDbEntity
  8
L-ZISSEN
  6
CONTINUOUS
 62
     7
100
AcDbLine
 10
800.0999999999992
 20
585.9999999999997
 30
0.0
 11
846.0999999999994
 21
584.393644465886
 31
0.0
  0
LINE
  5
342
330
2
100
AcDbEntity
  8
L-ZISSEN
  6
CONTINUOUS
 62
     7
100
AcDbLine
 10
800.0999999999992
 20
533.9999999999998
 30
0.0
 11
846.0999999999994
 21
535.6063555341138
 31
0.0
  0
CIRCLE
  5
343
330
2
100
AcDbEntity
  8
L-ZISSEN
100
AcDbCircle
 10
761.9999999999993
 20
581.0
 30
0.0
 40
9.3
  0
ARC
  5
344
330
2
100
AcDbEntity
  8
L-ZISSEN
100
AcDbCircle
 10
761.9999999999993
 20
581.0
 30
0.0
 40
13.0
100
AcDbArc
 50
125.2344179999978
 51
54.76558200000211
  0
LINE
  5
345
330
2
100
AcDbEntity
  8
L-ZISSEN
100
AcDbLine
 10
731.8999999999991
 20
586.0
 30
0.0
 11
731.8999999999991
 21
534.0
 31
0.0
  0
LINE
  5
346
330
2
100
AcDbEntity
  8
L-ZISSEN
100
AcDbLine
 10
733.8999999999991
 20
586.0
 30
0.0
 11
733.8999999999991
 21
534.0
 31
0.0
  0
LINE
  5
347
330
2
100
AcDbEntity
  8
L-ZISSEN
100
AcDbLine
 10
790.0999999999992
 20
586.0
 30
0.0
 11
790.0999999999992
 21
534.0
 31
0.0
  0
LINE
  5
348
330
2
100
AcDbEntity
  8
L-ZISSEN
100
AcDbLine
 10
731.8999999999991
 20
534.0
 30
0.0
 11
800.0999999999992
 21
534.0
 31
0.0
  0
LINE
  5
349
330
2
100
AcDbEntity
  8
L-ZISSEN
  6
CONTINUOUS
 62
     7
100
AcDbLine
 10
728.5999999999996
 20
544.5
 30
0.0
 11
728.5999999999996
 21
535.5
 31
0.0
  0
LINE
  5
34A
330
2
100
AcDbEntity
  8
L-ZISSEN
  6
CONTINUOUS
 62
     7
100
AcDbLine
 10
731.8999999999994
 20
535.5
 30
0.0
 11
728.5999999999996
 21
535.5
 31
0.0
  0
LINE
  5
34B
330
2
100
AcDbEntity
  8
L-ZISSEN
  6
CONTINUOUS
 62
     7
100
AcDbLine
 10
731.8999999999994
 20
544.4999999999999
 30
0.0
 11
728.5999999999996
 21
544.4999999999999
 31
0.0
  0
LINE
  5
34C
330
2
100
AcDbEntity
  8
L-ZISSEN
100
AcDbLine
 10
763.3754892958209
 20
532.5480946321883
 30
0.0
 11
779.9999999999998
 21
515.0
 31
0.0
  0
LINE
  5
34D
330
2
100
AcDbEntity
  8
L-ZISSEN
100
AcDbLine
 10
779.9999999999998
 20
515.0
 30
0.0
 11
781.9999999999997
 21
515.0
 31
0.0
  0
TEXT
  5
34E
330
2
100
AcDbEntity
  8
L-ZISSEN
100
AcDbText
 10
783.9999999999998
 20
512.75
 30
0.0
 40
4.5
  1
P.P
100
AcDbText
  0
SOLID
  5
34F
330
2
100
AcDbEntity
  8
L-ZISSEN
100
AcDbTrace
 10
763.1335050678524
 20
532.318846416218
 30
0.0
 11
763.6174735237895
 21
532.7773428481585
 31
0.0
 12
761.9999999999993
 22
534.0
 32
0.0
 13
761.9999999999993
 23
534.0
 33
0.0
  0
LINE
  5
350
330
2
100
AcDbEntity
  8
L-ZISSEN
100
AcDbLine
 10
774.9999999999998
 20
621.9999999999998
 30
0.0
 11
749.0
 21
621.9999999999998
 31
0.0
  0
LINE
  5
351
330
2
100
AcDbEntity
  8
L-ZISSEN
100
AcDbLine
 10
800.1000000000059
 20
623.9999999999999
 30
0.0
 11
731.8999999999994
 21
624.0
 31
0.0
  0
LINE
  5
352
330
2
100
AcDbEntity
  8
L-ZISSEN
100
AcDbLine
 10
787.9999999999993
 20
594.0
 30
0.0
 11
735.9999999999993
 21
594.0
 31
0.0
  0
LINE
  5
353
330
2
100
AcDbEntity
  8
L-ZISSEN
100
AcDbLine
 10
735.9999999999993
 20
595.5
 30
0.0
 11
787.9999999999993
 21
595.5
 31
0.0
  0
LINE
  5
354
330
2
100
AcDbEntity
  8
L-ZISSEN
  6
CONTINUOUS
 62
     7
100
AcDbLine
 10
743.499999999999
 20
595.5
 30
0.0
 11
743.499999999999
 21
599.0999999999999
 31
0.0
  0
LINE
  5
355
330
2
100
AcDbEntity
  8
L-ZISSEN
  6
CONTINUOUS
 62
     7
100
AcDbLine
 10
736.4999999999991
 20
595.5
 30
0.0
 11
736.4999999999991
 21
599.0999999999999
 31
0.0
  0
LINE
  5
356
330
2
100
AcDbEntity
  8
L-ZISSEN
100
AcDbLine
 10
731.8999999999991
 20
586.0
 30
0.0
 11
735.9999999999993
 21
586.0
 31
0.0
  0
LINE
  5
357
330
2
100
AcDbEntity
  8
L-ZISSEN
  6
CONTINUOUS
 62
     7
100
AcDbLine
 10
728.5999999999996
 20
584.4999999999999
 30
0.0
 11
728.5999999999996
 21
575.4999999999999
 31
0.0
  0
LINE
  5
358
330
2
100
AcDbEntity
  8
L-ZISSEN
  6
CONTINUOUS
 62
     7
100
AcDbLine
 10
731.8999999999994
 20
575.4999999999999
 30
0.0
 11
728.5999999999996
 21
575.4999999999999
 31
0.0
  0
LINE
  5
359
330
2
100
AcDbEntity
  8
L-ZISSEN
  6
CONTINUOUS
 62
     7
100
AcDbLine
 10
731.8999999999994
 20
584.4999999999998
 30
0.0
 11
728.5999999999996
 21
584.4999999999998
 31
0.0
  0
LINE
  5
35A
330
2
100
AcDbEntity
  8
L-ZISSEN
100
AcDbLine
 10
735.9999999999993
 20
595.5
 30
0.0
 11
735.9999999999993
 21
586.0
 31
0.0
  0
LINE
  5
35B
330
2
100
AcDbEntity
  8
L-ZISSEN
  6
CONTINUOUS
 62
     7
100
AcDbLine
 10
743.499999999999
 20
599.0999999999999
 30
0.0
 11
736.4999999999991
 21
599.0999999999997
 31
0.0
  0
LINE
  5
35C
330
2
100
AcDbEntity
  8
L-ZISSEN
  6
CONTINUOUS
 62
     7
100
AcDbLine
 10
728.5999999999996
 20
634.4999999999998
 30
0.0
 11
728.5999999999996
 21
625.4999999999999
 31
0.0
  0
LINE
  5
35D
330
2
100
AcDbEntity
  8
L-ZISSEN
  6
CONTINUOUS
 62
     7
100
AcDbLine
 10
731.8999999999994
 20
625.4999999999999
 30
0.0
 11
728.5999999999996
 21
625.4999999999999
 31
0.0
  0
LINE
  5
35E
330
2
100
AcDbEntity
  8
L-ZISSEN
  6
CONTINUOUS
 62
     7
100
AcDbLine
 10
731.8999999999994
 20
634.4999999999997
 30
0.0
 11
728.5999999999996
 21
634.4999999999997
 31
0.0
  0
CIRCLE
  5
35F
330
2
100
AcDbEntity
  8
L-ZISSEN
100
AcDbCircle
 10
739.9999999999995
 20
627.9999999999999
 30
0.0
 40
3.499999999999772
  0
LINE
  5
360
330
2
100
AcDbEntity
  8
L-ZISSEN
100
AcDbLine
 10
748.9999999999995
 20
623.9999999999999
 30
0.0
 11
748.9999999999995
 21
621.9999999999998
 31
0.0
  0
LINE
  5
361
330
2
100
AcDbEntity
  8
L-ZISSEN
  6
CONTINUOUS
 62
     7
100
AcDbLine
 10
731.8999999999994
 20
665.4999999999997
 30
0.0
 11
728.5999999999996
 21
665.4999999999997
 31
0.0
  0
LINE
  5
362
330
2
100
AcDbEntity
  8
L-ZISSEN
100
AcDbLine
 10
762.9969422485157
 20
648.2661873938845
 30
0.0
 11
784.9999999999997
 21
609.9999999999997
 31
0.0
  0
LINE
  5
363
330
2
100
AcDbEntity
  8
L-ZISSEN
  6
CONTINUOUS
 62
     7
100
AcDbLine
 10
787.4999999999991
 20
599.0999999999999
 30
0.0
 11
780.499999999999
 21
599.0999999999997
 31
0.0
  0
LINE
  5
364
330
2
100
AcDbEntity
  8
L-ZISSEN
  6
CONTINUOUS
 62
     7
100
AcDbLine
 10
780.499999999999
 20
595.5
 30
0.0
 11
780.499999999999
 21
599.0999999999999
 31
0.0
  0
LINE
  5
365
330
2
100
AcDbEntity
  8
L-ZISSEN
100
AcDbLine
 10
754.4999999999993
 20
594.0
 30
0.0
 11
754.4999999999993
 21
591.6183810000002
 31
0.0
  0
LINE
  5
366
330
2
100
AcDbEntity
  8
L-ZISSEN
100
AcDbLine
 10
769.4999999999993
 20
594.0
 30
0.0
 11
769.4999999999993
 21
591.6183810000002
 31
0.0
  0
LINE
  5
367
330
2
100
AcDbEntity
  8
L-ZISSEN
  6
CONTINUOUS
 62
     7
100
AcDbLine
 10
787.4999999999991
 20
595.5
 30
0.0
 11
787.4999999999991
 21
599.0999999999999
 31
0.0
  0
LINE
  5
368
330
2
100
AcDbEntity
  8
L-ZISSEN
100
AcDbLine
 10
787.9999999999993
 20
586.0
 30
0.0
 11
800.0999999999992
 21
586.0
 31
0.0
  0
LINE
  5
369
330
2
100
AcDbEntity
  8
L-ZISSEN
100
AcDbLine
 10
787.9999999999993
 20
595.5
 30
0.0
 11
787.9999999999993
 21
586.0
 31
0.0
  0
TEXT
  5
36A
330
2
100
AcDbEntity
  8
L-ZISSEN
100
AcDbText
 10
788.9999999999997
 20
607.7499999999997
 30
0.0
 40
4.5
  1
P.P
100
AcDbText
  0
LINE
  5
36B
330
2
100
AcDbEntity
  8
L-ZISSEN
100
AcDbLine
 10
784.9999999999997
 20
609.9999999999997
 30
0.0
 11
786.9999999999998
 21
609.9999999999997
 31
0.0
  0
CIRCLE
  5
36C
330
2
100
AcDbEntity
  8
L-ZISSEN
100
AcDbCircle
 10
783.9999999999995
 20
627.9999999999999
 30
0.0
 40
3.499999999999772
  0
LINE
  5
36D
330
2
100
AcDbEntity
  8
L-ZISSEN
100
AcDbLine
 10
774.9999999999998
 20
623.9999999999999
 30
0.0
 11
774.9999999999998
 21
621.9999999999998
 31
0.0
  0
SOLID
  5
36E
330
2
100
AcDbEntity
  8
L-ZISSEN
100
AcDbTrace
 10
762.7079734808298
 20
648.1000303524652
 30
0.0
 11
763.2859110162014
 21
648.432344435304
 31
0.0
 12
761.9999999999995
 22
649.9999999999996
 32
0.0
 13
761.9999999999995
 23
649.9999999999996
 33
0.0
  0
LINE
  5
36F
330
2
100
AcDbEntity
  8
L-ZISSEN
100
AcDbLine
 10
936.9999999999995
 20
568.0000000000002
 30
0.0
 11
936.9999999999995
 21
594.0
 31
0.0
  0
LINE
  5
370
330
2
100
AcDbEntity
  8
L-ZISSEN
100
AcDbLine
 10
938.9999999999995
 20
534.0
 30
0.0
 11
938.9999999999995
 21
595.5
 31
0.0
  0
LINE
  5
371
330
2
100
AcDbEntity
  8
L-ZISSEN
  6
CONTINUOUS
 62
     7
100
AcDbLine
 10
846.0999999999994
 20
535.6063555341138
 30
0.0
 11
846.0999999999989
 21
584.393644465886
 31
0.0
  0
LINE
  5
372
330
2
100
AcDbEntity
  8
L-ZISSEN
100
AcDbLine
 10
846.0999999999994
 20
571.0
 30
0.0
 11
859.099999999999
 21
571.0
 31
0.0
  0
LINE
  5
373
330
2
100
AcDbEntity
  8
L-ZISSEN
100
AcDbLine
 10
846.0999999999994
 20
548.9999999999996
 30
0.0
 11
859.099999999999
 21
548.9999999999996
 31
0.0
  0
LINE
  5
374
330
2
100
AcDbEntity
  8
L-ZISSEN
  6
CONTINUOUS
 62
     7
100
AcDbLine
 10
865.0999999999994
 20
568.9999999999998
 30
0.0
 11
865.0999999999992
 21
550.9999999999998
 31
0.0
  0
LINE
  5
375
330
2
100
AcDbEntity
  8
L-ZISSEN
  6
CONTINUOUS
 62
     7
100
AcDbLine
 10
859.099999999999
 20
571.0
 30
0.0
 11
859.099999999999
 21
548.9999999999996
 31
0.0
  0
LINE
  5
376
330
2
100
AcDbEntity
  8
L-ZISSEN
  6
CONTINUOUS
 62
     7
100
AcDbLine
 10
859.099999999999
 20
550.9999999999998
 30
0.0
 11
865.0999999999992
 21
550.9999999999998
 31
0.0
  0
LINE
  5
377
330
2
100
AcDbEntity
  8
L-ZISSEN
  6
CONTINUOUS
 62
     7
100
AcDbLine
 10
859.099999999999
 20
568.9999999999998
 30
0.0
 11
865.0999999999992
 21
568.9999999999998
 31
0.0
  0
LINE
  5
378
330
2
100
AcDbEntity
  8
L-ZISSEN
  6
CONTINUOUS
 62
     7
100
AcDbLine
 10
872.0999999999994
 20
567.25
 30
0.0
 11
872.0999999999994
 21
552.7499999999996
 31
0.0
  0
LINE
  5
379
330
2
100
AcDbEntity
  8
L-ZISSEN
  6
CONTINUOUS
 62
     7
100
AcDbLine
 10
865.0999999999994
 20
552.7499999999996
 30
0.0
 11
872.0999999999994
 21
552.7499999999996
 31
0.0
  0
LINE
  5
37A
330
2
100
AcDbEntity
  8
L-ZISSEN
  6
CONTINUOUS
 62
     7
100
AcDbLine
 10
865.0999999999994
 20
567.25
 30
0.0
 11
872.0999999999994
 21
567.25
 31
0.0
  0
LINE
  5
37B
330
2
100
AcDbEntity
  8
L-ZISSEN
100
AcDbLine
 10
936.9999999999995
 20
568.0000000000002
 30
0.0
 11
938.9999999999995
 21
568.0000000000002
 31
0.0
  0
LINE
  5
37C
330
2
100
AcDbEntity
  8
L-ZISSEN
100
AcDbLine
 10
846.0999999999994
 20
661.0
 30
0.0
 11
859.099999999999
 21
661.0
 31
0.0
  0
LINE
  5
37D
330
2
100
AcDbEntity
  8
L-ZISSEN
100
AcDbLine
 10
846.0999999999994
 20
638.9999999999997
 30
0.0
 11
859.099999999999
 21
638.9999999999997
 31
0.0
  0
LINE
  5
37E
330
2
100
AcDbEntity
  8
L-ZISSEN
  6
CONTINUOUS
 62
     7
100
AcDbLine
 10
872.0999999999994
 20
657.2499999999999
 30
0.0
 11
872.0999999999994
 21
642.7499999999996
 31
0.0
  0
LINE
  5
37F
330
2
100
AcDbEntity
  8
L-ZISSEN
  6
CONTINUOUS
 62
     7
100
AcDbLine
 10
865.0999999999994
 20
658.9999999999998
 30
0.0
 11
865.0999999999992
 21
640.9999999999997
 31
0.0
  0
LINE
  5
380
330
2
100
AcDbEntity
  8
L-ZISSEN
  6
CONTINUOUS
 62
     7
100
AcDbLine
 10
859.099999999999
 20
661.0
 30
0.0
 11
859.099999999999
 21
638.9999999999997
 31
0.0
  0
LINE
  5
381
330
2
100
AcDbEntity
  8
L-ZISSEN
  6
CONTINUOUS
 62
     7
100
AcDbLine
 10
859.099999999999
 20
640.9999999999997
 30
0.0
 11
865.0999999999992
 21
640.9999999999997
 31
0.0
  0
LINE
  5
382
330
2
100
AcDbEntity
  8
L-ZISSEN
  6
CONTINUOUS
 62
     7
100
AcDbLine
 10
865.0999999999994
 20
642.7499999999996
 30
0.0
 11
872.0999999999994
 21
642.7499999999996
 31
0.0
  0
LINE
  5
383
330
2
100
AcDbEntity
  8
L-ZISSEN
  6
CONTINUOUS
 62
     7
100
AcDbLine
 10
859.099999999999
 20
658.9999999999998
 30
0.0
 11
865.0999999999992
 21
658.9999999999998
 31
0.0
  0
LINE
  5
384
330
2
100
AcDbEntity
  8
L-ZISSEN
  6
CONTINUOUS
 62
     7
100
AcDbLine
 10
865.0999999999994
 20
657.2499999999999
 30
0.0
 11
872.0999999999994
 21
657.2499999999999
 31
0.0
  0
LINE
  5
385
330
2
100
AcDbEntity
  8
L-ZISSEN
  6
CONTINUOUS
 62
     7
100
AcDbLine
 10
939.4999999999996
 20
595.5
 30
0.0
 11
939.4999999999996
 21
599.0999999999999
 31
0.0
  0
TEXT
  5
386
330
2
100
AcDbEntity
  8
L-ZISSEN
100
AcDbText
 10
729.9999999999998
 20
710.0
 30
0.0
 40
4.5
  1
MODEL NO. : 36B-*00-81R0
100
AcDbText
  0
LINE
  5
387
330
2
100
AcDbEntity
  8
L-ZISSEN
  6
CONTINUOUS
 62
     7
100
AcDbLine
 10
800.0999999999997
 20
675.9999999999995
 30
0.0
 11
846.0999999999996
 21
674.3936444658859
 31
0.0
  0
LINE
  5
388
330
2
100
AcDbEntity
  8
L-ZISSEN
100
AcDbLine
 10
731.8999999999991
 20
784.0
 30
0.0
 11
862.0999999999998
 21
784.0
 31
0.0
  0
LINE
  5
389
330
2
100
AcDbEntity
  8
L-ZISSEN
100
AcDbLine
 10
787.9999999999993
 20
836.0
 30
0.0
 11
862.1000000000002
 21
836.0
 31
0.0
  0
TEXT
  5
38A
330
2
100
AcDbEntity
  8
L-ZISSEN
100
AcDbText
 10
729.9999999999998
 20
720.0
 30
0.0
 40
4.5
  1
PILOT VALVE
100
AcDbText
  0
LINE
  5
38B
330
2
100
AcDbEntity
  8
L-ZISSEN
100
AcDbLine
 10
774.9999999999998
 20
678.0
 30
0.0
 11
749.0
 21
678.0
 31
0.0
  0
LINE
  5
38C
330
2
100
AcDbEntity
  8
L-ZISSEN
100
AcDbLine
 10
800.0999999999921
 20
675.9999999999998
 30
0.0
 11
731.8999999999994
 21
676.0
 31
0.0
  0
LINE
  5
38D
330
2
100
AcDbEntity
  8
L-ZISSEN
  6
CONTINUOUS
 62
     7
100
AcDbLine
 10
731.8999999999994
 20
674.4999999999997
 30
0.0
 11
728.5999999999996
 21
674.4999999999997
 31
0.0
  0
CIRCLE
  5
38E
330
2
100
AcDbEntity
  8
L-ZISSEN
100
AcDbCircle
 10
739.9999999999995
 20
672.0
 30
0.0
 40
3.499999999999772
  0
LINE
  5
38F
330
2
100
AcDbEntity
  8
L-ZISSEN
100
AcDbLine
 10
748.9999999999997
 20
678.0
 30
0.0
 11
748.9999999999997
 21
676.0
 31
0.0
  0
CIRCLE
  5
390
330
2
100
AcDbEntity
  8
L-ZISSEN
100
AcDbCircle
 10
783.9999999999995
 20
672.0
 30
0.0
 40
3.499999999999772
  0
LINE
  5
391
330
2
100
AcDbEntity
  8
L-ZISSEN
100
AcDbLine
 10
774.9999999999998
 20
678.0
 30
0.0
 11
774.9999999999998
 21
676.0
 31
0.0
  0
LINE
  5
392
330
2
100
AcDbEntity
  8
L-ZISSEN
100
AcDbLine
 10
735.9999999999993
 20
845.5
 30
0.0
 11
787.9999999999993
 21
845.5
 31
0.0
  0
LINE
  5
393
330
2
100
AcDbEntity
  8
L-ZISSEN
100
AcDbLine
 10
787.9999999999993
 20
844.0
 30
0.0
 11
735.9999999999993
 21
844.0
 31
0.0
  0
ARC
  5
394
330
2
100
AcDbEntity
  8
L-ZISSEN
100
AcDbCircle
 10
761.9999999999993
 20
831.0
 30
0.0
 40
13.0
100
AcDbArc
 50
125.2344179999978
 51
54.76558200000211
  0
LINE
  5
395
330
2
100
AcDbEntity
  8
L-ZISSEN
100
AcDbLine
 10
733.8999999999991
 20
836.0
 30
0.0
 11
733.8999999999991
 21
784.0
 31
0.0
  0
LINE
  5
396
330
2
100
AcDbEntity
  8
L-ZISSEN
100
AcDbLine
 10
731.8999999999991
 20
836.0
 30
0.0
 11
731.8999999999991
 21
784.0
 31
0.0
  0
LINE
  5
397
330
2
100
AcDbEntity
  8
L-ZISSEN
  6
CONTINUOUS
 62
     7
100
AcDbLine
 10
728.5999999999996
 20
794.5
 30
0.0
 11
728.5999999999996
 21
785.5
 31
0.0
  0
LINE
  5
398
330
2
100
AcDbEntity
  8
L-ZISSEN
  6
CONTINUOUS
 62
     7
100
AcDbLine
 10
731.8999999999994
 20
794.4999999999999
 30
0.0
 11
728.5999999999996
 21
794.4999999999999
 31
0.0
  0
LINE
  5
399
330
2
100
AcDbEntity
  8
L-ZISSEN
  6
CONTINUOUS
 62
     7
100
AcDbLine
 10
731.8999999999994
 20
785.5
 30
0.0
 11
728.5999999999996
 21
785.5
 31
0.0
  0
LINE
  5
39A
330
2
100
AcDbEntity
  8
L-ZISSEN
  6
CONTINUOUS
 62
     7
100
AcDbLine
 10
728.5999999999996
 20
834.5
 30
0.0
 11
728.5999999999996
 21
825.5
 31
0.0
  0
LINE
  5
39B
330
2
100
AcDbEntity
  8
L-ZISSEN
  6
CONTINUOUS
 62
     7
100
AcDbLine
 10
731.8999999999994
 20
825.5
 30
0.0
 11
728.5999999999996
 21
825.5
 31
0.0
  0
LINE
  5
39C
330
2
100
AcDbEntity
  8
L-ZISSEN
100
AcDbLine
 10
731.8999999999991
 20
836.0
 30
0.0
 11
735.9999999999993
 21
836.0
 31
0.0
  0
LINE
  5
39D
330
2
100
AcDbEntity
  8
L-ZISSEN
  6
CONTINUOUS
 62
     7
100
AcDbLine
 10
731.8999999999994
 20
834.4999999999998
 30
0.0
 11
728.5999999999996
 21
834.4999999999998
 31
0.0
  0
LINE
  5
39E
330
2
100
AcDbEntity
  8
L-ZISSEN
100
AcDbLine
 10
735.9999999999993
 20
845.5
 30
0.0
 11
735.9999999999993
 21
836.0
 31
0.0
  0
LINE
  5
39F
330
2
100
AcDbEntity
  8
L-ZISSEN
  6
CONTINUOUS
 62
     7
100
AcDbLine
 10
743.499999999999
 20
849.0999999999999
 30
0.0
 11
736.4999999999991
 21
849.0999999999997
 31
0.0
  0
LINE
  5
3A0
330
2
100
AcDbEntity
  8
L-ZISSEN
  6
CONTINUOUS
 62
     7
100
AcDbLine
 10
736.4999999999991
 20
845.5
 30
0.0
 11
736.4999999999991
 21
849.0999999999999
 31
0.0
  0
LINE
  5
3A1
330
2
100
AcDbEntity
  8
L-ZISSEN
  6
CONTINUOUS
 62
     7
100
AcDbLine
 10
743.499999999999
 20
845.5
 30
0.0
 11
743.499999999999
 21
849.0999999999999
 31
0.0
  0
LINE
  5
3A2
330
2
100
AcDbEntity
  8
L-ZISSEN
100
AcDbLine
 10
790.0999999999992
 20
836.0
 30
0.0
 11
790.0999999999992
 21
784.0
 31
0.0
  0
LINE
  5
3A3
330
2
100
AcDbEntity
  8
L-ZISSEN
100
AcDbLine
 10
779.9999999999998
 20
765.0
 30
0.0
 11
781.9999999999997
 21
765.0
 31
0.0
  0
LINE
  5
3A4
330
2
100
AcDbEntity
  8
L-ZISSEN
100
AcDbLine
 10
763.3754892958209
 20
782.5480946321883
 30
0.0
 11
779.9999999999998
 21
765.0
 31
0.0
  0
SOLID
  5
3A5
330
2
100
AcDbEntity
  8
L-ZISSEN
100
AcDbTrace
 10
763.1335050678524
 20
782.318846416218
 30
0.0
 11
763.6174735237895
 21
782.7773428481585
 31
0.0
 12
761.9999999999993
 22
784.0
 32
0.0
 13
761.9999999999993
 23
784.0
 33
0.0
  0
TEXT
  5
3A6
330
2
100
AcDbEntity
  8
L-ZISSEN
100
AcDbText
 10
783.9999999999998
 20
762.75
 30
0.0
 40
4.5
  1
P.P
100
AcDbText
  0
LINE
  5
3A7
330
2
100
AcDbEntity
  8
L-ZISSEN
  6
CONTINUOUS
 62
     7
100
AcDbLine
 10
787.4999999999991
 20
849.0999999999999
 30
0.0
 11
780.499999999999
 21
849.0999999999997
 31
0.0
  0
CIRCLE
  5
3A8
330
2
100
AcDbEntity
  8
L-ZISSEN
100
AcDbCircle
 10
761.9999999999993
 20
831.0
 30
0.0
 40
9.3
  0
LINE
  5
3A9
330
2
100
AcDbEntity
  8
L-ZISSEN
100
AcDbLine
 10
754.4999999999993
 20
844.0
 30
0.0
 11
754.4999999999993
 21
841.6183810000003
 31
0.0
  0
LINE
  5
3AA
330
2
100
AcDbEntity
  8
L-ZISSEN
100
AcDbLine
 10
769.4999999999993
 20
844.0
 30
0.0
 11
769.4999999999993
 21
841.6183810000003
 31
0.0
  0
LINE
  5
3AB
330
2
100
AcDbEntity
  8
L-ZISSEN
  6
CONTINUOUS
 62
     7
100
AcDbLine
 10
780.499999999999
 20
845.5
 30
0.0
 11
780.499999999999
 21
849.0999999999999
 31
0.0
  0
LINE
  5
3AC
330
2
100
AcDbEntity
  8
L-ZISSEN
100
AcDbLine
 10
787.9999999999993
 20
845.5
 30
0.0
 11
787.9999999999993
 21
836.0
 31
0.0
  0
LINE
  5
3AD
330
2
100
AcDbEntity
  8
L-ZISSEN
  6
CONTINUOUS
 62
     7
100
AcDbLine
 10
787.4999999999991
 20
845.5
 30
0.0
 11
787.4999999999991
 21
849.0999999999999
 31
0.0
  0
TEXT
  5
3AE
330
2
100
AcDbEntity
  8
L-ZISSEN
100
AcDbText
 10
834.9999999999997
 20
705.0
 30
0.0
 40
4.5
  1
AC-200V
100
AcDbText
  0
TEXT
  5
3AF
330
2
100
AcDbEntity
  8
L-ZISSEN
100
AcDbText
 10
834.9999999999997
 20
715.0
 30
0.0
 40
4.5
  1
AC-100V
100
AcDbText
  0
LINE
  5
3B0
330
2
100
AcDbEntity
  8
L-ZISSEN
100
AcDbLine
 10
873.7000000000007
 20
820.9999999999995
 30
0.0
 11
873.7000000000007
 21
798.9999999999997
 31
0.0
  0
LINE
  5
3B1
330
2
100
AcDbEntity
  8
L-ZISSEN
100
AcDbLine
 10
862.1000000000002
 20
835.9999999999997
 30
0.0
 11
862.0999999999998
 21
783.9999999999998
 31
0.0
  0
LINE
  5
3B2
330
2
100
AcDbEntity
  8
L-ZISSEN
100
AcDbLine
 10
872.7000000000005
 20
828.9999999999997
 30
0.0
 11
872.7000000000002
 21
790.9999999999997
 31
0.0
  0
LINE
  5
3B3
330
2
100
AcDbEntity
  8
L-ZISSEN
100
AcDbLine
 10
866.7428199999999
 20
794.4999500000005
 30
0.0
 11
862.1000000000003
 21
794.4999500000005
 31
0.0
  0
LINE
  5
3B4
330
2
100
AcDbEntity
  8
L-ZISSEN
100
AcDbLine
 10
866.7428199999999
 20
785.50005
 30
0.0
 11
862.1000000000003
 21
785.50005
 31
0.0
  0
LINE
  5
3B5
330
2
100
AcDbEntity
  8
L-ZISSEN
100
AcDbLine
 10
866.7428199999999
 20
790.9999999999997
 30
0.0
 11
872.7000000000002
 21
790.9999999999997
 31
0.0
  0
LINE
  5
3B6
330
2
100
AcDbEntity
  8
L-ZISSEN
100
AcDbLine
 10
866.7428199999999
 20
794.4999500000005
 30
0.0
 11
866.7428199999999
 21
785.50005
 31
0.0
  0
LINE
  5
3B7
330
2
100
AcDbEntity
  8
L-ZISSEN
100
AcDbLine
 10
873.7000000000007
 20
798.9999999999997
 30
0.0
 11
872.7000000000002
 21
798.9999999999997
 31
0.0
  0
LINE
  5
3B8
330
2
100
AcDbEntity
  8
L-ZISSEN
100
AcDbLine
 10
866.7428199999999
 20
825.5000499999994
 30
0.0
 11
866.7428199999999
 21
834.4999499999998
 31
0.0
  0
LINE
  5
3B9
330
2
100
AcDbEntity
  8
L-ZISSEN
100
AcDbLine
 10
866.7428199999999
 20
825.5000499999994
 30
0.0
 11
862.1000000000003
 21
825.5000499999994
 31
0.0
  0
LINE
  5
3BA
330
2
100
AcDbEntity
  8
L-ZISSEN
100
AcDbLine
 10
866.7428199999999
 20
828.9999999999997
 30
0.0
 11
872.7000000000005
 21
828.9999999999997
 31
0.0
  0
LINE
  5
3BB
330
2
100
AcDbEntity
  8
L-ZISSEN
100
AcDbLine
 10
872.7000000000002
 20
820.9999999999995
 30
0.0
 11
873.7000000000007
 21
820.9999999999995
 31
0.0
  0
LINE
  5
3BC
330
2
100
AcDbEntity
  8
L-ZISSEN
100
AcDbLine
 10
866.7428199999999
 20
834.4999499999998
 30
0.0
 11
862.1000000000003
 21
834.4999499999998
 31
0.0
  0
LINE
  5
3BD
330
2
100
AcDbEntity
  8
L-ZISSEN
100
AcDbLine
 10
938.9999999999998
 20
784.0
 30
0.0
 11
938.9999999999998
 21
845.5
 31
0.0
  0
LINE
  5
3BE
330
2
100
AcDbEntity
  8
L-ZISSEN
100
AcDbLine
 10
936.9999999999997
 20
818.0000000000003
 30
0.0
 11
936.9999999999997
 21
844.0
 31
0.0
  0
LINE
  5
3BF
330
2
100
AcDbEntity
  8
L-ZISSEN
100
AcDbLine
 10
936.9999999999997
 20
818.0000000000003
 30
0.0
 11
938.9999999999998
 21
818.0000000000003
 31
0.0
  0
LINE
  5
3C0
330
2
100
AcDbEntity
  8
L-ZISSEN
  6
CONTINUOUS
 62
     7
100
AcDbLine
 10
939.4999999999997
 20
845.5
 30
0.0
 11
939.4999999999997
 21
849.0999999999999
 31
0.0
  0
TEXT
  5
3C1
330
2
100
AcDbEntity
  8
L-ZISSEN
100
AcDbText
 10
729.9999999999998
 20
960.0
 30
0.0
 40
4.5
  1
MODEL NO. : 36B-*00-81B0
100
AcDbText
  0
LINE
  5
3C2
330
2
100
AcDbEntity
  8
L-ZISSEN
100
AcDbLine
 10
862.0999999999998
 20
873.9999999999998
 30
0.0
 11
731.8999999999994
 21
874.0
 31
0.0
  0
LINE
  5
3C3
330
2
100
AcDbEntity
  8
L-ZISSEN
100
AcDbLine
 10
862.1000000000002
 20
925.9999999999994
 30
0.0
 11
731.8999999999994
 21
926.0
 31
0.0
  0
LINE
  5
3C4
330
2
100
AcDbEntity
  8
L-ZISSEN
100
AcDbLine
 10
774.9999999999998
 20
928.0
 30
0.0
 11
749.0
 21
928.0
 31
0.0
  0
LINE
  5
3C5
330
2
100
AcDbEntity
  8
L-ZISSEN
100
AcDbLine
 10
774.9999999999998
 20
871.9999999999998
 30
0.0
 11
749.0
 21
871.9999999999998
 31
0.0
  0
LINE
  5
3C6
330
2
100
AcDbEntity
  8
L-ZISSEN
100
AcDbLine
 10
735.9999999999995
 20
873.9999999999998
 30
0.0
 11
735.9999999999995
 21
926.0
 31
0.0
  0
LINE
  5
3C7
330
2
100
AcDbEntity
  8
L-ZISSEN
  6
CONTINUOUS
 62
     7
100
AcDbLine
 10
731.8999999999994
 20
925.9999999999998
 30
0.0
 11
731.8999999999994
 21
873.9999999999996
 31
0.0
  0
LINE
  5
3C8
330
2
100
AcDbEntity
  8
L-ZISSEN
  6
CONTINUOUS
 62
     7
100
AcDbLine
 10
733.8999999999994
 20
873.9999999999996
 30
0.0
 11
733.8999999999994
 21
926.0
 31
0.0
  0
CIRCLE
  5
3C9
330
2
100
AcDbEntity
  8
L-ZISSEN
100
AcDbCircle
 10
739.9999999999995
 20
877.9999999999999
 30
0.0
 40
3.499999999999772
  0
LINE
  5
3CA
330
2
100
AcDbEntity
  8
L-ZISSEN
  6
CONTINUOUS
 62
     7
100
AcDbLine
 10
728.5999999999996
 20
884.4999999999998
 30
0.0
 11
728.5999999999996
 21
875.4999999999999
 31
0.0
  0
LINE
  5
3CB
330
2
100
AcDbEntity
  8
L-ZISSEN
  6
CONTINUOUS
 62
     7
100
AcDbLine
 10
731.8999999999994
 20
875.4999999999999
 30
0.0
 11
728.5999999999996
 21
875.4999999999999
 31
0.0
  0
LINE
  5
3CC
330
2
100
AcDbEntity
  8
L-ZISSEN
100
AcDbLine
 10
748.9999999999995
 20
873.9999999999998
 30
0.0
 11
748.9999999999995
 21
871.9999999999998
 31
0.0
  0
LINE
  5
3CD
330
2
100
AcDbEntity
  8
L-ZISSEN
  6
CONTINUOUS
 62
     7
100
AcDbLine
 10
731.8999999999994
 20
884.4999999999997
 30
0.0
 11
728.5999999999996
 21
884.4999999999997
 31
0.0
  0
CIRCLE
  5
3CE
330
2
100
AcDbEntity
  8
L-ZISSEN
100
AcDbCircle
 10
739.9999999999995
 20
922.0
 30
0.0
 40
3.499999999999772
  0
LINE
  5
3CF
330
2
100
AcDbEntity
  8
L-ZISSEN
  6
CONTINUOUS
 62
     7
100
AcDbLine
 10
728.5999999999996
 20
924.4999999999997
 30
0.0
 11
728.5999999999996
 21
915.4999999999999
 31
0.0
  0
LINE
  5
3D0
330
2
100
AcDbEntity
  8
L-ZISSEN
  6
CONTINUOUS
 62
     7
100
AcDbLine
 10
731.8999999999994
 20
915.4999999999997
 30
0.0
 11
728.5999999999996
 21
915.4999999999997
 31
0.0
  0
LINE
  5
3D1
330
2
100
AcDbEntity
  8
L-ZISSEN
  6
CONTINUOUS
 62
     7
100
AcDbLine
 10
731.8999999999994
 20
924.4999999999997
 30
0.0
 11
728.5999999999996
 21
924.4999999999997
 31
0.0
  0
LINE
  5
3D2
330
2
100
AcDbEntity
  8
L-ZISSEN
100
AcDbLine
 10
748.9999999999997
 20
928.0
 30
0.0
 11
748.9999999999997
 21
926.0
 31
0.0
  0
LINE
  5
3D3
330
2
100
AcDbEntity
  8
L-ZISSEN
100
AcDbLine
 10
787.9999999999995
 20
873.9999999999998
 30
0.0
 11
787.9999999999995
 21
925.9999999999998
 31
0.0
  0
LINE
  5
3D4
330
2
100
AcDbEntity
  8
L-ZISSEN
100
AcDbLine
 10
790.0999999999994
 20
873.9999999999998
 30
0.0
 11
790.0999999999997
 21
925.9999999999998
 31
0.0
  0
CIRCLE
  5
3D5
330
2
100
AcDbEntity
  8
L-ZISSEN
100
AcDbCircle
 10
783.9999999999995
 20
877.9999999999999
 30
0.0
 40
3.499999999999772
  0
LINE
  5
3D6
330
2
100
AcDbEntity
  8
L-ZISSEN
100
AcDbLine
 10
762.9969422485157
 20
898.2661873938846
 30
0.0
 11
784.9999999999997
 21
859.9999999999999
 31
0.0
  0
LINE
  5
3D7
330
2
100
AcDbEntity
  8
L-ZISSEN
100
AcDbLine
 10
774.9999999999998
 20
873.9999999999998
 30
0.0
 11
774.9999999999998
 21
871.9999999999998
 31
0.0
  0
SOLID
  5
3D8
330
2
100
AcDbEntity
  8
L-ZISSEN
100
AcDbTrace
 10
762.7079734808298
 20
898.1000303524652
 30
0.0
 11
763.2859110162014
 21
898.4323444353041
 31
0.0
 12
761.9999999999995
 22
899.9999999999998
 32
0.0
 13
761.9999999999995
 23
899.9999999999998
 33
0.0
  0
TEXT
  5
3D9
330
2
100
AcDbEntity
  8
L-ZISSEN
100
AcDbText
 10
788.9999999999997
 20
857.7499999999998
 30
0.0
 40
4.5
  1
P.P
100
AcDbText
  0
LINE
  5
3DA
330
2
100
AcDbEntity
  8
L-ZISSEN
100
AcDbLine
 10
784.9999999999997
 20
859.9999999999999
 30
0.0
 11
786.9999999999998
 21
859.9999999999999
 31
0.0
  0
CIRCLE
  5
3DB
330
2
100
AcDbEntity
  8
L-ZISSEN
100
AcDbCircle
 10
783.9999999999995
 20
922.0
 30
0.0
 40
3.499999999999772
  0
LINE
  5
3DC
330
2
100
AcDbEntity
  8
L-ZISSEN
100
AcDbLine
 10
774.9999999999998
 20
928.0
 30
0.0
 11
774.9999999999998
 21
926.0
 31
0.0
  0
TEXT
  5
3DD
330
2
100
AcDbEntity
  8
L-ZISSEN
100
AcDbText
 10
729.9999999999998
 20
970.0
 30
0.0
 40
4.5
  1
PILOT VALVE
100
AcDbText
  0
LINE
  5
3DE
330
2
100
AcDbEntity
  8
L-ZISSEN
100
AcDbLine
 10
862.1000000000002
 20
925.9999999999998
 30
0.0
 11
862.0999999999998
 21
873.9999999999998
 31
0.0
  0
LINE
  5
3DF
330
2
100
AcDbEntity
  8
L-ZISSEN
100
AcDbLine
 10
872.7000000000005
 20
918.9999999999997
 30
0.0
 11
872.7000000000002
 21
880.9999999999998
 31
0.0
  0
LINE
  5
3E0
330
2
100
AcDbEntity
  8
L-ZISSEN
100
AcDbLine
 10
873.7000000000007
 20
910.9999999999995
 30
0.0
 11
873.7000000000007
 21
888.9999999999998
 31
0.0
  0
LINE
  5
3E1
330
2
100
AcDbEntity
  8
L-ZISSEN
100
AcDbLine
 10
866.7428199999999
 20
884.4999500000005
 30
0.0
 11
866.7428199999999
 21
875.5000500000001
 31
0.0
  0
LINE
  5
3E2
330
2
100
AcDbEntity
  8
L-ZISSEN
100
AcDbLine
 10
866.7428199999999
 20
875.5000500000001
 30
0.0
 11
862.1000000000003
 21
875.5000500000001
 31
0.0
  0
LINE
  5
3E3
330
2
100
AcDbEntity
  8
L-ZISSEN
100
AcDbLine
 10
866.7428199999999
 20
884.4999500000005
 30
0.0
 11
862.1000000000003
 21
884.4999500000005
 31
0.0
  0
LINE
  5
3E4
330
2
100
AcDbEntity
  8
L-ZISSEN
100
AcDbLine
 10
866.7428199999999
 20
880.9999999999998
 30
0.0
 11
872.7000000000002
 21
880.9999999999998
 31
0.0
  0
LINE
  5
3E5
330
2
100
AcDbEntity
  8
L-ZISSEN
100
AcDbLine
 10
873.7000000000007
 20
888.9999999999998
 30
0.0
 11
872.7000000000002
 21
888.9999999999998
 31
0.0
  0
LINE
  5
3E6
330
2
100
AcDbEntity
  8
L-ZISSEN
100
AcDbLine
 10
866.7428199999999
 20
915.5000499999994
 30
0.0
 11
866.7428199999999
 21
924.4999499999998
 31
0.0
  0
LINE
  5
3E7
330
2
100
AcDbEntity
  8
L-ZISSEN
100
AcDbLine
 10
866.7428199999999
 20
915.5000499999994
 30
0.0
 11
862.1000000000003
 21
915.5000499999994
 31
0.0
  0
LINE
  5
3E8
330
2
100
AcDbEntity
  8
L-ZISSEN
100
AcDbLine
 10
872.7000000000002
 20
910.9999999999995
 30
0.0
 11
873.7000000000007
 21
910.9999999999995
 31
0.0
  0
LINE
  5
3E9
330
2
100
AcDbEntity
  8
L-ZISSEN
100
AcDbLine
 10
866.7428199999999
 20
918.9999999999997
 30
0.0
 11
872.7000000000005
 21
918.9999999999997
 31
0.0
  0
LINE
  5
3EA
330
2
100
AcDbEntity
  8
L-ZISSEN
100
AcDbLine
 10
866.7428199999999
 20
924.4999499999998
 30
0.0
 11
862.1000000000003
 21
924.4999499999998
 31
0.0
  0
TEXT
  5
3EB
330
2
100
AcDbEntity
  8
L-ZISSEN
100
AcDbText
 10
834.9999999999997
 20
955.0
 30
0.0
 40
4.5
  1
DC-100V
100
AcDbText
  0
TEXT
  5
3EC
330
2
100
AcDbEntity
  8
L-ZISSEN
100
AcDbText
 10
834.9999999999997
 20
965.0
 30
0.0
 40
4.5
  1
DC-24V
100
AcDbText
  0
LINE
  5
3ED
330
2
100
AcDbEntity
  8
L-ZISSEN
100
AcDbLine
 10
1321.7
 20
668.9999999999997
 30
0.0
 11
1321.7
 21
630.9999999999997
 31
0.0
  0
LINE
  5
3EE
330
2
100
AcDbEntity
  8
L-ZISSEN
100
AcDbLine
 10
1315.74282
 20
665.5000499999994
 30
0.0
 11
1315.74282
 21
674.4999499999998
 31
0.0
  0
LINE
  5
3EF
330
2
100
AcDbEntity
  8
L-ZISSEN
100
AcDbLine
 10
1311.1
 20
675.9999999999998
 30
0.0
 11
1311.1
 21
623.9999999999997
 31
0.0
  0
LINE
  5
3F0
330
2
100
AcDbEntity
  8
L-ZISSEN
100
AcDbLine
 10
1236.999999999999
 20
624.0
 30
0.0
 11
1236.999999999999
 21
676.0
 31
0.0
  0
LINE
  5
3F1
330
2
100
AcDbEntity
  8
L-ZISSEN
  6
CONTINUOUS
 62
     7
100
AcDbLine
 10
1239.099999999999
 20
623.9999999999997
 30
0.0
 11
1239.099999999999
 21
675.9999999999998
 31
0.0
  0
LINE
  5
3F2
330
2
100
AcDbEntity
  8
L-ZISSEN
  6
CONTINUOUS
 62
     7
100
AcDbLine
 10
1164.899999999999
 20
623.9999999999997
 30
0.0
 11
1164.899999999999
 21
675.9999999999998
 31
0.0
  0
LINE
  5
3F3
330
2
100
AcDbEntity
  8
L-ZISSEN
100
AcDbLine
 10
1166.999999999998
 20
624.0
 30
0.0
 11
1166.999999999999
 21
676.0
 31
0.0
  0
LINE
  5
3F4
330
2
100
AcDbEntity
  8
L-ZISSEN
100
AcDbLine
 10
1088.257179999998
 20
665.5000499999994
 30
0.0
 11
1088.257179999998
 21
674.4999499999998
 31
0.0
  0
LINE
  5
3F5
330
2
100
AcDbEntity
  8
L-ZISSEN
100
AcDbLine
 10
1082.299999999998
 20
668.9999999999997
 30
0.0
 11
1082.299999999998
 21
630.9999999999997
 31
0.0
  0
LINE
  5
3F6
330
2
100
AcDbEntity
  8
L-ZISSEN
100
AcDbLine
 10
1092.899999999998
 20
675.9999999999998
 30
0.0
 11
1092.899999999998
 21
623.9999999999997
 31
0.0
  0
LINE
  5
3F7
330
2
100
AcDbEntity
  8
L-ZISSEN
100
AcDbLine
 10
1214.999999999999
 20
621.9999999999995
 30
0.0
 11
1188.999999999999
 21
621.9999999999995
 31
0.0
  0
CIRCLE
  5
3F8
330
2
100
AcDbEntity
  8
L-ZISSEN
100
AcDbCircle
 10
1201.999999999999
 20
580.9999999999997
 30
0.0
 40
9.3155
  0
ARC
  5
3F9
330
2
100
AcDbEntity
  8
L-ZISSEN
  6
CONTINUOUS
 62
     7
100
AcDbCircle
 10
1201.999999999999
 20
580.9999999999997
 30
0.0
 40
13.0
100
AcDbArc
 50
125.2344179999978
 51
54.76558200000211
  0
LINE
  5
3FA
330
2
100
AcDbEntity
  8
L-ZISSEN
  6
CONTINUOUS
 62
     7
100
AcDbLine
 10
1166.999999999999
 20
595.4999999999997
 30
0.0
 11
1236.899999999999
 21
595.4999999999997
 31
0.0
  0
LINE
  5
3FB
330
2
100
AcDbEntity
  8
L-ZISSEN
  6
CONTINUOUS
 62
     7
100
AcDbLine
 10
1236.899999999999
 20
593.9999999999997
 30
0.0
 11
1166.999999999999
 21
593.9999999999997
 31
0.0
  0
LINE
  5
3FC
330
2
100
AcDbEntity
  8
L-ZISSEN
100
AcDbLine
 10
1202.996942248515
 20
648.2661873938849
 30
0.0
 11
1224.999999999999
 21
610.0000000000001
 31
0.0
  0
TEXT
  5
3FD
330
2
100
AcDbEntity
  8
L-ZISSEN
100
AcDbText
 10
1189.999999999999
 20
465.0
 30
0.0
 40
4.5
  1
AC-100V
100
AcDbText
  0
TEXT
  5
3FE
330
2
100
AcDbEntity
  8
L-ZISSEN
100
AcDbText
 10
1189.999999999999
 20
455.0
 30
0.0
 40
4.5
  1
AC-200V
100
AcDbText
  0
LINE
  5
3FF
330
2
100
AcDbEntity
  8
L-ZISSEN
100
AcDbLine
 10
1214.999999999999
 20
428.0000000000004
 30
0.0
 11
1188.999999999999
 21
428.0000000000004
 31
0.0
  0
LINE
  5
400
330
2
100
AcDbEntity
  8
L-ZISSEN
100
AcDbLine
 10
1249.099999999991
 20
426.0
 30
0.0
 11
1154.900000000005
 21
426.0000000000001
 31
0.0
  0
LINE
  5
401
330
2
100
AcDbEntity
  8
L-ZISSEN
100
AcDbLine
 10
1202.996942248515
 20
398.2661873938849
 30
0.0
 11
1224.999999999999
 21
360.0000000000001
 31
0.0
  0
LINE
  5
402
330
2
100
AcDbEntity
  8
L-ZISSEN
100
AcDbLine
 10
1214.999999999999
 20
371.9999999999995
 30
0.0
 11
1188.999999999999
 21
371.9999999999995
 31
0.0
  0
LINE
  5
403
330
2
100
AcDbEntity
  8
L-ZISSEN
100
AcDbLine
 10
1249.100000000005
 20
373.9999999999998
 30
0.0
 11
1154.899999999991
 21
373.9999999999998
 31
0.0
  0
LINE
  5
404
330
2
100
AcDbEntity
  8
L-ZISSEN
  6
CONTINUOUS
 62
     7
100
AcDbLine
 10
1236.899999999999
 20
343.9999999999997
 30
0.0
 11
1166.999999999999
 21
343.9999999999997
 31
0.0
  0
LINE
  5
405
330
2
100
AcDbEntity
  8
L-ZISSEN
  6
CONTINUOUS
 62
     7
100
AcDbLine
 10
1166.999999999999
 20
345.4999999999997
 30
0.0
 11
1236.899999999999
 21
345.4999999999997
 31
0.0
  0
LINE
  5
406
330
2
100
AcDbEntity
  8
L-ZISSEN
100
AcDbLine
 10
1203.375489295821
 20
532.5480946321881
 30
0.0
 11
1219.999999999999
 21
514.9999999999997
 31
0.0
  0
LINE
  5
407
330
2
100
AcDbEntity
  8
L-ZISSEN
100
AcDbLine
 10
1092.899999999998
 20
534.0000000000001
 30
0.0
 11
1311.1
 21
533.9999999999998
 31
0.0
  0
LINE
  5
408
330
2
100
AcDbEntity
  8
L-ZISSEN
100
AcDbLine
 10
1311.1
 20
624.0
 30
0.0
 11
1092.899999999998
 21
624.0
 31
0.0
  0
CIRCLE
  5
409
330
2
100
AcDbEntity
  8
L-ZISSEN
100
AcDbCircle
 10
1201.999999999999
 20
330.9999999999997
 30
0.0
 40
9.3155
  0
ARC
  5
40A
330
2
100
AcDbEntity
  8
L-ZISSEN
  6
CONTINUOUS
 62
     7
100
AcDbCircle
 10
1201.999999999999
 20
330.9999999999997
 30
0.0
 40
13.0
100
AcDbArc
 50
125.2344179999978
 51
54.76558200000211
  0
LINE
  5
40B
330
2
100
AcDbEntity
  8
L-ZISSEN
100
AcDbLine
 10
992.9999999999996
 20
318.0000000000002
 30
0.0
 11
992.9999999999996
 21
344.0
 31
0.0
  0
CIRCLE
  5
40C
330
2
100
AcDbEntity
  8
L-ZISSEN
100
AcDbCircle
 10
964.9999999999995
 20
310.0
 30
0.0
 40
11.00000000000023
  0
CIRCLE
  5
40D
330
2
100
AcDbEntity
  8
L-ZISSEN
100
AcDbCircle
 10
964.9999999999995
 20
310.0
 30
0.0
 40
7.25000000000022
  0
CIRCLE
  5
40E
330
2
100
AcDbEntity
  8
L-ZISSEN
100
AcDbCircle
 10
964.9999999999995
 20
310.0
 30
0.0
 40
9.000000000000227
  0
LINE
  5
40F
330
2
100
AcDbEntity
  8
L-ZISSEN
100
AcDbLine
 10
990.9999999999994
 20
318.0000000000002
 30
0.0
 11
992.9999999999996
 21
318.0000000000002
 31
0.0
  0
CIRCLE
  5
410
330
2
100
AcDbEntity
  8
L-ZISSEN
100
AcDbCircle
 10
984.999999999999
 20
330.0
 30
0.0
 40
4.499950000000126
  0
LINE
  5
411
330
2
100
AcDbEntity
  8
L-ZISSEN
  6
CONTINUOUS
 62
     7
100
AcDbLine
 10
946.4999999999996
 20
345.5
 30
0.0
 11
946.4999999999996
 21
349.0999999999999
 31
0.0
  0
LINE
  5
412
330
2
100
AcDbEntity
  8
L-ZISSEN
  6
CONTINUOUS
 62
     7
100
AcDbLine
 10
983.4999999999995
 20
349.0999999999999
 30
0.0
 11
990.4999999999995
 21
349.0999999999999
 31
0.0
  0
LINE
  5
413
330
2
100
AcDbEntity
  8
L-ZISSEN
  6
CONTINUOUS
 62
     7
100
AcDbLine
 10
983.4999999999995
 20
345.5
 30
0.0
 11
983.4999999999995
 21
349.0999999999999
 31
0.0
  0
LINE
  5
414
330
2
100
AcDbEntity
  8
L-ZISSEN
  6
CONTINUOUS
 62
     7
100
AcDbLine
 10
990.4999999999995
 20
345.5
 30
0.0
 11
990.4999999999995
 21
349.0999999999999
 31
0.0
  0
LINE
  5
415
330
2
100
AcDbEntity
  8
L-ZISSEN
100
AcDbLine
 10
1166.999999999998
 20
374.0
 30
0.0
 11
1166.999999999999
 21
426.0
 31
0.0
  0
LINE
  5
416
330
2
100
AcDbEntity
  8
L-ZISSEN
  6
CONTINUOUS
 62
     7
100
AcDbLine
 10
1164.899999999999
 20
373.9999999999997
 30
0.0
 11
1164.899999999999
 21
425.9999999999998
 31
0.0
  0
LINE
  5
417
330
2
100
AcDbEntity
  8
L-ZISSEN
  6
CONTINUOUS
 62
     7
100
AcDbLine
 10
1095.899999999999
 20
411.0000000000002
 30
0.0
 11
1095.899999999999
 21
388.9999999999998
 31
0.0
  0
LINE
  5
418
330
2
100
AcDbEntity
  8
L-ZISSEN
  6
CONTINUOUS
 62
     7
100
AcDbLine
 10
1108.899999999999
 20
375.6063555341138
 30
0.0
 11
1108.899999999999
 21
424.3936444658859
 31
0.0
  0
LINE
  5
419
330
2
100
AcDbEntity
  8
L-ZISSEN
  6
CONTINUOUS
 62
     7
100
AcDbLine
 10
1154.899999999999
 20
335.9999999999997
 30
0.0
 11
1108.899999999999
 21
334.3936444658859
 31
0.0
  0
LINE
  5
41A
330
2
100
AcDbEntity
  8
L-ZISSEN
  6
CONTINUOUS
 62
     7
100
AcDbLine
 10
1154.899999999999
 20
373.9999999999997
 30
0.0
 11
1108.899999999999
 21
375.6063555341138
 31
0.0
  0
LINE
  5
41B
330
2
100
AcDbEntity
  8
L-ZISSEN
  6
CONTINUOUS
 62
     7
100
AcDbLine
 10
1095.899999999999
 20
321.0000000000002
 30
0.0
 11
1095.899999999999
 21
298.9999999999998
 31
0.0
  0
LINE
  5
41C
330
2
100
AcDbEntity
  8
L-ZISSEN
  6
CONTINUOUS
 62
     7
100
AcDbLine
 10
1095.899999999999
 20
301.0
 30
0.0
 11
1089.899999999999
 21
301.0
 31
0.0
  0
LINE
  5
41D
330
2
100
AcDbEntity
  8
L-ZISSEN
  6
CONTINUOUS
 62
     7
100
AcDbLine
 10
1095.899999999999
 20
319.0000000000001
 30
0.0
 11
1089.899999999999
 21
319.0000000000001
 31
0.0
  0
LINE
  5
41E
330
2
100
AcDbEntity
  8
L-ZISSEN
  6
CONTINUOUS
 62
     7
100
AcDbLine
 10
1082.899999999999
 20
317.2500000000002
 30
0.0
 11
1082.899999999999
 21
302.7499999999998
 31
0.0
  0
LINE
  5
41F
330
2
100
AcDbEntity
  8
L-ZISSEN
  6
CONTINUOUS
 62
     7
100
AcDbLine
 10
1089.899999999999
 20
319.0000000000001
 30
0.0
 11
1089.899999999999
 21
301.0
 31
0.0
  0
LINE
  5
420
330
2
100
AcDbEntity
  8
L-ZISSEN
  6
CONTINUOUS
 62
     7
100
AcDbLine
 10
1089.899999999999
 20
302.7499999999998
 30
0.0
 11
1082.899999999999
 21
302.7499999999998
 31
0.0
  0
LINE
  5
421
330
2
100
AcDbEntity
  8
L-ZISSEN
  6
CONTINUOUS
 62
     7
100
AcDbLine
 10
1089.899999999999
 20
317.2500000000002
 30
0.0
 11
1082.899999999999
 21
317.2500000000002
 31
0.0
  0
LINE
  5
422
330
2
100
AcDbEntity
  8
L-ZISSEN
100
AcDbLine
 10
1108.899999999999
 20
298.9999999999998
 30
0.0
 11
1095.899999999999
 21
298.9999999999998
 31
0.0
  0
LINE
  5
423
330
2
100
AcDbEntity
  8
L-ZISSEN
100
AcDbLine
 10
1108.899999999999
 20
321.0000000000002
 30
0.0
 11
1095.899999999999
 21
321.0000000000002
 31
0.0
  0
LINE
  5
424
330
2
100
AcDbEntity
  8
L-ZISSEN
100
AcDbLine
 10
1108.899999999999
 20
388.9999999999998
 30
0.0
 11
1095.899999999999
 21
388.9999999999998
 31
0.0
  0
LINE
  5
425
330
2
100
AcDbEntity
  8
L-ZISSEN
  6
CONTINUOUS
 62
     7
100
AcDbLine
 10
1194.499999999999
 20
343.9999999999997
 30
0.0
 11
1194.499999999999
 21
341.618381
 31
0.0
  0
LINE
  5
426
330
2
100
AcDbEntity
  8
L-ZISSEN
  6
CONTINUOUS
 62
     7
100
AcDbLine
 10
1166.999999999999
 20
345.4999999999997
 30
0.0
 11
1166.999999999999
 21
335.9999999999997
 31
0.0
  0
LINE
  5
427
330
2
100
AcDbEntity
  8
L-ZISSEN
100
AcDbLine
 10
1166.999999999999
 20
336.0
 30
0.0
 11
1154.899999999999
 21
336.0000000000001
 31
0.0
  0
LINE
  5
428
330
2
100
AcDbEntity
  8
L-ZISSEN
  6
CONTINUOUS
 62
     7
100
AcDbLine
 10
1174.499999999999
 20
349.0999999999996
 30
0.0
 11
1167.499999999999
 21
349.0999999999996
 31
0.0
  0
LINE
  5
429
330
2
100
AcDbEntity
  8
L-ZISSEN
  6
CONTINUOUS
 62
     7
100
AcDbLine
 10
1167.499999999999
 20
345.4999999999997
 30
0.0
 11
1167.499999999999
 21
349.0999999999996
 31
0.0
  0
LINE
  5
42A
330
2
100
AcDbEntity
  8
L-ZISSEN
  6
CONTINUOUS
 62
     7
100
AcDbLine
 10
1174.499999999999
 20
345.4999999999997
 30
0.0
 11
1174.499999999999
 21
349.0999999999996
 31
0.0
  0
CIRCLE
  5
42B
330
2
100
AcDbEntity
  8
L-ZISSEN
100
AcDbCircle
 10
1170.999999999999
 20
378.0
 30
0.0
 40
3.5
  0
LINE
  5
42C
330
2
100
AcDbEntity
  8
L-ZISSEN
100
AcDbLine
 10
1188.999999999999
 20
371.9999999999995
 30
0.0
 11
1188.999999999999
 21
373.9999999999995
 31
0.0
  0
LINE
  5
42D
330
2
100
AcDbEntity
  8
L-ZISSEN
  6
CONTINUOUS
 62
     7
100
AcDbLine
 10
1154.899999999999
 20
425.9999999999998
 30
0.0
 11
1108.899999999999
 21
424.3936444658859
 31
0.0
  0
TEXT
  5
42E
330
2
100
AcDbEntity
  8
L-ZISSEN
100
AcDbText
 10
1084.999999999999
 20
460.0
 30
0.0
 40
4.5
  1
MODEL NO. : 36B-*00-91R0
100
AcDbText
  0
LINE
  5
42F
330
2
100
AcDbEntity
  8
L-ZISSEN
  6
CONTINUOUS
 62
     7
100
AcDbLine
 10
1095.899999999999
 20
391.0
 30
0.0
 11
1089.899999999999
 21
391.0
 31
0.0
  0
LINE
  5
430
330
2
100
AcDbEntity
  8
L-ZISSEN
  6
CONTINUOUS
 62
     7
100
AcDbLine
 10
1095.899999999999
 20
409.0000000000001
 30
0.0
 11
1089.899999999999
 21
409.0000000000001
 31
0.0
  0
LINE
  5
431
330
2
100
AcDbEntity
  8
L-ZISSEN
  6
CONTINUOUS
 62
     7
100
AcDbLine
 10
1082.899999999999
 20
407.2500000000002
 30
0.0
 11
1082.899999999999
 21
392.7499999999998
 31
0.0
  0
LINE
  5
432
330
2
100
AcDbEntity
  8
L-ZISSEN
  6
CONTINUOUS
 62
     7
100
AcDbLine
 10
1089.899999999999
 20
409.0000000000001
 30
0.0
 11
1089.899999999999
 21
391.0
 31
0.0
  0
LINE
  5
433
330
2
100
AcDbEntity
  8
L-ZISSEN
  6
CONTINUOUS
 62
     7
100
AcDbLine
 10
1089.899999999999
 20
392.7499999999998
 30
0.0
 11
1082.899999999999
 21
392.7499999999998
 31
0.0
  0
LINE
  5
434
330
2
100
AcDbEntity
  8
L-ZISSEN
  6
CONTINUOUS
 62
     7
100
AcDbLine
 10
1089.899999999999
 20
407.2500000000002
 30
0.0
 11
1082.899999999999
 21
407.2500000000002
 31
0.0
  0
LINE
  5
435
330
2
100
AcDbEntity
  8
L-ZISSEN
100
AcDbLine
 10
1108.899999999999
 20
411.0000000000002
 30
0.0
 11
1095.899999999999
 21
411.0000000000002
 31
0.0
  0
TEXT
  5
436
330
2
100
AcDbEntity
  8
L-ZISSEN
100
AcDbText
 10
1084.999999999999
 20
470.0
 30
0.0
 40
4.5
  1
PILOT VALVE
100
AcDbText
  0
CIRCLE
  5
437
330
2
100
AcDbEntity
  8
L-ZISSEN
100
AcDbCircle
 10
1170.999999999999
 20
422.0
 30
0.0
 40
3.5
  0
SOLID
  5
438
330
2
100
AcDbEntity
  8
L-ZISSEN
100
AcDbTrace
 10
1202.707973480829
 20
398.1000303524655
 30
0.0
 11
1203.285911016201
 21
398.4323444353043
 31
0.0
 12
1201.999999999999
 22
400.0
 32
0.0
 13
1201.999999999999
 23
400.0
 33
0.0
  0
LINE
  5
439
330
2
100
AcDbEntity
  8
L-ZISSEN
100
AcDbLine
 10
1188.999999999999
 20
428.0000000000004
 30
0.0
 11
1188.999999999999
 21
426.0000000000004
 31
0.0
  0
LINE
  5
43A
330
2
100
AcDbEntity
  8
L-ZISSEN
100
AcDbLine
 10
992.9999999999996
 20
568.0000000000002
 30
0.0
 11
992.9999999999996
 21
594.0
 31
0.0
  0
LINE
  5
43B
330
2
100
AcDbEntity
  8
L-ZISSEN
100
AcDbLine
 10
990.9999999999994
 20
595.5
 30
0.0
 11
990.9999999999994
 21
534.0
 31
0.0
  0
LINE
  5
43C
330
2
100
AcDbEntity
  8
L-ZISSEN
100
AcDbLine
 10
966.2392885771579
 20
532.4302344689331
 30
0.0
 11
979.9999999999997
 21
515.0
 31
0.0
  0
TEXT
  5
43D
330
2
100
AcDbEntity
  8
L-ZISSEN
100
AcDbText
 10
983.9999999999998
 20
512.75
 30
0.0
 40
4.5
  1
P.P
100
AcDbText
  0
LINE
  5
43E
330
2
100
AcDbEntity
  8
L-ZISSEN
100
AcDbLine
 10
979.9999999999997
 20
515.0
 30
0.0
 11
981.9999999999998
 21
515.0
 31
0.0
  0
CIRCLE
  5
43F
330
2
100
AcDbEntity
  8
L-ZISSEN
100
AcDbCircle
 10
964.9999999999995
 20
560.0
 30
0.0
 40
11.00000000000023
  0
CIRCLE
  5
440
330
2
100
AcDbEntity
  8
L-ZISSEN
100
AcDbCircle
 10
964.9999999999995
 20
560.0
 30
0.0
 40
9.000000000000227
  0
SOLID
  5
441
330
2
100
AcDbEntity
  8
L-ZISSEN
100
AcDbTrace
 10
965.9776609886467
 20
532.2236863727401
 30
0.0
 11
966.5009161656689
 21
532.6367825651261
 31
0.0
 12
964.9999999999998
 22
534.0
 32
0.0
 13
964.9999999999998
 23
534.0
 33
0.0
  0
CIRCLE
  5
442
330
2
100
AcDbEntity
  8
L-ZISSEN
100
AcDbCircle
 10
964.9999999999995
 20
560.0
 30
0.0
 40
7.25000000000022
  0
LINE
  5
443
330
2
100
AcDbEntity
  8
L-ZISSEN
100
AcDbLine
 10
990.9999999999994
 20
568.0000000000002
 30
0.0
 11
992.9999999999996
 21
568.0000000000002
 31
0.0
  0
LINE
  5
444
330
2
100
AcDbEntity
  8
L-ZISSEN
  6
CONTINUOUS
 62
     7
100
AcDbLine
 10
946.4999999999996
 20
595.5
 30
0.0
 11
946.4999999999996
 21
599.0999999999999
 31
0.0
  0
LINE
  5
445
330
2
100
AcDbEntity
  8
L-ZISSEN
  6
CONTINUOUS
 62
     7
100
AcDbLine
 10
990.4999999999995
 20
595.5
 30
0.0
 11
990.4999999999995
 21
599.0999999999999
 31
0.0
  0
LINE
  5
446
330
2
100
AcDbEntity
  8
L-ZISSEN
  6
CONTINUOUS
 62
     7
100
AcDbLine
 10
983.4999999999995
 20
595.5
 30
0.0
 11
983.4999999999995
 21
599.0999999999999
 31
0.0
  0
LINE
  5
447
330
2
100
AcDbEntity
  8
L-ZISSEN
  6
CONTINUOUS
 62
     7
100
AcDbLine
 10
983.4999999999995
 20
599.0999999999999
 30
0.0
 11
990.4999999999995
 21
599.0999999999999
 31
0.0
  0
LINE
  5
448
330
2
100
AcDbEntity
  8
L-ZISSEN
  6
CONTINUOUS
 62
     7
100
AcDbLine
 10
1164.899999999999
 20
533.9999999999998
 30
0.0
 11
1164.899999999999
 21
585.9999999999997
 31
0.0
  0
LINE
  5
449
330
2
100
AcDbEntity
  8
L-ZISSEN
  6
CONTINUOUS
 62
     7
100
AcDbLine
 10
1164.899999999999
 20
533.9999999999995
 30
0.0
 11
1164.899999999999
 21
585.9999999999995
 31
0.0
  0
LINE
  5
44A
330
2
100
AcDbEntity
  8
L-ZISSEN
100
AcDbLine
 10
1092.899999999998
 20
585.9999999999997
 30
0.0
 11
1092.899999999998
 21
533.9999999999998
 31
0.0
  0
LINE
  5
44B
330
2
100
AcDbEntity
  8
L-ZISSEN
100
AcDbLine
 10
1082.299999999998
 20
578.9999999999998
 30
0.0
 11
1082.299999999998
 21
540.9999999999997
 31
0.0
  0
LINE
  5
44C
330
2
100
AcDbEntity
  8
L-ZISSEN
100
AcDbLine
 10
1081.299999999997
 20
570.9999999999995
 30
0.0
 11
1081.299999999997
 21
548.9999999999997
 31
0.0
  0
LINE
  5
44D
330
2
100
AcDbEntity
  8
L-ZISSEN
100
AcDbLine
 10
1088.257179999998
 20
544.4999500000005
 30
0.0
 11
1088.257179999998
 21
535.50005
 31
0.0
  0
LINE
  5
44E
330
2
100
AcDbEntity
  8
L-ZISSEN
100
AcDbLine
 10
1088.257179999998
 20
535.50005
 30
0.0
 11
1092.899999999998
 21
535.50005
 31
0.0
  0
LINE
  5
44F
330
2
100
AcDbEntity
  8
L-ZISSEN
100
AcDbLine
 10
1088.257179999998
 20
540.9999999999997
 30
0.0
 11
1082.299999999998
 21
540.9999999999997
 31
0.0
  0
LINE
  5
450
330
2
100
AcDbEntity
  8
L-ZISSEN
100
AcDbLine
 10
1081.299999999997
 20
548.9999999999997
 30
0.0
 11
1082.299999999998
 21
548.9999999999997
 31
0.0
  0
LINE
  5
451
330
2
100
AcDbEntity
  8
L-ZISSEN
100
AcDbLine
 10
1088.257179999998
 20
544.4999500000005
 30
0.0
 11
1092.899999999998
 21
544.4999500000005
 31
0.0
  0
LINE
  5
452
330
2
100
AcDbEntity
  8
L-ZISSEN
100
AcDbLine
 10
1082.299999999998
 20
570.9999999999995
 30
0.0
 11
1081.299999999997
 21
570.9999999999995
 31
0.0
  0
SOLID
  5
453
330
2
100
AcDbEntity
  8
L-ZISSEN
100
AcDbTrace
 10
1203.133505067852
 20
532.3188464162178
 30
0.0
 11
1203.617473523789
 21
532.7773428481584
 31
0.0
 12
1201.999999999999
 22
533.9999999999998
 32
0.0
 13
1201.999999999999
 23
533.9999999999998
 33
0.0
  0
LINE
  5
454
330
2
100
AcDbEntity
  8
L-ZISSEN
100
AcDbLine
 10
1166.999999999998
 20
586.0
 30
0.0
 11
1092.899999999998
 21
585.9999999999997
 31
0.0
  0
LINE
  5
455
330
2
100
AcDbEntity
  8
L-ZISSEN
100
AcDbLine
 10
1088.257179999998
 20
578.9999999999998
 30
0.0
 11
1082.299999999998
 21
578.9999999999998
 31
0.0
  0
LINE
  5
456
330
2
100
AcDbEntity
  8
L-ZISSEN
100
AcDbLine
 10
1088.257179999998
 20
575.5000499999994
 30
0.0
 11
1088.257179999998
 21
584.4999499999999
 31
0.0
  0
LINE
  5
457
330
2
100
AcDbEntity
  8
L-ZISSEN
100
AcDbLine
 10
1088.257179999998
 20
575.5000499999994
 30
0.0
 11
1092.899999999998
 21
575.5000499999994
 31
0.0
  0
LINE
  5
458
330
2
100
AcDbEntity
  8
L-ZISSEN
100
AcDbLine
 10
1088.257179999998
 20
584.4999499999999
 30
0.0
 11
1092.899999999998
 21
584.4999499999999
 31
0.0
  0
LINE
  5
459
330
2
100
AcDbEntity
  8
L-ZISSEN
100
AcDbLine
 10
1081.299999999997
 20
660.9999999999995
 30
0.0
 11
1081.299999999997
 21
638.9999999999997
 31
0.0
  0
LINE
  5
45A
330
2
100
AcDbEntity
  8
L-ZISSEN
100
AcDbLine
 10
1088.257179999998
 20
634.4999500000006
 30
0.0
 11
1088.257179999998
 21
625.5000500000001
 31
0.0
  0
LINE
  5
45B
330
2
100
AcDbEntity
  8
L-ZISSEN
100
AcDbLine
 10
1088.257179999998
 20
630.9999999999997
 30
0.0
 11
1082.299999999998
 21
630.9999999999997
 31
0.0
  0
LINE
  5
45C
330
2
100
AcDbEntity
  8
L-ZISSEN
100
AcDbLine
 10
1088.257179999998
 20
625.5000500000001
 30
0.0
 11
1092.899999999998
 21
625.5000500000001
 31
0.0
  0
LINE
  5
45D
330
2
100
AcDbEntity
  8
L-ZISSEN
100
AcDbLine
 10
1081.299999999997
 20
638.9999999999997
 30
0.0
 11
1082.299999999998
 21
638.9999999999997
 31
0.0
  0
LINE
  5
45E
330
2
100
AcDbEntity
  8
L-ZISSEN
100
AcDbLine
 10
1088.257179999998
 20
634.4999500000006
 30
0.0
 11
1092.899999999998
 21
634.4999500000006
 31
0.0
  0
LINE
  5
45F
330
2
100
AcDbEntity
  8
L-ZISSEN
100
AcDbLine
 10
1082.299999999998
 20
660.9999999999995
 30
0.0
 11
1081.299999999997
 21
660.9999999999995
 31
0.0
  0
LINE
  5
460
330
2
100
AcDbEntity
  8
L-ZISSEN
100
AcDbLine
 10
1088.257179999998
 20
665.5000499999994
 30
0.0
 11
1092.899999999998
 21
665.5000499999994
 31
0.0
  0
LINE
  5
461
330
2
100
AcDbEntity
  8
L-ZISSEN
  6
CONTINUOUS
 62
     7
100
AcDbLine
 10
1174.499999999999
 20
595.4999999999997
 30
0.0
 11
1174.499999999999
 21
599.0999999999996
 31
0.0
  0
LINE
  5
462
330
2
100
AcDbEntity
  8
L-ZISSEN
  6
CONTINUOUS
 62
     7
100
AcDbLine
 10
1167.499999999999
 20
595.4999999999997
 30
0.0
 11
1167.499999999999
 21
599.0999999999996
 31
0.0
  0
LINE
  5
463
330
2
100
AcDbEntity
  8
L-ZISSEN
  6
CONTINUOUS
 62
     7
100
AcDbLine
 10
1166.999999999999
 20
595.4999999999997
 30
0.0
 11
1166.999999999999
 21
585.9999999999997
 31
0.0
  0
LINE
  5
464
330
2
100
AcDbEntity
  8
L-ZISSEN
  6
CONTINUOUS
 62
     7
100
AcDbLine
 10
1174.499999999999
 20
599.0999999999996
 30
0.0
 11
1167.499999999999
 21
599.0999999999996
 31
0.0
  0
LINE
  5
465
330
2
100
AcDbEntity
  8
L-ZISSEN
  6
CONTINUOUS
 62
     7
100
AcDbLine
 10
1194.499999999999
 20
593.9999999999997
 30
0.0
 11
1194.499999999999
 21
591.6183809999999
 31
0.0
  0
CIRCLE
  5
466
330
2
100
AcDbEntity
  8
L-ZISSEN
100
AcDbCircle
 10
1170.999999999999
 20
628.0
 30
0.0
 40
3.5
  0
LINE
  5
467
330
2
100
AcDbEntity
  8
L-ZISSEN
100
AcDbLine
 10
1188.999999999999
 20
621.9999999999995
 30
0.0
 11
1188.999999999999
 21
623.9999999999995
 31
0.0
  0
SOLID
  5
468
330
2
100
AcDbEntity
  8
L-ZISSEN
100
AcDbTrace
 10
1202.707973480829
 20
648.1000303524655
 30
0.0
 11
1203.285911016201
 21
648.4323444353043
 31
0.0
 12
1201.999999999999
 22
650.0
 32
0.0
 13
1201.999999999999
 23
650.0
 33
0.0
  0
LINE
  5
469
330
2
100
AcDbEntity
  8
L-TYUSIN
100
AcDbLine
 10
1469.999999999999
 20
500.0
 30
0.0
 11
1469.999999999999
 21
340.0
 31
0.0
  0
LINE
  5
46A
330
2
100
AcDbEntity
  8
L-ZISSEN
  6
CONTINUOUS
 62
     7
100
AcDbLine
 10
1308.099999999999
 20
411.0000000000002
 30
0.0
 11
1308.099999999999
 21
388.9999999999998
 31
0.0
  0
LINE
  5
46B
330
2
100
AcDbEntity
  8
L-ZISSEN
  6
CONTINUOUS
 62
     7
100
AcDbLine
 10
1295.099999999999
 20
375.6063555341138
 30
0.0
 11
1295.099999999999
 21
424.3936444658859
 31
0.0
  0
LINE
  5
46C
330
2
100
AcDbEntity
  8
L-ZISSEN
  6
CONTINUOUS
 62
     7
100
AcDbLine
 10
1239.099999999999
 20
373.9999999999997
 30
0.0
 11
1239.099999999999
 21
425.9999999999998
 31
0.0
  0
LINE
  5
46D
330
2
100
AcDbEntity
  8
L-ZISSEN
100
AcDbLine
 10
1236.999999999999
 20
374.0
 30
0.0
 11
1236.999999999999
 21
426.0
 31
0.0
  0
LINE
  5
46E
330
2
100
AcDbEntity
  8
L-ZISSEN
  6
CONTINUOUS
 62
     7
100
AcDbLine
 10
1249.099999999999
 20
335.9999999999997
 30
0.0
 11
1295.099999999999
 21
334.3936444658859
 31
0.0
  0
LINE
  5
46F
330
2
100
AcDbEntity
  8
L-ZISSEN
  6
CONTINUOUS
 62
     7
100
AcDbLine
 10
1249.099999999999
 20
373.9999999999997
 30
0.0
 11
1295.099999999999
 21
375.6063555341138
 31
0.0
  0
LINE
  5
470
330
2
100
AcDbEntity
  8
L-ZISSEN
  6
CONTINUOUS
 62
     7
100
AcDbLine
 10
1236.999999999999
 20
345.4999999999997
 30
0.0
 11
1236.999999999999
 21
336.0
 31
0.0
  0
LINE
  5
471
330
2
100
AcDbEntity
  8
L-ZISSEN
  6
CONTINUOUS
 62
     7
100
AcDbLine
 10
1209.499999999999
 20
343.9999999999997
 30
0.0
 11
1209.499999999999
 21
341.618381
 31
0.0
  0
LINE
  5
472
330
2
100
AcDbEntity
  8
L-ZISSEN
100
AcDbLine
 10
1236.999999999999
 20
336.0
 30
0.0
 11
1249.099999999999
 21
336.0000000000001
 31
0.0
  0
LINE
  5
473
330
2
100
AcDbEntity
  8
L-ZISSEN
100
AcDbLine
 10
1224.999999999999
 20
360.0000000000001
 30
0.0
 11
1226.999999999999
 21
360.0000000000001
 31
0.0
  0
LINE
  5
474
330
2
100
AcDbEntity
  8
L-ZISSEN
  6
CONTINUOUS
 62
     7
100
AcDbLine
 10
1229.499999999999
 20
349.0999999999996
 30
0.0
 11
1236.499999999999
 21
349.0999999999996
 31
0.0
  0
LINE
  5
475
330
2
100
AcDbEntity
  8
L-ZISSEN
  6
CONTINUOUS
 62
     7
100
AcDbLine
 10
1229.499999999999
 20
345.4999999999997
 30
0.0
 11
1229.499999999999
 21
349.0999999999996
 31
0.0
  0
LINE
  5
476
330
2
100
AcDbEntity
  8
L-ZISSEN
  6
CONTINUOUS
 62
     7
100
AcDbLine
 10
1236.499999999999
 20
345.4999999999997
 30
0.0
 11
1236.499999999999
 21
349.0999999999996
 31
0.0
  0
TEXT
  5
477
330
2
100
AcDbEntity
  8
L-ZISSEN
100
AcDbText
 10
1228.999999999999
 20
357.7500000000001
 30
0.0
 40
4.5
  1
P.P
100
AcDbText
  0
LINE
  5
478
330
2
100
AcDbEntity
  8
L-ZISSEN
100
AcDbLine
 10
1214.999999999999
 20
371.9999999999995
 30
0.0
 11
1214.999999999999
 21
373.9999999999995
 31
0.0
  0
CIRCLE
  5
479
330
2
100
AcDbEntity
  8
L-ZISSEN
100
AcDbCircle
 10
1232.999999999999
 20
378.0
 30
0.0
 40
3.5
  0
LINE
  5
47A
330
2
100
AcDbEntity
  8
L-ZISSEN
100
AcDbLine
 10
1295.099999999999
 20
321.0000000000002
 30
0.0
 11
1308.099999999999
 21
321.0000000000002
 31
0.0
  0
LINE
  5
47B
330
2
100
AcDbEntity
  8
L-ZISSEN
100
AcDbLine
 10
1295.099999999999
 20
298.9999999999998
 30
0.0
 11
1308.099999999999
 21
298.9999999999998
 31
0.0
  0
LINE
  5
47C
330
2
100
AcDbEntity
  8
L-ZISSEN
  6
CONTINUOUS
 62
     7
100
AcDbLine
 10
1308.099999999999
 20
321.0000000000002
 30
0.0
 11
1308.099999999999
 21
298.9999999999998
 31
0.0
  0
LINE
  5
47D
330
2
100
AcDbEntity
  8
L-ZISSEN
  6
CONTINUOUS
 62
     7
100
AcDbLine
 10
1321.099999999999
 20
317.2500000000002
 30
0.0
 11
1321.099999999999
 21
302.7499999999998
 31
0.0
  0
LINE
  5
47E
330
2
100
AcDbEntity
  8
L-ZISSEN
  6
CONTINUOUS
 62
     7
100
AcDbLine
 10
1314.099999999999
 20
319.0000000000001
 30
0.0
 11
1314.099999999999
 21
301.0
 31
0.0
  0
LINE
  5
47F
330
2
100
AcDbEntity
  8
L-ZISSEN
  6
CONTINUOUS
 62
     7
100
AcDbLine
 10
1314.099999999999
 20
302.7499999999998
 30
0.0
 11
1321.099999999999
 21
302.7499999999998
 31
0.0
  0
LINE
  5
480
330
2
100
AcDbEntity
  8
L-ZISSEN
  6
CONTINUOUS
 62
     7
100
AcDbLine
 10
1308.099999999999
 20
301.0
 30
0.0
 11
1314.099999999999
 21
301.0
 31
0.0
  0
LINE
  5
481
330
2
100
AcDbEntity
  8
L-ZISSEN
  6
CONTINUOUS
 62
     7
100
AcDbLine
 10
1314.099999999999
 20
317.2500000000002
 30
0.0
 11
1321.099999999999
 21
317.2500000000002
 31
0.0
  0
LINE
  5
482
330
2
100
AcDbEntity
  8
L-ZISSEN
  6
CONTINUOUS
 62
     7
100
AcDbLine
 10
1308.099999999999
 20
319.0000000000001
 30
0.0
 11
1314.099999999999
 21
319.0000000000001
 31
0.0
  0
LINE
  5
483
330
2
100
AcDbEntity
  8
L-ZISSEN
100
AcDbLine
 10
1295.099999999999
 20
388.9999999999998
 30
0.0
 11
1308.099999999999
 21
388.9999999999998
 31
0.0
  0
LINE
  5
484
330
2
100
AcDbEntity
  8
L-ZISSEN
  6
CONTINUOUS
 62
     7
100
AcDbLine
 10
1249.099999999999
 20
425.9999999999998
 30
0.0
 11
1295.099999999999
 21
424.3936444658859
 31
0.0
  0
LINE
  5
485
330
2
100
AcDbEntity
  8
L-ZISSEN
100
AcDbLine
 10
1214.999999999999
 20
428.0000000000004
 30
0.0
 11
1214.999999999999
 21
426.0000000000004
 31
0.0
  0
CIRCLE
  5
486
330
2
100
AcDbEntity
  8
L-ZISSEN
100
AcDbCircle
 10
1232.999999999999
 20
422.0
 30
0.0
 40
3.5
  0
LINE
  5
487
330
2
100
AcDbEntity
  8
L-ZISSEN
100
AcDbLine
 10
1295.099999999999
 20
411.0000000000002
 30
0.0
 11
1308.099999999999
 21
411.0000000000002
 31
0.0
  0
LINE
  5
488
330
2
100
AcDbEntity
  8
L-ZISSEN
  6
CONTINUOUS
 62
     7
100
AcDbLine
 10
1321.099999999999
 20
407.2500000000002
 30
0.0
 11
1321.099999999999
 21
392.7499999999998
 31
0.0
  0
LINE
  5
489
330
2
100
AcDbEntity
  8
L-ZISSEN
  6
CONTINUOUS
 62
     7
100
AcDbLine
 10
1314.099999999999
 20
409.0000000000001
 30
0.0
 11
1314.099999999999
 21
391.0
 31
0.0
  0
LINE
  5
48A
330
2
100
AcDbEntity
  8
L-ZISSEN
  6
CONTINUOUS
 62
     7
100
AcDbLine
 10
1314.099999999999
 20
392.7499999999998
 30
0.0
 11
1321.099999999999
 21
392.7499999999998
 31
0.0
  0
LINE
  5
48B
330
2
100
AcDbEntity
  8
L-ZISSEN
  6
CONTINUOUS
 62
     7
100
AcDbLine
 10
1308.099999999999
 20
391.0
 30
0.0
 11
1314.099999999999
 21
391.0
 31
0.0
  0
LINE
  5
48C
330
2
100
AcDbEntity
  8
L-ZISSEN
  6
CONTINUOUS
 62
     7
100
AcDbLine
 10
1314.099999999999
 20
407.2500000000002
 30
0.0
 11
1321.099999999999
 21
407.2500000000002
 31
0.0
  0
LINE
  5
48D
330
2
100
AcDbEntity
  8
L-ZISSEN
  6
CONTINUOUS
 62
     7
100
AcDbLine
 10
1308.099999999999
 20
409.0000000000001
 30
0.0
 11
1314.099999999999
 21
409.0000000000001
 31
0.0
  0
LINE
  5
48E
330
2
100
AcDbEntity
  8
L-ZISSEN
100
AcDbLine
 10
1378.999999999999
 20
336.0
 30
0.0
 11
1431.0
 21
336.0
 31
0.0
  0
LINE
  5
48F
330
2
100
AcDbEntity
  8
L-ZISSEN
100
AcDbLine
 10
1378.999999999999
 20
345.5
 30
0.0
 11
1431.0
 21
345.5
 31
0.0
  0
LINE
  5
490
330
2
100
AcDbEntity
  8
L-ZISSEN
100
AcDbLine
 10
1376.999999999999
 20
344.0
 30
0.0
 11
1432.999999999999
 21
344.0
 31
0.0
  0
CIRCLE
  5
491
330
2
100
AcDbEntity
  8
L-ZISSEN
100
AcDbCircle
 10
1404.999999999999
 20
310.0
 30
0.0
 40
7.25000000000022
  0
CIRCLE
  5
492
330
2
100
AcDbEntity
  8
L-ZISSEN
100
AcDbCircle
 10
1404.999999999999
 20
310.0
 30
0.0
 40
9.000000000000227
  0
CIRCLE
  5
493
330
2
100
AcDbEntity
  8
L-ZISSEN
100
AcDbCircle
 10
1404.999999999999
 20
310.0
 30
0.0
 40
11.00000000000023
  0
LINE
  5
494
330
2
100
AcDbEntity
  8
L-ZISSEN
100
AcDbLine
 10
1376.999999999999
 20
318.0000000000002
 30
0.0
 11
1376.999999999999
 21
344.0
 31
0.0
  0
LINE
  5
495
330
2
100
AcDbEntity
  8
L-ZISSEN
100
AcDbLine
 10
1376.999999999999
 20
318.0000000000002
 30
0.0
 11
1378.999999999999
 21
318.0000000000002
 31
0.0
  0
LINE
  5
496
330
2
100
AcDbEntity
  8
L-ZISSEN
  6
CONTINUOUS
 62
     7
100
AcDbLine
 10
1386.499999999999
 20
349.0999999999999
 30
0.0
 11
1379.499999999999
 21
349.0999999999999
 31
0.0
  0
LINE
  5
497
330
2
100
AcDbEntity
  8
L-ZISSEN
  6
CONTINUOUS
 62
     7
100
AcDbLine
 10
1379.499999999999
 20
345.5
 30
0.0
 11
1379.499999999999
 21
349.0999999999999
 31
0.0
  0
LINE
  5
498
330
2
100
AcDbEntity
  8
L-ZISSEN
  6
CONTINUOUS
 62
     7
100
AcDbLine
 10
1386.499999999999
 20
345.5
 30
0.0
 11
1386.499999999999
 21
349.0999999999999
 31
0.0
  0
LINE
  5
499
330
2
100
AcDbEntity
  8
L-ZISSEN
100
AcDbLine
 10
1432.999999999999
 20
318.0000000000002
 30
0.0
 11
1432.999999999999
 21
344.0
 31
0.0
  0
LINE
  5
49A
330
2
100
AcDbEntity
  8
L-ZISSEN
100
AcDbLine
 10
1431.0
 20
318.0000000000002
 30
0.0
 11
1432.999999999999
 21
318.0000000000002
 31
0.0
  0
LINE
  5
49B
330
2
100
AcDbEntity
  8
L-ZISSEN
  6
CONTINUOUS
 62
     7
100
AcDbLine
 10
1430.499999999999
 20
345.5
 30
0.0
 11
1430.499999999999
 21
349.0999999999999
 31
0.0
  0
LINE
  5
49C
330
2
100
AcDbEntity
  8
L-ZISSEN
  6
CONTINUOUS
 62
     7
100
AcDbLine
 10
1423.499999999999
 20
345.5
 30
0.0
 11
1423.499999999999
 21
349.0999999999999
 31
0.0
  0
LINE
  5
49D
330
2
100
AcDbEntity
  8
L-ZISSEN
  6
CONTINUOUS
 62
     7
100
AcDbLine
 10
1423.499999999999
 20
349.0999999999999
 30
0.0
 11
1430.499999999999
 21
349.0999999999999
 31
0.0
  0
LINE
  5
49E
330
2
100
AcDbEntity
  8
L-ZISSEN
100
AcDbLine
 10
1321.7
 20
578.9999999999998
 30
0.0
 11
1321.7
 21
540.9999999999997
 31
0.0
  0
LINE
  5
49F
330
2
100
AcDbEntity
  8
L-ZISSEN
100
AcDbLine
 10
1311.1
 20
585.9999999999997
 30
0.0
 11
1311.1
 21
533.9999999999998
 31
0.0
  0
LINE
  5
4A0
330
2
100
AcDbEntity
  8
L-ZISSEN
  6
CONTINUOUS
 62
     7
100
AcDbLine
 10
1239.099999999999
 20
533.9999999999995
 30
0.0
 11
1239.099999999999
 21
585.9999999999995
 31
0.0
  0
LINE
  5
4A1
330
2
100
AcDbEntity
  8
L-ZISSEN
  6
CONTINUOUS
 62
     7
100
AcDbLine
 10
1239.099999999999
 20
533.9999999999998
 30
0.0
 11
1239.099999999999
 21
585.9999999999997
 31
0.0
  0
TEXT
  5
4A2
330
2
100
AcDbEntity
  8
L-ZISSEN
100
AcDbText
 10
1223.999999999999
 20
512.7499999999997
 30
0.0
 40
4.5
  1
P.P
100
AcDbText
  0
LINE
  5
4A3
330
2
100
AcDbEntity
  8
L-ZISSEN
100
AcDbLine
 10
1219.999999999999
 20
514.9999999999997
 30
0.0
 11
1221.999999999999
 21
514.9999999999997
 31
0.0
  0
LINE
  5
4A4
330
2
100
AcDbEntity
  8
L-ZISSEN
100
AcDbLine
 10
1322.700000000001
 20
570.9999999999995
 30
0.0
 11
1322.700000000001
 21
548.9999999999997
 31
0.0
  0
LINE
  5
4A5
330
2
100
AcDbEntity
  8
L-ZISSEN
100
AcDbLine
 10
1315.74282
 20
544.4999500000005
 30
0.0
 11
1315.74282
 21
535.50005
 31
0.0
  0
LINE
  5
4A6
330
2
100
AcDbEntity
  8
L-ZISSEN
100
AcDbLine
 10
1315.74282
 20
535.50005
 30
0.0
 11
1311.1
 21
535.50005
 31
0.0
  0
LINE
  5
4A7
330
2
100
AcDbEntity
  8
L-ZISSEN
100
AcDbLine
 10
1315.74282
 20
544.4999500000005
 30
0.0
 11
1311.1
 21
544.4999500000005
 31
0.0
  0
LINE
  5
4A8
330
2
100
AcDbEntity
  8
L-ZISSEN
100
AcDbLine
 10
1322.700000000001
 20
548.9999999999997
 30
0.0
 11
1321.7
 21
548.9999999999997
 31
0.0
  0
LINE
  5
4A9
330
2
100
AcDbEntity
  8
L-ZISSEN
100
AcDbLine
 10
1315.74282
 20
540.9999999999997
 30
0.0
 11
1321.7
 21
540.9999999999997
 31
0.0
  0
LINE
  5
4AA
330
2
100
AcDbEntity
  8
L-ZISSEN
100
AcDbLine
 10
1321.7
 20
570.9999999999995
 30
0.0
 11
1322.700000000001
 21
570.9999999999995
 31
0.0
  0
LINE
  5
4AB
330
2
100
AcDbEntity
  8
L-ZISSEN
100
AcDbLine
 10
1236.999999999999
 20
586.0
 30
0.0
 11
1311.1
 21
585.9999999999997
 31
0.0
  0
LINE
  5
4AC
330
2
100
AcDbEntity
  8
L-ZISSEN
  6
CONTINUOUS
 62
     7
100
AcDbLine
 10
1236.499999999999
 20
595.4999999999997
 30
0.0
 11
1236.499999999999
 21
599.0999999999996
 31
0.0
  0
LINE
  5
4AD
330
2
100
AcDbEntity
  8
L-ZISSEN
  6
CONTINUOUS
 62
     7
100
AcDbLine
 10
1229.499999999999
 20
595.4999999999997
 30
0.0
 11
1229.499999999999
 21
599.0999999999996
 31
0.0
  0
LINE
  5
4AE
330
2
100
AcDbEntity
  8
L-ZISSEN
  6
CONTINUOUS
 62
     7
100
AcDbLine
 10
1209.499999999999
 20
593.9999999999997
 30
0.0
 11
1209.499999999999
 21
591.6183809999999
 31
0.0
  0
LINE
  5
4AF
330
2
100
AcDbEntity
  8
L-ZISSEN
  6
CONTINUOUS
 62
     7
100
AcDbLine
 10
1236.999999999999
 20
595.4999999999997
 30
0.0
 11
1236.999999999999
 21
586.0
 31
0.0
  0
LINE
  5
4B0
330
2
100
AcDbEntity
  8
L-ZISSEN
100
AcDbLine
 10
1224.999999999999
 20
610.0000000000001
 30
0.0
 11
1226.999999999999
 21
610.0000000000001
 31
0.0
  0
TEXT
  5
4B1
330
2
100
AcDbEntity
  8
L-ZISSEN
100
AcDbText
 10
1228.999999999999
 20
607.7500000000001
 30
0.0
 40
4.5
  1
P.P
100
AcDbText
  0
LINE
  5
4B2
330
2
100
AcDbEntity
  8
L-ZISSEN
  6
CONTINUOUS
 62
     7
100
AcDbLine
 10
1229.499999999999
 20
599.0999999999996
 30
0.0
 11
1236.499999999999
 21
599.0999999999996
 31
0.0
  0
LINE
  5
4B3
330
2
100
AcDbEntity
  8
L-ZISSEN
100
AcDbLine
 10
1214.999999999999
 20
621.9999999999995
 30
0.0
 11
1214.999999999999
 21
623.9999999999995
 31
0.0
  0
CIRCLE
  5
4B4
330
2
100
AcDbEntity
  8
L-ZISSEN
100
AcDbCircle
 10
1232.999999999999
 20
628.0
 30
0.0
 40
3.5
  0
LINE
  5
4B5
330
2
100
AcDbEntity
  8
L-ZISSEN
100
AcDbLine
 10
1315.74282
 20
584.4999499999999
 30
0.0
 11
1311.1
 21
584.4999499999999
 31
0.0
  0
LINE
  5
4B6
330
2
100
AcDbEntity
  8
L-ZISSEN
100
AcDbLine
 10
1315.74282
 20
575.5000499999994
 30
0.0
 11
1311.1
 21
575.5000499999994
 31
0.0
  0
LINE
  5
4B7
330
2
100
AcDbEntity
  8
L-ZISSEN
100
AcDbLine
 10
1315.74282
 20
575.5000499999994
 30
0.0
 11
1315.74282
 21
584.4999499999999
 31
0.0
  0
LINE
  5
4B8
330
2
100
AcDbEntity
  8
L-ZISSEN
100
AcDbLine
 10
1315.74282
 20
578.9999999999998
 30
0.0
 11
1321.7
 21
578.9999999999998
 31
0.0
  0
LINE
  5
4B9
330
2
100
AcDbEntity
  8
L-ZISSEN
100
AcDbLine
 10
1322.700000000001
 20
660.9999999999995
 30
0.0
 11
1322.700000000001
 21
638.9999999999997
 31
0.0
  0
LINE
  5
4BA
330
2
100
AcDbEntity
  8
L-ZISSEN
100
AcDbLine
 10
1315.74282
 20
634.4999500000006
 30
0.0
 11
1315.74282
 21
625.5000500000001
 31
0.0
  0
LINE
  5
4BB
330
2
100
AcDbEntity
  8
L-ZISSEN
100
AcDbLine
 10
1315.74282
 20
625.5000500000001
 30
0.0
 11
1311.1
 21
625.5000500000001
 31
0.0
  0
LINE
  5
4BC
330
2
100
AcDbEntity
  8
L-ZISSEN
100
AcDbLine
 10
1315.74282
 20
630.9999999999997
 30
0.0
 11
1321.7
 21
630.9999999999997
 31
0.0
  0
LINE
  5
4BD
330
2
100
AcDbEntity
  8
L-ZISSEN
100
AcDbLine
 10
1315.74282
 20
634.4999500000006
 30
0.0
 11
1311.1
 21
634.4999500000006
 31
0.0
  0
LINE
  5
4BE
330
2
100
AcDbEntity
  8
L-ZISSEN
100
AcDbLine
 10
1322.700000000001
 20
638.9999999999997
 30
0.0
 11
1321.7
 21
638.9999999999997
 31
0.0
  0
LINE
  5
4BF
330
2
100
AcDbEntity
  8
L-ZISSEN
100
AcDbLine
 10
1315.74282
 20
665.5000499999994
 30
0.0
 11
1311.1
 21
665.5000499999994
 31
0.0
  0
LINE
  5
4C0
330
2
100
AcDbEntity
  8
L-ZISSEN
100
AcDbLine
 10
1321.7
 20
660.9999999999995
 30
0.0
 11
1322.700000000001
 21
660.9999999999995
 31
0.0
  0
LINE
  5
4C1
330
2
100
AcDbEntity
  8
L-ZISSEN
100
AcDbLine
 10
1432.999999999999
 20
568.0000000000002
 30
0.0
 11
1432.999999999999
 21
594.0
 31
0.0
  0
LINE
  5
4C2
330
2
100
AcDbEntity
  8
L-ZISSEN
100
AcDbLine
 10
1431.0
 20
595.5
 30
0.0
 11
1431.0
 21
534.0
 31
0.0
  0
LINE
  5
4C3
330
2
100
AcDbEntity
  8
L-ZISSEN
100
AcDbLine
 10
1376.999999999999
 20
568.0000000000002
 30
0.0
 11
1376.999999999999
 21
594.0
 31
0.0
  0
LINE
  5
4C4
330
2
100
AcDbEntity
  8
L-ZISSEN
100
AcDbLine
 10
1378.999999999999
 20
534.0
 30
0.0
 11
1378.999999999999
 21
595.5
 31
0.0
  0
CIRCLE
  5
4C5
330
2
100
AcDbEntity
  8
L-ZISSEN
100
AcDbCircle
 10
1404.999999999999
 20
560.0
 30
0.0
 40
18.99999999999977
  0
SOLID
  5
4C6
330
2
100
AcDbEntity
  8
L-ZISSEN
100
AcDbTrace
 10
1405.977660988646
 20
532.2236863727401
 30
0.0
 11
1406.500916165668
 21
532.6367825651261
 31
0.0
 12
1404.999999999999
 22
534.0
 32
0.0
 13
1404.999999999999
 23
534.0
 33
0.0
  0
CIRCLE
  5
4C7
330
2
100
AcDbEntity
  8
L-ZISSEN
100
AcDbCircle
 10
1404.999999999999
 20
560.0
 30
0.0
 40
10.99999999999971
  0
LINE
  5
4C8
330
2
100
AcDbEntity
  8
L-ZISSEN
100
AcDbLine
 10
1378.999999999999
 20
534.0
 30
0.0
 11
1431.0
 21
534.0
 31
0.0
  0
CIRCLE
  5
4C9
330
2
100
AcDbEntity
  8
L-ZISSEN
100
AcDbCircle
 10
1384.999999999999
 20
539.9999999999997
 30
0.0
 40
4.499950000000126
  0
LINE
  5
4CA
330
2
100
AcDbEntity
  8
L-ZISSEN
100
AcDbLine
 10
1376.999999999999
 20
568.0000000000002
 30
0.0
 11
1378.999999999999
 21
568.0000000000002
 31
0.0
  0
LINE
  5
4CB
330
2
100
AcDbEntity
  8
L-ZISSEN
100
AcDbLine
 10
1406.239288577157
 20
532.4302344689331
 30
0.0
 11
1419.999999999999
 21
515.0
 31
0.0
  0
LINE
  5
4CC
330
2
100
AcDbEntity
  8
L-ZISSEN
100
AcDbLine
 10
1419.999999999999
 20
515.0
 30
0.0
 11
1421.999999999999
 21
515.0
 31
0.0
  0
TEXT
  5
4CD
330
2
100
AcDbEntity
  8
L-ZISSEN
100
AcDbText
 10
1423.999999999999
 20
512.75
 30
0.0
 40
4.5
  1
P.P
100
AcDbText
  0
CIRCLE
  5
4CE
330
2
100
AcDbEntity
  8
L-ZISSEN
100
AcDbCircle
 10
1424.999999999999
 20
539.9999999999997
 30
0.0
 40
4.499950000000126
  0
LINE
  5
4CF
330
2
100
AcDbEntity
  8
L-ZISSEN
100
AcDbLine
 10
1431.0
 20
568.0000000000002
 30
0.0
 11
1432.999999999999
 21
568.0000000000002
 31
0.0
  0
LINE
  5
4D0
330
2
100
AcDbEntity
  8
L-ZISSEN
100
AcDbLine
 10
1378.999999999999
 20
595.5
 30
0.0
 11
1431.0
 21
595.5
 31
0.0
  0
LINE
  5
4D1
330
2
100
AcDbEntity
  8
L-ZISSEN
100
AcDbLine
 10
1378.999999999999
 20
586.0
 30
0.0
 11
1431.0
 21
586.0
 31
0.0
  0
LINE
  5
4D2
330
2
100
AcDbEntity
  8
L-ZISSEN
100
AcDbLine
 10
1376.999999999999
 20
594.0
 30
0.0
 11
1432.999999999999
 21
594.0
 31
0.0
  0
LINE
  5
4D3
330
2
100
AcDbEntity
  8
L-ZISSEN
  6
CONTINUOUS
 62
     7
100
AcDbLine
 10
1379.499999999999
 20
595.5
 30
0.0
 11
1379.499999999999
 21
599.0999999999999
 31
0.0
  0
LINE
  5
4D4
330
2
100
AcDbEntity
  8
L-ZISSEN
  6
CONTINUOUS
 62
     7
100
AcDbLine
 10
1386.499999999999
 20
595.5
 30
0.0
 11
1386.499999999999
 21
599.0999999999999
 31
0.0
  0
CIRCLE
  5
4D5
330
2
100
AcDbEntity
  8
L-ZISSEN
100
AcDbCircle
 10
1384.999999999999
 20
580.0
 30
0.0
 40
4.499950000000126
  0
LINE
  5
4D6
330
2
100
AcDbEntity
  8
L-ZISSEN
  6
CONTINUOUS
 62
     7
100
AcDbLine
 10
1386.499999999999
 20
599.0999999999999
 30
0.0
 11
1379.499999999999
 21
599.0999999999999
 31
0.0
  0
LINE
  5
4D7
330
2
100
AcDbEntity
  8
L-ZISSEN
  6
CONTINUOUS
 62
     7
100
AcDbLine
 10
1430.499999999999
 20
595.5
 30
0.0
 11
1430.499999999999
 21
599.0999999999999
 31
0.0
  0
LINE
  5
4D8
330
2
100
AcDbEntity
  8
L-ZISSEN
  6
CONTINUOUS
 62
     7
100
AcDbLine
 10
1423.499999999999
 20
595.5
 30
0.0
 11
1423.499999999999
 21
599.0999999999999
 31
0.0
  0
CIRCLE
  5
4D9
330
2
100
AcDbEntity
  8
L-ZISSEN
100
AcDbCircle
 10
1424.999999999999
 20
580.0
 30
0.0
 40
4.499950000000126
  0
LINE
  5
4DA
330
2
100
AcDbEntity
  8
L-ZISSEN
  6
CONTINUOUS
 62
     7
100
AcDbLine
 10
1423.499999999999
 20
599.0999999999999
 30
0.0
 11
1430.499999999999
 21
599.0999999999999
 31
0.0
  0
TEXT
  5
4DB
330
2
100
AcDbEntity
  8
L-ZISSEN
100
AcDbText
 10
1189.999999999999
 20
965.0
 30
0.0
 40
4.5
  1
AC-100V
100
AcDbText
  0
TEXT
  5
4DC
330
2
100
AcDbEntity
  8
L-ZISSEN
100
AcDbText
 10
1189.999999999999
 20
955.0
 30
0.0
 40
4.5
  1
AC-200V
100
AcDbText
  0
LINE
  5
4DD
330
2
100
AcDbEntity
  8
L-ZISSEN
100
AcDbLine
 10
1214.999999999999
 20
928.0000000000004
 30
0.0
 11
1188.999999999999
 21
928.0000000000004
 31
0.0
  0
LINE
  5
4DE
330
2
100
AcDbEntity
  8
L-ZISSEN
100
AcDbLine
 10
1249.099999999991
 20
926.0
 30
0.0
 11
1154.900000000005
 21
926.0000000000001
 31
0.0
  0
CIRCLE
  5
4DF
330
2
100
AcDbEntity
  8
L-ZISSEN
100
AcDbCircle
 10
1201.999999999999
 20
830.9999999999998
 30
0.0
 40
9.3155
  0
LINE
  5
4E0
330
2
100
AcDbEntity
  8
L-ZISSEN
100
AcDbLine
 10
1214.999999999999
 20
871.9999999999995
 30
0.0
 11
1188.999999999999
 21
871.9999999999995
 31
0.0
  0
ARC
  5
4E1
330
2
100
AcDbEntity
  8
L-ZISSEN
  6
CONTINUOUS
 62
     7
100
AcDbCircle
 10
1201.999999999999
 20
830.9999999999998
 30
0.0
 40
13.0
100
AcDbArc
 50
125.2344179999978
 51
54.76558200000211
  0
LINE
  5
4E2
330
2
100
AcDbEntity
  8
L-ZISSEN
  6
CONTINUOUS
 62
     7
100
AcDbLine
 10
1166.999999999999
 20
845.4999999999998
 30
0.0
 11
1236.899999999999
 21
845.4999999999998
 31
0.0
  0
LINE
  5
4E3
330
2
100
AcDbEntity
  8
L-ZISSEN
  6
CONTINUOUS
 62
     7
100
AcDbLine
 10
1236.899999999999
 20
843.9999999999997
 30
0.0
 11
1166.999999999999
 21
843.9999999999997
 31
0.0
  0
LINE
  5
4E4
330
2
100
AcDbEntity
  8
L-ZISSEN
100
AcDbLine
 10
1249.100000000005
 20
873.9999999999998
 30
0.0
 11
1154.899999999991
 21
873.9999999999998
 31
0.0
  0
LINE
  5
4E5
330
2
100
AcDbEntity
  8
L-ZISSEN
100
AcDbLine
 10
1203.375489295821
 20
782.5480946321881
 30
0.0
 11
1219.999999999999
 21
764.9999999999997
 31
0.0
  0
TEXT
  5
4E6
330
2
100
AcDbEntity
  8
L-ZISSEN
100
AcDbText
 10
1189.999999999999
 20
715.0
 30
0.0
 40
4.5
  1
DC-24V
100
AcDbText
  0
TEXT
  5
4E7
330
2
100
AcDbEntity
  8
L-ZISSEN
100
AcDbText
 10
1189.999999999999
 20
705.0
 30
0.0
 40
4.5
  1
DC-100V
100
AcDbText
  0
LINE
  5
4E8
330
2
100
AcDbEntity
  8
L-ZISSEN
100
AcDbLine
 10
1154.899999999995
 20
784.0
 30
0.0
 11
1249.099999999999
 21
783.9999999999998
 31
0.0
  0
LINE
  5
4E9
330
2
100
AcDbEntity
  8
L-ZISSEN
100
AcDbLine
 10
1202.996942248515
 20
898.266187393885
 30
0.0
 11
1224.999999999999
 21
860.0000000000001
 31
0.0
  0
LINE
  5
4EA
330
2
100
AcDbEntity
  8
L-ZISSEN
100
AcDbLine
 10
1214.999999999999
 20
678.0000000000004
 30
0.0
 11
1188.999999999999
 21
678.0000000000004
 31
0.0
  0
LINE
  5
4EB
330
2
100
AcDbEntity
  8
L-ZISSEN
100
AcDbLine
 10
1311.1
 20
676.0
 30
0.0
 11
1092.899999999998
 21
676.0
 31
0.0
  0
CIRCLE
  5
4EC
330
2
100
AcDbEntity
  8
L-ZISSEN
100
AcDbCircle
 10
964.9999999999998
 20
810.0
 30
0.0
 40
10.99999999999971
  0
LINE
  5
4ED
330
2
100
AcDbEntity
  8
L-ZISSEN
100
AcDbLine
 10
990.9999999999998
 20
845.5
 30
0.0
 11
990.9999999999998
 21
784.0
 31
0.0
  0
LINE
  5
4EE
330
2
100
AcDbEntity
  8
L-ZISSEN
100
AcDbLine
 10
966.2392885771579
 20
782.4302344689331
 30
0.0
 11
979.9999999999997
 21
765.0
 31
0.0
  0
SOLID
  5
4EF
330
2
100
AcDbEntity
  8
L-ZISSEN
100
AcDbTrace
 10
965.9776609886467
 20
782.2236863727401
 30
0.0
 11
966.5009161656689
 21
782.6367825651261
 31
0.0
 12
964.9999999999998
 22
784.0
 32
0.0
 13
964.9999999999998
 23
784.0
 33
0.0
  0
TEXT
  5
4F0
330
2
100
AcDbEntity
  8
L-ZISSEN
100
AcDbText
 10
983.9999999999998
 20
762.75
 30
0.0
 40
4.5
  1
P.P
100
AcDbText
  0
LINE
  5
4F1
330
2
100
AcDbEntity
  8
L-ZISSEN
100
AcDbLine
 10
979.9999999999997
 20
765.0
 30
0.0
 11
981.9999999999998
 21
765.0
 31
0.0
  0
CIRCLE
  5
4F2
330
2
100
AcDbEntity
  8
L-ZISSEN
100
AcDbCircle
 10
984.9999999999992
 20
789.9999999999997
 30
0.0
 40
4.499950000000126
  0
LINE
  5
4F3
330
2
100
AcDbEntity
  8
L-ZISSEN
  6
CONTINUOUS
 62
     7
100
AcDbLine
 10
946.4999999999998
 20
845.5
 30
0.0
 11
946.4999999999998
 21
849.0999999999999
 31
0.0
  0
LINE
  5
4F4
330
2
100
AcDbEntity
  8
L-ZISSEN
100
AcDbLine
 10
992.9999999999997
 20
818.0000000000003
 30
0.0
 11
992.9999999999997
 21
844.0
 31
0.0
  0
CIRCLE
  5
4F5
330
2
100
AcDbEntity
  8
L-ZISSEN
100
AcDbCircle
 10
984.9999999999992
 20
830.0
 30
0.0
 40
4.499950000000126
  0
LINE
  5
4F6
330
2
100
AcDbEntity
  8
L-ZISSEN
100
AcDbLine
 10
990.9999999999998
 20
818.0000000000003
 30
0.0
 11
992.9999999999997
 21
818.0000000000003
 31
0.0
  0
LINE
  5
4F7
330
2
100
AcDbEntity
  8
L-ZISSEN
  6
CONTINUOUS
 62
     7
100
AcDbLine
 10
983.4999999999997
 20
849.0999999999999
 30
0.0
 11
990.4999999999997
 21
849.0999999999999
 31
0.0
  0
LINE
  5
4F8
330
2
100
AcDbEntity
  8
L-ZISSEN
  6
CONTINUOUS
 62
     7
100
AcDbLine
 10
983.4999999999997
 20
845.5
 30
0.0
 11
983.4999999999997
 21
849.0999999999999
 31
0.0
  0
LINE
  5
4F9
330
2
100
AcDbEntity
  8
L-ZISSEN
  6
CONTINUOUS
 62
     7
100
AcDbLine
 10
990.4999999999997
 20
845.5
 30
0.0
 11
990.4999999999997
 21
849.0999999999999
 31
0.0
  0
TEXT
  5
4FA
330
2
100
AcDbEntity
  8
L-ZISSEN
100
AcDbText
 10
1084.999999999999
 20
710.0
 30
0.0
 40
4.5
  1
MODEL NO. : 36B-*00-91B0
100
AcDbText
  0
LINE
  5
4FB
330
2
100
AcDbEntity
  8
L-ZISSEN
100
AcDbLine
 10
1088.257179999998
 20
668.9999999999997
 30
0.0
 11
1082.299999999998
 21
668.9999999999997
 31
0.0
  0
LINE
  5
4FC
330
2
100
AcDbEntity
  8
L-ZISSEN
100
AcDbLine
 10
1088.257179999998
 20
674.4999499999998
 30
0.0
 11
1092.899999999998
 21
674.4999499999998
 31
0.0
  0
TEXT
  5
4FD
330
2
100
AcDbEntity
  8
L-ZISSEN
100
AcDbText
 10
1084.999999999999
 20
720.0
 30
0.0
 40
4.5
  1
PILOT VALVE
100
AcDbText
  0
CIRCLE
  5
4FE
330
2
100
AcDbEntity
  8
L-ZISSEN
100
AcDbCircle
 10
1170.999999999999
 20
672.0
 30
0.0
 40
3.5
  0
LINE
  5
4FF
330
2
100
AcDbEntity
  8
L-ZISSEN
100
AcDbLine
 10
1188.999999999999
 20
678.0000000000004
 30
0.0
 11
1188.999999999999
 21
676.0000000000005
 31
0.0
  0
LINE
  5
500
330
2
100
AcDbEntity
  8
L-ZISSEN
  6
CONTINUOUS
 62
     7
100
AcDbLine
 10
1154.899999999999
 20
835.9999999999997
 30
0.0
 11
1108.899999999999
 21
834.393644465886
 31
0.0
  0
LINE
  5
501
330
2
100
AcDbEntity
  8
L-ZISSEN
  6
CONTINUOUS
 62
     7
100
AcDbLine
 10
1154.899999999999
 20
783.9999999999998
 30
0.0
 11
1108.899999999999
 21
785.6063555341138
 31
0.0
  0
LINE
  5
502
330
2
100
AcDbEntity
  8
L-ZISSEN
  6
CONTINUOUS
 62
     7
100
AcDbLine
 10
1107.899999999996
 20
820.9999999999999
 30
0.0
 11
1107.899999999996
 21
798.9999999999999
 31
0.0
  0
LINE
  5
503
330
2
100
AcDbEntity
  8
L-ZISSEN
  6
CONTINUOUS
 62
     7
100
AcDbLine
 10
1108.899999999999
 20
785.6063555341138
 30
0.0
 11
1108.899999999999
 21
834.393644465886
 31
0.0
  0
LINE
  5
504
330
2
100
AcDbEntity
  8
L-ZISSEN
  6
CONTINUOUS
 62
     7
100
AcDbLine
 10
1107.899999999996
 20
798.9999999999999
 30
0.0
 11
1108.899999999996
 21
798.9999999999999
 31
0.0
  0
LINE
  5
505
330
2
100
AcDbEntity
  8
L-ZISSEN
  6
CONTINUOUS
 62
     7
100
AcDbLine
 10
1107.899999999996
 20
820.9999999999999
 30
0.0
 11
1108.899999999997
 21
820.9999999999999
 31
0.0
  0
LINE
  5
506
330
2
100
AcDbEntity
  8
L-ZISSEN
  6
CONTINUOUS
 62
     7
100
AcDbLine
 10
1164.899999999999
 20
783.9999999999998
 30
0.0
 11
1164.899999999999
 21
835.9999999999997
 31
0.0
  0
LINE
  5
507
330
2
100
AcDbEntity
  8
L-ZISSEN
  6
CONTINUOUS
 62
     7
100
AcDbLine
 10
1164.899999999999
 20
783.9999999999995
 30
0.0
 11
1164.899999999999
 21
835.9999999999995
 31
0.0
  0
LINE
  5
508
330
2
100
AcDbEntity
  8
L-ZISSEN
  6
CONTINUOUS
 62
     7
100
AcDbLine
 10
1164.899999999999
 20
783.9999999999998
 30
0.0
 11
1164.899999999999
 21
835.9999999999997
 31
0.0
  0
LINE
  5
509
330
2
100
AcDbEntity
  8
L-ZISSEN
  6
CONTINUOUS
 62
     7
100
AcDbLine
 10
1164.899999999999
 20
783.9999999999995
 30
0.0
 11
1164.899999999999
 21
835.9999999999995
 31
0.0
  0
SOLID
  5
50A
330
2
100
AcDbEntity
  8
L-ZISSEN
100
AcDbTrace
 10
1203.133505067852
 20
782.3188464162178
 30
0.0
 11
1203.617473523789
 21
782.7773428481584
 31
0.0
 12
1201.999999999999
 22
783.9999999999998
 32
0.0
 13
1201.999999999999
 23
783.9999999999998
 33
0.0
  0
LINE
  5
50B
330
2
100
AcDbEntity
  8
L-ZISSEN
100
AcDbLine
 10
1166.999999999999
 20
836.0
 30
0.0
 11
1154.899999999999
 21
836.0000000000001
 31
0.0
  0
LINE
  5
50C
330
2
100
AcDbEntity
  8
L-ZISSEN
  6
CONTINUOUS
 62
     7
100
AcDbLine
 10
1166.999999999999
 20
845.4999999999998
 30
0.0
 11
1166.999999999999
 21
835.9999999999997
 31
0.0
  0
LINE
  5
50D
330
2
100
AcDbEntity
  8
L-ZISSEN
  6
CONTINUOUS
 62
     7
100
AcDbLine
 10
1174.499999999999
 20
849.0999999999996
 30
0.0
 11
1167.499999999999
 21
849.0999999999996
 31
0.0
  0
LINE
  5
50E
330
2
100
AcDbEntity
  8
L-ZISSEN
  6
CONTINUOUS
 62
     7
100
AcDbLine
 10
1167.499999999999
 20
845.4999999999998
 30
0.0
 11
1167.499999999999
 21
849.0999999999996
 31
0.0
  0
LINE
  5
50F
330
2
100
AcDbEntity
  8
L-ZISSEN
  6
CONTINUOUS
 62
     7
100
AcDbLine
 10
1174.499999999999
 20
845.4999999999998
 30
0.0
 11
1174.499999999999
 21
849.0999999999996
 31
0.0
  0
LINE
  5
510
330
2
100
AcDbEntity
  8
L-ZISSEN
  6
CONTINUOUS
 62
     7
100
AcDbLine
 10
1194.499999999999
 20
843.9999999999997
 30
0.0
 11
1194.499999999999
 21
841.6183809999999
 31
0.0
  0
LINE
  5
511
330
2
100
AcDbEntity
  8
L-ZISSEN
  6
CONTINUOUS
 62
     7
100
AcDbLine
 10
1154.899999999999
 20
925.9999999999998
 30
0.0
 11
1108.899999999999
 21
924.3936444658858
 31
0.0
  0
LINE
  5
512
330
2
100
AcDbEntity
  8
L-ZISSEN
  6
CONTINUOUS
 62
     7
100
AcDbLine
 10
1154.899999999999
 20
873.9999999999998
 30
0.0
 11
1108.899999999999
 21
875.6063555341139
 31
0.0
  0
LINE
  5
513
330
2
100
AcDbEntity
  8
L-ZISSEN
  6
CONTINUOUS
 62
     7
100
AcDbLine
 10
1107.899999999996
 20
911.0
 30
0.0
 11
1107.899999999996
 21
889.0
 31
0.0
  0
LINE
  5
514
330
2
100
AcDbEntity
  8
L-ZISSEN
  6
CONTINUOUS
 62
     7
100
AcDbLine
 10
1108.899999999999
 20
875.6063555341139
 30
0.0
 11
1108.899999999999
 21
924.3936444658858
 31
0.0
  0
LINE
  5
515
330
2
100
AcDbEntity
  8
L-ZISSEN
  6
CONTINUOUS
 62
     7
100
AcDbLine
 10
1107.899999999996
 20
889.0
 30
0.0
 11
1108.899999999996
 21
889.0
 31
0.0
  0
LINE
  5
516
330
2
100
AcDbEntity
  8
L-ZISSEN
  6
CONTINUOUS
 62
     7
100
AcDbLine
 10
1107.899999999996
 20
911.0
 30
0.0
 11
1108.899999999997
 21
911.0
 31
0.0
  0
LINE
  5
517
330
2
100
AcDbEntity
  8
L-ZISSEN
  6
CONTINUOUS
 62
     7
100
AcDbLine
 10
1164.899999999999
 20
873.9999999999998
 30
0.0
 11
1164.899999999999
 21
925.9999999999998
 31
0.0
  0
LINE
  5
518
330
2
100
AcDbEntity
  8
L-ZISSEN
100
AcDbLine
 10
1166.999999999998
 20
874.0
 30
0.0
 11
1166.999999999999
 21
926.0
 31
0.0
  0
CIRCLE
  5
519
330
2
100
AcDbEntity
  8
L-ZISSEN
100
AcDbCircle
 10
1170.999999999999
 20
878.0
 30
0.0
 40
3.5
  0
LINE
  5
51A
330
2
100
AcDbEntity
  8
L-ZISSEN
100
AcDbLine
 10
1188.999999999999
 20
871.9999999999995
 30
0.0
 11
1188.999999999999
 21
873.9999999999994
 31
0.0
  0
SOLID
  5
51B
330
2
100
AcDbEntity
  8
L-ZISSEN
100
AcDbTrace
 10
1202.707973480829
 20
898.1000303524655
 30
0.0
 11
1203.285911016201
 21
898.4323444353043
 31
0.0
 12
1201.999999999999
 22
900.0
 32
0.0
 13
1201.999999999999
 23
900.0
 33
0.0
  0
CIRCLE
  5
51C
330
2
100
AcDbEntity
  8
L-ZISSEN
100
AcDbCircle
 10
1170.999999999999
 20
922.0
 30
0.0
 40
3.5
  0
LINE
  5
51D
330
2
100
AcDbEntity
  8
L-ZISSEN
100
AcDbLine
 10
1188.999999999999
 20
928.0000000000004
 30
0.0
 11
1188.999999999999
 21
926.0000000000005
 31
0.0
  0
TEXT
  5
51E
330
2
100
AcDbEntity
  8
L-ZISSEN
100
AcDbText
 10
1084.999999999999
 20
960.0
 30
0.0
 40
4.5
  1
MODEL NO. : 36B-*00-91B0
100
AcDbText
  0
TEXT
  5
51F
330
2
100
AcDbEntity
  8
L-ZISSEN
100
AcDbText
 10
1084.999999999999
 20
970.0
 30
0.0
 40
4.5
  1
PILOT VALVE
100
AcDbText
  0
LINE
  5
520
330
2
100
AcDbEntity
  8
L-ZISSEN
100
AcDbLine
 10
1214.999999999999
 20
678.0000000000004
 30
0.0
 11
1214.999999999999
 21
676.0000000000005
 31
0.0
  0
CIRCLE
  5
521
330
2
100
AcDbEntity
  8
L-ZISSEN
100
AcDbCircle
 10
1232.999999999999
 20
672.0
 30
0.0
 40
3.5
  0
LINE
  5
522
330
2
100
AcDbEntity
  8
L-ZISSEN
100
AcDbLine
 10
1315.74282
 20
674.4999499999998
 30
0.0
 11
1311.1
 21
674.4999499999998
 31
0.0
  0
LINE
  5
523
330
2
100
AcDbEntity
  8
L-ZISSEN
100
AcDbLine
 10
1315.74282
 20
668.9999999999997
 30
0.0
 11
1321.7
 21
668.9999999999997
 31
0.0
  0
LINE
  5
524
330
2
100
AcDbEntity
  8
L-ZISSEN
  6
CONTINUOUS
 62
     7
100
AcDbLine
 10
1249.099999999999
 20
835.9999999999997
 30
0.0
 11
1295.099999999999
 21
834.393644465886
 31
0.0
  0
LINE
  5
525
330
2
100
AcDbEntity
  8
L-ZISSEN
  6
CONTINUOUS
 62
     7
100
AcDbLine
 10
1249.099999999999
 20
783.9999999999998
 30
0.0
 11
1295.099999999999
 21
785.6063555341138
 31
0.0
  0
LINE
  5
526
330
2
100
AcDbEntity
  8
L-ZISSEN
  6
CONTINUOUS
 62
     7
100
AcDbLine
 10
1239.099999999999
 20
783.9999999999995
 30
0.0
 11
1239.099999999999
 21
835.9999999999995
 31
0.0
  0
LINE
  5
527
330
2
100
AcDbEntity
  8
L-ZISSEN
  6
CONTINUOUS
 62
     7
100
AcDbLine
 10
1239.099999999999
 20
783.9999999999998
 30
0.0
 11
1239.099999999999
 21
835.9999999999997
 31
0.0
  0
TEXT
  5
528
330
2
100
AcDbEntity
  8
L-ZISSEN
100
AcDbText
 10
1223.999999999999
 20
762.7499999999997
 30
0.0
 40
4.5
  1
P.P
100
AcDbText
  0
LINE
  5
529
330
2
100
AcDbEntity
  8
L-ZISSEN
100
AcDbLine
 10
1219.999999999999
 20
764.9999999999997
 30
0.0
 11
1221.999999999999
 21
764.9999999999997
 31
0.0
  0
LINE
  5
52A
330
2
100
AcDbEntity
  8
L-ZISSEN
100
AcDbLine
 10
1236.999999999999
 20
836.0
 30
0.0
 11
1249.099999999999
 21
836.0000000000001
 31
0.0
  0
LINE
  5
52B
330
2
100
AcDbEntity
  8
L-ZISSEN
  6
CONTINUOUS
 62
     7
100
AcDbLine
 10
1209.499999999999
 20
843.9999999999997
 30
0.0
 11
1209.499999999999
 21
841.6183809999999
 31
0.0
  0
LINE
  5
52C
330
2
100
AcDbEntity
  8
L-ZISSEN
  6
CONTINUOUS
 62
     7
100
AcDbLine
 10
1236.999999999999
 20
845.4999999999998
 30
0.0
 11
1236.999999999999
 21
836.0
 31
0.0
  0
LINE
  5
52D
330
2
100
AcDbEntity
  8
L-ZISSEN
  6
CONTINUOUS
 62
     7
100
AcDbLine
 10
1229.499999999999
 20
849.0999999999996
 30
0.0
 11
1236.499999999999
 21
849.0999999999996
 31
0.0
  0
LINE
  5
52E
330
2
100
AcDbEntity
  8
L-ZISSEN
  6
CONTINUOUS
 62
     7
100
AcDbLine
 10
1229.499999999999
 20
845.4999999999998
 30
0.0
 11
1229.499999999999
 21
849.0999999999996
 31
0.0
  0
LINE
  5
52F
330
2
100
AcDbEntity
  8
L-ZISSEN
  6
CONTINUOUS
 62
     7
100
AcDbLine
 10
1236.499999999999
 20
845.4999999999998
 30
0.0
 11
1236.499999999999
 21
849.0999999999996
 31
0.0
  0
LINE
  5
530
330
2
100
AcDbEntity
  8
L-ZISSEN
  6
CONTINUOUS
 62
     7
100
AcDbLine
 10
1296.1
 20
820.9999999999999
 30
0.0
 11
1296.1
 21
798.9999999999999
 31
0.0
  0
LINE
  5
531
330
2
100
AcDbEntity
  8
L-ZISSEN
  6
CONTINUOUS
 62
     7
100
AcDbLine
 10
1295.099999999999
 20
785.6063555341138
 30
0.0
 11
1295.099999999999
 21
834.393644465886
 31
0.0
  0
LINE
  5
532
330
2
100
AcDbEntity
  8
L-ZISSEN
  6
CONTINUOUS
 62
     7
100
AcDbLine
 10
1296.1
 20
798.9999999999999
 30
0.0
 11
1295.1
 21
798.9999999999999
 31
0.0
  0
LINE
  5
533
330
2
100
AcDbEntity
  8
L-ZISSEN
  6
CONTINUOUS
 62
     7
100
AcDbLine
 10
1296.1
 20
820.9999999999999
 30
0.0
 11
1295.099999999999
 21
820.9999999999999
 31
0.0
  0
CIRCLE
  5
534
330
2
100
AcDbEntity
  8
L-ZISSEN
100
AcDbCircle
 10
1404.999999999999
 20
810.0
 30
0.0
 40
10.99999999999971
  0
SOLID
  5
535
330
2
100
AcDbEntity
  8
L-ZISSEN
100
AcDbTrace
 10
1405.977660988646
 20
782.2236863727401
 30
0.0
 11
1406.500916165668
 21
782.6367825651261
 31
0.0
 12
1404.999999999999
 22
784.0
 32
0.0
 13
1404.999999999999
 23
784.0
 33
0.0
  0
LINE
  5
536
330
2
100
AcDbEntity
  8
L-ZISSEN
100
AcDbLine
 10
1378.999999999999
 20
845.5
 30
0.0
 11
1431.0
 21
845.5
 31
0.0
  0
LINE
  5
537
330
2
100
AcDbEntity
  8
L-ZISSEN
100
AcDbLine
 10
1378.999999999999
 20
836.0
 30
0.0
 11
1431.0
 21
836.0
 31
0.0
  0
LINE
  5
538
330
2
100
AcDbEntity
  8
L-ZISSEN
100
AcDbLine
 10
1376.999999999999
 20
844.0
 30
0.0
 11
1432.999999999999
 21
844.0
 31
0.0
  0
LINE
  5
539
330
2
100
AcDbEntity
  8
L-ZISSEN
100
AcDbLine
 10
1378.999999999999
 20
784.0
 30
0.0
 11
1431.0
 21
784.0
 31
0.0
  0
LINE
  5
53A
330
2
100
AcDbEntity
  8
L-ZISSEN
100
AcDbLine
 10
1378.999999999999
 20
784.0
 30
0.0
 11
1378.999999999999
 21
845.5
 31
0.0
  0
LINE
  5
53B
330
2
100
AcDbEntity
  8
L-ZISSEN
100
AcDbLine
 10
1376.999999999999
 20
818.0000000000003
 30
0.0
 11
1376.999999999999
 21
844.0
 31
0.0
  0
LINE
  5
53C
330
2
100
AcDbEntity
  8
L-ZISSEN
100
AcDbLine
 10
1376.999999999999
 20
818.0000000000003
 30
0.0
 11
1378.999999999999
 21
818.0000000000003
 31
0.0
  0
LINE
  5
53D
330
2
100
AcDbEntity
  8
L-ZISSEN
  6
CONTINUOUS
 62
     7
100
AcDbLine
 10
1386.499999999999
 20
849.0999999999999
 30
0.0
 11
1379.499999999999
 21
849.0999999999999
 31
0.0
  0
LINE
  5
53E
330
2
100
AcDbEntity
  8
L-ZISSEN
  6
CONTINUOUS
 62
     7
100
AcDbLine
 10
1379.499999999999
 20
845.5
 30
0.0
 11
1379.499999999999
 21
849.0999999999999
 31
0.0
  0
LINE
  5
53F
330
2
100
AcDbEntity
  8
L-ZISSEN
  6
CONTINUOUS
 62
     7
100
AcDbLine
 10
1386.499999999999
 20
845.5
 30
0.0
 11
1386.499999999999
 21
849.0999999999999
 31
0.0
  0
LINE
  5
540
330
2
100
AcDbEntity
  8
L-ZISSEN
100
AcDbLine
 10
1431.0
 20
845.5
 30
0.0
 11
1431.0
 21
784.0
 31
0.0
  0
LINE
  5
541
330
2
100
AcDbEntity
  8
L-ZISSEN
100
AcDbLine
 10
1406.239288577157
 20
782.4302344689331
 30
0.0
 11
1419.999999999999
 21
765.0
 31
0.0
  0
LINE
  5
542
330
2
100
AcDbEntity
  8
L-ZISSEN
100
AcDbLine
 10
1419.999999999999
 20
765.0
 30
0.0
 11
1421.999999999999
 21
765.0
 31
0.0
  0
TEXT
  5
543
330
2
100
AcDbEntity
  8
L-ZISSEN
100
AcDbText
 10
1423.999999999999
 20
762.75
 30
0.0
 40
4.5
  1
P.P
100
AcDbText
  0
LINE
  5
544
330
2
100
AcDbEntity
  8
L-ZISSEN
100
AcDbLine
 10
1432.999999999999
 20
818.0000000000003
 30
0.0
 11
1432.999999999999
 21
844.0
 31
0.0
  0
LINE
  5
545
330
2
100
AcDbEntity
  8
L-ZISSEN
100
AcDbLine
 10
1431.0
 20
818.0000000000003
 30
0.0
 11
1432.999999999999
 21
818.0000000000003
 31
0.0
  0
LINE
  5
546
330
2
100
AcDbEntity
  8
L-ZISSEN
  6
CONTINUOUS
 62
     7
100
AcDbLine
 10
1430.499999999999
 20
845.5
 30
0.0
 11
1430.499999999999
 21
849.0999999999999
 31
0.0
  0
LINE
  5
547
330
2
100
AcDbEntity
  8
L-ZISSEN
  6
CONTINUOUS
 62
     7
100
AcDbLine
 10
1423.499999999999
 20
845.5
 30
0.0
 11
1423.499999999999
 21
849.0999999999999
 31
0.0
  0
LINE
  5
548
330
2
100
AcDbEntity
  8
L-ZISSEN
  6
CONTINUOUS
 62
     7
100
AcDbLine
 10
1423.499999999999
 20
849.0999999999999
 30
0.0
 11
1430.499999999999
 21
849.0999999999999
 31
0.0
  0
LINE
  5
549
330
2
100
AcDbEntity
  8
L-ZISSEN
  6
CONTINUOUS
 62
     7
100
AcDbLine
 10
1249.099999999999
 20
925.9999999999998
 30
0.0
 11
1295.099999999999
 21
924.3936444658858
 31
0.0
  0
LINE
  5
54A
330
2
100
AcDbEntity
  8
L-ZISSEN
  6
CONTINUOUS
 62
     7
100
AcDbLine
 10
1249.099999999999
 20
873.9999999999998
 30
0.0
 11
1295.099999999999
 21
875.6063555341139
 31
0.0
  0
LINE
  5
54B
330
2
100
AcDbEntity
  8
L-ZISSEN
100
AcDbLine
 10
1236.999999999999
 20
874.0
 30
0.0
 11
1236.999999999999
 21
926.0
 31
0.0
  0
LINE
  5
54C
330
2
100
AcDbEntity
  8
L-ZISSEN
  6
CONTINUOUS
 62
     7
100
AcDbLine
 10
1239.099999999999
 20
873.9999999999998
 30
0.0
 11
1239.099999999999
 21
925.9999999999998
 31
0.0
  0
CIRCLE
  5
54D
330
2
100
AcDbEntity
  8
L-ZISSEN
100
AcDbCircle
 10
1232.999999999999
 20
878.0
 30
0.0
 40
3.5
  0
LINE
  5
54E
330
2
100
AcDbEntity
  8
L-ZISSEN
100
AcDbLine
 10
1224.999999999999
 20
860.0000000000001
 30
0.0
 11
1226.999999999999
 21
860.0000000000001
 31
0.0
  0
LINE
  5
54F
330
2
100
AcDbEntity
  8
L-ZISSEN
100
AcDbLine
 10
1214.999999999999
 20
871.9999999999995
 30
0.0
 11
1214.999999999999
 21
873.9999999999994
 31
0.0
  0
TEXT
  5
550
330
2
100
AcDbEntity
  8
L-ZISSEN
100
AcDbText
 10
1228.999999999999
 20
857.75
 30
0.0
 40
4.5
  1
P.P
100
AcDbText
  0
CIRCLE
  5
551
330
2
100
AcDbEntity
  8
L-ZISSEN
100
AcDbCircle
 10
1232.999999999999
 20
922.0
 30
0.0
 40
3.5
  0
LINE
  5
552
330
2
100
AcDbEntity
  8
L-ZISSEN
100
AcDbLine
 10
1214.999999999999
 20
928.0000000000004
 30
0.0
 11
1214.999999999999
 21
926.0000000000005
 31
0.0
  0
LINE
  5
553
330
2
100
AcDbEntity
  8
L-ZISSEN
  6
CONTINUOUS
 62
     7
100
AcDbLine
 10
1296.1
 20
911.0
 30
0.0
 11
1296.1
 21
889.0
 31
0.0
  0
LINE
  5
554
330
2
100
AcDbEntity
  8
L-ZISSEN
  6
CONTINUOUS
 62
     7
100
AcDbLine
 10
1295.099999999999
 20
875.6063555341139
 30
0.0
 11
1295.099999999999
 21
924.3936444658858
 31
0.0
  0
LINE
  5
555
330
2
100
AcDbEntity
  8
L-ZISSEN
  6
CONTINUOUS
 62
     7
100
AcDbLine
 10
1296.1
 20
889.0
 30
0.0
 11
1295.1
 21
889.0
 31
0.0
  0
LINE
  5
556
330
2
100
AcDbEntity
  8
L-ZISSEN
  6
CONTINUOUS
 62
     7
100
AcDbLine
 10
1296.1
 20
911.0
 30
0.0
 11
1295.099999999999
 21
911.0
 31
0.0
  0
CIRCLE
  5
557
330
2
100
AcDbEntity
  8
L-ZISSEN
100
AcDbCircle
 10
1566.999999999999
 20
667.9999999999998
 30
0.0
 40
4.0
  0
CIRCLE
  5
558
330
2
100
AcDbEntity
  8
L-ZISSEN
100
AcDbCircle
 10
1536.999999999999
 20
667.9999999999998
 30
0.0
 40
4.0
  0
LINE
  5
559
330
2
100
AcDbEntity
  8
L-ZISSEN
100
AcDbLine
 10
1552.618172144674
 20
651.9020681374618
 30
0.0
 11
1564.999999999999
 21
690.0
 31
0.0
  0
TEXT
  5
55A
330
2
100
AcDbEntity
  8
L-ZISSEN
100
AcDbText
 10
1514.999999999999
 20
480.0
 30
0.0
 40
4.5
  1
FLANGE
100
AcDbText
  0
TEXT
  5
55B
330
2
100
AcDbEntity
  8
L-ZISSEN
100
AcDbText
 10
1514.999999999999
 20
470.0
 30
0.0
 40
4.5
  1
MODEL NO. : 36B-C00-*1**
100
AcDbText
  0
LINE
  5
55C
330
2
100
AcDbEntity
  8
L-ZISSEN
100
AcDbLine
 10
1595.526234811583
 20
403.0704723575245
 30
0.0
 11
1609.999999999999
 21
350.0
 31
0.0
  0
LINE
  5
55D
330
2
100
AcDbEntity
  8
L-ZISSEN
  6
CONTINUOUS
 62
     7
100
AcDbLine
 10
1521.999999999999
 20
365.0
 30
0.0
 11
1521.999999999999
 21
445.0000000000001
 31
0.0
  0
LINE
  5
55E
330
2
100
AcDbEntity
  8
L-ZISSEN
  6
CONTINUOUS
 62
     7
100
AcDbLine
 10
1539.999999999999
 20
360.0
 30
0.0
 11
1539.999999999999
 21
450.0
 31
0.0
  0
LINE
  5
55F
330
2
100
AcDbEntity
  8
L-ZISSEN
  6
CONTINUOUS
 62
     7
100
AcDbLine
 10
1539.999999999999
 20
361.5
 30
0.0
 11
1527.499999999999
 21
361.5
 31
0.0
  0
LINE
  5
560
330
2
100
AcDbEntity
  8
L-ZISSEN
  6
CONTINUOUS
 62
     7
100
AcDbLine
 10
1527.499999999999
 20
377.4999999999999
 30
0.0
 11
1539.999999999999
 21
377.4999999999999
 31
0.0
  0
LINE
  5
561
330
2
100
AcDbEntity
  8
L-ZISSEN
  6
CONTINUOUS
 62
     7
100
AcDbLine
 10
1527.499999999999
 20
361.5
 30
0.0
 11
1527.499999999999
 21
377.4999999999999
 31
0.0
  0
LINE
  5
562
330
2
100
AcDbEntity
  8
L-ZISSEN
  6
CONTINUOUS
 62
     7
100
AcDbLine
 10
1527.499999999999
 20
365.0
 30
0.0
 11
1521.999999999999
 21
365.0
 31
0.0
  0
LINE
  5
563
330
2
100
AcDbEntity
  8
L-ZISSEN
  6
CONTINUOUS
 62
     7
100
AcDbLine
 10
1549.999999999999
 20
360.0
 30
0.0
 11
1539.999999999999
 21
360.0
 31
0.0
  0
LINE
  5
564
330
2
100
AcDbEntity
  8
L-ZISSEN
  6
CONTINUOUS
 62
     7
100
AcDbLine
 10
1527.499999999999
 20
432.5
 30
0.0
 11
1539.999999999999
 21
432.5
 31
0.0
  0
LINE
  5
565
330
2
100
AcDbEntity
  8
L-ZISSEN
  6
CONTINUOUS
 62
     7
100
AcDbLine
 10
1539.999999999999
 20
448.5
 30
0.0
 11
1527.499999999999
 21
448.5
 31
0.0
  0
LINE
  5
566
330
2
100
AcDbEntity
  8
L-ZISSEN
  6
CONTINUOUS
 62
     7
100
AcDbLine
 10
1527.499999999999
 20
448.5
 30
0.0
 11
1527.499999999999
 21
432.5
 31
0.0
  0
LINE
  5
567
330
2
100
AcDbEntity
  8
L-ZISSEN
  6
CONTINUOUS
 62
     7
100
AcDbLine
 10
1527.499999999999
 20
445.0
 30
0.0
 11
1521.999999999999
 21
445.0000000000001
 31
0.0
  0
SOLID
  5
568
330
2
100
AcDbEntity
  8
L-ZISSEN
100
AcDbTrace
 10
1595.204646871171
 20
402.9827665555938
 30
0.0
 11
1595.847822751996
 21
403.1581781594552
 31
0.0
 12
1594.999999999999
 22
405.0
 32
0.0
 13
1594.999999999999
 23
405.0
 33
0.0
  0
LINE
  5
569
330
2
100
AcDbEntity
  8
L-ZISSEN
  6
CONTINUOUS
 62
     7
100
AcDbLine
 10
1549.999999999999
 20
450.0
 30
0.0
 11
1539.999999999999
 21
450.0
 31
0.0
  0
LINE
  5
56A
330
2
100
AcDbEntity
  8
L-ZISSEN
  6
CONTINUOUS
 62
     7
100
AcDbLine
 10
1649.999999999999
 20
360.0
 30
0.0
 11
1649.999999999999
 21
450.0
 31
0.0
  0
LINE
  5
56B
330
2
100
AcDbEntity
  8
L-ZISSEN
  6
CONTINUOUS
 62
     7
100
AcDbLine
 10
1667.999999999999
 20
365.0
 30
0.0
 11
1667.999999999999
 21
445.0000000000001
 31
0.0
  0
TEXT
  5
56C
330
2
100
AcDbEntity
  8
L-ZISSEN
100
AcDbText
 10
1613.999999999998
 20
347.75
 30
0.0
 40
4.5
  1
P.P
100
AcDbText
  0
LINE
  5
56D
330
2
100
AcDbEntity
  8
L-ZISSEN
100
AcDbLine
 10
1609.999999999999
 20
350.0
 30
0.0
 11
1611.999999999999
 21
350.0
 31
0.0
  0
LINE
  5
56E
330
2
100
AcDbEntity
  8
L-ZISSEN
  6
CONTINUOUS
 62
     7
100
AcDbLine
 10
1662.499999999999
 20
361.5
 30
0.0
 11
1662.499999999999
 21
377.4999999999999
 31
0.0
  0
LINE
  5
56F
330
2
100
AcDbEntity
  8
L-ZISSEN
  6
CONTINUOUS
 62
     7
100
AcDbLine
 10
1649.999999999999
 20
361.5
 30
0.0
 11
1662.499999999999
 21
361.5
 31
0.0
  0
LINE
  5
570
330
2
100
AcDbEntity
  8
L-ZISSEN
  6
CONTINUOUS
 62
     7
100
AcDbLine
 10
1639.999999999999
 20
360.0
 30
0.0
 11
1649.999999999999
 21
360.0
 31
0.0
  0
LINE
  5
571
330
2
100
AcDbEntity
  8
L-ZISSEN
  6
CONTINUOUS
 62
     7
100
AcDbLine
 10
1662.499999999999
 20
365.0
 30
0.0
 11
1667.999999999999
 21
365.0
 31
0.0
  0
LINE
  5
572
330
2
100
AcDbEntity
  8
L-ZISSEN
  6
CONTINUOUS
 62
     7
100
AcDbLine
 10
1662.499999999999
 20
377.4999999999999
 30
0.0
 11
1649.999999999999
 21
377.4999999999999
 31
0.0
  0
TEXT
  5
573
330
2
100
AcDbEntity
  8
L-ZISSEN
100
AcDbText
 10
1684.999999999999
 20
385.0
 30
0.0
 40
4.5
  1
Rc 2
100
AcDbText
  0
SOLID
  5
574
330
2
100
AcDbEntity
  8
L-ZISSEN
100
AcDbTrace
 10
1669.323047759306
 20
403.4635574408053
 30
0.0
 11
1669.749837359082
 21
403.9757049605369
 31
0.0
 12
1667.999999999999
 22
405.0000000000001
 32
0.0
 13
1667.999999999999
 23
405.0000000000001
 33
0.0
  0
LINE
  5
575
330
2
100
AcDbEntity
  8
L-ZISSEN
  6
CONTINUOUS
 62
     7
100
AcDbLine
 10
1662.499999999999
 20
448.5
 30
0.0
 11
1662.499999999999
 21
432.5
 31
0.0
  0
LINE
  5
576
330
2
100
AcDbEntity
  8
L-ZISSEN
  6
CONTINUOUS
 62
     7
100
AcDbLine
 10
1662.499999999999
 20
432.5
 30
0.0
 11
1649.999999999999
 21
432.5
 31
0.0
  0
LINE
  5
577
330
2
100
AcDbEntity
  8
L-ZISSEN
  6
CONTINUOUS
 62
     7
100
AcDbLine
 10
1649.999999999999
 20
448.5
 30
0.0
 11
1662.499999999999
 21
448.5
 31
0.0
  0
LINE
  5
578
330
2
100
AcDbEntity
  8
L-ZISSEN
  6
CONTINUOUS
 62
     7
100
AcDbLine
 10
1639.999999999999
 20
450.0
 30
0.0
 11
1649.999999999999
 21
450.0
 31
0.0
  0
LINE
  5
579
330
2
100
AcDbEntity
  8
L-ZISSEN
  6
CONTINUOUS
 62
     7
100
AcDbLine
 10
1662.499999999999
 20
445.0
 30
0.0
 11
1667.999999999999
 21
445.0000000000001
 31
0.0
  0
TEXT
  5
57A
330
2
100
AcDbEntity
  8
L-ZISSEN
100
AcDbText
 10
1683.999999999999
 20
392.75
 30
0.0
 40
4.5
  1
IN
100
AcDbText
  0
LINE
  5
57B
330
2
100
AcDbEntity
  8
L-ZISSEN
100
AcDbLine
 10
1669.536442559194
 20
403.719631200671
 30
0.0
 11
1679.999999999999
 21
395.0
 31
0.0
  0
LINE
  5
57C
330
2
100
AcDbEntity
  8
L-ZISSEN
100
AcDbLine
 10
1679.999999999999
 20
395.0
 30
0.0
 11
1681.999999999999
 21
395.0
 31
0.0
  0
TEXT
  5
57D
330
2
100
AcDbEntity
  8
L-ZISSEN
100
AcDbText
 10
1488.999999999999
 20
572.75
 30
0.0
 40
4.5
  1
P.P
100
AcDbText
  0
LINE
  5
57E
330
2
100
AcDbEntity
  8
L-ZISSEN
100
AcDbLine
 10
1550.453464419006
 20
535.2681591764138
 30
0.0
 11
1501.999999999999
 21
575.0
 31
0.0
  0
LINE
  5
57F
330
2
100
AcDbEntity
  8
L-ZISSEN
100
AcDbLine
 10
1501.999999999999
 20
575.0
 30
0.0
 11
1499.999999999999
 21
575.0
 31
0.0
  0
SOLID
  5
580
330
2
100
AcDbEntity
  8
L-ZISSEN
100
AcDbTrace
 10
1550.664824281741
 20
535.5259151065792
 30
0.0
 11
1550.24210455627
 21
535.0104032462484
 31
0.0
 12
1551.999999999999
 22
533.9999999999998
 32
0.0
 13
1551.999999999999
 23
533.9999999999998
 33
0.0
  0
LINE
  5
581
330
2
100
AcDbEntity
  8
L-ZISSEN
  6
CONTINUOUS
 62
     7
100
AcDbLine
 10
1541.00000000002
 20
606.0999999999998
 30
0.0
 11
1533.00000000002
 21
606.0999999999999
 31
0.0
  0
LINE
  5
582
330
2
100
AcDbEntity
  8
L-ZISSEN
  6
CONTINUOUS
 62
     7
100
AcDbLine
 10
1586.999999999999
 20
593.9999999999997
 30
0.0
 11
1516.999999999998
 21
593.9999999999997
 31
0.0
  0
LINE
  5
583
330
2
100
AcDbEntity
  8
L-ZISSEN
  6
CONTINUOUS
 62
     7
100
AcDbLine
 10
1516.999999999998
 20
599.5999999999997
 30
0.0
 11
1586.999999999999
 21
599.5999999999997
 31
0.0
  0
LINE
  5
584
330
2
100
AcDbEntity
  8
L-ZISSEN
  6
CONTINUOUS
 62
     7
100
AcDbLine
 10
1516.999999999998
 20
599.5999999999997
 30
0.0
 11
1516.999999999998
 21
585.9999999999997
 31
0.0
  0
LINE
  5
585
330
2
100
AcDbEntity
  8
L-ZISSEN
  6
CONTINUOUS
 62
     7
100
AcDbLine
 10
1524.499999999998
 20
603.1999999999997
 30
0.0
 11
1517.499999999999
 21
603.1999999999996
 31
0.0
  0
LINE
  5
586
330
2
100
AcDbEntity
  8
L-ZISSEN
  6
CONTINUOUS
 62
     7
100
AcDbLine
 10
1517.499999999999
 20
599.5999999999997
 30
0.0
 11
1517.499999999999
 21
603.1999999999997
 31
0.0
  0
LINE
  5
587
330
2
100
AcDbEntity
  8
L-ZISSEN
  6
CONTINUOUS
 62
     7
100
AcDbLine
 10
1524.499999999998
 20
599.5999999999997
 30
0.0
 11
1524.499999999998
 21
603.1999999999997
 31
0.0
  0
LINE
  5
588
330
2
100
AcDbEntity
  8
L-ZISSEN
100
AcDbLine
 10
1533.00000000002
 20
599.5999999999997
 30
0.0
 11
1533.00000000002
 21
606.0999999999998
 31
0.0
  0
LINE
  5
589
330
2
100
AcDbEntity
  8
L-ZISSEN
  6
CONTINUOUS
 62
     7
100
AcDbLine
 10
1562.999999999977
 20
606.0999999999998
 30
0.0
 11
1570.999999999977
 21
606.0999999999999
 31
0.0
  0
LINE
  5
58A
330
2
100
AcDbEntity
  8
L-ZISSEN
100
AcDbLine
 10
1541.00000000002
 20
606.0999999999998
 30
0.0
 11
1541.00000000002
 21
599.5999999999997
 31
0.0
  0
LINE
  5
58B
330
2
100
AcDbEntity
  8
L-ZISSEN
100
AcDbLine
 10
1562.999999999977
 20
606.0999999999998
 30
0.0
 11
1562.999999999977
 21
599.5999999999997
 31
0.0
  0
LINE
  5
58C
330
2
100
AcDbEntity
  8
L-ZISSEN
  6
CONTINUOUS
 62
     7
100
AcDbLine
 10
1586.999999999999
 20
599.5999999999997
 30
0.0
 11
1586.999999999999
 21
585.9999999999997
 31
0.0
  0
LINE
  5
58D
330
2
100
AcDbEntity
  8
L-ZISSEN
100
AcDbLine
 10
1570.999999999977
 20
599.5999999999997
 30
0.0
 11
1570.999999999977
 21
606.0999999999998
 31
0.0
  0
LINE
  5
58E
330
2
100
AcDbEntity
  8
L-ZISSEN
  6
CONTINUOUS
 62
     7
100
AcDbLine
 10
1586.499999999999
 20
599.5999999999997
 30
0.0
 11
1586.499999999999
 21
603.1999999999997
 31
0.0
  0
LINE
  5
58F
330
2
100
AcDbEntity
  8
L-ZISSEN
  6
CONTINUOUS
 62
     7
100
AcDbLine
 10
1579.499999999999
 20
599.5999999999997
 30
0.0
 11
1579.499999999999
 21
603.1999999999997
 31
0.0
  0
LINE
  5
590
330
2
100
AcDbEntity
  8
L-ZISSEN
  6
CONTINUOUS
 62
     7
100
AcDbLine
 10
1579.499999999999
 20
603.1999999999997
 30
0.0
 11
1586.499999999999
 21
603.1999999999996
 31
0.0
  0
SOLID
  5
591
330
2
100
AcDbEntity
  8
L-ZISSEN
100
AcDbTrace
 10
1552.935183500917
 20
651.7990394466826
 30
0.0
 11
1552.30116078843
 21
652.005096828241
 31
0.0
 12
1551.999999999998
 22
650.0
 32
0.0
 13
1551.999999999998
 23
650.0
 33
0.0
  0
LINE
  5
592
330
2
100
AcDbEntity
  8
L-ZISSEN
100
AcDbLine
 10
1680.999999999999
 20
599.5999999999997
 30
0.0
 11
1680.999999999999
 21
534.0
 31
0.0
  0
LINE
  5
593
330
2
100
AcDbEntity
  8
L-ZISSEN
100
AcDbLine
 10
1628.999999999999
 20
534.0
 30
0.0
 11
1628.999999999999
 21
599.5999999999997
 31
0.0
  0
LINE
  5
594
330
2
100
AcDbEntity
  8
L-ZISSEN
100
AcDbLine
 10
1656.79434135208
 20
534.883368050255
 30
0.0
 11
1687.499999999999
 21
550.0
 31
0.0
  0
SOLID
  5
595
330
2
100
AcDbEntity
  8
L-ZISSEN
100
AcDbTrace
 10
1656.941569360456
 20
534.5843111582415
 30
0.0
 11
1656.647113343704
 21
535.1824249422686
 31
0.0
 12
1654.999999999999
 22
533.9999999999998
 32
0.0
 13
1654.999999999999
 23
533.9999999999998
 33
0.0
  0
TEXT
  5
596
330
2
100
AcDbEntity
  8
L-ZISSEN
100
AcDbText
 10
1691.499999999999
 20
547.75
 30
0.0
 40
4.5
  1
P.P
100
AcDbText
  0
LINE
  5
597
330
2
100
AcDbEntity
  8
L-ZISSEN
100
AcDbLine
 10
1687.499999999999
 20
550.0
 30
0.0
 11
1689.499999999999
 21
550.0
 31
0.0
  0
LINE
  5
598
330
2
100
AcDbEntity
  8
L-ZISSEN
100
AcDbLine
 10
1626.999999999999
 20
594.0
 30
0.0
 11
1682.999999999999
 21
594.0
 31
0.0
  0
LINE
  5
599
330
2
100
AcDbEntity
  8
L-ZISSEN
100
AcDbLine
 10
1628.999999999999
 20
599.5999999999997
 30
0.0
 11
1680.999999999999
 21
599.5999999999997
 31
0.0
  0
LINE
  5
59A
330
2
100
AcDbEntity
  8
L-ZISSEN
  6
CONTINUOUS
 62
     7
100
AcDbLine
 10
1636.499999999999
 20
603.1999999999997
 30
0.0
 11
1629.499999999999
 21
603.1999999999997
 31
0.0
  0
LINE
  5
59B
330
2
100
AcDbEntity
  8
L-ZISSEN
  6
CONTINUOUS
 62
     7
100
AcDbLine
 10
1629.499999999999
 20
599.5999999999997
 30
0.0
 11
1629.499999999999
 21
603.1999999999997
 31
0.0
  0
LINE
  5
59C
330
2
100
AcDbEntity
  8
L-ZISSEN
  6
CONTINUOUS
 62
     7
100
AcDbLine
 10
1636.499999999999
 20
599.5999999999997
 30
0.0
 11
1636.499999999999
 21
603.1999999999997
 31
0.0
  0
LINE
  5
59D
330
2
100
AcDbEntity
  8
L-ZISSEN
  6
CONTINUOUS
 62
     7
100
AcDbLine
 10
1673.499999999999
 20
603.1999999999997
 30
0.0
 11
1680.499999999999
 21
603.1999999999997
 31
0.0
  0
LINE
  5
59E
330
2
100
AcDbEntity
  8
L-ZISSEN
100
AcDbLine
 10
1677.00000000002
 20
606.0999999999998
 30
0.0
 11
1677.00000000002
 21
603.1999999999997
 31
0.0
  0
LINE
  5
59F
330
2
100
AcDbEntity
  8
L-ZISSEN
  6
CONTINUOUS
 62
     7
100
AcDbLine
 10
1677.00000000002
 20
606.0999999999998
 30
0.0
 11
1669.000000000021
 21
606.0999999999999
 31
0.0
  0
LINE
  5
5A0
330
2
100
AcDbEntity
  8
L-ZISSEN
100
AcDbLine
 10
1669.000000000021
 20
599.5999999999997
 30
0.0
 11
1669.000000000021
 21
606.0999999999998
 31
0.0
  0
LINE
  5
5A1
330
2
100
AcDbEntity
  8
L-ZISSEN
  6
CONTINUOUS
 62
     7
100
AcDbLine
 10
1673.499999999999
 20
599.5999999999997
 30
0.0
 11
1673.499999999999
 21
603.1999999999997
 31
0.0
  0
LINE
  5
5A2
330
2
100
AcDbEntity
  8
L-ZISSEN
  6
CONTINUOUS
 62
     7
100
AcDbLine
 10
1680.499999999999
 20
599.5999999999997
 30
0.0
 11
1680.499999999999
 21
603.1999999999997
 31
0.0
  0
LINE
  5
5A3
330
2
100
AcDbEntity
  8
L-ZISSEN
100
AcDbLine
 10
1669.00000000002
 20
849.5999999999998
 30
0.0
 11
1669.00000000002
 21
856.0999999999998
 31
0.0
  0
LINE
  5
5A4
330
2
100
AcDbEntity
  8
L-ZISSEN
100
AcDbLine
 10
1677.00000000002
 20
856.0999999999998
 30
0.0
 11
1677.00000000002
 21
853.1999999999996
 31
0.0
  0
LINE
  5
5A5
330
2
100
AcDbEntity
  8
L-ZISSEN
100
AcDbLine
 10
1570.999999999976
 20
853.1999999999996
 30
0.0
 11
1570.999999999976
 21
856.0999999999998
 31
0.0
  0
LINE
  5
5A6
330
2
100
AcDbEntity
  8
L-ZISSEN
100
AcDbLine
 10
1562.999999999976
 20
856.0999999999998
 30
0.0
 11
1562.999999999976
 21
849.5999999999998
 31
0.0
  0
TEXT
  5
5A7
330
2
100
AcDbEntity
  8
L-ZISSEN
100
AcDbText
 10
1514.999999999999
 20
710.0
 30
0.0
 40
4.5
  1
MODEL NO. : 36B-*00-9**2
100
AcDbText
  0
TEXT
  5
5A8
330
2
100
AcDbEntity
  8
L-ZISSEN
100
AcDbText
 10
1514.999999999999
 20
720.0
 30
0.0
 40
4.5
  1
PILOT LAMP
100
AcDbText
  0
TEXT
  5
5A9
330
2
100
AcDbEntity
  8
L-ZISSEN
100
AcDbText
 10
1568.999999999999
 20
687.75
 30
0.0
 40
4.5
  1
P.P
100
AcDbText
  0
LINE
  5
5AA
330
2
100
AcDbEntity
  8
L-ZISSEN
100
AcDbLine
 10
1564.999999999999
 20
690.0
 30
0.0
 11
1566.999999999999
 21
690.0
 31
0.0
  0
LINE
  5
5AB
330
2
100
AcDbEntity
  8
L-ZISSEN
100
AcDbLine
 10
1577.999999999998
 20
844.0
 30
0.0
 11
1525.999999999998
 21
844.0
 31
0.0
  0
LINE
  5
5AC
330
2
100
AcDbEntity
  8
L-ZISSEN
100
AcDbLine
 10
1525.999999999998
 20
849.5999999999998
 30
0.0
 11
1577.999999999998
 21
849.5999999999998
 31
0.0
  0
LINE
  5
5AD
330
2
100
AcDbEntity
  8
L-ZISSEN
100
AcDbLine
 10
1550.453464419006
 20
785.2681591764141
 30
0.0
 11
1501.999999999998
 21
825.0000000000001
 31
0.0
  0
TEXT
  5
5AE
330
2
100
AcDbEntity
  8
L-ZISSEN
100
AcDbText
 10
1488.999999999998
 20
822.7500000000002
 30
0.0
 40
4.5
  1
P.P
100
AcDbText
  0
LINE
  5
5AF
330
2
100
AcDbEntity
  8
L-ZISSEN
100
AcDbLine
 10
1501.999999999998
 20
825.0000000000001
 30
0.0
 11
1499.999999999998
 21
825.0000000000001
 31
0.0
  0
LINE
  5
5B0
330
2
100
AcDbEntity
  8
L-ZISSEN
100
AcDbLine
 10
1525.999999999998
 20
849.5999999999998
 30
0.0
 11
1525.999999999998
 21
836.0
 31
0.0
  0
LINE
  5
5B1
330
2
100
AcDbEntity
  8
L-ZISSEN
  6
CONTINUOUS
 62
     7
100
AcDbLine
 10
1533.499999999998
 20
853.1999999999996
 30
0.0
 11
1526.499999999998
 21
853.1999999999996
 31
0.0
  0
LINE
  5
5B2
330
2
100
AcDbEntity
  8
L-ZISSEN
  6
CONTINUOUS
 62
     7
100
AcDbLine
 10
1526.499999999998
 20
849.5999999999998
 30
0.0
 11
1526.499999999998
 21
853.1999999999996
 31
0.0
  0
LINE
  5
5B3
330
2
100
AcDbEntity
  8
L-ZISSEN
  6
CONTINUOUS
 62
     7
100
AcDbLine
 10
1533.499999999998
 20
849.5999999999998
 30
0.0
 11
1533.499999999998
 21
853.1999999999996
 31
0.0
  0
SOLID
  5
5B4
330
2
100
AcDbEntity
  8
L-ZISSEN
100
AcDbTrace
 10
1550.664824281741
 20
785.5259151065795
 30
0.0
 11
1550.24210455627
 21
785.0104032462486
 31
0.0
 12
1551.999999999998
 22
784.0
 32
0.0
 13
1551.999999999998
 23
784.0
 33
0.0
  0
LINE
  5
5B5
330
2
100
AcDbEntity
  8
L-ZISSEN
100
AcDbLine
 10
1577.999999999998
 20
849.5999999999998
 30
0.0
 11
1577.999999999998
 21
836.0
 31
0.0
  0
LINE
  5
5B6
330
2
100
AcDbEntity
  8
L-ZISSEN
  6
CONTINUOUS
 62
     7
100
AcDbLine
 10
1577.499999999998
 20
849.5999999999998
 30
0.0
 11
1577.499999999998
 21
853.1999999999996
 31
0.0
  0
LINE
  5
5B7
330
2
100
AcDbEntity
  8
L-ZISSEN
  6
CONTINUOUS
 62
     7
100
AcDbLine
 10
1570.499999999998
 20
849.5999999999998
 30
0.0
 11
1570.499999999998
 21
853.1999999999996
 31
0.0
  0
LINE
  5
5B8
330
2
100
AcDbEntity
  8
L-ZISSEN
  6
CONTINUOUS
 62
     7
100
AcDbLine
 10
1577.499999999998
 20
853.1999999999996
 30
0.0
 11
1570.499999999998
 21
853.1999999999996
 31
0.0
  0
LINE
  5
5B9
330
2
100
AcDbEntity
  8
L-ZISSEN
100
AcDbLine
 10
1656.794341352079
 20
784.8833680502552
 30
0.0
 11
1687.499999999998
 21
800.0000000000001
 31
0.0
  0
LINE
  5
5BA
330
2
100
AcDbEntity
  8
L-ZISSEN
100
AcDbLine
 10
1628.999999999998
 20
849.5999999999998
 30
0.0
 11
1680.999999999998
 21
849.5999999999998
 31
0.0
  0
LINE
  5
5BB
330
2
100
AcDbEntity
  8
L-ZISSEN
100
AcDbLine
 10
1626.999999999998
 20
844.0
 30
0.0
 11
1682.999999999998
 21
844.0
 31
0.0
  0
LINE
  5
5BC
330
2
100
AcDbEntity
  8
L-ZISSEN
100
AcDbLine
 10
1628.999999999998
 20
784.0
 30
0.0
 11
1628.999999999998
 21
849.5999999999998
 31
0.0
  0
SOLID
  5
5BD
330
2
100
AcDbEntity
  8
L-ZISSEN
100
AcDbTrace
 10
1656.941569360455
 20
784.5843111582418
 30
0.0
 11
1656.647113343704
 21
785.1824249422689
 31
0.0
 12
1654.999999999998
 22
784.0
 32
0.0
 13
1654.999999999998
 23
784.0
 33
0.0
  0
LINE
  5
5BE
330
2
100
AcDbEntity
  8
L-ZISSEN
  6
CONTINUOUS
 62
     7
100
AcDbLine
 10
1636.499999999998
 20
853.1999999999996
 30
0.0
 11
1629.499999999998
 21
853.1999999999996
 31
0.0
  0
LINE
  5
5BF
330
2
100
AcDbEntity
  8
L-ZISSEN
  6
CONTINUOUS
 62
     7
100
AcDbLine
 10
1629.499999999998
 20
849.5999999999998
 30
0.0
 11
1629.499999999998
 21
853.1999999999996
 31
0.0
  0
LINE
  5
5C0
330
2
100
AcDbEntity
  8
L-ZISSEN
  6
CONTINUOUS
 62
     7
100
AcDbLine
 10
1636.499999999998
 20
849.5999999999998
 30
0.0
 11
1636.499999999998
 21
853.1999999999996
 31
0.0
  0
LINE
  5
5C1
330
2
100
AcDbEntity
  8
L-ZISSEN
100
AcDbLine
 10
1680.999999999998
 20
849.5999999999998
 30
0.0
 11
1680.999999999998
 21
784.0
 31
0.0
  0
TEXT
  5
5C2
330
2
100
AcDbEntity
  8
L-ZISSEN
100
AcDbText
 10
1691.499999999998
 20
797.7500000000002
 30
0.0
 40
4.5
  1
P.P
100
AcDbText
  0
LINE
  5
5C3
330
2
100
AcDbEntity
  8
L-ZISSEN
100
AcDbLine
 10
1687.499999999998
 20
800.0000000000001
 30
0.0
 11
1689.499999999998
 21
800.0000000000001
 31
0.0
  0
LINE
  5
5C4
330
2
100
AcDbEntity
  8
L-ZISSEN
  6
CONTINUOUS
 62
     7
100
AcDbLine
 10
1673.499999999998
 20
853.1999999999996
 30
0.0
 11
1680.499999999998
 21
853.1999999999996
 31
0.0
  0
LINE
  5
5C5
330
2
100
AcDbEntity
  8
L-ZISSEN
  6
CONTINUOUS
 62
     7
100
AcDbLine
 10
1673.499999999998
 20
849.5999999999998
 30
0.0
 11
1673.499999999998
 21
853.1999999999996
 31
0.0
  0
LINE
  5
5C6
330
2
100
AcDbEntity
  8
L-ZISSEN
  6
CONTINUOUS
 62
     7
100
AcDbLine
 10
1680.499999999998
 20
849.5999999999998
 30
0.0
 11
1680.499999999998
 21
853.1999999999996
 31
0.0
  0
TEXT
  5
5C7
330
2
100
AcDbEntity
  8
L-ZISSEN
100
AcDbText
 10
1514.999999999999
 20
960.0
 30
0.0
 40
4.5
  1
MODEL NO. : 36B-*00-8**2
100
AcDbText
  0
SOLID
  5
5C8
330
2
100
AcDbEntity
  8
L-ZISSEN
100
AcDbTrace
 10
1552.935183500917
 20
901.7990394466826
 30
0.0
 11
1552.30116078843
 21
902.005096828241
 31
0.0
 12
1551.999999999998
 22
899.9999999999998
 32
0.0
 13
1551.999999999998
 23
899.9999999999998
 33
0.0
  0
LINE
  5
5C9
330
2
100
AcDbEntity
  8
L-ZISSEN
  6
CONTINUOUS
 62
     7
100
AcDbLine
 10
1562.999999999976
 20
856.0999999999998
 30
0.0
 11
1570.999999999976
 21
856.0999999999999
 31
0.0
  0
TEXT
  5
5CA
330
2
100
AcDbEntity
  8
L-ZISSEN
100
AcDbText
 10
1568.999999999999
 20
937.7499999999999
 30
0.0
 40
4.5
  1
P.P
100
AcDbText
  0
CIRCLE
  5
5CB
330
2
100
AcDbEntity
  8
L-ZISSEN
100
AcDbCircle
 10
1566.999999999999
 20
917.9999999999997
 30
0.0
 40
4.0
  0
LINE
  5
5CC
330
2
100
AcDbEntity
  8
L-ZISSEN
100
AcDbLine
 10
1552.618172144674
 20
901.9020681374618
 30
0.0
 11
1564.999999999999
 21
940.0
 31
0.0
  0
LINE
  5
5CD
330
2
100
AcDbEntity
  8
L-ZISSEN
100
AcDbLine
 10
1564.999999999999
 20
940.0
 30
0.0
 11
1566.999999999999
 21
940.0
 31
0.0
  0
TEXT
  5
5CE
330
2
100
AcDbEntity
  8
L-ZISSEN
100
AcDbText
 10
1514.999999999999
 20
970.0
 30
0.0
 40
4.5
  1
PILOT LAMP
100
AcDbText
  0
LINE
  5
5CF
330
2
100
AcDbEntity
  8
L-ZISSEN
  6
CONTINUOUS
 62
     7
100
AcDbLine
 10
1677.00000000002
 20
856.0999999999998
 30
0.0
 11
1669.00000000002
 21
856.0999999999999
 31
0.0
  0
ENDSEC
  0
SECTION
  2
OBJECTS
  0
DICTIONARY
  5
7
330
0
100
AcDbDictionary
  3
ACAD_GROUP
350
20
  3
ACAD_LAYOUT
350
B
  3
ACAD_MLINESTYLE
350
21
  3
ACAD_PLOTSETTINGS
350
22
1001
ACAD
1000
TREAT_AS_HARD
1070
     0
  0
DICTIONARY
  5
609
330
2
100
AcDbDictionary
  3
ACAD_LAYOUTSELFREF
350
60A
  0
DICTIONARY
  5
60B
330
C
100
AcDbDictionary
  3
ACAD_LAYOUTSELFREF
350
60C
  0
DICTIONARY
  5
20
102
{ACAD_REACTORS
330
7
102
}
330
7
100
AcDbDictionary
1001
ACAD
1000
TREAT_AS_HARD
1070
     0
  0
DICTIONARY
  5
B
102
{ACAD_REACTORS
330
7
102
}
330
7
100
AcDbDictionary
1001
ACAD
1000
TREAT_AS_HARD
1070
     0
  0
DICTIONARY
  5
21
102
{ACAD_REACTORS
330
7
102
}
330
7
100
AcDbDictionary
  3
STANDARD
350
25
1001
ACAD
1000
TREAT_AS_HARD
1070
     0
  0
DICTIONARY
  5
22
102
{ACAD_REACTORS
330
7
102
}
330
7
100
AcDbDictionary
1001
ACAD
1000
TREAT_AS_HARD
1070
     0
  0
XRECORD
  5
60A
102
{ACAD_REACTORS
330
609
102
}
330
609
100
AcDbXrecord
340
2
  0
XRECORD
  5
60C
102
{ACAD_REACTORS
330
60B
102
}
330
60B
100
AcDbXrecord
340
C
  0
MLINESTYLE
  5
25
102
{ACAD_REACTORS
330
21
102
}
330
21
100
AcDbMlineStyle
  2
STANDARD
 70
     0
  3

 62
   256
 51
90.0
 52
90.0
 71
     2
 49
0.5
 62
   256
  6
BYLAYER
 49
-0.5
 62
   256
  6
BYLAYER
  0
ENDSEC
  0
EOF
