  0
SECTION
  2
HEADER
  9
$ACADVER
  1
AC1006
  9
$INSBASE
 10
0.0
 20
0.0
 30
0.0
  9
$EXTMIN
 10
35.0
 20
15.426497
  9
$EXTMAX
 10
820.5
 20
395.5
  9
$LIMMIN
 10
0.0
 20
0.0
  9
$LIMMAX
 10
841.0
 20
594.0
  9
$ORTHOMODE
 70
     0
  9
$REGENMODE
 70
     1
  9
$FILLMODE
 70
     1
  9
$QTEXTMODE
 70
     0
  9
$MIRRTEXT
 70
     1
  9
$DRAGMODE
 70
     2
  9
$LTSCALE
 40
1.0
  9
$OSMODE
 70
     0
  9
$ATTMODE
 70
     1
  9
$TEXTSIZE
 40
4.5
  9
$TRACEWID
 40
0.05
  9
$TEXTSTYLE
  7
STANDARD
  9
$CLAYER
  8
L-ZISSEN
  9
$CELTYPE
  6
BYLAYER
  9
$CECOLOR
 62
   256
  9
$DIMSCALE
 40
1.0
  9
$DIMASZ
 40
2.0
  9
$DIMEXO
 40
2.0
  9
$DIMDLI
 40
0.38
  9
$DIMRND
 40
0.0
  9
$DIMDLE
 40
0.0
  9
$DIMEXE
 40
2.0
  9
$DIMTP
 40
0.0
  9
$DIMTM
 40
0.0
  9
$DIMTXT
 40
4.5
  9
$DIMCEN
 40
0.09
  9
$DIMTSZ
 40
0.0
  9
$DIMTOL
 70
     0
  9
$DIMLIM
 70
     0
  9
$DIMTIH
 70
     0
  9
$DIMTOH
 70
     0
  9
$DIMSE1
 70
     0
  9
$DIMSE2
 70
     0
  9
$DIMTAD
 70
     1
  9
$DIMZIN
 70
     0
  9
$DIMBLK
  1

  9
$DIMASO
 70
     0
  9
$DIMSHO
 70
     0
  9
$DIMPOST
  1

  9
$DIMAPOST
  1

  9
$DIMALT
 70
     0
  9
$DIMALTD
 70
     2
  9
$DIMALTF
 40
25.4
  9
$DIMLFAC
 40
1.0
  9
$DIMTOFL
 70
     1
  9
$DIMTVP
 40
0.0
  9
$DIMTIX
 70
     1
  9
$DIMSOXD
 70
     0
  9
$DIMSAH
 70
     0
  9
$DIMBLK1
  1

  9
$DIMBLK2
  1

  9
$LUNITS
 70
     2
  9
$LUPREC
 70
     4
  9
$AXISMODE
 70
     0
  9
$AXISUNIT
 10
0.0
 20
0.0
  9
$SKETCHINC
 40
0.1
  9
$FILLETRAD
 40
12.2
  9
$AUNITS
 70
     0
  9
$AUPREC
 70
     0
  9
$MENU
  1
acad
  9
$ELEVATION
 40
0.0
  9
$THICKNESS
 40
0.0
  9
$LIMCHECK
 70
     0
  9
$BLIPMODE
 70
     1
  9
$CHAMFERA
 40
5.0
  9
$CHAMFERB
 40
5.0
  9
$SKPOLY
 70
     0
  9
$TDCREATE
 40
2449251.2663160879
  9
$TDUPDATE
 40
2449251.2663160879
  9
$TDINDWG
 40
0.0000000000
  9
$TDUSRTIMER
 40
0.0000000000
  9
$USRTIMER
 70
     1
  9
$ANGBASE
 50
0.0
  9
$ANGDIR
 70
     0
  9
$PDMODE
 70
     0
  9
$PDSIZE
 40
0.0
  9
$PLINEWID
 40
0.0
  9
$COORDS
 70
     2
  9
$SPLFRAME
 70
     0
  9
$SPLINETYPE
 70
     6
  9
$SPLINESEGS
 70
     8
  9
$ATTDIA
 70
     0
  9
$ATTREQ
 70
     1
  9
$HANDLING
 70
     0
  9
$HANDSEED
  5
0
  9
$SURFTAB1
 70
     6
  9
$SURFTAB2
 70
     6
  9
$SURFTYPE
 70
     6
  9
$SURFU
 70
     6
  9
$SURFV
 70
     6
  9
$FLATLAND
 70
     0
  9
$UCSNAME
  2

  9
$UCSORG
 10
0.0
 20
0.0
 30
0.0
  9
$UCSXDIR
 10
1.0
 20
0.0
 30
0.0
  9
$UCSYDIR
 10
0.0
 20
1.0
 30
0.0
  9
$USERI1
 70
     0
  9
$USERI2
 70
     0
  9
$USERI3
 70
     0
  9
$USERI4
 70
     0
  9
$USERI5
 70
     0
  9
$USERR1
 40
0.0
  9
$USERR2
 40
0.0
  9
$USERR3
 40
0.0
  9
$USERR4
 40
0.0
  9
$USERR5
 40
0.0
  9
$WORLDVIEW
 70
     1
  0
ENDSEC
  0
SECTION
  2
TABLES
  0
TABLE
  2
VPORT
 70
     2
  0
VPORT
  2
*ACTIVE
 70
     0
 10
0.0
 20
0.0
 11
1.0
 21
1.0
 12
476.455978
 22
307.649038
 13
0.0
 23
0.0
 14
5.0
 24
5.0
 15
0.0
 25
0.0
 16
0.0
 26
0.0
 36
1.0
 17
0.0
 27
0.0
 37
0.0
 40
615.298075
 41
1.5487
 42
50.0
 43
0.0
 44
0.0
 50
0.0
 51
0.0
 71
     0
 72
   100
 73
     1
 74
     0
 75
     0
 76
     0
 77
     0
 78
     0
  0
ENDTAB
  0
TABLE
  2
LTYPE
 70
     2
  0
LTYPE
  2
CONTINUOUS
 70
    64
  3
Solid line
 72
    65
 73
     0
 40
0.0
  0
LTYPE
  2
CENTER
 70
    64
  3
____ _ ____ _ ____ _ ____ _ 
 72
    65
 73
     4
 40
60.0
 49
45.0
 49
-5.0
 49
5.0
 49
-5.0
  0
ENDTAB
  0
TABLE
  2
LAYER
 70
     3
  0
LAYER
  2
0
 70
     0
 62
     7
  6
CONTINUOUS
  0
LAYER
  2
L-ZISSEN
 70
    64
 62
     7
  6
CONTINUOUS
  0
LAYER
  2
L-TYUSIN
 70
    64
 62
     1
  6
CENTER
  0
ENDTAB
  0
TABLE
  2
STYLE
 70
     1
  0
STYLE
  2
STANDARD
 70
    64
 40
0.0
 41
1.0
 50
0.0
 71
     0
 42
4.5
  3
txt
  4

  0
ENDTAB
  0
TABLE
  2
VIEW
 70
     0
  0
ENDTAB
  0
TABLE
  2
UCS
 70
     0
  0
ENDTAB
  0
TABLE
  2
DWGMGR
 70
     0
  0
ENDTAB
  0
ENDSEC
  0
SECTION
  2
BLOCKS
  0
ENDSEC
  0
SECTION
  2
ENTITIES
  0
LINE
  8
L-ZISSEN
 10
221.8
 20
120.0
 30
0.0
 11
221.8
 21
102.0
 31
0.0
  0
ARC
  8
L-ZISSEN
 10
204.0
 20
100.0
 30
0.0
 40
3.5
 50
90.0
 51
270.0
  0
LINE
  8
L-ZISSEN
 10
204.0
 20
96.5
 30
0.0
 11
210.999998
 21
96.5
 31
0.0
  0
LINE
  8
L-TYUSIN
 10
207.5
 20
106.0
 30
0.0
 11
207.5
 21
94.0
 31
0.0
  0
LINE
  8
L-ZISSEN
 10
210.999998
 20
103.5
 30
0.0
 11
204.0
 21
103.5
 31
0.0
  0
LINE
  8
L-TYUSIN
 10
197.5
 20
100.0
 30
0.0
 11
217.5
 21
100.0
 31
0.0
  0
ARC
  8
L-ZISSEN
 10
211.0
 20
100.0
 30
0.0
 40
3.5
 50
270.0
 51
336.104492
  0
LINE
  8
L-ZISSEN
 10
207.0
 20
79.5
 30
0.0
 11
194.0
 21
79.5
 31
0.0
  0
LINE
  8
L-ZISSEN
 10
194.0
 20
120.5
 30
0.0
 11
221.5
 21
120.5
 31
0.0
  0
LINE
  8
L-ZISSEN
 10
194.0
 20
79.5
 30
0.0
 11
194.0
 21
120.5
 31
0.0
  0
LINE
  8
L-ZISSEN
 10
441.8
 20
79.5
 30
0.0
 11
441.8
 21
120.5
 31
0.0
  0
LINE
  8
L-ZISSEN
 10
445.0
 20
120.5
 30
0.0
 11
445.0
 21
79.5
 31
0.0
  0
LINE
  8
L-TYUSIN
 10
374.930677
 20
79.0
 30
0.0
 11
423.225819
 21
79.0
 31
0.0
  0
LINE
  8
L-ZISSEN
 10
424.0
 20
120.5
 30
0.0
 11
424.0
 21
130.0
 31
0.0
  0
LINE
  8
L-ZISSEN
 10
376.0
 20
120.5
 30
0.0
 11
376.0
 21
140.0
 31
0.0
  0
LINE
  8
L-ZISSEN
 10
428.0
 20
120.5
 30
0.0
 11
428.0
 21
79.5
 31
0.0
  0
LINE
  8
L-ZISSEN
 10
428.0
 20
79.5
 30
0.0
 11
428.0
 21
120.5
 31
0.0
  0
LINE
  8
L-ZISSEN
 10
273.0
 20
44.0
 30
0.0
 11
272.0
 21
43.0
 31
0.0
  0
LINE
  8
L-ZISSEN
 10
227.0
 20
44.0
 30
0.0
 11
228.0
 21
43.0
 31
0.0
  0
LINE
  8
L-ZISSEN
 10
263.5
 20
39.0
 30
0.0
 11
236.5
 21
39.0
 31
0.0
  0
LINE
  8
L-ZISSEN
 10
388.5
 20
39.0
 30
0.0
 11
411.5
 21
39.0
 31
0.0
  0
LINE
  8
L-ZISSEN
 10
377.0
 20
120.5
 30
0.0
 11
365.0
 21
120.5
 31
0.0
  0
LINE
  8
L-ZISSEN
 10
420.5
 20
44.5
 30
0.0
 11
379.5
 21
44.5
 31
0.0
  0
LINE
  8
L-ZISSEN
 10
420.0
 20
44.5
 30
0.0
 11
420.0
 21
38.2
 31
0.0
  0
LINE
  8
L-ZISSEN
 10
411.5
 20
38.2
 30
0.0
 11
411.5
 21
44.5
 31
0.0
  0
LINE
  8
L-ZISSEN
 10
420.0
 20
38.2
 30
0.0
 11
411.5
 21
38.2
 31
0.0
  0
LINE
  8
L-ZISSEN
 10
380.0
 20
38.2
 30
0.0
 11
388.5
 21
38.2
 31
0.0
  0
LINE
  8
L-ZISSEN
 10
388.5
 20
38.2
 30
0.0
 11
388.5
 21
44.5
 31
0.0
  0
LINE
  8
L-ZISSEN
 10
380.0
 20
44.5
 30
0.0
 11
380.0
 21
38.2
 31
0.0
  0
LINE
  8
L-ZISSEN
 10
426.5
 20
60.056835
 30
0.0
 11
420.5
 21
60.056835
 31
0.0
  0
LINE
  8
L-ZISSEN
 10
445.0
 20
79.5
 30
0.0
 11
420.5
 21
79.5
 31
0.0
  0
LINE
  8
L-ZISSEN
 10
426.5
 20
60.056835
 30
0.0
 11
426.5
 21
79.5
 31
0.0
  0
LINE
  8
L-ZISSEN
 10
445.0
 20
120.5
 30
0.0
 11
423.0
 21
120.5
 31
0.0
  0
LINE
  8
L-ZISSEN
 10
403.0
 20
108.291901
 30
0.0
 11
403.0
 21
102.0
 31
0.0
  0
LINE
  8
L-ZISSEN
 10
406.0
 20
120.0
 30
0.0
 11
404.354534
 21
108.291901
 31
0.0
  0
LINE
  8
L-ZISSEN
 10
406.0
 20
120.0
 30
0.0
 11
406.0
 21
124.0
 31
0.0
  0
LINE
  8
L-ZISSEN
 10
394.0
 20
120.0
 30
0.0
 11
394.0
 21
124.0
 31
0.0
  0
LINE
  8
L-ZISSEN
 10
423.0
 20
120.0
 30
0.0
 11
377.0
 21
120.0
 31
0.0
  0
LINE
  8
L-ZISSEN
 10
373.5
 20
60.056835
 30
0.0
 11
373.5
 21
79.5
 31
0.0
  0
LINE
  8
L-ZISSEN
 10
373.5
 20
60.056835
 30
0.0
 11
379.5
 21
60.056835
 31
0.0
  0
LINE
  8
L-ZISSEN
 10
365.0
 20
79.5
 30
0.0
 11
379.5
 21
79.5
 31
0.0
  0
LINE
  8
L-ZISSEN
 10
372.0
 20
120.5
 30
0.0
 11
372.0
 21
79.5
 31
0.0
  0
LINE
  8
L-ZISSEN
 10
379.5
 20
49.0
 30
0.0
 11
420.5
 21
49.0
 31
0.0
  0
LINE
  8
L-ZISSEN
 10
376.0
 20
124.0
 30
0.0
 11
424.0
 21
124.0
 31
0.0
  0
LINE
  8
L-ZISSEN
 10
379.5
 20
102.0
 30
0.0
 11
420.5
 21
102.0
 31
0.0
  0
LINE
  8
L-ZISSEN
 10
420.5
 20
102.0
 30
0.0
 11
420.5
 21
44.5
 31
0.0
  0
LINE
  8
L-ZISSEN
 10
420.5
 20
56.0
 30
0.0
 11
379.5
 21
56.0
 31
0.0
  0
LINE
  8
L-ZISSEN
 10
379.5
 20
44.5
 30
0.0
 11
379.5
 21
102.0
 31
0.0
  0
CIRCLE
  8
L-ZISSEN
 10
400.0
 20
79.0
 30
0.0
 40
16.0
  0
CIRCLE
  8
L-ZISSEN
 10
384.25
 20
96.75
 30
0.0
 40
4.25
  0
CIRCLE
  8
L-ZISSEN
 10
415.75
 20
96.75
 30
0.0
 40
4.25
  0
CIRCLE
  8
L-ZISSEN
 10
415.75
 20
61.25
 30
0.0
 40
4.25
  0
CIRCLE
  8
L-ZISSEN
 10
384.25
 20
61.25
 30
0.0
 40
4.25
  0
LINE
  8
L-TYUSIN
 10
400.0
 20
231.7
 30
0.0
 11
400.0
 21
15.426497
 31
0.0
  0
LINE
  8
L-ZISSEN
 10
227.0
 20
44.5
 30
0.0
 11
273.0
 21
44.5
 31
0.0
  0
LINE
  8
L-ZISSEN
 10
228.0
 20
44.5
 30
0.0
 11
228.0
 21
38.2
 31
0.0
  0
LINE
  8
L-ZISSEN
 10
236.5
 20
38.2
 30
0.0
 11
236.5
 21
44.5
 31
0.0
  0
LINE
  8
L-ZISSEN
 10
228.0
 20
38.2
 30
0.0
 11
236.5
 21
38.2
 31
0.0
  0
LINE
  8
L-ZISSEN
 10
214.2
 20
101.0
 30
0.0
 11
214.2
 21
92.5
 31
0.0
  0
LINE
  8
L-ZISSEN
 10
214.2
 20
63.0
 30
0.0
 11
207.0
 21
63.0
 31
0.0
  0
LINE
  8
L-ZISSEN
 10
227.0
 20
102.0
 30
0.0
 11
218.0
 21
102.0
 31
0.0
  0
LINE
  8
L-ZISSEN
 10
214.2
 20
95.0
 30
0.0
 11
207.0
 21
95.0
 31
0.0
  0
LINE
  8
L-ZISSEN
 10
218.0
 20
101.0
 30
0.0
 11
214.2
 21
101.0
 31
0.0
  0
LINE
  8
L-ZISSEN
 10
214.2
 20
92.5
 30
0.0
 11
218.0
 21
92.5
 31
0.0
  0
LINE
  8
L-ZISSEN
 10
218.0
 20
56.0
 30
0.0
 11
218.0
 21
102.0
 31
0.0
  0
LINE
  8
L-ZISSEN
 10
207.0
 20
63.0
 30
0.0
 11
207.0
 21
95.0
 31
0.0
  0
CIRCLE
  8
L-ZISSEN
 10
232.25
 20
115.75
 30
0.0
 40
4.25
  0
LINE
  8
L-ZISSEN
 10
226.0
 20
102.0
 30
0.0
 11
226.0
 21
108.291901
 31
0.0
  0
LINE
  8
L-ZISSEN
 10
222.336967
 20
120.0
 30
0.0
 11
223.982433
 21
108.291901
 31
0.0
  0
ARC
  8
L-ZISSEN
 10
246.367497
 20
76.5
 30
0.0
 40
3.0
 50
90.0
 51
218.682187
  0
LINE
  8
L-ZISSEN
 10
228.0
 20
69.0
 30
0.0
 11
228.0
 21
79.5
 31
0.0
  0
ARC
  8
L-ZISSEN
 10
237.0
 20
69.0
 30
0.0
 40
9.0
 50
180.0
 51
38.682191
  0
LINE
  8
L-ZISSEN
 10
225.0
 20
56.095445
 30
0.0
 11
225.0
 21
102.0
 31
0.0
  0
LINE
  8
L-ZISSEN
 10
273.0
 20
44.0
 30
0.0
 11
273.0
 21
56.0
 31
0.0
  0
LINE
  8
L-ZISSEN
 10
227.0
 20
49.0
 30
0.0
 11
273.0
 21
49.0
 31
0.0
  0
LINE
  8
L-ZISSEN
 10
227.0
 20
56.0
 30
0.0
 11
227.0
 21
44.0
 31
0.0
  0
LINE
  8
L-ZISSEN
 10
227.0
 20
120.5
 30
0.0
 11
273.0
 21
120.5
 31
0.0
  0
LINE
  8
L-ZISSEN
 10
227.0
 20
79.5
 30
0.0
 11
227.0
 21
124.0
 31
0.0
  0
LINE
  8
L-ZISSEN
 10
273.0
 20
79.5
 30
0.0
 11
227.0
 21
79.5
 31
0.0
  0
LINE
  8
L-ZISSEN
 10
221.5
 20
120.0
 30
0.0
 11
227.0
 21
120.0
 31
0.0
  0
LINE
  8
L-ZISSEN
 10
221.5
 20
140.0
 30
0.0
 11
221.5
 21
120.0
 31
0.0
  0
LINE
  8
L-ZISSEN
 10
278.5
 20
124.0
 30
0.0
 11
221.5
 21
124.0
 31
0.0
  0
LINE
  8
L-TYUSIN
 10
250.0
 20
205.1
 30
0.0
 11
250.0
 21
15.426497
 31
0.0
  0
LINE
  8
L-TYUSIN
 10
202.0
 20
79.0
 30
0.0
 11
298.0
 21
79.0
 31
0.0
  0
TEXT
  8
L-ZISSEN
 10
35.0
 20
385.0
 30
0.0
 40
4.5
  1
MODEL NO. : 363-300-63B
  0
LINE
  8
L-ZISSEN
 10
227.0
 20
108.291901
 30
0.0
 11
223.982433
 21
108.291901
 31
0.0
  0
ARC
  8
L-ZISSEN
 10
211.0
 20
100.0
 30
0.0
 40
3.5
 50
16.60155
 51
90.0
  0
LINE
  8
L-ZISSEN
 10
263.5
 20
38.2
 30
0.0
 11
272.0
 21
38.2
 31
0.0
  0
LINE
  8
L-ZISSEN
 10
263.5
 20
44.5
 30
0.0
 11
263.5
 21
38.2
 31
0.0
  0
LINE
  8
L-ZISSEN
 10
272.0
 20
38.2
 30
0.0
 11
272.0
 21
44.5
 31
0.0
  0
LINE
  8
L-ZISSEN
 10
218.0
 20
57.0
 30
0.0
 11
214.2
 21
57.0
 31
0.0
  0
LINE
  8
L-ZISSEN
 10
214.2
 20
65.5
 30
0.0
 11
218.0
 21
65.5
 31
0.0
  0
LINE
  8
L-ZISSEN
 10
214.2
 20
57.0
 30
0.0
 11
214.2
 21
65.5
 31
0.0
  0
LINE
  8
L-ZISSEN
 10
227.0
 20
56.0
 30
0.0
 11
218.0
 21
56.0
 31
0.0
  0
LINE
  8
L-ZISSEN
 10
273.0
 20
79.5
 30
0.0
 11
273.0
 21
124.0
 31
0.0
  0
CIRCLE
  8
L-ZISSEN
 10
267.75
 20
115.75
 30
0.0
 40
4.25
  0
CIRCLE
  8
L-ZISSEN
 10
232.25
 20
84.25
 30
0.0
 40
4.25
  0
CIRCLE
  8
L-ZISSEN
 10
267.75
 20
84.25
 30
0.0
 40
4.25
  0
LINE
  8
L-ZISSEN
 10
278.5
 20
140.0
 30
0.0
 11
278.5
 21
120.0
 31
0.0
  0
LINE
  8
L-ZISSEN
 10
278.5
 20
120.0
 30
0.0
 11
273.0
 21
120.0
 31
0.0
  0
LINE
  8
L-ZISSEN
 10
277.663033
 20
120.0
 30
0.0
 11
276.017567
 21
108.291901
 31
0.0
  0
LINE
  8
L-ZISSEN
 10
273.0
 20
108.291901
 30
0.0
 11
276.017567
 21
108.291901
 31
0.0
  0
LINE
  8
L-ZISSEN
 10
274.0
 20
102.0
 30
0.0
 11
274.0
 21
108.291901
 31
0.0
  0
LINE
  8
L-ZISSEN
 10
278.2
 20
120.0
 30
0.0
 11
278.2
 21
102.0
 31
0.0
  0
LINE
  8
L-ZISSEN
 10
306.0
 20
120.5
 30
0.0
 11
278.5
 21
120.5
 31
0.0
  0
LINE
  8
L-ZISSEN
 10
306.0
 20
79.5
 30
0.0
 11
306.0
 21
120.5
 31
0.0
  0
LINE
  8
L-ZISSEN
 10
289.000002
 20
103.5
 30
0.0
 11
296.0
 21
103.5
 31
0.0
  0
ARC
  8
L-ZISSEN
 10
296.0
 20
100.0
 30
0.0
 40
3.5
 50
270.0
 51
90.0
  0
LINE
  8
L-TYUSIN
 10
302.5
 20
100.0
 30
0.0
 11
282.5
 21
100.0
 31
0.0
  0
LINE
  8
L-TYUSIN
 10
292.5
 20
106.0
 30
0.0
 11
292.5
 21
94.0
 31
0.0
  0
LINE
  8
L-ZISSEN
 10
296.0
 20
96.5
 30
0.0
 11
289.000002
 21
96.5
 31
0.0
  0
LINE
  8
L-ZISSEN
 10
273.0
 20
102.0
 30
0.0
 11
282.0
 21
102.0
 31
0.0
  0
LINE
  8
L-ZISSEN
 10
285.8
 20
95.0
 30
0.0
 11
293.0
 21
95.0
 31
0.0
  0
LINE
  8
L-ZISSEN
 10
293.0
 20
63.0
 30
0.0
 11
293.0
 21
95.0
 31
0.0
  0
LINE
  8
L-ZISSEN
 10
285.8
 20
63.0
 30
0.0
 11
293.0
 21
63.0
 31
0.0
  0
LINE
  8
L-ZISSEN
 10
273.0
 20
56.0
 30
0.0
 11
282.0
 21
56.0
 31
0.0
  0
LINE
  8
L-ZISSEN
 10
275.0
 20
56.095445
 30
0.0
 11
275.0
 21
102.0
 31
0.0
  0
LINE
  8
L-ZISSEN
 10
293.0
 20
79.5
 30
0.0
 11
306.0
 21
79.5
 31
0.0
  0
LINE
  8
L-ZISSEN
 10
395.645466
 20
108.291901
 30
0.0
 11
404.354534
 21
108.291901
 31
0.0
  0
LINE
  8
L-ZISSEN
 10
394.0
 20
120.0
 30
0.0
 11
395.645466
 21
108.291901
 31
0.0
  0
LINE
  8
L-ZISSEN
 10
397.0
 20
108.291901
 30
0.0
 11
397.0
 21
102.0
 31
0.0
  0
LINE
  8
L-TYUSIN
  6
CENTER
 62
     1
 10
168.6
 20
310.0
 30
0.0
 11
300.5
 21
310.0
 31
0.0
  0
LINE
  8
L-ZISSEN
 10
494.0
 20
79.5
 30
0.0
 11
548.0
 21
79.5
 31
0.0
  0
LINE
  8
L-ZISSEN
 10
575.0
 20
56.095445
 30
0.0
 11
575.0
 21
120.5
 31
0.0
  0
LINE
  8
L-ZISSEN
 10
585.8
 20
63.0
 30
0.0
 11
593.0
 21
63.0
 31
0.0
  0
LINE
  8
L-ZISSEN
 10
593.0
 20
63.0
 30
0.0
 11
593.0
 21
79.5
 31
0.0
  0
LINE
  8
L-ZISSEN
 10
596.0
 20
96.5
 30
0.0
 11
589.000002
 21
96.5
 31
0.0
  0
LINE
  8
L-TYUSIN
 10
592.5
 20
106.0
 30
0.0
 11
592.5
 21
94.0
 31
0.0
  0
LINE
  8
L-TYUSIN
 10
602.5
 20
100.0
 30
0.0
 11
582.5
 21
100.0
 31
0.0
  0
ARC
  8
L-ZISSEN
 10
596.0
 20
100.0
 30
0.0
 40
3.5
 50
270.0
 51
90.0
  0
LINE
  8
L-ZISSEN
 10
589.000002
 20
103.5
 30
0.0
 11
596.0
 21
103.5
 31
0.0
  0
LINE
  8
L-ZISSEN
 10
606.0
 20
79.5
 30
0.0
 11
606.0
 21
120.5
 31
0.0
  0
LINE
  8
L-ZISSEN
 10
606.0
 20
120.5
 30
0.0
 11
551.773415
 21
120.5
 31
0.0
  0
LINE
  8
L-ZISSEN
 10
578.5
 20
140.0
 30
0.0
 11
578.5
 21
120.5
 31
0.0
  0
CIRCLE
  8
L-ZISSEN
 10
567.75
 20
84.25
 30
0.0
 40
4.25
  0
CIRCLE
  8
L-ZISSEN
 10
532.25
 20
84.25
 30
0.0
 40
4.25
  0
CIRCLE
  8
L-ZISSEN
 10
567.75
 20
115.75
 30
0.0
 40
4.25
  0
LINE
  8
L-ZISSEN
 10
573.0
 20
120.5
 30
0.0
 11
573.0
 21
124.0
 31
0.0
  0
LINE
  8
L-TYUSIN
 10
502.0
 20
79.0
 30
0.0
 11
598.0
 21
79.0
 31
0.0
  0
LINE
  8
L-TYUSIN
 10
550.0
 20
205.1
 30
0.0
 11
550.0
 21
15.426497
 31
0.0
  0
LINE
  8
L-ZISSEN
 10
521.5
 20
124.0
 30
0.0
 11
546.30714
 21
124.0
 31
0.0
  0
LINE
  8
L-ZISSEN
 10
521.5
 20
140.0
 30
0.0
 11
521.5
 21
134.0
 31
0.0
  0
LINE
  8
L-ZISSEN
 10
527.0
 20
120.5
 30
0.0
 11
527.0
 21
124.0
 31
0.0
  0
LINE
  8
L-ZISSEN
 10
525.0
 20
56.095445
 30
0.0
 11
525.0
 21
120.5
 31
0.0
  0
ARC
  8
L-ZISSEN
 10
537.0
 20
69.0
 30
0.0
 40
9.0
 50
180.0
 51
38.682191
  0
LINE
  8
L-ZISSEN
 10
528.0
 20
69.0
 30
0.0
 11
528.0
 21
79.5
 31
0.0
  0
ARC
  8
L-ZISSEN
 10
546.367497
 20
76.5
 30
0.0
 40
3.0
 50
90.0
 51
218.682187
  0
CIRCLE
  8
L-ZISSEN
 10
532.25
 20
115.75
 30
0.0
 40
4.25
  0
LINE
  8
L-ZISSEN
 10
507.0
 20
63.0
 30
0.0
 11
507.0
 21
79.5
 31
0.0
  0
LINE
  8
L-ZISSEN
 10
514.2
 20
63.0
 30
0.0
 11
507.0
 21
63.0
 31
0.0
  0
LINE
  8
L-ZISSEN
 10
494.0
 20
79.5
 30
0.0
 11
494.0
 21
120.5
 31
0.0
  0
LINE
  8
L-TYUSIN
 10
497.5
 20
100.0
 30
0.0
 11
517.5
 21
100.0
 31
0.0
  0
LINE
  8
L-ZISSEN
 10
510.999998
 20
103.5
 30
0.0
 11
504.0
 21
103.5
 31
0.0
  0
LINE
  8
L-TYUSIN
 10
507.5
 20
106.0
 30
0.0
 11
507.5
 21
94.0
 31
0.0
  0
LINE
  8
L-ZISSEN
 10
504.0
 20
96.5
 30
0.0
 11
510.999998
 21
96.5
 31
0.0
  0
ARC
  8
L-ZISSEN
 10
504.0
 20
100.0
 30
0.0
 40
3.5
 50
90.0
 51
270.0
  0
ARC
  8
L-ZISSEN
 10
511.0
 20
100.0
 30
0.0
 40
3.5
 50
270.0
 51
90.0
  0
ARC
  8
L-ZISSEN
 10
589.0
 20
100.0
 30
0.0
 40
3.5
 50
90.0
 51
270.0
  0
LINE
  8
L-TYUSIN
 10
250.0
 20
351.0
 30
0.0
 11
250.0
 21
259.0
 31
0.0
  0
LINE
  8
L-ZISSEN
 10
306.0
 20
355.0
 30
0.0
 11
275.0
 21
355.0
 31
0.0
  0
LINE
  8
L-ZISSEN
 10
194.0
 20
351.8
 30
0.0
 11
194.0
 21
355.0
 31
0.0
  0
LINE
  8
L-ZISSEN
 10
306.0
 20
351.8
 30
0.0
 11
306.0
 21
355.0
 31
0.0
  0
LINE
  8
L-ZISSEN
 10
306.0
 20
351.8
 30
0.0
 11
278.2
 21
351.8
 31
0.0
  0
LINE
  8
L-ZISSEN
 10
278.2
 20
338.0
 30
0.0
 11
221.8
 21
338.0
 31
0.0
  0
LINE
  8
L-ZISSEN
 10
275.0
 20
355.0
 30
0.0
 11
275.0
 21
346.0
 31
0.0
  0
LINE
  8
L-ZISSEN
 10
275.0
 20
341.2
 30
0.0
 11
225.0
 21
341.2
 31
0.0
  0
LINE
  8
L-ZISSEN
 10
278.2
 20
351.8
 30
0.0
 11
278.2
 21
345.888194
 31
0.0
  0
LINE
  8
L-ZISSEN
 10
225.0
 20
355.0
 30
0.0
 11
194.0
 21
355.0
 31
0.0
  0
LINE
  8
L-ZISSEN
 10
221.8
 20
351.8
 30
0.0
 11
221.8
 21
338.0
 31
0.0
  0
LINE
  8
L-ZISSEN
 10
225.0
 20
355.0
 30
0.0
 11
225.0
 21
341.2
 31
0.0
  0
LINE
  8
L-ZISSEN
 10
221.8
 20
351.8
 30
0.0
 11
194.0
 21
351.8
 31
0.0
  0
LINE
  8
L-ZISSEN
 10
227.0
 20
282.0
 30
0.0
 11
273.0
 21
282.0
 31
0.0
  0
LINE
  8
L-ZISSEN
 10
227.0
 20
338.0
 30
0.0
 11
227.0
 21
334.0
 31
0.0
  0
LINE
  8
L-ZISSEN
 10
273.0
 20
338.0
 30
0.0
 11
273.0
 21
334.0
 31
0.0
  0
LINE
  8
L-ZISSEN
 10
273.0
 20
286.0
 30
0.0
 11
273.0
 21
275.0
 31
0.0
  0
LINE
  8
L-ZISSEN
 10
227.0
 20
286.0
 30
0.0
 11
227.0
 21
275.0
 31
0.0
  0
LINE
  8
L-ZISSEN
 10
236.5
 20
347.5
 30
0.0
 11
236.5
 21
341.2
 31
0.0
  0
LINE
  8
L-ZISSEN
 10
228.0
 20
347.5
 30
0.0
 11
236.5
 21
347.5
 31
0.0
  0
LINE
  8
L-ZISSEN
 10
228.0
 20
341.2
 30
0.0
 11
228.0
 21
347.5
 31
0.0
  0
LINE
  8
L-ZISSEN
 10
272.0
 20
341.2
 30
0.0
 11
272.0
 21
342.0
 31
0.0
  0
LINE
  8
L-ZISSEN
 10
272.0
 20
347.5
 30
0.0
 11
263.5
 21
347.5
 31
0.0
  0
LINE
  8
L-ZISSEN
 10
263.5
 20
347.5
 30
0.0
 11
263.5
 21
346.0
 31
0.0
  0
LINE
  8
L-TYUSIN
 10
207.5
 20
360.0
 30
0.0
 11
207.5
 21
346.8
 31
0.0
  0
LINE
  8
L-TYUSIN
 10
292.5
 20
360.0
 30
0.0
 11
292.5
 21
346.8
 31
0.0
  0
CIRCLE
  8
L-ZISSEN
 10
400.0
 20
79.0
 30
0.0
 40
7.475
  0
LINE
  8
L-ZISSEN
 10
285.8
 20
57.0
 30
0.0
 11
285.8
 21
65.5
 31
0.0
  0
LINE
  8
L-ZISSEN
 10
285.8
 20
65.5
 30
0.0
 11
282.0
 21
65.5
 31
0.0
  0
LINE
  8
L-ZISSEN
 10
282.0
 20
57.0
 30
0.0
 11
285.8
 21
57.0
 31
0.0
  0
LINE
  8
L-ZISSEN
 10
282.0
 20
56.0
 30
0.0
 11
282.0
 21
102.0
 31
0.0
  0
LINE
  8
L-ZISSEN
 10
285.8
 20
92.5
 30
0.0
 11
282.0
 21
92.5
 31
0.0
  0
LINE
  8
L-ZISSEN
 10
282.0
 20
101.0
 30
0.0
 11
285.8
 21
101.0
 31
0.0
  0
LINE
  8
L-ZISSEN
 10
285.8
 20
101.0
 30
0.0
 11
285.8
 21
92.5
 31
0.0
  0
ARC
  8
L-ZISSEN
 10
289.0
 20
100.0
 30
0.0
 40
3.5
 50
90.0
 51
163.39845
  0
ARC
  8
L-ZISSEN
 10
289.0
 20
100.0
 30
0.0
 40
3.5
 50
203.895508
 51
270.0
  0
LINE
  8
L-ZISSEN
 10
572.0
 20
38.2
 30
0.0
 11
572.0
 21
44.5
 31
0.0
  0
LINE
  8
L-ZISSEN
 10
563.5
 20
44.5
 30
0.0
 11
563.5
 21
38.2
 31
0.0
  0
LINE
  8
L-ZISSEN
 10
563.5
 20
38.2
 30
0.0
 11
572.0
 21
38.2
 31
0.0
  0
LINE
  8
L-ZISSEN
 10
528.0
 20
38.2
 30
0.0
 11
536.5
 21
38.2
 31
0.0
  0
LINE
  8
L-ZISSEN
 10
536.5
 20
38.2
 30
0.0
 11
536.5
 21
44.5
 31
0.0
  0
LINE
  8
L-ZISSEN
 10
528.0
 20
44.5
 30
0.0
 11
528.0
 21
38.2
 31
0.0
  0
LINE
  8
L-ZISSEN
 10
527.0
 20
44.5
 30
0.0
 11
548.0
 21
44.5
 31
0.0
  0
LINE
  8
L-ZISSEN
 10
563.5
 20
39.0
 30
0.0
 11
552.0
 21
39.0
 31
0.0
  0
LINE
  8
L-ZISSEN
 10
527.0
 20
44.0
 30
0.0
 11
528.0
 21
43.0
 31
0.0
  0
LINE
  8
L-ZISSEN
 10
573.0
 20
44.0
 30
0.0
 11
572.0
 21
43.0
 31
0.0
  0
LINE
  8
L-ZISSEN
 10
573.0
 20
44.0
 30
0.0
 11
573.0
 21
56.0
 31
0.0
  0
LINE
  8
L-ZISSEN
 10
527.0
 20
56.0
 30
0.0
 11
527.0
 21
44.0
 31
0.0
  0
LINE
  8
L-ZISSEN
 10
518.0
 20
57.0
 30
0.0
 11
518.0
 21
56.0
 31
0.0
  0
LINE
  8
L-ZISSEN
 10
582.0
 20
57.0
 30
0.0
 11
585.8
 21
57.0
 31
0.0
  0
LINE
  8
L-ZISSEN
 10
585.8
 20
65.5
 30
0.0
 11
582.0
 21
65.5
 31
0.0
  0
LINE
  8
L-ZISSEN
 10
585.8
 20
57.0
 30
0.0
 11
585.8
 21
65.5
 31
0.0
  0
LINE
  8
L-ZISSEN
 10
582.0
 20
79.5
 30
0.0
 11
582.0
 21
56.0
 31
0.0
  0
LINE
  8
L-ZISSEN
 10
527.0
 20
56.0
 30
0.0
 11
518.0
 21
56.0
 31
0.0
  0
LINE
  8
L-ZISSEN
 10
527.0
 20
49.0
 30
0.0
 11
548.0
 21
49.0
 31
0.0
  0
LINE
  8
L-ZISSEN
 10
573.0
 20
56.0
 30
0.0
 11
582.0
 21
56.0
 31
0.0
  0
SOLID
  8
L-ZISSEN
 10
294.048497
 20
77.264556
 30
0.0
 11
294.554668
 21
77.698417
 31
0.0
 12
293.0
 22
79.0
 32
0.0
 13
293.0
 23
79.0
 33
0.0
  0
LINE
  8
L-ZISSEN
 10
294.301583
 20
77.481487
 30
0.0
 11
305.0
 21
65.0
 31
0.0
  0
LINE
  8
L-ZISSEN
 10
305.0
 20
65.0
 30
0.0
 11
307.0
 21
65.0
 31
0.0
  0
TEXT
  8
L-ZISSEN
 10
309.0
 20
62.75
 30
0.0
 40
4.5
  1
PORT 1
  0
TEXT
  8
L-ZISSEN
 10
310.0
 20
55.0
 30
0.0
 40
4.5
  1
Rc 1/4
  0
TEXT
  8
L-ZISSEN
 10
310.0
 20
45.0
 30
0.0
 40
4.5
  1
Rc 3/8
  0
TEXT
  8
L-ZISSEN
 10
310.0
 20
35.0
 30
0.0
 40
4.5
  1
Rc 1/2
  0
LINE
  8
L-ZISSEN
 10
518.0
 20
79.5
 30
0.0
 11
518.0
 21
56.0
 31
0.0
  0
LINE
  8
L-ZISSEN
 10
514.2
 20
65.5
 30
0.0
 11
518.0
 21
65.5
 31
0.0
  0
LINE
  8
L-ZISSEN
 10
514.2
 20
57.0
 30
0.0
 11
514.2
 21
65.5
 31
0.0
  0
LINE
  8
L-ZISSEN
 10
518.0
 20
57.0
 30
0.0
 11
514.2
 21
57.0
 31
0.0
  0
LINE
  8
L-ZISSEN
 10
377.0
 20
120.5
 30
0.0
 11
377.0
 21
120.0
 31
0.0
  0
LINE
  8
L-ZISSEN
 10
423.0
 20
120.5
 30
0.0
 11
423.0
 21
120.0
 31
0.0
  0
TEXT
  8
L-ZISSEN
 10
101.0
 20
391.0
 30
0.0
 40
4.5
  1
2
  0
TEXT
  8
L-ZISSEN
 10
101.0
 20
379.0
 30
0.0
 40
4.5
  1
4
  0
TEXT
  8
L-ZISSEN
 10
132.0
 20
388.0
 30
0.0
 40
4.5
  1
0
  0
TEXT
  8
L-ZISSEN
 10
132.0
 20
382.0
 30
0.0
 40
4.5
  1
2
  0
LINE
  8
L-ZISSEN
 10
278.5
 20
140.0
 30
0.0
 11
221.5
 21
140.0
 31
0.0
  0
LINE
  8
L-ZISSEN
 10
376.0
 20
140.0
 30
0.0
 11
424.0
 21
140.0
 31
0.0
  0
LINE
  8
L-ZISSEN
 10
578.5
 20
140.0
 30
0.0
 11
521.5
 21
140.0
 31
0.0
  0
LINE
  8
L-ZISSEN
 10
221.5
 20
286.0
 30
0.0
 11
221.5
 21
295.0
 31
0.0
  0
LINE
  8
L-ZISSEN
 10
278.5
 20
286.0
 30
0.0
 11
278.5
 21
334.0
 31
0.0
  0
LINE
  8
L-ZISSEN
 10
278.5
 20
334.0
 30
0.0
 11
221.5
 21
334.0
 31
0.0
  0
LINE
  8
L-ZISSEN
 10
278.5
 20
286.0
 30
0.0
 11
221.5
 21
286.0
 31
0.0
  0
LINE
  8
L-ZISSEN
 10
285.8
 20
294.0
 30
0.0
 11
293.0
 21
294.0
 31
0.0
  0
LINE
  8
L-ZISSEN
 10
293.0
 20
294.0
 30
0.0
 11
293.0
 21
305.0
 31
0.0
  0
LINE
  8
L-ZISSEN
 10
282.0
 20
289.5
 30
0.0
 11
282.0
 21
305.0
 31
0.0
  0
LINE
  8
L-ZISSEN
 10
284.726497
 20
321.5
 30
0.0
 11
282.0
 21
321.5
 31
0.0
  0
LINE
  8
L-ZISSEN
 10
282.0
 20
330.0
 30
0.0
 11
285.8
 21
330.0
 31
0.0
  0
LINE
  8
L-ZISSEN
 10
285.8
 20
330.0
 30
0.0
 11
285.8
 21
328.329308
 31
0.0
  0
LINE
  8
L-ZISSEN
 10
285.8
 20
290.0
 30
0.0
 11
285.8
 21
298.5
 31
0.0
  0
LINE
  8
L-ZISSEN
 10
282.0
 20
290.0
 30
0.0
 11
285.8
 21
290.0
 31
0.0
  0
LINE
  8
L-ZISSEN
 10
285.8
 20
298.5
 30
0.0
 11
282.0
 21
298.5
 31
0.0
  0
LINE
  8
L-ZISSEN
 10
282.0
 20
289.5
 30
0.0
 11
278.5
 21
289.5
 31
0.0
  0
LINE
  8
L-ZISSEN
 10
282.0
 20
330.5
 30
0.0
 11
278.5
 21
330.5
 31
0.0
  0
LINE
  8
L-ZISSEN
 10
218.0
 20
330.5
 30
0.0
 11
221.5
 21
330.5
 31
0.0
  0
LINE
  8
L-ZISSEN
 10
218.0
 20
289.5
 30
0.0
 11
221.5
 21
289.5
 31
0.0
  0
LINE
  8
L-ZISSEN
 10
218.0
 20
290.0
 30
0.0
 11
214.2
 21
290.0
 31
0.0
  0
LINE
  8
L-ZISSEN
 10
214.2
 20
290.0
 30
0.0
 11
214.2
 21
295.0
 31
0.0
  0
LINE
  8
L-ZISSEN
 10
214.2
 20
330.0
 30
0.0
 11
214.2
 21
325.0
 31
0.0
  0
LINE
  8
L-ZISSEN
 10
218.0
 20
330.0
 30
0.0
 11
214.2
 21
330.0
 31
0.0
  0
LINE
  8
L-ZISSEN
 10
218.0
 20
289.5
 30
0.0
 11
218.0
 21
295.0
 31
0.0
  0
LINE
  8
L-ZISSEN
 10
207.0
 20
294.0
 30
0.0
 11
207.0
 21
295.0
 31
0.0
  0
LINE
  8
L-ZISSEN
 10
214.2
 20
326.0
 30
0.0
 11
207.0
 21
326.0
 31
0.0
  0
LINE
  8
L-ZISSEN
 10
214.2
 20
294.0
 30
0.0
 11
207.0
 21
294.0
 31
0.0
  0
LINE
  8
L-TYUSIN
 10
665.0
 20
125.0
 30
0.0
 11
665.0
 21
30.0
 31
0.0
  0
TEXT
  8
L-ZISSEN
 10
675.0
 20
110.0
 30
0.0
 40
4.5
  1
LOCK TYPE MANUAL OPERATION BUTTON
  0
TEXT
  8
L-ZISSEN
 10
675.0
 20
100.0
 30
0.0
 40
4.5
  1
MODEL NO. : 363-*00-63R*
  0
LINE
  8
L-ZISSEN
 10
732.886751
 20
70.0
 30
0.0
 11
735.773503
 21
75.0
 31
0.0
  0
LINE
  8
L-ZISSEN
 10
735.773503
 20
75.0
 30
0.0
 11
732.886751
 21
80.0
 31
0.0
  0
LINE
  8
L-ZISSEN
 10
732.886751
 20
80.0
 30
0.0
 11
727.113249
 21
80.0
 31
0.0
  0
LINE
  8
L-ZISSEN
 10
727.113249
 20
80.0
 30
0.0
 11
724.226497
 21
75.0
 31
0.0
  0
LINE
  8
L-ZISSEN
 10
724.226497
 20
75.0
 30
0.0
 11
727.113249
 21
70.0
 31
0.0
  0
LINE
  8
L-ZISSEN
 10
727.113249
 20
70.0
 30
0.0
 11
732.886751
 21
70.0
 31
0.0
  0
LINE
  8
L-ZISSEN
 10
724.226497
 20
61.6
 30
0.0
 11
724.226497
 21
50.0
 31
0.0
  0
LINE
  8
L-ZISSEN
 10
735.773503
 20
61.6
 30
0.0
 11
735.773503
 21
50.0
 31
0.0
  0
LINE
  8
L-ZISSEN
 10
724.226497
 20
61.6
 30
0.0
 11
735.773503
 21
61.6
 31
0.0
  0
SOLID
  8
L-ZISSEN
 10
728.821489
 20
76.649916
 30
0.0
 11
728.350084
 21
76.178511
 31
0.0
 12
730.0
 22
75.0
 32
0.0
 13
730.0
 23
75.0
 33
0.0
  0
LINE
  8
L-ZISSEN
 10
728.585786
 20
76.414214
 30
0.0
 11
720.0
 21
85.0
 31
0.0
  0
LINE
  8
L-ZISSEN
 10
720.0
 20
85.0
 30
0.0
 11
718.0
 21
85.0
 31
0.0
  0
TEXT
  8
L-ZISSEN
 10
707.0
 20
82.75
 30
0.0
 40
4.5
  1
P.P
  0
LINE
  8
L-ZISSEN
 10
539.75
 20
183.8
 30
0.0
 11
539.75
 21
178.0
 31
0.0
  0
LINE
  8
L-ZISSEN
 10
548.25
 20
183.8
 30
0.0
 11
548.25
 21
178.0
 31
0.0
  0
LINE
  8
L-ZISSEN
 10
548.25
 20
183.8
 30
0.0
 11
539.75
 21
183.8
 31
0.0
  0
LINE
  8
L-ZISSEN
 10
531.0
 20
156.0
 30
0.0
 11
531.0
 21
178.0
 31
0.0
  0
LINE
  8
L-ZISSEN
 10
538.0
 20
148.0
 30
0.0
 11
531.0
 21
148.0
 31
0.0
  0
LINE
  8
L-ZISSEN
 10
561.5
 20
178.0
 30
0.0
 11
561.5
 21
191.0
 31
0.0
  0
LINE
  8
L-ZISSEN
 10
538.0
 20
156.0
 30
0.0
 11
531.0
 21
156.0
 31
0.0
  0
LINE
  8
L-ZISSEN
 10
561.5
 20
178.0
 30
0.0
 11
531.0
 21
178.0
 31
0.0
  0
LINE
  8
L-ZISSEN
 10
560.0
 20
159.0
 30
0.0
 11
550.0
 21
159.0
 31
0.0
  0
LINE
  8
L-ZISSEN
 10
560.0
 20
143.0
 30
0.0
 11
550.0
 21
143.0
 31
0.0
  0
LINE
  8
L-ZISSEN
 10
538.0
 20
141.0
 30
0.0
 11
538.0
 21
178.0
 31
0.0
  0
LINE
  8
L-ZISSEN
 10
550.0
 20
141.0
 30
0.0
 11
550.0
 21
178.0
 31
0.0
  0
ARC
  8
L-ZISSEN
 10
560.0
 20
151.0
 30
0.0
 40
8.0
 50
270.0
 51
90.0
  0
LINE
  8
L-ZISSEN
 10
544.0
 20
193.0
 30
0.0
 11
544.0
 21
183.8
 31
0.0
  0
LINE
  8
L-ZISSEN
 10
562.0
 20
193.0
 30
0.0
 11
562.0
 21
191.0
 31
0.0
  0
LINE
  8
L-ZISSEN
 10
561.5
 20
191.0
 30
0.0
 11
568.0
 21
191.0
 31
0.0
  0
LINE
  8
L-ZISSEN
 10
544.0
 20
193.0
 30
0.0
 11
562.0
 21
193.0
 31
0.0
  0
LINE
  8
L-ZISSEN
 10
568.0
 20
141.0
 30
0.0
 11
531.0
 21
141.0
 31
0.0
  0
LINE
  8
L-ZISSEN
 10
531.0
 20
140.0
 30
0.0
 11
531.0
 21
148.0
 31
0.0
  0
LINE
  8
L-ZISSEN
 10
560.328203
 20
200.1
 30
0.0
 11
546.471797
 21
200.1
 31
0.0
  0
LINE
  8
L-ZISSEN
 10
546.471797
 20
200.1
 30
0.0
 11
546.471797
 21
193.0
 31
0.0
  0
LINE
  8
L-ZISSEN
 10
560.328203
 20
200.1
 30
0.0
 11
560.328203
 21
193.0
 31
0.0
  0
LINE
  8
L-ZISSEN
 10
568.0
 20
191.0
 30
0.0
 11
611.9
 21
191.0
 31
0.0
  0
LINE
  8
L-ZISSEN
 10
611.9
 20
148.2
 30
0.0
 11
568.0
 21
148.2
 31
0.0
  0
LINE
  8
L-ZISSEN
 10
611.9
 20
191.0
 30
0.0
 11
611.9
 21
148.2
 31
0.0
  0
LINE
  8
L-ZISSEN
 10
614.9
 20
176.814955
 30
0.0
 11
611.9
 21
176.814955
 31
0.0
  0
LINE
  8
L-ZISSEN
 10
614.9
 20
157.185045
 30
0.0
 11
611.9
 21
157.185045
 31
0.0
  0
LINE
  8
L-ZISSEN
 10
614.9
 20
176.814955
 30
0.0
 11
614.9
 21
157.185045
 31
0.0
  0
LINE
  8
L-ZISSEN
 10
572.65
 20
226.7
 30
0.0
 11
572.65
 21
195.5
 31
0.0
  0
LINE
  8
L-ZISSEN
 10
572.65
 20
226.7
 30
0.0
 11
615.65
 21
226.7
 31
0.0
  0
LINE
  8
L-ZISSEN
 10
600.15
 20
204.2
 30
0.0
 11
615.65
 21
204.2
 31
0.0
  0
LINE
  8
L-ZISSEN
 10
615.65
 20
226.7
 30
0.0
 11
615.65
 21
204.2
 31
0.0
  0
LINE
  8
L-ZISSEN
 10
600.15
 20
226.7
 30
0.0
 11
600.15
 21
195.5
 31
0.0
  0
LINE
  8
L-ZISSEN
 10
626.4
 20
226.419655
 30
0.0
 11
626.4
 21
204.480345
 31
0.0
  0
LINE
  8
L-ZISSEN
 10
626.4
 20
226.419655
 30
0.0
 11
620.9
 21
226.419655
 31
0.0
  0
LINE
  8
L-ZISSEN
 10
626.4
 20
204.480345
 30
0.0
 11
620.9
 21
204.480345
 31
0.0
  0
LINE
  8
L-ZISSEN
 10
620.9
 20
226.419655
 30
0.0
 11
620.9
 21
204.480345
 31
0.0
  0
LINE
  8
L-ZISSEN
 10
615.65
 20
224.65
 30
0.0
 11
618.55
 21
224.65
 31
0.0
  0
LINE
  8
L-ZISSEN
 10
615.65
 20
206.25
 30
0.0
 11
618.55
 21
206.25
 31
0.0
  0
LINE
  8
L-ZISSEN
 10
618.55
 20
223.95
 30
0.0
 11
620.9
 21
223.95
 31
0.0
  0
LINE
  8
L-ZISSEN
 10
618.55
 20
206.95
 30
0.0
 11
620.9
 21
206.95
 31
0.0
  0
LINE
  8
L-ZISSEN
 10
618.55
 20
224.65
 30
0.0
 11
618.55
 21
206.25
 31
0.0
  0
LINE
  8
L-ZISSEN
 10
571.15
 20
195.5
 30
0.0
 11
571.15
 21
191.0
 31
0.0
  0
LINE
  8
L-ZISSEN
 10
601.65
 20
195.5
 30
0.0
 11
601.65
 21
191.0
 31
0.0
  0
LINE
  8
L-ZISSEN
 10
571.15
 20
195.5
 30
0.0
 11
601.65
 21
195.5
 31
0.0
  0
LINE
  8
L-ZISSEN
 10
568.0
 20
140.0
 30
0.0
 11
568.0
 21
191.0
 31
0.0
  0
LINE
  8
L-ZISSEN
 10
120.25
 20
183.8
 30
0.0
 11
120.25
 21
178.0
 31
0.0
  0
LINE
  8
L-ZISSEN
 10
116.0
 20
183.8
 30
0.0
 11
120.25
 21
183.8
 31
0.0
  0
LINE
  8
L-ZISSEN
 10
84.0
 20
183.8
 30
0.0
 11
79.75
 21
183.8
 31
0.0
  0
LINE
  8
L-ZISSEN
 10
79.75
 20
183.8
 30
0.0
 11
79.75
 21
178.0
 31
0.0
  0
LINE
  8
L-ZISSEN
 10
116.0
 20
178.0
 30
0.0
 11
122.0
 21
178.0
 31
0.0
  0
LINE
  8
L-ZISSEN
 10
122.0
 20
178.0
 30
0.0
 11
122.0
 21
140.0
 31
0.0
  0
LINE
  8
L-ZISSEN
 10
78.0
 20
178.0
 30
0.0
 11
84.0
 21
178.0
 31
0.0
  0
LINE
  8
L-ZISSEN
 10
78.0
 20
141.0
 30
0.0
 11
122.0
 21
141.0
 31
0.0
  0
LINE
  8
L-ZISSEN
 10
116.0
 20
141.0
 30
0.0
 11
116.0
 21
191.0
 31
0.0
  0
LINE
  8
L-ZISSEN
 10
84.0
 20
141.0
 30
0.0
 11
84.0
 21
191.0
 31
0.0
  0
LINE
  8
L-ZISSEN
 10
78.0
 20
140.0
 30
0.0
 11
78.0
 21
178.0
 31
0.0
  0
LINE
  8
L-ZISSEN
 10
84.0
 20
143.0
 30
0.0
 11
78.0
 21
143.0
 31
0.0
  0
LINE
  8
L-ZISSEN
 10
84.0
 20
159.0
 30
0.0
 11
78.0
 21
159.0
 31
0.0
  0
LINE
  8
L-ZISSEN
 10
85.0
 20
149.0
 30
0.0
 11
115.0
 21
149.0
 31
0.0
  0
LINE
  8
L-ZISSEN
 10
91.5
 20
171.907477
 30
0.0
 11
91.5
 21
162.092523
 31
0.0
  0
LINE
  8
L-ZISSEN
 10
100.0
 20
176.814955
 30
0.0
 11
91.5
 21
171.907477
 31
0.0
  0
LINE
  8
L-ZISSEN
 10
108.5
 20
171.907477
 30
0.0
 11
100.0
 21
176.814955
 31
0.0
  0
LINE
  8
L-ZISSEN
 10
108.5
 20
162.092523
 30
0.0
 11
108.5
 21
171.907477
 31
0.0
  0
LINE
  8
L-ZISSEN
 10
100.0
 20
157.185045
 30
0.0
 11
108.5
 21
162.092523
 31
0.0
  0
LINE
  8
L-ZISSEN
 10
91.5
 20
162.092523
 30
0.0
 11
100.0
 21
157.185045
 31
0.0
  0
LINE
  8
L-ZISSEN
 10
84.0
 20
191.0
 30
0.0
 11
116.0
 21
191.0
 31
0.0
  0
LINE
  8
L-ZISSEN
 10
84.75
 20
195.5
 30
0.0
 11
115.25
 21
195.5
 31
0.0
  0
LINE
  8
L-ZISSEN
 10
115.25
 20
195.5
 30
0.0
 11
115.25
 21
191.0
 31
0.0
  0
LINE
  8
L-ZISSEN
 10
84.75
 20
195.5
 30
0.0
 11
84.75
 21
191.0
 31
0.0
  0
CIRCLE
  8
L-ZISSEN
 10
100.0
 20
215.45
 30
0.0
 40
6.5
  0
LINE
  8
L-ZISSEN
 10
86.25
 20
226.7
 30
0.0
 11
86.25
 21
195.5
 31
0.0
  0
LINE
  8
L-ZISSEN
 10
113.75
 20
226.7
 30
0.0
 11
113.75
 21
195.5
 31
0.0
  0
CIRCLE
  8
L-ZISSEN
 10
100.0
 20
215.45
 30
0.0
 40
11.25
  0
LINE
  8
L-ZISSEN
 10
86.25
 20
226.7
 30
0.0
 11
113.75
 21
226.7
 31
0.0
  0
CIRCLE
  8
L-ZISSEN
 10
100.0
 20
167.0
 30
0.0
 40
2.067
  0
LINE
  8
L-ZISSEN
 10
85.0
 20
149.0
 30
0.0
 11
85.0
 21
191.0
 31
0.0
  0
LINE
  8
L-ZISSEN
 10
115.0
 20
149.0
 30
0.0
 11
115.0
 21
191.0
 31
0.0
  0
SOLID
  8
L-ZISSEN
 10
731.178511
 20
48.350084
 30
0.0
 11
731.649916
 21
48.821489
 31
0.0
 12
730.0
 22
50.0
 32
0.0
 13
730.0
 23
50.0
 33
0.0
  0
LINE
  8
L-ZISSEN
 10
731.414214
 20
48.585786
 30
0.0
 11
740.0
 21
40.0
 31
0.0
  0
LINE
  8
L-ZISSEN
 10
740.0
 20
40.0
 30
0.0
 11
742.0
 21
40.0
 31
0.0
  0
TEXT
  8
L-ZISSEN
 10
744.0
 20
37.75
 30
0.0
 40
4.5
  1
P.P
  0
LINE
  8
L-ZISSEN
 10
248.25
 20
183.8
 30
0.0
 11
248.25
 21
178.0
 31
0.0
  0
LINE
  8
L-ZISSEN
 10
239.75
 20
183.8
 30
0.0
 11
239.75
 21
178.0
 31
0.0
  0
LINE
  8
L-ZISSEN
 10
239.75
 20
183.8
 30
0.0
 11
248.25
 21
183.8
 31
0.0
  0
LINE
  8
L-ZISSEN
 10
269.0
 20
156.0
 30
0.0
 11
269.0
 21
178.0
 31
0.0
  0
LINE
  8
L-ZISSEN
 10
262.0
 20
148.0
 30
0.0
 11
269.0
 21
148.0
 31
0.0
  0
LINE
  8
L-ZISSEN
 10
238.5
 20
178.0
 30
0.0
 11
238.5
 21
191.0
 31
0.0
  0
LINE
  8
L-ZISSEN
 10
262.0
 20
156.0
 30
0.0
 11
269.0
 21
156.0
 31
0.0
  0
LINE
  8
L-ZISSEN
 10
238.0
 20
178.0
 30
0.0
 11
269.0
 21
178.0
 31
0.0
  0
LINE
  8
L-ZISSEN
 10
262.0
 20
148.0
 30
0.0
 11
262.0
 21
178.0
 31
0.0
  0
LINE
  8
L-ZISSEN
 10
256.0
 20
193.0
 30
0.0
 11
256.0
 21
178.0
 31
0.0
  0
LINE
  8
L-ZISSEN
 10
238.0
 20
193.0
 30
0.0
 11
238.0
 21
191.0
 31
0.0
  0
LINE
  8
L-ZISSEN
 10
238.5
 20
191.0
 30
0.0
 11
232.0
 21
191.0
 31
0.0
  0
LINE
  8
L-ZISSEN
 10
256.0
 20
193.0
 30
0.0
 11
238.0
 21
193.0
 31
0.0
  0
LINE
  8
L-ZISSEN
 10
239.671797
 20
200.1
 30
0.0
 11
253.528203
 21
200.1
 31
0.0
  0
LINE
  8
L-ZISSEN
 10
253.528203
 20
200.1
 30
0.0
 11
253.528203
 21
193.0
 31
0.0
  0
LINE
  8
L-ZISSEN
 10
239.671797
 20
200.1
 30
0.0
 11
239.671797
 21
193.0
 31
0.0
  0
LINE
  8
L-ZISSEN
 10
232.0
 20
191.0
 30
0.0
 11
188.1
 21
191.0
 31
0.0
  0
LINE
  8
L-ZISSEN
 10
188.1
 20
148.2
 30
0.0
 11
232.0
 21
148.2
 31
0.0
  0
LINE
  8
L-ZISSEN
 10
188.1
 20
191.0
 30
0.0
 11
188.1
 21
148.2
 31
0.0
  0
LINE
  8
L-ZISSEN
 10
185.1
 20
176.814955
 30
0.0
 11
188.1
 21
176.814955
 31
0.0
  0
LINE
  8
L-ZISSEN
 10
185.1
 20
157.185045
 30
0.0
 11
188.1
 21
157.185045
 31
0.0
  0
LINE
  8
L-ZISSEN
 10
185.1
 20
176.814955
 30
0.0
 11
185.1
 21
157.185045
 31
0.0
  0
LINE
  8
L-ZISSEN
 10
227.35
 20
226.7
 30
0.0
 11
227.35
 21
195.5
 31
0.0
  0
LINE
  8
L-ZISSEN
 10
227.35
 20
226.7
 30
0.0
 11
184.35
 21
226.7
 31
0.0
  0
LINE
  8
L-ZISSEN
 10
199.85
 20
204.2
 30
0.0
 11
184.35
 21
204.2
 31
0.0
  0
LINE
  8
L-ZISSEN
 10
184.35
 20
226.7
 30
0.0
 11
184.35
 21
204.2
 31
0.0
  0
LINE
  8
L-ZISSEN
 10
199.85
 20
226.7
 30
0.0
 11
199.85
 21
195.5
 31
0.0
  0
LINE
  8
L-ZISSEN
 10
173.6
 20
226.419655
 30
0.0
 11
173.6
 21
204.480345
 31
0.0
  0
LINE
  8
L-ZISSEN
 10
173.6
 20
226.419655
 30
0.0
 11
179.1
 21
226.419655
 31
0.0
  0
LINE
  8
L-ZISSEN
 10
173.6
 20
204.480345
 30
0.0
 11
179.1
 21
204.480345
 31
0.0
  0
LINE
  8
L-ZISSEN
 10
179.1
 20
226.419655
 30
0.0
 11
179.1
 21
204.480345
 31
0.0
  0
LINE
  8
L-ZISSEN
 10
184.35
 20
224.65
 30
0.0
 11
181.45
 21
224.65
 31
0.0
  0
LINE
  8
L-ZISSEN
 10
184.35
 20
206.25
 30
0.0
 11
181.45
 21
206.25
 31
0.0
  0
LINE
  8
L-ZISSEN
 10
181.45
 20
223.95
 30
0.0
 11
179.1
 21
223.95
 31
0.0
  0
LINE
  8
L-ZISSEN
 10
181.45
 20
206.95
 30
0.0
 11
179.1
 21
206.95
 31
0.0
  0
LINE
  8
L-ZISSEN
 10
181.45
 20
224.65
 30
0.0
 11
181.45
 21
206.25
 31
0.0
  0
LINE
  8
L-ZISSEN
 10
228.85
 20
195.5
 30
0.0
 11
228.85
 21
191.0
 31
0.0
  0
LINE
  8
L-ZISSEN
 10
198.35
 20
195.5
 30
0.0
 11
198.35
 21
191.0
 31
0.0
  0
LINE
  8
L-ZISSEN
 10
228.85
 20
195.5
 30
0.0
 11
198.35
 21
195.5
 31
0.0
  0
LINE
  8
L-ZISSEN
 10
260.25
 20
183.8
 30
0.0
 11
260.25
 21
178.0
 31
0.0
  0
LINE
  8
L-ZISSEN
 10
256.0
 20
183.8
 30
0.0
 11
260.25
 21
183.8
 31
0.0
  0
LINE
  8
L-ZISSEN
 10
238.0
 20
141.0
 30
0.0
 11
238.0
 21
178.0
 31
0.0
  0
LINE
  8
L-ZISSEN
 10
250.0
 20
141.0
 30
0.0
 11
250.0
 21
178.0
 31
0.0
  0
LINE
  8
L-ZISSEN
 10
232.0
 20
140.0
 30
0.0
 11
232.0
 21
191.0
 31
0.0
  0
LINE
  8
L-ZISSEN
 10
269.0
 20
140.0
 30
0.0
 11
269.0
 21
148.0
 31
0.0
  0
LINE
  8
L-ZISSEN
 10
232.0
 20
141.0
 30
0.0
 11
269.0
 21
141.0
 31
0.0
  0
ARC
  8
L-ZISSEN
 10
244.0
 20
294.0
 30
0.0
 40
6.0
 50
180.0
 51
0.0
  0
CIRCLE
  8
L-ZISSEN
 10
244.0
 20
294.0
 30
0.0
 40
4.25
  0
LINE
  8
L-ZISSEN
 10
181.45
 20
318.5
 30
0.0
 11
179.1
 21
318.5
 31
0.0
  0
LINE
  8
L-ZISSEN
 10
181.45
 20
301.5
 30
0.0
 11
179.1
 21
301.5
 31
0.0
  0
LINE
  8
L-ZISSEN
 10
184.35
 20
319.2
 30
0.0
 11
181.45
 21
319.2
 31
0.0
  0
LINE
  8
L-ZISSEN
 10
184.35
 20
300.8
 30
0.0
 11
181.45
 21
300.8
 31
0.0
  0
LINE
  8
L-ZISSEN
 10
179.1
 20
299.030345
 30
0.0
 11
179.1
 21
320.969655
 31
0.0
  0
LINE
  8
L-ZISSEN
 10
173.6
 20
320.969655
 30
0.0
 11
179.1
 21
320.969655
 31
0.0
  0
LINE
  8
L-ZISSEN
 10
173.6
 20
299.030345
 30
0.0
 11
179.1
 21
299.030345
 31
0.0
  0
LINE
  8
L-ZISSEN
 10
173.6
 20
299.030345
 30
0.0
 11
173.6
 21
320.969655
 31
0.0
  0
LINE
  8
L-ZISSEN
 10
181.45
 20
300.8
 30
0.0
 11
181.45
 21
319.2
 31
0.0
  0
LINE
  8
L-ZISSEN
 10
184.35
 20
298.75
 30
0.0
 11
184.35
 21
321.25
 31
0.0
  0
LINE
  8
L-ZISSEN
 10
199.85
 20
321.25
 30
0.0
 11
184.35
 21
321.25
 31
0.0
  0
LINE
  8
L-ZISSEN
 10
199.85
 20
298.75
 30
0.0
 11
184.35
 21
298.75
 31
0.0
  0
LINE
  8
L-ZISSEN
 10
227.35
 20
323.75
 30
0.0
 11
199.85
 21
323.75
 31
0.0
  0
LINE
  8
L-ZISSEN
 10
199.85
 20
296.25
 30
0.0
 11
199.85
 21
323.75
 31
0.0
  0
LINE
  8
L-ZISSEN
 10
227.35
 20
296.25
 30
0.0
 11
227.35
 21
323.75
 31
0.0
  0
LINE
  8
L-ZISSEN
 10
198.35
 20
325.0
 30
0.0
 11
232.0
 21
325.0
 31
0.0
  0
LINE
  8
L-ZISSEN
 10
198.35
 20
325.0
 30
0.0
 11
198.35
 21
321.25
 31
0.0
  0
LINE
  8
L-ZISSEN
 10
198.35
 20
298.75
 30
0.0
 11
198.35
 21
295.0
 31
0.0
  0
LINE
  8
L-ZISSEN
 10
198.35
 20
295.0
 30
0.0
 11
232.0
 21
295.0
 31
0.0
  0
LINE
  8
L-ZISSEN
 10
228.35
 20
325.0
 30
0.0
 11
228.35
 21
295.0
 31
0.0
  0
LINE
  8
L-ZISSEN
 10
232.0
 20
294.0
 30
0.0
 11
232.0
 21
332.0
 31
0.0
  0
LINE
  8
L-ZISSEN
 10
238.5
 20
294.0
 30
0.0
 11
232.0
 21
294.0
 31
0.0
  0
LINE
  8
L-ZISSEN
 10
250.0
 20
326.0
 30
0.0
 11
232.0
 21
326.0
 31
0.0
  0
LINE
  8
L-ZISSEN
 10
238.5
 20
319.0
 30
0.0
 11
238.5
 21
326.0
 31
0.0
  0
LINE
  8
L-ZISSEN
 10
232.0
 20
332.0
 30
0.0
 11
256.0
 21
332.0
 31
0.0
  0
ARC
  8
L-ZISSEN
 10
256.0
 20
326.0
 30
0.0
 40
6.0
 50
0.0
 51
180.0
  0
CIRCLE
  8
L-ZISSEN
 10
256.0
 20
326.0
 30
0.0
 40
4.25
  0
LINE
  8
L-ZISSEN
 10
262.0
 20
294.0
 30
0.0
 11
262.0
 21
326.0
 31
0.0
  0
LINE
  8
L-ZISSEN
 10
269.0
 20
326.0
 30
0.0
 11
262.0
 21
326.0
 31
0.0
  0
LINE
  8
L-ZISSEN
 10
269.0
 20
294.0
 30
0.0
 11
269.0
 21
326.0
 31
0.0
  0
LINE
  8
L-ZISSEN
 10
269.0
 20
294.0
 30
0.0
 11
250.0
 21
294.0
 31
0.0
  0
ARC
  8
L-ZISSEN
 10
247.0
 20
310.0
 30
0.0
 40
9.0
 50
270.0
 51
90.0
  0
LINE
  8
L-ZISSEN
 10
250.064102
 20
304.0
 30
0.0
 11
243.135898
 21
304.0
 31
0.0
  0
LINE
  8
L-ZISSEN
 10
253.528203
 20
310.0
 30
0.0
 11
250.064102
 21
304.0
 31
0.0
  0
LINE
  8
L-ZISSEN
 10
250.064102
 20
316.0
 30
0.0
 11
253.528203
 21
310.0
 31
0.0
  0
LINE
  8
L-ZISSEN
 10
243.135898
 20
316.0
 30
0.0
 11
250.064102
 21
316.0
 31
0.0
  0
LINE
  8
L-ZISSEN
 10
247.0
 20
319.0
 30
0.0
 11
238.5
 21
319.0
 31
0.0
  0
LINE
  8
L-ZISSEN
 10
243.135898
 20
316.0
 30
0.0
 11
239.671797
 21
310.0
 31
0.0
  0
LINE
  8
L-ZISSEN
 10
243.135898
 20
304.0
 30
0.0
 11
239.671797
 21
310.0
 31
0.0
  0
LINE
  8
L-ZISSEN
 10
247.0
 20
301.0
 30
0.0
 11
238.5
 21
301.0
 31
0.0
  0
LINE
  8
L-ZISSEN
 10
238.5
 20
294.0
 30
0.0
 11
238.5
 21
301.0
 31
0.0
  0
LINE
  8
L-ZISSEN
 10
227.35
 20
296.25
 30
0.0
 11
199.85
 21
296.25
 31
0.0
  0
LINE
  8
L-ZISSEN
 10
207.0
 20
325.0
 30
0.0
 11
207.0
 21
326.0
 31
0.0
  0
LINE
  8
L-ZISSEN
 10
221.5
 20
325.0
 30
0.0
 11
221.5
 21
334.0
 31
0.0
  0
LINE
  8
L-ZISSEN
 10
218.0
 20
325.0
 30
0.0
 11
218.0
 21
330.5
 31
0.0
  0
SOLID
  8
L-ZISSEN
 10
248.099875
 20
194.364363
 30
0.0
 11
247.576305
 21
194.777059
 31
0.0
 12
246.6
 22
193.0
 32
0.0
 13
246.6
 23
193.0
 33
0.0
  0
LINE
  8
L-ZISSEN
 10
247.83809
 20
194.570711
 30
0.0
 11
260.0
 21
210.0
 31
0.0
  0
LINE
  8
L-ZISSEN
 10
260.0
 20
210.0
 30
0.0
 11
262.0
 21
210.0
 31
0.0
  0
TEXT
  8
L-ZISSEN
 10
264.0
 20
207.75
 30
0.0
 40
4.5
  1
P.P
  0
SOLID
  8
L-ZISSEN
 10
247.970834
 20
308.506037
 30
0.0
 11
248.381263
 21
309.031387
 31
0.0
 12
246.6
 22
310.0
 32
0.0
 13
246.6
 23
310.0
 33
0.0
  0
LINE
  8
L-ZISSEN
 10
248.176049
 20
308.768712
 30
0.0
 11
285.0
 21
280.0
 31
0.0
  0
LINE
  8
L-ZISSEN
 10
285.0
 20
280.0
 30
0.0
 11
287.0
 21
280.0
 31
0.0
  0
TEXT
  8
L-ZISSEN
 10
289.0
 20
277.75
 30
0.0
 40
4.5
  1
P.P
  0
LINE
  8
L-ZISSEN
 10
124.0
 20
140.0
 30
0.0
 11
76.0
 21
140.0
 31
0.0
  0
LINE
  8
L-ZISSEN
 10
77.0
 20
120.5
 30
0.0
 11
77.0
 21
120.0
 31
0.0
  0
LINE
  8
L-ZISSEN
 10
123.0
 20
120.5
 30
0.0
 11
123.0
 21
120.0
 31
0.0
  0
LINE
  8
L-ZISSEN
 10
133.5
 20
120.0
 30
0.0
 11
133.0
 21
120.5
 31
0.0
  0
LINE
  8
L-ZISSEN
 10
133.5
 20
80.0
 30
0.0
 11
133.0
 21
79.5
 31
0.0
  0
CIRCLE
  8
L-ZISSEN
 10
100.0
 20
79.0
 30
0.0
 40
7.475
  0
LINE
  8
L-ZISSEN
 10
103.0
 20
108.291901
 30
0.0
 11
103.0
 21
102.0
 31
0.0
  0
LINE
  8
L-ZISSEN
 10
106.0
 20
120.0
 30
0.0
 11
104.354534
 21
108.291901
 31
0.0
  0
LINE
  8
L-ZISSEN
 10
104.354534
 20
108.291901
 30
0.0
 11
95.645466
 21
108.291901
 31
0.0
  0
LINE
  8
L-TYUSIN
 10
100.0
 20
231.7
 30
0.0
 11
100.0
 21
16.2
 31
0.0
  0
CIRCLE
  8
L-ZISSEN
 10
115.75
 20
61.25
 30
0.0
 40
4.25
  0
CIRCLE
  8
L-ZISSEN
 10
84.25
 20
61.25
 30
0.0
 40
4.25
  0
CIRCLE
  8
L-ZISSEN
 10
84.25
 20
96.75
 30
0.0
 40
4.25
  0
CIRCLE
  8
L-ZISSEN
 10
115.75
 20
96.75
 30
0.0
 40
4.25
  0
CIRCLE
  8
L-ZISSEN
 10
100.0
 20
79.0
 30
0.0
 40
16.0
  0
LINE
  8
L-ZISSEN
 10
120.5
 20
44.5
 30
0.0
 11
120.5
 21
102.0
 31
0.0
  0
LINE
  8
L-ZISSEN
 10
79.5
 20
56.0
 30
0.0
 11
120.5
 21
56.0
 31
0.0
  0
LINE
  8
L-ZISSEN
 10
79.5
 20
102.0
 30
0.0
 11
79.5
 21
44.5
 31
0.0
  0
LINE
  8
L-ZISSEN
 10
120.5
 20
102.0
 30
0.0
 11
79.5
 21
102.0
 31
0.0
  0
LINE
  8
L-ZISSEN
 10
124.0
 20
124.0
 30
0.0
 11
76.0
 21
124.0
 31
0.0
  0
LINE
  8
L-ZISSEN
 10
120.5
 20
49.0
 30
0.0
 11
79.5
 21
49.0
 31
0.0
  0
LINE
  8
L-ZISSEN
 10
128.0
 20
120.5
 30
0.0
 11
128.0
 21
79.5
 31
0.0
  0
LINE
  8
L-ZISSEN
 10
133.0
 20
79.5
 30
0.0
 11
120.5
 21
79.5
 31
0.0
  0
LINE
  8
L-ZISSEN
 10
126.5
 20
60.056835
 30
0.0
 11
120.5
 21
60.056835
 31
0.0
  0
LINE
  8
L-ZISSEN
 10
126.5
 20
60.056835
 30
0.0
 11
126.5
 21
79.5
 31
0.0
  0
LINE
  8
L-ZISSEN
 10
77.0
 20
120.0
 30
0.0
 11
123.0
 21
120.0
 31
0.0
  0
LINE
  8
L-ZISSEN
 10
106.0
 20
120.0
 30
0.0
 11
106.0
 21
124.0
 31
0.0
  0
LINE
  8
L-ZISSEN
 10
94.0
 20
120.0
 30
0.0
 11
94.0
 21
124.0
 31
0.0
  0
LINE
  8
L-ZISSEN
 10
94.0
 20
120.0
 30
0.0
 11
95.645466
 21
108.291901
 31
0.0
  0
LINE
  8
L-ZISSEN
 10
97.0
 20
108.291901
 30
0.0
 11
97.0
 21
102.0
 31
0.0
  0
LINE
  8
L-ZISSEN
 10
55.0
 20
120.5
 30
0.0
 11
77.0
 21
120.5
 31
0.0
  0
LINE
  8
L-ZISSEN
 10
73.5
 20
60.056835
 30
0.0
 11
73.5
 21
79.5
 31
0.0
  0
LINE
  8
L-ZISSEN
 10
55.0
 20
79.5
 30
0.0
 11
79.5
 21
79.5
 31
0.0
  0
LINE
  8
L-ZISSEN
 10
73.5
 20
60.056835
 30
0.0
 11
79.5
 21
60.056835
 31
0.0
  0
LINE
  8
L-ZISSEN
 10
120.0
 20
44.5
 30
0.0
 11
120.0
 21
38.2
 31
0.0
  0
LINE
  8
L-ZISSEN
 10
111.5
 20
38.2
 30
0.0
 11
111.5
 21
44.5
 31
0.0
  0
LINE
  8
L-ZISSEN
 10
120.0
 20
38.2
 30
0.0
 11
111.5
 21
38.2
 31
0.0
  0
LINE
  8
L-ZISSEN
 10
80.0
 20
38.2
 30
0.0
 11
88.5
 21
38.2
 31
0.0
  0
LINE
  8
L-ZISSEN
 10
88.5
 20
38.2
 30
0.0
 11
88.5
 21
44.5
 31
0.0
  0
LINE
  8
L-ZISSEN
 10
80.0
 20
44.5
 30
0.0
 11
80.0
 21
38.2
 31
0.0
  0
LINE
  8
L-ZISSEN
 10
79.5
 20
44.5
 30
0.0
 11
120.5
 21
44.5
 31
0.0
  0
LINE
  8
L-ZISSEN
 10
123.0
 20
120.5
 30
0.0
 11
133.0
 21
120.5
 31
0.0
  0
LINE
  8
L-ZISSEN
 10
132.5
 20
120.0
 30
0.0
 11
138.8
 21
120.0
 31
0.0
  0
LINE
  8
L-ZISSEN
 10
138.8
 20
111.5
 30
0.0
 11
132.5
 21
111.5
 31
0.0
  0
LINE
  8
L-ZISSEN
 10
138.8
 20
120.0
 30
0.0
 11
138.8
 21
111.5
 31
0.0
  0
LINE
  8
L-ZISSEN
 10
138.8
 20
80.0
 30
0.0
 11
138.8
 21
88.5
 31
0.0
  0
LINE
  8
L-ZISSEN
 10
138.8
 20
88.5
 30
0.0
 11
132.5
 21
88.5
 31
0.0
  0
LINE
  8
L-ZISSEN
 10
132.5
 20
80.0
 30
0.0
 11
138.8
 21
80.0
 31
0.0
  0
LINE
  8
L-ZISSEN
 10
132.5
 20
79.5
 30
0.0
 11
132.5
 21
120.5
 31
0.0
  0
LINE
  8
L-ZISSEN
 10
111.5
 20
39.0
 30
0.0
 11
88.5
 21
39.0
 31
0.0
  0
LINE
  8
L-ZISSEN
 10
72.0
 20
79.5
 30
0.0
 11
72.0
 21
120.5
 31
0.0
  0
LINE
  8
L-ZISSEN
 10
72.0
 20
120.5
 30
0.0
 11
72.0
 21
79.5
 31
0.0
  0
LINE
  8
L-ZISSEN
 10
124.0
 20
120.5
 30
0.0
 11
124.0
 21
140.0
 31
0.0
  0
LINE
  8
L-ZISSEN
 10
76.0
 20
120.5
 30
0.0
 11
76.0
 21
140.0
 31
0.0
  0
LINE
  8
L-TYUSIN
 10
125.069323
 20
79.0
 30
0.0
 11
76.774181
 21
79.0
 31
0.0
  0
LINE
  8
L-ZISSEN
 10
55.0
 20
120.5
 30
0.0
 11
55.0
 21
79.5
 31
0.0
  0
LINE
  8
L-ZISSEN
 10
58.2
 20
79.5
 30
0.0
 11
58.2
 21
120.5
 31
0.0
  0
LINE
  8
L-TYUSIN
 10
274.0
 20
167.0
 30
0.0
 11
264.0
 21
167.0
 31
0.0
  0
LINE
  8
L-TYUSIN
 10
536.0
 20
167.0
 30
0.0
 11
526.0
 21
167.0
 31
0.0
  0
LINE
  8
L-TYUSIN
 10
436.8
 20
100.0
 30
0.0
 11
450.0
 21
100.0
 31
0.0
  0
LINE
  8
L-TYUSIN
 10
50.0
 20
100.0
 30
0.0
 11
63.2
 21
100.0
 31
0.0
  0
LINE
  8
L-ZISSEN
 10
386.25
 20
226.7
 30
0.0
 11
413.75
 21
226.7
 31
0.0
  0
LINE
  8
L-ZISSEN
 10
413.75
 20
226.7
 30
0.0
 11
413.75
 21
195.5
 31
0.0
  0
LINE
  8
L-ZISSEN
 10
386.25
 20
226.7
 30
0.0
 11
386.25
 21
195.5
 31
0.0
  0
LINE
  8
L-ZISSEN
 10
384.75
 20
195.5
 30
0.0
 11
384.75
 21
191.0
 31
0.0
  0
LINE
  8
L-ZISSEN
 10
415.25
 20
195.5
 30
0.0
 11
415.25
 21
191.0
 31
0.0
  0
LINE
  8
L-ZISSEN
 10
384.75
 20
195.5
 30
0.0
 11
394.0
 21
195.5
 31
0.0
  0
LINE
  8
L-ZISSEN
 10
384.0
 20
191.0
 30
0.0
 11
391.0
 21
191.0
 31
0.0
  0
LINE
  8
L-ZISSEN
 10
378.0
 20
140.0
 30
0.0
 11
378.0
 21
178.0
 31
0.0
  0
LINE
  8
L-ZISSEN
 10
384.0
 20
141.0
 30
0.0
 11
384.0
 21
178.0
 31
0.0
  0
LINE
  8
L-ZISSEN
 10
416.0
 20
141.0
 30
0.0
 11
416.0
 21
148.0
 31
0.0
  0
LINE
  8
L-ZISSEN
 10
378.0
 20
141.0
 30
0.0
 11
422.0
 21
141.0
 31
0.0
  0
LINE
  8
L-ZISSEN
 10
422.0
 20
178.0
 30
0.0
 11
422.0
 21
140.0
 31
0.0
  0
LINE
  8
L-ZISSEN
 10
378.0
 20
178.0
 30
0.0
 11
422.0
 21
178.0
 31
0.0
  0
LINE
  8
L-ZISSEN
 10
420.25
 20
183.8
 30
0.0
 11
420.25
 21
178.0
 31
0.0
  0
LINE
  8
L-ZISSEN
 10
420.25
 20
183.8
 30
0.0
 11
411.75
 21
183.8
 31
0.0
  0
LINE
  8
L-ZISSEN
 10
411.75
 20
183.8
 30
0.0
 11
411.75
 21
178.0
 31
0.0
  0
LINE
  8
L-ZISSEN
 10
388.25
 20
183.8
 30
0.0
 11
388.25
 21
178.0
 31
0.0
  0
LINE
  8
L-ZISSEN
 10
379.75
 20
183.8
 30
0.0
 11
388.25
 21
183.8
 31
0.0
  0
LINE
  8
L-ZISSEN
 10
379.75
 20
183.8
 30
0.0
 11
379.75
 21
178.0
 31
0.0
  0
LINE
  8
L-TYUSIN
 10
416.0
 20
167.0
 30
0.0
 11
384.0
 21
167.0
 31
0.0
  0
CIRCLE
  8
L-ZISSEN
 10
400.0
 20
167.0
 30
0.0
 40
11.0
  0
LINE
  8
L-ZISSEN
 10
416.0
 20
148.0
 30
0.0
 11
384.0
 21
148.0
 31
0.0
  0
LINE
  8
L-ZISSEN
 10
416.0
 20
183.8
 30
0.0
 11
416.0
 21
191.0
 31
0.0
  0
LINE
  8
L-ZISSEN
 10
384.0
 20
183.8
 30
0.0
 11
384.0
 21
191.0
 31
0.0
  0
LINE
  8
L-ZISSEN
 10
391.0
 20
193.0
 30
0.0
 11
409.0
 21
193.0
 31
0.0
  0
LINE
  8
L-ZISSEN
 10
391.0
 20
193.0
 30
0.0
 11
391.0
 21
178.0
 31
0.0
  0
LINE
  8
L-ZISSEN
 10
409.0
 20
193.0
 30
0.0
 11
409.0
 21
178.0
 31
0.0
  0
LINE
  8
L-ZISSEN
 10
409.0
 20
191.0
 30
0.0
 11
416.0
 21
191.0
 31
0.0
  0
LINE
  8
L-ZISSEN
 10
406.0
 20
200.1
 30
0.0
 11
394.0
 21
200.1
 31
0.0
  0
LINE
  8
L-ZISSEN
 10
394.0
 20
200.1
 30
0.0
 11
394.0
 21
193.0
 31
0.0
  0
LINE
  8
L-ZISSEN
 10
406.0
 20
200.1
 30
0.0
 11
406.0
 21
193.0
 31
0.0
  0
LINE
  8
L-ZISSEN
 10
406.0
 20
195.5
 30
0.0
 11
415.25
 21
195.5
 31
0.0
  0
LINE
  8
L-ZISSEN
 10
262.0
 20
321.0
 30
0.0
 11
269.0
 21
321.0
 31
0.0
  0
LINE
  8
L-ZISSEN
 10
262.0
 20
299.0
 30
0.0
 11
269.0
 21
299.0
 31
0.0
  0
CIRCLE
  8
L-ZISSEN
 10
400.0
 20
167.0
 30
0.0
 40
5.7225
  0
LINE
  8
L-ZISSEN
 10
262.5
 20
38.2
 30
0.0
 11
237.5
 21
38.2
 31
0.0
  0
LINE
  8
L-ZISSEN
 10
237.5
 20
38.2
 30
0.0
 11
237.5
 21
39.0
 31
0.0
  0
LINE
  8
L-ZISSEN
 10
262.5
 20
38.2
 30
0.0
 11
262.5
 21
39.0
 31
0.0
  0
LINE
  8
L-ZISSEN
 10
245.0
 20
38.2
 30
0.0
 11
245.0
 21
21.2
 31
0.0
  0
LINE
  8
L-ZISSEN
 10
248.660254
 20
21.2
 30
0.0
 11
250.0
 21
20.426497
 31
0.0
  0
LINE
  8
L-ZISSEN
 10
250.0
 20
20.426497
 30
0.0
 11
251.339746
 21
21.2
 31
0.0
  0
LINE
  8
L-ZISSEN
 10
255.0
 20
21.2
 30
0.0
 11
255.0
 21
38.2
 31
0.0
  0
LINE
  8
L-ZISSEN
 10
295.5
 20
137.0
 30
0.0
 11
278.5
 21
137.0
 31
0.0
  0
LINE
  8
L-ZISSEN
 10
296.273503
 20
132.0
 30
0.0
 11
295.5
 21
133.339746
 31
0.0
  0
LINE
  8
L-ZISSEN
 10
295.5
 20
130.660254
 30
0.0
 11
296.273503
 21
132.0
 31
0.0
  0
LINE
  8
L-ZISSEN
 10
278.5
 20
127.0
 30
0.0
 11
295.5
 21
127.0
 31
0.0
  0
LINE
  8
L-ZISSEN
 10
420.0
 20
134.0
 30
0.0
 11
434.0
 21
134.0
 31
0.0
  0
LINE
  8
L-ZISSEN
 10
434.0
 20
130.0
 30
0.0
 11
420.0
 21
130.0
 31
0.0
  0
ARC
  8
L-ZISSEN
 10
434.0
 20
132.0
 30
0.0
 40
2.0
 50
270.0
 51
90.0
  0
LINE
  8
L-ZISSEN
 10
436.0
 20
40.4
 30
0.0
 11
436.0
 21
79.5
 31
0.0
  0
LINE
  8
L-ZISSEN
 10
432.0
 20
130.0
 30
0.0
 11
432.0
 21
120.5
 31
0.0
  0
LINE
  8
L-ZISSEN
 10
436.0
 20
120.5
 30
0.0
 11
436.0
 21
132.0
 31
0.0
  0
LINE
  8
L-ZISSEN
 10
432.0
 20
79.5
 30
0.0
 11
432.0
 21
40.4
 31
0.0
  0
LINE
  8
L-ZISSEN
 10
245.0
 20
21.2
 30
0.0
 11
255.0
 21
21.2
 31
0.0
  0
LINE
  8
L-ZISSEN
 10
295.5
 20
137.0
 30
0.0
 11
295.5
 21
127.0
 31
0.0
  0
LINE
  8
L-ZISSEN
 10
395.0
 20
137.0
 30
0.0
 11
395.0
 21
127.0
 31
0.0
  0
LINE
  8
L-ZISSEN
 10
395.0
 20
127.0
 30
0.0
 11
420.0
 21
127.0
 31
0.0
  0
LINE
  8
L-ZISSEN
 10
420.0
 20
127.0
 30
0.0
 11
420.0
 21
137.0
 31
0.0
  0
LINE
  8
L-ZISSEN
 10
411.5
 20
137.0
 30
0.0
 11
411.5
 21
127.0
 31
0.0
  0
LINE
  8
L-ZISSEN
 10
395.0
 20
137.0
 30
0.0
 11
420.0
 21
137.0
 31
0.0
  0
LINE
  8
L-ZISSEN
 10
424.0
 20
134.0
 30
0.0
 11
424.0
 21
140.0
 31
0.0
  0
LINE
  8
L-ZISSEN
 10
395.0
 20
38.2
 30
0.0
 11
395.0
 21
21.2
 31
0.0
  0
LINE
  8
L-ZISSEN
 10
418.329308
 20
31.973503
 30
0.0
 11
418.329308
 21
20.426497
 31
0.0
  0
LINE
  8
L-ZISSEN
 10
409.829308
 20
21.2
 30
0.0
 11
395.0
 21
21.2
 31
0.0
  0
LINE
  8
L-ZISSEN
 10
405.0
 20
38.2
 30
0.0
 11
405.0
 21
31.2
 31
0.0
  0
LINE
  8
L-ZISSEN
 10
418.329308
 20
28.2
 30
0.0
 11
419.8
 21
28.2
 31
0.0
  0
LINE
  8
L-ZISSEN
 10
418.329308
 20
24.2
 30
0.0
 11
419.8
 21
24.2
 31
0.0
  0
LINE
  8
L-ZISSEN
 10
409.829308
 20
31.973503
 30
0.0
 11
409.829308
 21
20.426497
 31
0.0
  0
LINE
  8
L-ZISSEN
 10
418.329308
 20
31.973503
 30
0.0
 11
409.829308
 21
31.973503
 31
0.0
  0
LINE
  8
L-ZISSEN
 10
418.329308
 20
20.426497
 30
0.0
 11
409.829308
 21
20.426497
 31
0.0
  0
LINE
  8
L-ZISSEN
 10
409.829308
 20
31.2
 30
0.0
 11
405.0
 21
31.2
 31
0.0
  0
LINE
  8
L-ZISSEN
 10
411.5
 20
38.2
 30
0.0
 11
388.5
 21
38.2
 31
0.0
  0
LINE
  8
L-ZISSEN
 10
562.5
 20
38.2
 30
0.0
 11
562.5
 21
39.0
 31
0.0
  0
LINE
  8
L-ZISSEN
 10
537.5
 20
38.2
 30
0.0
 11
537.5
 21
39.0
 31
0.0
  0
LINE
  8
L-ZISSEN
 10
562.5
 20
38.2
 30
0.0
 11
552.0
 21
38.2
 31
0.0
  0
LINE
  8
L-ZISSEN
 10
555.0
 20
21.2
 30
0.0
 11
555.0
 21
38.2
 31
0.0
  0
LINE
  8
L-ZISSEN
 10
545.0
 20
38.2
 30
0.0
 11
545.0
 21
21.2
 31
0.0
  0
LINE
  8
L-ZISSEN
 10
545.0
 20
21.2
 30
0.0
 11
548.660254
 21
21.2
 31
0.0
  0
LINE
  8
L-ZISSEN
 10
555.0
 20
29.086751
 30
0.0
 11
552.0
 21
30.818802
 31
0.0
  0
LINE
  8
L-ZISSEN
 10
548.0
 20
30.818802
 30
0.0
 11
545.0
 21
29.086751
 31
0.0
  0
LINE
  8
L-ZISSEN
 10
545.0
 20
23.313249
 30
0.0
 11
550.0
 21
20.426497
 31
0.0
  0
LINE
  8
L-ZISSEN
 10
550.0
 20
20.426497
 30
0.0
 11
555.0
 21
23.313249
 31
0.0
  0
LINE
  8
L-ZISSEN
 10
551.339746
 20
21.2
 30
0.0
 11
555.0
 21
21.2
 31
0.0
  0
ARC
  8
L-ZISSEN
 10
550.0
 20
26.2
 30
0.0
 40
2.0
 50
180.0
 51
0.0
  0
LINE
  8
L-ZISSEN
 10
504.5
 20
137.0
 30
0.0
 11
504.5
 21
133.339746
 31
0.0
  0
LINE
  8
L-ZISSEN
 10
521.5
 20
127.0
 30
0.0
 11
504.5
 21
127.0
 31
0.0
  0
LINE
  8
L-ZISSEN
 10
504.5
 20
137.0
 30
0.0
 11
521.5
 21
137.0
 31
0.0
  0
LINE
  8
L-ZISSEN
 10
506.613249
 20
137.0
 30
0.0
 11
503.726497
 21
132.0
 31
0.0
  0
LINE
  8
L-ZISSEN
 10
503.726497
 20
132.0
 30
0.0
 11
506.613249
 21
127.0
 31
0.0
  0
LINE
  8
L-ZISSEN
 10
512.386751
 20
127.0
 30
0.0
 11
514.118802
 21
130.0
 31
0.0
  0
LINE
  8
L-ZISSEN
 10
514.118802
 20
134.0
 30
0.0
 11
512.386751
 21
137.0
 31
0.0
  0
LINE
  8
L-ZISSEN
 10
504.5
 20
130.660254
 30
0.0
 11
504.5
 21
127.0
 31
0.0
  0
ARC
  8
L-ZISSEN
 10
509.5
 20
132.0
 30
0.0
 40
2.0
 50
90.0
 51
270.0
  0
LINE
  8
L-ZISSEN
 10
509.5
 20
130.0
 30
0.0
 11
535.8
 21
130.0
 31
0.0
  0
LINE
  8
L-ZISSEN
 10
509.5
 20
134.0
 30
0.0
 11
535.8
 21
134.0
 31
0.0
  0
LINE
  8
L-ZISSEN
 10
548.0
 20
117.8
 30
0.0
 11
548.0
 21
26.2
 31
0.0
  0
LINE
  8
L-ZISSEN
 10
552.0
 20
117.8
 30
0.0
 11
552.0
 21
26.2
 31
0.0
  0
LINE
  8
L-ZISSEN
 10
550.76663
 20
124.0
 30
0.0
 11
578.5
 21
124.0
 31
0.0
  0
LINE
  8
L-ZISSEN
 10
547.697479
 20
120.5
 30
0.0
 11
494.0
 21
120.5
 31
0.0
  0
LINE
  8
L-ZISSEN
 10
552.0
 20
79.5
 30
0.0
 11
606.0
 21
79.5
 31
0.0
  0
LINE
  8
L-ZISSEN
 10
552.0
 20
49.0
 30
0.0
 11
573.0
 21
49.0
 31
0.0
  0
LINE
  8
L-ZISSEN
 10
552.0
 20
44.5
 30
0.0
 11
573.0
 21
44.5
 31
0.0
  0
LINE
  8
L-ZISSEN
 10
548.0
 20
38.2
 30
0.0
 11
537.5
 21
38.2
 31
0.0
  0
LINE
  8
L-ZISSEN
 10
548.0
 20
39.0
 30
0.0
 11
536.5
 21
39.0
 31
0.0
  0
LINE
  8
L-ZISSEN
 10
521.5
 20
130.0
 30
0.0
 11
521.5
 21
120.5
 31
0.0
  0
LINE
  8
L-ZISSEN
 10
68.0
 20
79.5
 30
0.0
 11
68.0
 21
40.4
 31
0.0
  0
LINE
  8
L-ZISSEN
 10
64.0
 20
40.4
 30
0.0
 11
64.0
 21
79.5
 31
0.0
  0
LINE
  8
L-ZISSEN
 10
81.670692
 20
24.2
 30
0.0
 11
80.2
 21
24.2
 31
0.0
  0
LINE
  8
L-ZISSEN
 10
81.670692
 20
28.2
 30
0.0
 11
80.2
 21
28.2
 31
0.0
  0
LINE
  8
L-ZISSEN
 10
90.170692
 20
31.2
 30
0.0
 11
95.0
 21
31.2
 31
0.0
  0
LINE
  8
L-ZISSEN
 10
81.670692
 20
20.426497
 30
0.0
 11
90.170692
 21
20.426497
 31
0.0
  0
LINE
  8
L-ZISSEN
 10
81.670692
 20
31.973503
 30
0.0
 11
90.170692
 21
31.973503
 31
0.0
  0
LINE
  8
L-ZISSEN
 10
90.170692
 20
31.973503
 30
0.0
 11
90.170692
 21
20.426497
 31
0.0
  0
LINE
  8
L-ZISSEN
 10
90.170692
 20
21.2
 30
0.0
 11
105.0
 21
21.2
 31
0.0
  0
LINE
  8
L-ZISSEN
 10
81.670692
 20
31.973503
 30
0.0
 11
81.670692
 21
20.426497
 31
0.0
  0
LINE
  8
L-ZISSEN
 10
111.5
 20
38.2
 30
0.0
 11
88.5
 21
38.2
 31
0.0
  0
LINE
  8
L-ZISSEN
 10
95.0
 20
38.2
 30
0.0
 11
95.0
 21
31.2
 31
0.0
  0
LINE
  8
L-ZISSEN
 10
105.0
 20
38.2
 30
0.0
 11
105.0
 21
21.2
 31
0.0
  0
LINE
  8
L-ZISSEN
 10
64.0
 20
120.5
 30
0.0
 11
64.0
 21
132.0
 31
0.0
  0
LINE
  8
L-ZISSEN
 10
68.0
 20
132.0
 30
0.0
 11
68.0
 21
120.5
 31
0.0
  0
ARC
  8
L-ZISSEN
 10
66.0
 20
132.0
 30
0.0
 40
2.0
 50
0.0
 51
180.0
  0
LINE
  8
L-ZISSEN
 10
76.0
 20
134.0
 30
0.0
 11
66.0
 21
134.0
 31
0.0
  0
LINE
  8
L-ZISSEN
 10
68.0
 20
130.0
 30
0.0
 11
76.0
 21
130.0
 31
0.0
  0
LINE
  8
L-ZISSEN
 10
285.5
 20
319.829308
 30
0.0
 11
285.5
 21
315.0
 31
0.0
  0
LINE
  8
L-ZISSEN
 10
296.273503
 20
328.329308
 30
0.0
 11
296.273503
 21
319.829308
 31
0.0
  0
LINE
  8
L-ZISSEN
 10
284.726497
 20
328.329308
 30
0.0
 11
284.726497
 21
319.829308
 31
0.0
  0
LINE
  8
L-ZISSEN
 10
284.726497
 20
319.829308
 30
0.0
 11
296.273503
 21
319.829308
 31
0.0
  0
LINE
  8
L-ZISSEN
 10
295.5
 20
319.829308
 30
0.0
 11
295.5
 21
305.0
 31
0.0
  0
LINE
  8
L-ZISSEN
 10
284.726497
 20
328.329308
 30
0.0
 11
296.273503
 21
328.329308
 31
0.0
  0
LINE
  8
L-ZISSEN
 10
278.5
 20
315.0
 30
0.0
 11
285.5
 21
315.0
 31
0.0
  0
LINE
  8
L-ZISSEN
 10
278.5
 20
305.0
 30
0.0
 11
295.5
 21
305.0
 31
0.0
  0
LINE
  8
L-ZISSEN
 10
288.5
 20
328.329308
 30
0.0
 11
288.5
 21
329.8
 31
0.0
  0
LINE
  8
L-ZISSEN
 10
292.5
 20
328.329308
 30
0.0
 11
292.5
 21
329.8
 31
0.0
  0
LINE
  8
L-ZISSEN
 10
276.3
 20
346.0
 30
0.0
 11
250.0
 21
346.0
 31
0.0
  0
LINE
  8
L-ZISSEN
 10
276.3
 20
342.0
 30
0.0
 11
250.0
 21
342.0
 31
0.0
  0
ARC
  8
L-ZISSEN
 10
276.3
 20
329.8
 30
0.0
 40
16.2
 50
0.0
 51
90.0
  0
ARC
  8
L-ZISSEN
 10
276.3
 20
329.8
 30
0.0
 40
12.2
 50
0.0
 51
90.0
  0
ARC
  8
L-ZISSEN
 10
419.8
 20
40.4
 30
0.0
 40
12.2
 50
270.0
 51
0.0
  0
ARC
  8
L-ZISSEN
 10
419.8
 20
40.4
 30
0.0
 40
16.2
 50
270.0
 51
0.0
  0
ARC
  8
L-ZISSEN
 10
535.8
 20
117.8
 30
0.0
 40
12.2
 50
360.0
 51
90.0
  0
ARC
  8
L-ZISSEN
 10
535.8
 20
117.8
 30
0.0
 40
16.2
 50
0.0
 51
90.0
  0
ARC
  8
L-ZISSEN
 10
80.2
 20
40.4
 30
0.0
 40
16.2
 50
180.0
 51
270.0
  0
ARC
  8
L-ZISSEN
 10
80.2
 20
40.4
 30
0.0
 40
12.2
 50
180.0
 51
270.0
  0
ARC
  8
L-ZISSEN
 10
250.0
 20
344.0
 30
0.0
 40
2.0
 50
90.0
 51
270.0
  0
LINE
  8
L-ZISSEN
 10
263.5
 20
342.0
 30
0.0
 11
263.5
 21
341.2
 31
0.0
  0
LINE
  8
L-ZISSEN
 10
272.0
 20
346.0
 30
0.0
 11
272.0
 21
347.5
 31
0.0
  0
LINE
  8
L-ZISSEN
 10
275.0
 20
342.0
 30
0.0
 11
275.0
 21
341.2
 31
0.0
  0
LINE
  8
L-ZISSEN
 10
278.2
 20
341.851141
 30
0.0
 11
278.2
 21
338.0
 31
0.0
  0
CIRCLE
  8
L-ZISSEN
 10
250.0
 20
100.0
 30
0.0
 40
16.0
  0
LINE
  8
L-ZISSEN
 10
361.2
 20
84.0
 30
0.0
 11
354.0
 21
84.0
 31
0.0
  0
LINE
  8
L-ZISSEN
 10
365.0
 20
80.0
 30
0.0
 11
361.2
 21
80.0
 31
0.0
  0
LINE
  8
L-ZISSEN
 10
361.2
 20
88.5
 30
0.0
 11
365.0
 21
88.5
 31
0.0
  0
LINE
  8
L-ZISSEN
 10
361.2
 20
80.0
 30
0.0
 11
361.2
 21
88.5
 31
0.0
  0
LINE
  8
L-ZISSEN
 10
365.0
 20
79.5
 30
0.0
 11
365.0
 21
120.5
 31
0.0
  0
LINE
  8
L-ZISSEN
 10
361.2
 20
120.0
 30
0.0
 11
361.2
 21
111.5
 31
0.0
  0
LINE
  8
L-ZISSEN
 10
361.2
 20
111.5
 30
0.0
 11
365.0
 21
111.5
 31
0.0
  0
LINE
  8
L-ZISSEN
 10
365.0
 20
120.0
 30
0.0
 11
361.2
 21
120.0
 31
0.0
  0
LINE
  8
L-ZISSEN
 10
354.0
 20
116.0
 30
0.0
 11
354.0
 21
84.0
 31
0.0
  0
LINE
  8
L-ZISSEN
 10
361.2
 20
116.0
 30
0.0
 11
354.0
 21
116.0
 31
0.0
  0
LINE
  8
L-ZISSEN
 10
228.0
 20
275.0
 30
0.0
 11
228.0
 21
271.2
 31
0.0
  0
LINE
  8
L-ZISSEN
 10
228.0
 20
271.2
 30
0.0
 11
236.5
 21
271.2
 31
0.0
  0
LINE
  8
L-ZISSEN
 10
236.5
 20
271.2
 30
0.0
 11
236.5
 21
275.0
 31
0.0
  0
LINE
  8
L-ZISSEN
 10
234.0
 20
271.2
 30
0.0
 11
234.0
 21
264.0
 31
0.0
  0
LINE
  8
L-ZISSEN
 10
234.0
 20
264.0
 30
0.0
 11
266.0
 21
264.0
 31
0.0
  0
LINE
  8
L-ZISSEN
 10
266.0
 20
271.2
 30
0.0
 11
266.0
 21
264.0
 31
0.0
  0
LINE
  8
L-ZISSEN
 10
273.0
 20
275.0
 30
0.0
 11
227.0
 21
275.0
 31
0.0
  0
LINE
  8
L-ZISSEN
 10
263.5
 20
271.2
 30
0.0
 11
263.5
 21
275.0
 31
0.0
  0
LINE
  8
L-ZISSEN
 10
272.0
 20
271.2
 30
0.0
 11
263.5
 21
271.2
 31
0.0
  0
LINE
  8
L-ZISSEN
 10
272.0
 20
275.0
 30
0.0
 11
272.0
 21
271.2
 31
0.0
  0
LINE
  8
L-ZISSEN
 10
248.0
 20
344.0
 30
0.0
 11
248.0
 21
341.2
 31
0.0
  0
LINE
  8
L-ZISSEN
 10
252.0
 20
342.0
 30
0.0
 11
252.0
 21
341.2
 31
0.0
  0
CIRCLE
  8
L-ZISSEN
 10
250.0
 20
100.0
 30
0.0
 40
9.3155
  0
LINE
  8
L-TYUSIN
 10
378.211286
 20
100.0
 30
0.0
 11
349.0
 21
100.0
 31
0.0
  0
LINE
  8
L-TYUSIN
 10
275.069323
 20
100.0
 30
0.0
 11
226.774181
 21
100.0
 31
0.0
  0
LINE
  8
L-ZISSEN
 10
282.0
 20
315.0
 30
0.0
 11
282.0
 21
330.5
 31
0.0
  0
LINE
  8
L-TYUSIN
 10
121.788714
 20
100.0
 30
0.0
 11
151.0
 21
100.0
 31
0.0
  0
LINE
  8
L-ZISSEN
 10
138.8
 20
116.0
 30
0.0
 11
146.0
 21
116.0
 31
0.0
  0
LINE
  8
L-ZISSEN
 10
146.0
 20
116.0
 30
0.0
 11
146.0
 21
84.0
 31
0.0
  0
LINE
  8
L-ZISSEN
 10
138.8
 20
84.0
 30
0.0
 11
146.0
 21
84.0
 31
0.0
  0
ENDSEC
  0
EOF
