  0
SECTION
  2
HEADER
  9
$ACADVER
  1
AC1006
  9
$INSBASE
 10
0.0
 20
0.0
 30
0.0
  9
$EXTMIN
 10
0.0
 20
-0.0
  9
$EXTMAX
 10
925.0
 20
594.0
  9
$LIMMIN
 10
0.0
 20
0.0
  9
$LIMMAX
 10
841.0
 20
594.0
  9
$ORTHOMODE
 70
     0
  9
$REGENMODE
 70
     1
  9
$FILLMODE
 70
     1
  9
$QTEXTMODE
 70
     0
  9
$MIRRTEXT
 70
     1
  9
$DRAGMODE
 70
     2
  9
$LTSCALE
 40
1.0
  9
$OSMODE
 70
     0
  9
$ATTMODE
 70
     1
  9
$TEXTSIZE
 40
4.5
  9
$TRACEWID
 40
0.05
  9
$TEXTSTYLE
  7
STANDARD
  9
$CLAYER
  8
L-ZISSEN
  9
$CELTYPE
  6
BYLAYER
  9
$CECOLOR
 62
   256
  9
$DIMSCALE
 40
1.0
  9
$DIMASZ
 40
2.0
  9
$DIMEXO
 40
2.0
  9
$DIMDLI
 40
0.38
  9
$DIMRND
 40
0.0
  9
$DIMDLE
 40
0.0
  9
$DIMEXE
 40
2.0
  9
$DIMTP
 40
0.0
  9
$DIMTM
 40
0.0
  9
$DIMTXT
 40
4.5
  9
$DIMCEN
 40
0.09
  9
$DIMTSZ
 40
0.0
  9
$DIMTOL
 70
     0
  9
$DIMLIM
 70
     0
  9
$DIMTIH
 70
     0
  9
$DIMTOH
 70
     0
  9
$DIMSE1
 70
     0
  9
$DIMSE2
 70
     0
  9
$DIMTAD
 70
     1
  9
$DIMZIN
 70
     0
  9
$DIMBLK
  1

  9
$DIMASO
 70
     0
  9
$DIMSHO
 70
     0
  9
$DIMPOST
  1

  9
$DIMAPOST
  1

  9
$DIMALT
 70
     0
  9
$DIMALTD
 70
     2
  9
$DIMALTF
 40
25.4
  9
$DIMLFAC
 40
1.0
  9
$DIMTOFL
 70
     1
  9
$DIMTVP
 40
0.0
  9
$DIMTIX
 70
     1
  9
$DIMSOXD
 70
     0
  9
$DIMSAH
 70
     0
  9
$DIMBLK1
  1

  9
$DIMBLK2
  1

  9
$LUNITS
 70
     2
  9
$LUPREC
 70
     4
  9
$AXISMODE
 70
     0
  9
$AXISUNIT
 10
0.0
 20
0.0
  9
$SKETCHINC
 40
0.1
  9
$FILLETRAD
 40
8.0
  9
$AUNITS
 70
     0
  9
$AUPREC
 70
     0
  9
$MENU
  1
acad
  9
$ELEVATION
 40
0.0
  9
$THICKNESS
 40
0.0
  9
$LIMCHECK
 70
     0
  9
$BLIPMODE
 70
     1
  9
$CHAMFERA
 40
5.0
  9
$CHAMFERB
 40
5.0
  9
$SKPOLY
 70
     0
  9
$TDCREATE
 40
2449070.4630593751
  9
$TDUPDATE
 40
2449070.4630593751
  9
$TDINDWG
 40
0.0000000000
  9
$TDUSRTIMER
 40
0.0000000000
  9
$USRTIMER
 70
     1
  9
$ANGBASE
 50
0.0
  9
$ANGDIR
 70
     0
  9
$PDMODE
 70
     0
  9
$PDSIZE
 40
0.0
  9
$PLINEWID
 40
0.0
  9
$COORDS
 70
     2
  9
$SPLFRAME
 70
     0
  9
$SPLINETYPE
 70
     6
  9
$SPLINESEGS
 70
     8
  9
$ATTDIA
 70
     0
  9
$ATTREQ
 70
     1
  9
$HANDLING
 70
     0
  9
$HANDSEED
  5
0
  9
$SURFTAB1
 70
     6
  9
$SURFTAB2
 70
     6
  9
$SURFTYPE
 70
     6
  9
$SURFU
 70
     6
  9
$SURFV
 70
     6
  9
$FLATLAND
 70
     0
  9
$UCSNAME
  2

  9
$UCSORG
 10
0.0
 20
0.0
 30
0.0
  9
$UCSXDIR
 10
1.0
 20
0.0
 30
0.0
  9
$UCSYDIR
 10
0.0
 20
1.0
 30
0.0
  9
$USERI1
 70
     0
  9
$USERI2
 70
     0
  9
$USERI3
 70
     0
  9
$USERI4
 70
     0
  9
$USERI5
 70
     0
  9
$USERR1
 40
0.0
  9
$USERR2
 40
0.0
  9
$USERR3
 40
0.0
  9
$USERR4
 40
0.0
  9
$USERR5
 40
0.0
  9
$WORLDVIEW
 70
     1
  0
ENDSEC
  0
SECTION
  2
TABLES
  0
TABLE
  2
VPORT
 70
     2
  0
VPORT
  2
*ACTIVE
 70
     0
 10
0.0
 20
0.0
 11
1.0
 21
1.0
 12
476.455978
 22
307.649038
 13
0.0
 23
0.0
 14
5.0
 24
5.0
 15
0.0
 25
0.0
 16
0.0
 26
0.0
 36
1.0
 17
0.0
 27
0.0
 37
0.0
 40
615.298075
 41
1.5487
 42
50.0
 43
0.0
 44
0.0
 50
0.0
 51
0.0
 71
     0
 72
   100
 73
     1
 74
     0
 75
     0
 76
     0
 77
     0
 78
     0
  0
ENDTAB
  0
TABLE
  2
LTYPE
 70
     2
  0
LTYPE
  2
CONTINUOUS
 70
    64
  3
Solid line
 72
    65
 73
     0
 40
0.0
  0
LTYPE
  2
CENTER
 70
    64
  3
____ _ ____ _ ____ _ ____ _ 
 72
    65
 73
     4
 40
60.0
 49
45.0
 49
-5.0
 49
5.0
 49
-5.0
  0
ENDTAB
  0
TABLE
  2
LAYER
 70
     3
  0
LAYER
  2
0
 70
     0
 62
     7
  6
CONTINUOUS
  0
LAYER
  2
L-ZISSEN
 70
    64
 62
     7
  6
CONTINUOUS
  0
LAYER
  2
L-TYUSIN
 70
    64
 62
     1
  6
CENTER
  0
ENDTAB
  0
TABLE
  2
STYLE
 70
     1
  0
STYLE
  2
STANDARD
 70
    64
 40
0.0
 41
1.0
 50
0.0
 71
     0
 42
4.5
  3
txt
  4

  0
ENDTAB
  0
TABLE
  2
VIEW
 70
     0
  0
ENDTAB
  0
TABLE
  2
UCS
 70
     0
  0
ENDTAB
  0
TABLE
  2
DWGMGR
 70
     0
  0
ENDTAB
  0
ENDSEC
  0
SECTION
  2
BLOCKS
  0
ENDSEC
  0
SECTION
  2
ENTITIES
  0
LINE
  8
L-TYUSIN
 62
     1
 10
230.0
 20
78.0
 30
0.0
 11
290.0
 21
78.0
 31
0.0
  0
LINE
  8
L-TYUSIN
 62
     1
 10
64.0
 20
118.5
 30
0.0
 11
64.0
 21
36.0
 31
0.0
  0
LINE
  8
L-ZISSEN
 10
232.5
 20
52.0
 30
0.0
 11
287.5
 21
52.0
 31
0.0
  0
LINE
  8
L-TYUSIN
 10
260.0
 20
118.5
 30
0.0
 11
260.0
 21
44.7
 31
0.0
  0
LINE
  8
L-TYUSIN
  6
CENTER
 62
     1
 10
64.0
 20
167.0
 30
0.0
 11
64.0
 21
241.0
 31
0.0
  0
LINE
  8
L-ZISSEN
 10
77.0
 20
172.0
 30
0.0
 11
51.0
 21
172.0
 31
0.0
  0
LINE
  8
L-ZISSEN
 10
77.0
 20
174.0
 30
0.0
 11
77.0
 21
172.0
 31
0.0
  0
LINE
  8
L-ZISSEN
 10
77.0
 20
228.0
 30
0.0
 11
51.0
 21
228.0
 31
0.0
  0
LINE
  8
L-ZISSEN
 10
77.0
 20
228.0
 30
0.0
 11
77.0
 21
226.0
 31
0.0
  0
LINE
  8
L-ZISSEN
 10
51.0
 20
228.0
 30
0.0
 11
51.0
 21
226.0
 31
0.0
  0
LINE
  8
L-ZISSEN
 10
51.0
 20
174.0
 30
0.0
 11
51.0
 21
172.0
 31
0.0
  0
LINE
  8
L-ZISSEN
  6
CONTINUOUS
 62
     7
 10
35.9
 20
174.0
 30
0.0
 11
35.9
 21
226.0
 31
0.0
  0
LINE
  8
L-ZISSEN
  6
CONTINUOUS
 62
     7
 10
33.9
 20
226.0
 30
0.0
 11
33.9
 21
174.0
 31
0.0
  0
LINE
  8
L-ZISSEN
  6
CONTINUOUS
 62
     7
 10
30.6
 20
224.5
 30
0.0
 11
30.6
 21
215.5
 31
0.0
  0
LINE
  8
L-ZISSEN
  6
CONTINUOUS
 62
     7
 10
33.9
 20
215.5
 30
0.0
 11
30.6
 21
215.5
 31
0.0
  0
LINE
  8
L-ZISSEN
  6
CONTINUOUS
 62
     7
 10
33.9
 20
224.5
 30
0.0
 11
30.6
 21
224.5
 31
0.0
  0
LINE
  8
L-ZISSEN
  6
CONTINUOUS
 62
     7
 10
33.9
 20
184.5
 30
0.0
 11
30.6
 21
184.5
 31
0.0
  0
LINE
  8
L-ZISSEN
  6
CONTINUOUS
 62
     7
 10
33.9
 20
175.5
 30
0.0
 11
30.6
 21
175.5
 31
0.0
  0
LINE
  8
L-ZISSEN
  6
CONTINUOUS
 62
     7
 10
30.6
 20
184.5
 30
0.0
 11
30.6
 21
175.5
 31
0.0
  0
LINE
  8
L-ZISSEN
  6
CONTINUOUS
 62
     7
 10
92.1
 20
174.0
 30
0.0
 11
92.1
 21
226.0
 31
0.0
  0
LINE
  8
L-ZISSEN
  6
CONTINUOUS
 62
     7
 10
102.1
 20
226.0
 30
0.0
 11
148.1
 21
224.393644
 31
0.0
  0
LINE
  8
L-ZISSEN
  6
CONTINUOUS
 62
     7
 10
149.1
 20
189.0
 30
0.0
 11
148.1
 21
189.0
 31
0.0
  0
LINE
  8
L-ZISSEN
  6
CONTINUOUS
 62
     7
 10
149.1
 20
211.0
 30
0.0
 11
149.1
 21
189.0
 31
0.0
  0
LINE
  8
L-ZISSEN
  6
CONTINUOUS
 62
     7
 10
149.1
 20
211.0
 30
0.0
 11
148.1
 21
211.0
 31
0.0
  0
LINE
  8
L-ZISSEN
  6
CONTINUOUS
 62
     7
 10
148.1
 20
175.606356
 30
0.0
 11
148.1
 21
224.393644
 31
0.0
  0
LINE
  8
L-ZISSEN
  6
CONTINUOUS
 62
     7
 10
102.1
 20
174.0
 30
0.0
 11
148.1
 21
175.606356
 31
0.0
  0
LINE
  8
L-ZISSEN
 10
102.1
 20
226.0
 30
0.0
 11
33.9
 21
226.0
 31
0.0
  0
LINE
  8
L-ZISSEN
 10
102.1
 20
174.0
 30
0.0
 11
33.9
 21
174.0
 31
0.0
  0
LINE
  8
L-TYUSIN
  6
CENTER
 62
     1
 10
28.9
 20
200.0
 30
0.0
 11
154.1
 21
200.0
 31
0.0
  0
LINE
  8
L-ZISSEN
 10
38.0
 20
174.0
 30
0.0
 11
38.0
 21
226.0
 31
0.0
  0
LINE
  8
L-ZISSEN
 10
90.0
 20
174.0
 30
0.0
 11
90.0
 21
226.0
 31
0.0
  0
LINE
  8
L-TYUSIN
 10
645.0
 20
570.0
 30
0.0
 11
645.0
 21
30.0
 31
0.0
  0
LINE
  8
L-TYUSIN
 10
345.0
 20
210.0
 30
0.0
 11
645.0
 21
210.0
 31
0.0
  0
LINE
  8
L-TYUSIN
 10
345.0
 20
570.0
 30
0.0
 11
345.0
 21
30.0
 31
0.0
  0
CIRCLE
  8
L-ZISSEN
 10
620.0
 20
410.0
 30
0.0
 40
4.49995
  0
CIRCLE
  8
L-ZISSEN
 10
580.0
 20
410.0
 30
0.0
 40
4.49995
  0
CIRCLE
  8
L-ZISSEN
 10
620.0
 20
450.0
 30
0.0
 40
4.49995
  0
CIRCLE
  8
L-ZISSEN
 10
580.0
 20
450.0
 30
0.0
 40
4.49995
  0
CIRCLE
  8
L-ZISSEN
 10
600.0
 20
430.0
 30
0.0
 40
19.0
  0
CIRCLE
  8
L-ZISSEN
 10
600.0
 20
430.0
 30
0.0
 40
11.0
  0
LINE
  8
L-ZISSEN
 10
423.0
 20
456.0
 30
0.0
 11
497.1
 21
456.0
 31
0.0
  0
LINE
  8
L-ZISSEN
 10
366.9
 20
404.0
 30
0.0
 11
497.1
 21
404.0
 31
0.0
  0
CIRCLE
  8
L-ZISSEN
 10
86.0
 20
178.0
 30
0.0
 40
3.5
  0
CIRCLE
  8
L-ZISSEN
 10
86.0
 20
222.0
 30
0.0
 40
3.5
  0
CIRCLE
  8
L-ZISSEN
 10
42.0
 20
222.0
 30
0.0
 40
3.5
  0
CIRCLE
  8
L-ZISSEN
 10
42.0
 20
178.0
 30
0.0
 40
3.5
  0
LINE
  8
L-ZISSEN
 10
497.1
 20
474.0
 30
0.0
 11
366.9
 21
474.0
 31
0.0
  0
LINE
  8
L-ZISSEN
 10
497.1
 20
526.0
 30
0.0
 11
366.9
 21
526.0
 31
0.0
  0
LINE
  8
L-ZISSEN
  6
CONTINUOUS
 62
     7
 10
435.1
 20
346.0
 30
0.0
 11
481.1
 21
344.393644
 31
0.0
  0
LINE
  8
L-ZISSEN
  6
CONTINUOUS
 62
     7
 10
481.1
 20
295.606356
 30
0.0
 11
481.1
 21
344.393644
 31
0.0
  0
LINE
  8
L-ZISSEN
  6
CONTINUOUS
 62
     7
 10
435.1
 20
294.0
 30
0.0
 11
481.1
 21
295.606356
 31
0.0
  0
LINE
  8
L-ZISSEN
  6
CONTINUOUS
 62
     7
 10
435.1
 20
224.0
 30
0.0
 11
481.1
 21
225.606356
 31
0.0
  0
LINE
  8
L-ZISSEN
  6
CONTINUOUS
 62
     7
 10
435.1
 20
276.0
 30
0.0
 11
481.1
 21
274.393644
 31
0.0
  0
LINE
  8
L-ZISSEN
  6
CONTINUOUS
 62
     7
 10
481.1
 20
225.606356
 30
0.0
 11
481.1
 21
274.393644
 31
0.0
  0
LINE
  8
L-ZISSEN
 10
501.74282
 20
405.50005
 30
0.0
 11
497.1
 21
405.50005
 31
0.0
  0
LINE
  8
L-ZISSEN
 10
501.74282
 20
414.49995
 30
0.0
 11
501.74282
 21
405.50005
 31
0.0
  0
LINE
  8
L-ZISSEN
 10
501.74282
 20
414.49995
 30
0.0
 11
497.1
 21
414.49995
 31
0.0
  0
LINE
  8
L-ZISSEN
 10
501.74282
 20
445.50005
 30
0.0
 11
497.1
 21
445.50005
 31
0.0
  0
LINE
  8
L-ZISSEN
 10
501.74282
 20
445.50005
 30
0.0
 11
501.74282
 21
454.49995
 31
0.0
  0
LINE
  8
L-ZISSEN
 10
508.7
 20
441.0
 30
0.0
 11
508.7
 21
419.0
 31
0.0
  0
LINE
  8
L-ZISSEN
 10
508.7
 20
419.0
 30
0.0
 11
507.7
 21
419.0
 31
0.0
  0
LINE
  8
L-ZISSEN
 10
507.7
 20
441.0
 30
0.0
 11
508.7
 21
441.0
 31
0.0
  0
LINE
  8
L-ZISSEN
 10
501.74282
 20
454.49995
 30
0.0
 11
497.1
 21
454.49995
 31
0.0
  0
LINE
  8
L-ZISSEN
 10
501.74282
 20
411.0
 30
0.0
 11
507.7
 21
411.0
 31
0.0
  0
LINE
  8
L-ZISSEN
 10
501.74282
 20
449.0
 30
0.0
 11
507.7
 21
449.0
 31
0.0
  0
LINE
  8
L-ZISSEN
 10
497.1
 20
456.0
 30
0.0
 11
497.1
 21
404.0
 31
0.0
  0
LINE
  8
L-ZISSEN
 10
507.7
 20
449.0
 30
0.0
 11
507.7
 21
411.0
 31
0.0
  0
LINE
  8
L-ZISSEN
 10
507.7
 20
519.0
 30
0.0
 11
507.7
 21
481.0
 31
0.0
  0
LINE
  8
L-ZISSEN
 10
497.1
 20
526.0
 30
0.0
 11
497.1
 21
474.0
 31
0.0
  0
LINE
  8
L-ZISSEN
 10
501.74282
 20
519.0
 30
0.0
 11
507.7
 21
519.0
 31
0.0
  0
LINE
  8
L-ZISSEN
 10
501.74282
 20
481.0
 30
0.0
 11
507.7
 21
481.0
 31
0.0
  0
LINE
  8
L-ZISSEN
 10
501.74282
 20
524.49995
 30
0.0
 11
497.1
 21
524.49995
 31
0.0
  0
LINE
  8
L-ZISSEN
 10
507.7
 20
511.0
 30
0.0
 11
508.7
 21
511.0
 31
0.0
  0
LINE
  8
L-ZISSEN
 10
508.7
 20
489.0
 30
0.0
 11
507.7
 21
489.0
 31
0.0
  0
LINE
  8
L-ZISSEN
 10
508.7
 20
511.0
 30
0.0
 11
508.7
 21
489.0
 31
0.0
  0
LINE
  8
L-ZISSEN
 10
501.74282
 20
515.50005
 30
0.0
 11
501.74282
 21
524.49995
 31
0.0
  0
LINE
  8
L-ZISSEN
 10
501.74282
 20
515.50005
 30
0.0
 11
497.1
 21
515.50005
 31
0.0
  0
LINE
  8
L-ZISSEN
 10
501.74282
 20
484.49995
 30
0.0
 11
497.1
 21
484.49995
 31
0.0
  0
LINE
  8
L-ZISSEN
 10
501.74282
 20
484.49995
 30
0.0
 11
501.74282
 21
475.50005
 31
0.0
  0
LINE
  8
L-ZISSEN
 10
501.74282
 20
475.50005
 30
0.0
 11
497.1
 21
475.50005
 31
0.0
  0
CIRCLE
  8
L-ZISSEN
 10
600.0
 20
250.0
 30
0.0
 40
11.0
  0
CIRCLE
  8
L-ZISSEN
 10
600.0
 20
250.0
 30
0.0
 40
9.0
  0
CIRCLE
  8
L-ZISSEN
 10
600.0
 20
250.0
 30
0.0
 40
7.25
  0
LINE
  8
L-ZISSEN
 10
481.1
 20
331.0
 30
0.0
 11
494.1
 21
331.0
 31
0.0
  0
LINE
  8
L-ZISSEN
  6
CONTINUOUS
 62
     7
 10
494.1
 20
329.0
 30
0.0
 11
500.1
 21
329.0
 31
0.0
  0
LINE
  8
L-ZISSEN
  6
CONTINUOUS
 62
     7
 10
500.1
 20
327.25
 30
0.0
 11
507.1
 21
327.25
 31
0.0
  0
LINE
  8
L-ZISSEN
 10
481.1
 20
309.0
 30
0.0
 11
494.1
 21
309.0
 31
0.0
  0
LINE
  8
L-ZISSEN
  6
CONTINUOUS
 62
     7
 10
500.1
 20
329.0
 30
0.0
 11
500.1
 21
311.0
 31
0.0
  0
LINE
  8
L-ZISSEN
  6
CONTINUOUS
 62
     7
 10
494.1
 20
311.0
 30
0.0
 11
500.1
 21
311.0
 31
0.0
  0
LINE
  8
L-ZISSEN
  6
CONTINUOUS
 62
     7
 10
500.1
 20
312.75
 30
0.0
 11
507.1
 21
312.75
 31
0.0
  0
LINE
  8
L-ZISSEN
  6
CONTINUOUS
 62
     7
 10
507.1
 20
327.25
 30
0.0
 11
507.1
 21
312.75
 31
0.0
  0
LINE
  8
L-ZISSEN
  6
CONTINUOUS
 62
     7
 10
494.1
 20
331.0
 30
0.0
 11
494.1
 21
309.0
 31
0.0
  0
LINE
  8
L-ZISSEN
  6
CONTINUOUS
 62
     7
 10
494.1
 20
261.0
 30
0.0
 11
494.1
 21
239.0
 31
0.0
  0
LINE
  8
L-ZISSEN
  6
CONTINUOUS
 62
     7
 10
507.1
 20
257.25
 30
0.0
 11
507.1
 21
242.75
 31
0.0
  0
LINE
  8
L-ZISSEN
  6
CONTINUOUS
 62
     7
 10
500.1
 20
242.75
 30
0.0
 11
507.1
 21
242.75
 31
0.0
  0
LINE
  8
L-ZISSEN
  6
CONTINUOUS
 62
     7
 10
494.1
 20
241.0
 30
0.0
 11
500.1
 21
241.0
 31
0.0
  0
LINE
  8
L-ZISSEN
  6
CONTINUOUS
 62
     7
 10
500.1
 20
259.0
 30
0.0
 11
500.1
 21
241.0
 31
0.0
  0
LINE
  8
L-ZISSEN
 10
481.1
 20
239.0
 30
0.0
 11
494.1
 21
239.0
 31
0.0
  0
LINE
  8
L-ZISSEN
  6
CONTINUOUS
 62
     7
 10
500.1
 20
257.25
 30
0.0
 11
507.1
 21
257.25
 31
0.0
  0
LINE
  8
L-ZISSEN
  6
CONTINUOUS
 62
     7
 10
494.1
 20
259.0
 30
0.0
 11
500.1
 21
259.0
 31
0.0
  0
LINE
  8
L-ZISSEN
 10
481.1
 20
261.0
 30
0.0
 11
494.1
 21
261.0
 31
0.0
  0
LINE
  8
L-ZISSEN
 10
423.0
 20
96.0
 30
0.0
 11
497.1
 21
96.0
 31
0.0
  0
LINE
  8
L-ZISSEN
 10
366.9
 20
44.0
 30
0.0
 11
497.1
 21
44.0
 31
0.0
  0
LINE
  8
L-ZISSEN
 10
497.1
 20
114.0
 30
0.0
 11
366.9
 21
114.0
 31
0.0
  0
LINE
  8
L-ZISSEN
 10
497.1
 20
166.0
 30
0.0
 11
366.9
 21
166.0
 31
0.0
  0
CIRCLE
  8
L-ZISSEN
 10
600.0
 20
70.0
 30
0.0
 40
11.0
  0
CIRCLE
  8
L-ZISSEN
 10
600.0
 20
70.0
 30
0.0
 40
9.0
  0
CIRCLE
  8
L-ZISSEN
 10
600.0
 20
70.0
 30
0.0
 40
7.25
  0
CIRCLE
  8
L-ZISSEN
 10
600.0
 20
70.0
 30
0.0
 40
19.0
  0
CIRCLE
  8
L-ZISSEN
 10
580.0
 20
90.0
 30
0.0
 40
4.49995
  0
CIRCLE
  8
L-ZISSEN
 10
620.0
 20
90.0
 30
0.0
 40
4.49995
  0
CIRCLE
  8
L-ZISSEN
 10
580.0
 20
50.0
 30
0.0
 40
4.49995
  0
CIRCLE
  8
L-ZISSEN
 10
620.0
 20
50.0
 30
0.0
 40
4.49995
  0
LINE
  8
L-ZISSEN
  6
CONTINUOUS
 62
     7
 10
520.7
 20
81.0
 30
0.0
 11
520.7
 21
59.0
 31
0.0
  0
LINE
  8
L-ZISSEN
  6
CONTINUOUS
 62
     7
 10
534.0
 20
77.25
 30
0.0
 11
534.0
 21
62.75
 31
0.0
  0
LINE
  8
L-ZISSEN
  6
CONTINUOUS
 62
     7
 10
526.7
 20
62.75
 30
0.0
 11
534.0
 21
62.75
 31
0.0
  0
LINE
  8
L-ZISSEN
  6
CONTINUOUS
 62
     7
 10
520.7
 20
61.0
 30
0.0
 11
526.7
 21
61.0
 31
0.0
  0
LINE
  8
L-ZISSEN
  6
CONTINUOUS
 62
     7
 10
526.7
 20
79.0
 30
0.0
 11
526.7
 21
61.0
 31
0.0
  0
LINE
  8
L-ZISSEN
 10
507.7
 20
59.0
 30
0.0
 11
520.7
 21
59.0
 31
0.0
  0
LINE
  8
L-ZISSEN
  6
CONTINUOUS
 62
     7
 10
526.7
 20
77.25
 30
0.0
 11
534.0
 21
77.25
 31
0.0
  0
LINE
  8
L-ZISSEN
  6
CONTINUOUS
 62
     7
 10
520.7
 20
79.0
 30
0.0
 11
526.7
 21
79.0
 31
0.0
  0
LINE
  8
L-ZISSEN
 10
507.7
 20
81.0
 30
0.0
 11
520.7
 21
81.0
 31
0.0
  0
LINE
  8
L-ZISSEN
 10
507.7
 20
151.0
 30
0.0
 11
520.7
 21
151.0
 31
0.0
  0
LINE
  8
L-ZISSEN
  6
CONTINUOUS
 62
     7
 10
520.7
 20
149.0
 30
0.0
 11
526.7
 21
149.0
 31
0.0
  0
LINE
  8
L-ZISSEN
  6
CONTINUOUS
 62
     7
 10
526.7
 20
147.25
 30
0.0
 11
534.0
 21
147.25
 31
0.0
  0
LINE
  8
L-ZISSEN
 10
507.7
 20
129.0
 30
0.0
 11
520.7
 21
129.0
 31
0.0
  0
LINE
  8
L-ZISSEN
  6
CONTINUOUS
 62
     7
 10
526.7
 20
149.0
 30
0.0
 11
526.7
 21
131.0
 31
0.0
  0
LINE
  8
L-ZISSEN
  6
CONTINUOUS
 62
     7
 10
520.7
 20
131.0
 30
0.0
 11
526.7
 21
131.0
 31
0.0
  0
LINE
  8
L-ZISSEN
  6
CONTINUOUS
 62
     7
 10
526.7
 20
132.75
 30
0.0
 11
534.0
 21
132.75
 31
0.0
  0
LINE
  8
L-ZISSEN
  6
CONTINUOUS
 62
     7
 10
534.0
 20
147.25
 30
0.0
 11
534.0
 21
132.75
 31
0.0
  0
LINE
  8
L-ZISSEN
  6
CONTINUOUS
 62
     7
 10
520.7
 20
151.0
 30
0.0
 11
520.7
 21
129.0
 31
0.0
  0
LINE
  8
L-ZISSEN
 10
507.7
 20
89.0
 30
0.0
 11
507.7
 21
51.0
 31
0.0
  0
LINE
  8
L-ZISSEN
 10
497.1
 20
96.0
 30
0.0
 11
497.1
 21
44.0
 31
0.0
  0
LINE
  8
L-ZISSEN
 10
501.74282
 20
89.0
 30
0.0
 11
507.7
 21
89.0
 31
0.0
  0
LINE
  8
L-ZISSEN
 10
501.74282
 20
51.0
 30
0.0
 11
507.7
 21
51.0
 31
0.0
  0
LINE
  8
L-ZISSEN
 10
501.74282
 20
94.49995
 30
0.0
 11
497.1
 21
94.49995
 31
0.0
  0
LINE
  8
L-ZISSEN
 10
501.74282
 20
85.50005
 30
0.0
 11
501.74282
 21
94.49995
 31
0.0
  0
LINE
  8
L-ZISSEN
 10
501.74282
 20
85.50005
 30
0.0
 11
497.1
 21
85.50005
 31
0.0
  0
LINE
  8
L-ZISSEN
 10
501.74282
 20
54.49995
 30
0.0
 11
497.1
 21
54.49995
 31
0.0
  0
LINE
  8
L-ZISSEN
 10
501.74282
 20
54.49995
 30
0.0
 11
501.74282
 21
45.50005
 31
0.0
  0
LINE
  8
L-ZISSEN
 10
501.74282
 20
45.50005
 30
0.0
 11
497.1
 21
45.50005
 31
0.0
  0
LINE
  8
L-ZISSEN
 10
501.74282
 20
115.50005
 30
0.0
 11
497.1
 21
115.50005
 31
0.0
  0
LINE
  8
L-ZISSEN
 10
501.74282
 20
124.49995
 30
0.0
 11
501.74282
 21
115.50005
 31
0.0
  0
LINE
  8
L-ZISSEN
 10
501.74282
 20
124.49995
 30
0.0
 11
497.1
 21
124.49995
 31
0.0
  0
LINE
  8
L-ZISSEN
 10
501.74282
 20
155.50005
 30
0.0
 11
497.1
 21
155.50005
 31
0.0
  0
LINE
  8
L-ZISSEN
 10
501.74282
 20
155.50005
 30
0.0
 11
501.74282
 21
164.49995
 31
0.0
  0
LINE
  8
L-ZISSEN
 10
501.74282
 20
164.49995
 30
0.0
 11
497.1
 21
164.49995
 31
0.0
  0
LINE
  8
L-ZISSEN
 10
501.74282
 20
121.0
 30
0.0
 11
507.7
 21
121.0
 31
0.0
  0
LINE
  8
L-ZISSEN
 10
501.74282
 20
159.0
 30
0.0
 11
507.7
 21
159.0
 31
0.0
  0
LINE
  8
L-ZISSEN
 10
497.1
 20
166.0
 30
0.0
 11
497.1
 21
114.0
 31
0.0
  0
LINE
  8
L-ZISSEN
 10
507.7
 20
159.0
 30
0.0
 11
507.7
 21
121.0
 31
0.0
  0
LINE
  8
L-ZISSEN
 10
723.0
 20
459.0
 30
0.0
 11
671.0
 21
459.0
 31
0.0
  0
LINE
  8
L-ZISSEN
 10
723.0
 20
464.6
 30
0.0
 11
723.0
 21
451.0
 31
0.0
  0
LINE
  8
L-ZISSEN
 10
671.0
 20
464.6
 30
0.0
 11
671.0
 21
451.0
 31
0.0
  0
LINE
  8
L-ZISSEN
 10
671.0
 20
464.6
 30
0.0
 11
723.0
 21
464.6
 31
0.0
  0
LINE
  8
L-ZISSEN
  6
CONTINUOUS
 62
     7
 10
678.5
 20
468.2
 30
0.0
 11
671.5
 21
468.2
 31
0.0
  0
LINE
  8
L-ZISSEN
  6
CONTINUOUS
 62
     7
 10
678.5
 20
464.6
 30
0.0
 11
678.5
 21
468.2
 31
0.0
  0
LINE
  8
L-ZISSEN
  6
CONTINUOUS
 62
     7
 10
671.5
 20
464.6
 30
0.0
 11
671.5
 21
468.2
 31
0.0
  0
LINE
  8
L-ZISSEN
  6
CONTINUOUS
 62
     7
 10
715.5
 20
464.6
 30
0.0
 11
715.5
 21
468.2
 31
0.0
  0
LINE
  8
L-ZISSEN
  6
CONTINUOUS
 62
     7
 10
722.5
 20
464.6
 30
0.0
 11
722.5
 21
468.2
 31
0.0
  0
LINE
  8
L-ZISSEN
  6
CONTINUOUS
 62
     7
 10
722.5
 20
468.2
 30
0.0
 11
715.5
 21
468.2
 31
0.0
  0
LINE
  8
L-ZISSEN
 10
814.0
 20
464.6
 30
0.0
 11
814.0
 21
471.1
 31
0.0
  0
LINE
  8
L-ZISSEN
 10
822.0
 20
471.1
 30
0.0
 11
822.0
 21
468.2
 31
0.0
  0
LINE
  8
L-ZISSEN
  6
CONTINUOUS
 62
     7
 10
822.0
 20
471.1
 30
0.0
 11
814.0
 21
471.1
 31
0.0
  0
LINE
  8
L-ZISSEN
  6
CONTINUOUS
 62
     7
 10
825.5
 20
464.6
 30
0.0
 11
825.5
 21
468.2
 31
0.0
  0
LINE
  8
L-ZISSEN
  6
CONTINUOUS
 62
     7
 10
818.5
 20
464.6
 30
0.0
 11
818.5
 21
468.2
 31
0.0
  0
LINE
  8
L-ZISSEN
  6
CONTINUOUS
 62
     7
 10
818.5
 20
468.2
 30
0.0
 11
825.5
 21
468.2
 31
0.0
  0
LINE
  8
L-ZISSEN
  6
CONTINUOUS
 62
     7
 10
781.5
 20
468.2
 30
0.0
 11
774.5
 21
468.2
 31
0.0
  0
LINE
  8
L-ZISSEN
  6
CONTINUOUS
 62
     7
 10
781.5
 20
464.6
 30
0.0
 11
781.5
 21
468.2
 31
0.0
  0
LINE
  8
L-ZISSEN
  6
CONTINUOUS
 62
     7
 10
774.5
 20
464.6
 30
0.0
 11
774.5
 21
468.2
 31
0.0
  0
LINE
  8
L-ZISSEN
 10
774.0
 20
464.6
 30
0.0
 11
826.0
 21
464.6
 31
0.0
  0
LINE
  8
L-ZISSEN
 10
772.0
 20
459.0
 30
0.0
 11
828.0
 21
459.0
 31
0.0
  0
LINE
  8
L-ZISSEN
 10
826.0
 20
464.6
 30
0.0
 11
826.0
 21
399.0
 31
0.0
  0
LINE
  8
L-ZISSEN
 10
774.0
 20
399.0
 30
0.0
 11
774.0
 21
464.6
 31
0.0
  0
CIRCLE
  8
L-ZISSEN
 10
712.0
 20
513.0
 30
0.0
 40
4.0
  0
LINE
  8
L-ZISSEN
  6
CONTINUOUS
 62
     7
 10
708.0
 20
471.1
 30
0.0
 11
716.0
 21
471.1
 31
0.0
  0
LINE
  8
L-ZISSEN
 10
708.0
 20
471.1
 30
0.0
 11
708.0
 21
464.6
 31
0.0
  0
LINE
  8
L-ZISSEN
 10
716.0
 20
464.6
 30
0.0
 11
716.0
 21
471.1
 31
0.0
  0
SOLID
  8
L-ZISSEN
 10
697.935184
 20
496.799039
 30
0.0
 11
697.301161
 21
497.005097
 31
0.0
 12
697.0
 22
495.0
 32
0.0
 13
697.0
 23
495.0
 33
0.0
  0
LINE
  8
L-ZISSEN
 10
697.618172
 20
496.902068
 30
0.0
 11
710.0
 21
535.0
 31
0.0
  0
TEXT
  8
L-ZISSEN
 10
714.0
 20
532.75
 30
0.0
 40
4.5
  1
P.P
  0
LINE
  8
L-ZISSEN
 10
710.0
 20
535.0
 30
0.0
 11
712.0
 21
535.0
 31
0.0
  0
LINE
  8
L-ZISSEN
  6
CONTINUOUS
 62
     7
 10
89.5
 20
117.1
 30
0.0
 11
82.5
 21
117.1
 31
0.0
  0
LINE
  8
L-ZISSEN
  6
CONTINUOUS
 62
     7
 10
89.5
 20
113.5
 30
0.0
 11
89.5
 21
117.1
 31
0.0
  0
LINE
  8
L-ZISSEN
  6
CONTINUOUS
 62
     7
 10
82.5
 20
113.5
 30
0.0
 11
82.5
 21
117.1
 31
0.0
  0
LINE
  8
L-ZISSEN
  6
CONTINUOUS
 62
     7
 10
149.1
 20
89.0
 30
0.0
 11
148.1
 21
89.0
 31
0.0
  0
LINE
  8
L-ZISSEN
  6
CONTINUOUS
 62
     7
 10
149.1
 20
89.0
 30
0.0
 11
149.1
 21
67.0
 31
0.0
  0
LINE
  8
L-ZISSEN
  6
CONTINUOUS
 62
     7
 10
149.1
 20
67.0
 30
0.0
 11
148.1
 21
67.0
 31
0.0
  0
LINE
  8
L-ZISSEN
  6
CONTINUOUS
 62
     7
 10
102.1
 20
104.0
 30
0.0
 11
148.1
 21
102.393644
 31
0.0
  0
LINE
  8
L-ZISSEN
  6
CONTINUOUS
 62
     7
 10
33.9
 20
102.5
 30
0.0
 11
30.6
 21
102.5
 31
0.0
  0
LINE
  8
L-ZISSEN
  6
CONTINUOUS
 62
     7
 10
33.9
 20
93.5
 30
0.0
 11
30.6
 21
93.5
 31
0.0
  0
LINE
  8
L-ZISSEN
  6
CONTINUOUS
 62
     7
 10
30.6
 20
102.5
 30
0.0
 11
30.6
 21
93.5
 31
0.0
  0
LINE
  8
L-ZISSEN
  6
CONTINUOUS
 62
     7
 10
38.5
 20
113.5
 30
0.0
 11
38.5
 21
117.1
 31
0.0
  0
LINE
  8
L-ZISSEN
  6
CONTINUOUS
 62
     7
 10
45.5
 20
113.5
 30
0.0
 11
45.5
 21
117.1
 31
0.0
  0
LINE
  8
L-ZISSEN
  6
CONTINUOUS
 62
     7
 10
45.5
 20
117.1
 30
0.0
 11
38.5
 21
117.1
 31
0.0
  0
LINE
  8
L-ZISSEN
 10
38.0
 20
113.5
 30
0.0
 11
90.0
 21
113.5
 31
0.0
  0
LINE
  8
L-ZISSEN
 10
90.0
 20
104.0
 30
0.0
 11
102.1
 21
104.0
 31
0.0
  0
LINE
  8
L-ZISSEN
 10
33.9
 20
104.0
 30
0.0
 11
38.0
 21
104.0
 31
0.0
  0
LINE
  8
L-ZISSEN
 10
38.0
 20
113.5
 30
0.0
 11
38.0
 21
104.0
 31
0.0
  0
LINE
  8
L-ZISSEN
 10
90.0
 20
113.5
 30
0.0
 11
90.0
 21
104.0
 31
0.0
  0
LINE
  8
L-TYUSIN
  6
CENTER
 62
     1
 10
28.9
 20
78.0
 30
0.0
 11
154.1
 21
78.0
 31
0.0
  0
LINE
  8
L-ZISSEN
 10
56.5
 20
112.0
 30
0.0
 11
56.5
 21
109.618381
 31
0.0
  0
LINE
  8
L-ZISSEN
 10
71.5
 20
112.0
 30
0.0
 11
71.5
 21
109.618381
 31
0.0
  0
CIRCLE
  8
L-ZISSEN
 10
64.0
 20
99.0
 30
0.0
 40
9.3
  0
ARC
  8
L-ZISSEN
 10
64.0
 20
99.0
 30
0.0
 40
13.0
 50
125.234418
 51
54.765582
  0
LINE
  8
L-ZISSEN
 10
90.0
 20
112.0
 30
0.0
 11
38.0
 21
112.0
 31
0.0
  0
LINE
  8
L-ZISSEN
  6
CONTINUOUS
 62
     7
 10
148.1
 20
53.606356
 30
0.0
 11
148.1
 21
102.393644
 31
0.0
  0
LINE
  8
L-ZISSEN
 10
92.1
 20
104.0
 30
0.0
 11
92.1
 21
52.0
 31
0.0
  0
LINE
  8
L-ZISSEN
 10
35.9
 20
104.0
 30
0.0
 11
35.9
 21
52.0
 31
0.0
  0
LINE
  8
L-ZISSEN
 10
33.9
 20
104.0
 30
0.0
 11
33.9
 21
52.0
 31
0.0
  0
LINE
  8
L-ZISSEN
  6
CONTINUOUS
 62
     7
 10
30.6
 20
62.5
 30
0.0
 11
30.6
 21
53.5
 31
0.0
  0
LINE
  8
L-ZISSEN
  6
CONTINUOUS
 62
     7
 10
33.9
 20
53.5
 30
0.0
 11
30.6
 21
53.5
 31
0.0
  0
LINE
  8
L-ZISSEN
  6
CONTINUOUS
 62
     7
 10
33.9
 20
62.5
 30
0.0
 11
30.6
 21
62.5
 31
0.0
  0
LINE
  8
L-ZISSEN
  6
CONTINUOUS
 62
     7
 10
102.1
 20
52.0
 30
0.0
 11
148.1
 21
53.606356
 31
0.0
  0
CIRCLE
  8
L-ZISSEN
 10
260.0
 20
78.0
 30
0.0
 40
11.0
  0
LINE
  8
L-ZISSEN
 10
232.0
 20
86.0
 30
0.0
 11
232.0
 21
112.0
 31
0.0
  0
LINE
  8
L-ZISSEN
  6
CONTINUOUS
 62
     7
 10
234.5
 20
113.5
 30
0.0
 11
234.5
 21
117.1
 31
0.0
  0
LINE
  8
L-ZISSEN
  6
CONTINUOUS
 62
     7
 10
241.5
 20
113.5
 30
0.0
 11
241.5
 21
117.1
 31
0.0
  0
LINE
  8
L-ZISSEN
  6
CONTINUOUS
 62
     7
 10
241.5
 20
117.1
 30
0.0
 11
234.5
 21
117.1
 31
0.0
  0
LINE
  8
L-ZISSEN
 10
232.0
 20
86.0
 30
0.0
 11
234.0
 21
86.0
 31
0.0
  0
LINE
  8
L-ZISSEN
 10
232.0
 20
112.0
 30
0.0
 11
288.0
 21
112.0
 31
0.0
  0
LINE
  8
L-ZISSEN
 10
234.0
 20
113.5
 30
0.0
 11
286.0
 21
113.5
 31
0.0
  0
LINE
  8
L-ZISSEN
 10
234.0
 20
52.0
 30
0.0
 11
234.0
 21
113.5
 31
0.0
  0
LINE
  8
L-ZISSEN
 10
234.0
 20
104.0
 30
0.0
 11
286.0
 21
104.0
 31
0.0
  0
LINE
  8
L-ZISSEN
  6
CONTINUOUS
 62
     7
 10
278.5
 20
117.1
 30
0.0
 11
285.5
 21
117.1
 31
0.0
  0
LINE
  8
L-ZISSEN
  6
CONTINUOUS
 62
     7
 10
278.5
 20
113.5
 30
0.0
 11
278.5
 21
117.1
 31
0.0
  0
LINE
  8
L-ZISSEN
  6
CONTINUOUS
 62
     7
 10
285.5
 20
113.5
 30
0.0
 11
285.5
 21
117.1
 31
0.0
  0
LINE
  8
L-ZISSEN
 10
288.0
 20
86.0
 30
0.0
 11
288.0
 21
112.0
 31
0.0
  0
LINE
  8
L-ZISSEN
 10
286.0
 20
86.0
 30
0.0
 11
288.0
 21
86.0
 31
0.0
  0
LINE
  8
L-ZISSEN
 10
286.0
 20
113.5
 30
0.0
 11
286.0
 21
52.0
 31
0.0
  0
LINE
  8
L-ZISSEN
  6
CONTINUOUS
 62
     7
 10
102.1
 20
348.0
 30
0.0
 11
148.1
 21
346.393644
 31
0.0
  0
LINE
  8
L-ZISSEN
  6
CONTINUOUS
 62
     7
 10
33.9
 20
337.5
 30
0.0
 11
30.6
 21
337.5
 31
0.0
  0
LINE
  8
L-ZISSEN
  6
CONTINUOUS
 62
     7
 10
33.9
 20
346.5
 30
0.0
 11
30.6
 21
346.5
 31
0.0
  0
LINE
  8
L-ZISSEN
  6
CONTINUOUS
 62
     7
 10
30.6
 20
337.5
 30
0.0
 11
30.6
 21
346.5
 31
0.0
  0
LINE
  8
L-ZISSEN
 10
33.9
 20
296.0
 30
0.0
 11
33.9
 21
348.0
 31
0.0
  0
LINE
  8
L-ZISSEN
 10
35.9
 20
296.0
 30
0.0
 11
35.9
 21
348.0
 31
0.0
  0
LINE
  8
L-ZISSEN
 10
92.1
 20
296.0
 30
0.0
 11
92.1
 21
348.0
 31
0.0
  0
LINE
  8
L-ZISSEN
  6
CONTINUOUS
 62
     7
 10
148.1
 20
346.393644
 30
0.0
 11
148.1
 21
297.606356
 31
0.0
  0
LINE
  8
L-ZISSEN
 10
90.0
 20
288.0
 30
0.0
 11
38.0
 21
288.0
 31
0.0
  0
ARC
  8
L-ZISSEN
 10
64.0
 20
301.0
 30
0.0
 40
13.0
 50
305.234418
 51
234.765582
  0
CIRCLE
  8
L-ZISSEN
 10
64.0
 20
301.0
 30
0.0
 40
9.3
  0
LINE
  8
L-ZISSEN
 10
71.5
 20
288.0
 30
0.0
 11
71.5
 21
290.381619
 31
0.0
  0
LINE
  8
L-ZISSEN
 10
56.5
 20
288.0
 30
0.0
 11
56.5
 21
290.381619
 31
0.0
  0
LINE
  8
L-TYUSIN
  6
CENTER
 62
     1
 10
28.9
 20
322.0
 30
0.0
 11
154.1
 21
322.0
 31
0.0
  0
LINE
  8
L-ZISSEN
 10
90.0
 20
286.5
 30
0.0
 11
90.0
 21
296.0
 31
0.0
  0
LINE
  8
L-ZISSEN
 10
38.0
 20
286.5
 30
0.0
 11
38.0
 21
296.0
 31
0.0
  0
LINE
  8
L-ZISSEN
 10
33.9
 20
296.0
 30
0.0
 11
38.0
 21
296.0
 31
0.0
  0
LINE
  8
L-ZISSEN
 10
90.0
 20
296.0
 30
0.0
 11
102.1
 21
296.0
 31
0.0
  0
LINE
  8
L-ZISSEN
 10
38.0
 20
286.5
 30
0.0
 11
90.0
 21
286.5
 31
0.0
  0
LINE
  8
L-ZISSEN
  6
CONTINUOUS
 62
     7
 10
45.5
 20
282.9
 30
0.0
 11
38.5
 21
282.9
 31
0.0
  0
LINE
  8
L-ZISSEN
  6
CONTINUOUS
 62
     7
 10
45.5
 20
286.5
 30
0.0
 11
45.5
 21
282.9
 31
0.0
  0
LINE
  8
L-ZISSEN
  6
CONTINUOUS
 62
     7
 10
38.5
 20
286.5
 30
0.0
 11
38.5
 21
282.9
 31
0.0
  0
LINE
  8
L-ZISSEN
  6
CONTINUOUS
 62
     7
 10
30.6
 20
297.5
 30
0.0
 11
30.6
 21
306.5
 31
0.0
  0
LINE
  8
L-ZISSEN
  6
CONTINUOUS
 62
     7
 10
33.9
 20
306.5
 30
0.0
 11
30.6
 21
306.5
 31
0.0
  0
LINE
  8
L-ZISSEN
  6
CONTINUOUS
 62
     7
 10
33.9
 20
297.5
 30
0.0
 11
30.6
 21
297.5
 31
0.0
  0
LINE
  8
L-ZISSEN
  6
CONTINUOUS
 62
     7
 10
102.1
 20
296.0
 30
0.0
 11
148.1
 21
297.606356
 31
0.0
  0
LINE
  8
L-ZISSEN
  6
CONTINUOUS
 62
     7
 10
149.1
 20
333.0
 30
0.0
 11
148.1
 21
333.0
 31
0.0
  0
LINE
  8
L-ZISSEN
  6
CONTINUOUS
 62
     7
 10
149.1
 20
311.0
 30
0.0
 11
149.1
 21
333.0
 31
0.0
  0
LINE
  8
L-ZISSEN
  6
CONTINUOUS
 62
     7
 10
149.1
 20
311.0
 30
0.0
 11
148.1
 21
311.0
 31
0.0
  0
LINE
  8
L-ZISSEN
  6
CONTINUOUS
 62
     7
 10
82.5
 20
286.5
 30
0.0
 11
82.5
 21
282.9
 31
0.0
  0
LINE
  8
L-ZISSEN
  6
CONTINUOUS
 62
     7
 10
89.5
 20
286.5
 30
0.0
 11
89.5
 21
282.9
 31
0.0
  0
LINE
  8
L-ZISSEN
  6
CONTINUOUS
 62
     7
 10
89.5
 20
282.9
 30
0.0
 11
82.5
 21
282.9
 31
0.0
  0
LINE
  8
L-TYUSIN
 62
     1
 10
64.0
 20
281.5
 30
0.0
 11
64.0
 21
364.0
 31
0.0
  0
CIRCLE
  8
L-ZISSEN
 10
52.0
 20
327.0
 30
0.0
 40
5.7225
  0
LINE
  8
L-TYUSIN
  6
CENTER
 62
     1
 10
52.0
 20
336.0
 30
0.0
 11
52.0
 21
318.0
 31
0.0
  0
LINE
  8
L-TYUSIN
  6
CENTER
 62
     1
 10
43.0
 20
327.0
 30
0.0
 11
61.0
 21
327.0
 31
0.0
  0
LINE
  8
L-ZISSEN
 10
38.0
 20
188.5
 30
0.0
 11
38.0
 21
211.5
 31
0.0
  0
LINE
  8
L-ZISSEN
 10
102.1
 20
348.0
 30
0.0
 11
33.9
 21
348.0
 31
0.0
  0
LINE
  8
L-ZISSEN
 10
102.1
 20
52.0
 30
0.0
 11
33.9
 21
52.0
 31
0.0
  0
SOLID
  8
L-ZISSEN
 10
599.387174
 20
428.067241
 30
0.0
 11
600.04714
 21
427.972961
 31
0.0
 12
600.0
 22
430.0
 32
0.0
 13
600.0
 23
430.0
 33
0.0
  0
LINE
  8
L-ZISSEN
 10
599.717157
 20
428.020101
 30
0.0
 11
595.0
 21
395.0
 31
0.0
  0
LINE
  8
L-ZISSEN
 10
595.0
 20
395.0
 30
0.0
 11
593.0
 21
395.0
 31
0.0
  0
TEXT
  8
L-ZISSEN
 10
582.0
 20
392.75
 30
0.0
 40
4.5
  1
P.P
  0
SOLID
  8
L-ZISSEN
 10
598.350084
 20
248.821489
 30
0.0
 11
598.821489
 21
248.350084
 31
0.0
 12
600.0
 22
250.0
 32
0.0
 13
600.0
 23
250.0
 33
0.0
  0
LINE
  8
L-ZISSEN
 10
598.585786
 20
248.585786
 30
0.0
 11
585.0
 21
235.0
 31
0.0
  0
LINE
  8
L-ZISSEN
 10
585.0
 20
235.0
 30
0.0
 11
583.0
 21
235.0
 31
0.0
  0
TEXT
  8
L-ZISSEN
 10
572.0
 20
232.75
 30
0.0
 40
4.5
  1
P.P
  0
TEXT
  8
L-ZISSEN
 10
365.0
 20
185.0
 30
0.0
 40
4.5
  1
MODEL No. : 
  0
TEXT
  8
L-ZISSEN
 10
410.0
 20
185.0
 30
0.0
 40
4.5
  1
MVS-303-0*YHR
  0
TEXT
  8
L-ZISSEN
 10
470.0
 20
190.0
 30
0.0
 40
4.5
  1
DC-24V
  0
TEXT
  8
L-ZISSEN
 10
470.0
 20
180.0
 30
0.0
 40
4.5
  1
DC-100V
  0
TEXT
  8
L-ZISSEN
 10
365.0
 20
195.0
 30
0.0
 40
4.5
  1
MAGNET COVER
  0
LINE
  8
L-TYUSIN
 10
345.0
 20
390.0
 30
0.0
 11
645.0
 21
390.0
 31
0.0
  0
SOLID
  8
L-ZISSEN
 10
599.051317
 20
68.208043
 30
0.0
 11
599.683772
 21
67.997224
 31
0.0
 12
600.0
 22
70.0
 32
0.0
 13
600.0
 23
70.0
 33
0.0
  0
LINE
  8
L-ZISSEN
 10
599.367544
 20
68.102633
 30
0.0
 11
590.0
 21
40.0
 31
0.0
  0
LINE
  8
L-ZISSEN
 10
590.0
 20
40.0
 30
0.0
 11
588.0
 21
40.0
 31
0.0
  0
TEXT
  8
L-ZISSEN
 10
577.0
 20
37.75
 30
0.0
 40
4.5
  1
P.P
  0
TEXT
  8
L-ZISSEN
 10
365.0
 20
375.0
 30
0.0
 40
4.5
  1
MAGNET COVER
  0
TEXT
  8
L-ZISSEN
 10
410.0
 20
365.0
 30
0.0
 40
4.5
  1
MVS-303-0*YR
  0
TEXT
  8
L-ZISSEN
 10
365.0
 20
365.0
 30
0.0
 40
4.5
  1
MODEL No. : 
  0
TEXT
  8
L-ZISSEN
 10
465.0
 20
370.0
 30
0.0
 40
4.5
  1
AC-100V
  0
TEXT
  8
L-ZISSEN
 10
465.0
 20
360.0
 30
0.0
 40
4.5
  1
AC-200V
  0
TEXT
  8
L-ZISSEN
 10
365.0
 20
555.0
 30
0.0
 40
4.5
  1
MAGNET COVER
  0
TEXT
  8
L-ZISSEN
 10
465.0
 20
540.0
 30
0.0
 40
4.5
  1
DC-100V
  0
TEXT
  8
L-ZISSEN
 10
465.0
 20
550.0
 30
0.0
 40
4.5
  1
DC-24V
  0
TEXT
  8
L-ZISSEN
 10
410.0
 20
545.0
 30
0.0
 40
4.5
  1
MVS-303-0*YH
  0
TEXT
  8
L-ZISSEN
 10
365.0
 20
545.0
 30
0.0
 40
4.5
  1
MODEL No. : 
  0
CIRCLE
  8
L-ZISSEN
 10
76.0
 20
327.0
 30
0.0
 40
5.7225
  0
LINE
  8
L-TYUSIN
  6
CENTER
 62
     1
 10
67.0
 20
327.0
 30
0.0
 11
85.0
 21
327.0
 31
0.0
  0
LINE
  8
L-TYUSIN
  6
CENTER
 62
     1
 10
76.0
 20
336.0
 30
0.0
 11
76.0
 21
318.0
 31
0.0
  0
LINE
  8
L-ZISSEN
 10
90.0
 20
359.0
 30
0.0
 11
38.0
 21
359.0
 31
0.0
  0
LINE
  8
L-ZISSEN
 10
90.0
 20
359.0
 30
0.0
 11
90.0
 21
348.0
 31
0.0
  0
LINE
  8
L-ZISSEN
 10
38.0
 20
359.0
 30
0.0
 11
38.0
 21
348.0
 31
0.0
  0
LINE
  8
L-ZISSEN
 10
90.0
 20
356.7
 30
0.0
 11
38.0
 21
356.7
 31
0.0
  0
LINE
  8
L-ZISSEN
 10
285.2
 20
41.0
 30
0.0
 11
301.0
 21
41.0
 31
0.0
  0
SOLID
  8
L-ZISSEN
 10
258.068975
 20
77.381733
 30
0.0
 11
258.373874
 21
76.788875
 31
0.0
 12
260.0
 22
78.0
 32
0.0
 13
260.0
 23
78.0
 33
0.0
  0
LINE
  8
L-ZISSEN
 10
258.221424
 20
77.085304
 30
0.0
 11
225.0
 21
60.0
 31
0.0
  0
LINE
  8
L-ZISSEN
 10
225.0
 20
60.0
 30
0.0
 11
223.0
 21
60.0
 31
0.0
  0
TEXT
  8
L-ZISSEN
 10
212.0
 20
57.75
 30
0.0
 40
4.5
  1
P.P
  0
LINE
  8
L-ZISSEN
 10
287.5
 20
43.3
 30
0.0
 11
301.0
 21
43.3
 31
0.0
  0
LINE
  8
L-ZISSEN
 10
301.0
 20
41.0
 30
0.0
 11
301.0
 21
43.3
 31
0.0
  0
LINE
  8
L-ZISSEN
 10
287.5
 20
52.0
 30
0.0
 11
287.5
 21
43.3
 31
0.0
  0
LINE
  8
L-ZISSEN
 10
234.8
 20
49.7
 30
0.0
 11
285.2
 21
49.7
 31
0.0
  0
LINE
  8
L-ZISSEN
 10
285.2
 20
49.7
 30
0.0
 11
285.2
 21
41.0
 31
0.0
  0
LINE
  8
L-TYUSIN
 62
     1
 10
295.0
 20
48.3
 30
0.0
 11
295.0
 21
36.0
 31
0.0
  0
LINE
  8
L-TYUSIN
 62
     1
 10
225.0
 20
48.3
 30
0.0
 11
225.0
 21
36.0
 31
0.0
  0
LINE
  8
L-ZISSEN
 10
234.8
 20
49.7
 30
0.0
 11
234.8
 21
41.0
 31
0.0
  0
LINE
  8
L-ZISSEN
 10
232.5
 20
52.0
 30
0.0
 11
232.5
 21
43.3
 31
0.0
  0
LINE
  8
L-ZISSEN
 10
219.0
 20
41.0
 30
0.0
 11
219.0
 21
43.3
 31
0.0
  0
LINE
  8
L-ZISSEN
 10
232.5
 20
43.3
 30
0.0
 11
219.0
 21
43.3
 31
0.0
  0
LINE
  8
L-ZISSEN
 10
234.8
 20
41.0
 30
0.0
 11
219.0
 21
41.0
 31
0.0
  0
LINE
  8
L-ZISSEN
 10
38.0
 20
41.0
 30
0.0
 11
38.0
 21
52.0
 31
0.0
  0
LINE
  8
L-ZISSEN
 10
38.0
 20
43.3
 30
0.0
 11
90.0
 21
43.3
 31
0.0
  0
LINE
  8
L-ZISSEN
 10
38.0
 20
41.0
 30
0.0
 11
90.0
 21
41.0
 31
0.0
  0
LINE
  8
L-TYUSIN
 62
     1
 10
44.0
 20
48.3
 30
0.0
 11
44.0
 21
36.0
 31
0.0
  0
LINE
  8
L-TYUSIN
 62
     1
 10
84.0
 20
48.3
 30
0.0
 11
84.0
 21
36.0
 31
0.0
  0
LINE
  8
L-ZISSEN
 10
90.0
 20
41.0
 30
0.0
 11
90.0
 21
52.0
 31
0.0
  0
LINE
  8
L-ZISSEN
 10
38.0
 20
159.0
 30
0.0
 11
38.0
 21
174.0
 31
0.0
  0
LINE
  8
L-ZISSEN
 10
90.0
 20
159.0
 30
0.0
 11
90.0
 21
174.0
 31
0.0
  0
LINE
  8
L-ZISSEN
 10
38.0
 20
241.0
 30
0.0
 11
90.0
 21
241.0
 31
0.0
  0
LINE
  8
L-ZISSEN
 10
38.0
 20
159.0
 30
0.0
 11
90.0
 21
159.0
 31
0.0
  0
LINE
  8
L-ZISSEN
 10
38.0
 20
226.0
 30
0.0
 11
38.0
 21
241.0
 31
0.0
  0
LINE
  8
L-ZISSEN
 10
90.0
 20
226.0
 30
0.0
 11
90.0
 21
241.0
 31
0.0
  0
LINE
  8
L-TYUSIN
  6
CENTER
 62
     1
 10
58.0
 20
235.0
 30
0.0
 11
70.0
 21
235.0
 31
0.0
  0
LINE
  8
L-ZISSEN
 10
77.0
 20
227.5
 30
0.0
 11
90.0
 21
227.5
 31
0.0
  0
LINE
  8
L-ZISSEN
 10
51.0
 20
227.5
 30
0.0
 11
38.0
 21
227.5
 31
0.0
  0
LINE
  8
L-ZISSEN
 10
51.0
 20
172.5
 30
0.0
 11
38.0
 21
172.5
 31
0.0
  0
LINE
  8
L-ZISSEN
 10
77.0
 20
172.5
 30
0.0
 11
90.0
 21
172.5
 31
0.0
  0
CIRCLE
  8
L-ZISSEN
 10
64.0
 20
235.0
 30
0.0
 40
3.25
  0
CIRCLE
  8
L-ZISSEN
 10
44.0
 20
165.0
 30
0.0
 40
3.25
  0
LINE
  8
L-TYUSIN
  6
CENTER
 62
     1
 10
38.0
 20
165.0
 30
0.0
 11
50.0
 21
165.0
 31
0.0
  0
LINE
  8
L-TYUSIN
  6
CENTER
 62
     1
 10
44.0
 20
171.0
 30
0.0
 11
44.0
 21
159.0
 31
0.0
  0
CIRCLE
  8
L-ZISSEN
 10
84.0
 20
165.0
 30
0.0
 40
3.25
  0
LINE
  8
L-TYUSIN
  6
CENTER
 62
     1
 10
84.0
 20
171.0
 30
0.0
 11
84.0
 21
159.0
 31
0.0
  0
LINE
  8
L-TYUSIN
  6
CENTER
 62
     1
 10
78.0
 20
165.0
 30
0.0
 11
90.0
 21
165.0
 31
0.0
  0
SOLID
  8
L-ZISSEN
 10
63.139752
 20
198.163949
 30
0.0
 11
63.781728
 21
197.984195
 31
0.0
 12
64.0
 22
200.0
 32
0.0
 13
64.0
 23
200.0
 33
0.0
  0
LINE
  8
L-ZISSEN
 10
63.46074
 20
198.074072
 30
0.0
 11
50.0
 21
150.0
 31
0.0
  0
LINE
  8
L-ZISSEN
 10
50.0
 20
150.0
 30
0.0
 11
48.0
 21
150.0
 31
0.0
  0
TEXT
  8
L-ZISSEN
 10
37.0
 20
147.75
 30
0.0
 40
4.5
  1
P.P
  0
TEXT
  8
L-ZISSEN
 10
128.0
 20
411.0
 30
0.0
 40
4.5
  1
AC-200V
  0
TEXT
  8
L-ZISSEN
 10
128.0
 20
419.0
 30
0.0
 40
4.5
  1
AC-100V
  0
TEXT
  8
L-ZISSEN
 10
30.0
 20
415.0
 30
0.0
 40
4.5
  1
MODEL No. : 
  0
TEXT
  8
L-ZISSEN
 10
75.0
 20
415.0
 30
0.0
 40
4.5
  1
MVS-303-
  0
CIRCLE
  8
L-ZISSEN
 10
64.0
 20
73.0
 30
0.0
 40
5.7225
  0
LINE
  8
L-TYUSIN
  6
CENTER
 62
     1
 10
73.0
 20
73.0
 30
0.0
 11
55.0
 21
73.0
 31
0.0
  0
LINE
  8
L-TYUSIN
  6
CENTER
 62
     1
 10
76.0
 20
221.0
 30
0.0
 11
76.0
 21
231.0
 31
0.0
  0
LINE
  8
L-TYUSIN
  6
CENTER
 62
     1
 10
52.0
 20
221.0
 30
0.0
 11
52.0
 21
231.0
 31
0.0
  0
LINE
  8
L-TYUSIN
 62
     1
 10
229.0
 20
73.0
 30
0.0
 11
239.0
 21
73.0
 31
0.0
  0
LINE
  8
L-TYUSIN
 62
     1
 10
291.0
 20
73.0
 30
0.0
 11
281.0
 21
73.0
 31
0.0
  0
TEXT
  8
L-ZISSEN
 10
660.0
 20
555.0
 30
0.0
 40
4.5
  1
PILOT LAMP
  0
TEXT
  8
L-ZISSEN
 10
660.0
 20
545.0
 30
0.0
 40
4.5
  1
MODEL No. :
  0
TEXT
  8
L-ZISSEN
 10
705.0
 20
545.0
 30
0.0
 40
4.5
  1
MVS-303-0*YS
  0
TEXT
  8
L-ZISSEN
 10
113.0
 20
419.0
 30
0.0
 40
4.5
  1
02Y
  0
TEXT
  8
L-ZISSEN
 10
113.0
 20
411.0
 30
0.0
 40
4.5
  1
03Y
  0
TEXT
  8
L-ZISSEN
 10
92.0
 20
375.0
 30
0.0
 40
4.5
  1
Rc 1/4
  0
TEXT
  8
L-ZISSEN
 10
92.0
 20
365.0
 30
0.0
 40
4.5
  1
Rc 3/8
  0
SOLID
  8
L-ZISSEN
 10
798.062074
 20
424.403715
 30
0.0
 11
798.360217
 21
423.80743
 31
0.0
 12
800.0
 22
425.0
 32
0.0
 13
800.0
 23
425.0
 33
0.0
  0
LINE
  8
L-ZISSEN
 10
798.211146
 20
424.105573
 30
0.0
 11
770.0
 21
410.0
 31
0.0
  0
LINE
  8
L-ZISSEN
 10
770.0
 20
410.0
 30
0.0
 11
768.0
 21
410.0
 31
0.0
  0
TEXT
  8
L-ZISSEN
 10
757.0
 20
407.75
 30
0.0
 40
4.5
  1
P.P
  0
SOLID
  8
L-ZISSEN
 10
395.279784
 20
318.926703
 30
0.0
 11
395.720865
 21
318.426811
 31
0.0
 12
397.0
 22
320.0
 32
0.0
 13
397.0
 23
320.0
 33
0.0
  0
LINE
  8
L-ZISSEN
 10
395.500324
 20
318.676757
 30
0.0
 11
380.0
 21
305.0
 31
0.0
  0
LINE
  8
L-ZISSEN
 10
380.0
 20
305.0
 30
0.0
 11
378.0
 21
305.0
 31
0.0
  0
TEXT
  8
L-ZISSEN
 10
367.0
 20
302.75
 30
0.0
 40
4.5
  1
P.P
  0
SOLID
  8
L-ZISSEN
 10
63.303799
 20
76.095685
 30
0.0
 11
63.959047
 21
75.972826
 31
0.0
 12
64.0
 22
78.0
 32
0.0
 13
64.0
 23
78.0
 33
0.0
  0
LINE
  8
L-ZISSEN
 10
63.631423
 20
76.034256
 30
0.0
 11
55.0
 21
30.0
 31
0.0
  0
LINE
  8
L-ZISSEN
 10
55.0
 20
30.0
 30
0.0
 11
53.0
 21
30.0
 31
0.0
  0
TEXT
  8
L-ZISSEN
 10
42.0
 20
27.75
 30
0.0
 40
4.5
  1
P.P
  0
SOLID
  8
L-ZISSEN
 10
395.49032
 20
428.646494
 30
0.0
 11
396.0109
 21
428.230031
 31
0.0
 12
397.0
 22
430.0
 32
0.0
 13
397.0
 23
430.0
 33
0.0
  0
LINE
  8
L-ZISSEN
 10
395.75061
 20
428.438262
 30
0.0
 11
385.0
 21
415.0
 31
0.0
  0
LINE
  8
L-ZISSEN
 10
385.0
 20
415.0
 30
0.0
 11
383.0
 21
415.0
 31
0.0
  0
TEXT
  8
L-ZISSEN
 10
372.0
 20
412.75
 30
0.0
 40
4.5
  1
P.P
  0
TEXT
  8
L-ZISSEN
 10
372.0
 20
232.75
 30
0.0
 40
4.5
  1
P.P
  0
LINE
  8
L-ZISSEN
 10
385.0
 20
235.0
 30
0.0
 11
383.0
 21
235.0
 31
0.0
  0
LINE
  8
L-ZISSEN
 10
395.75061
 20
248.438262
 30
0.0
 11
385.0
 21
235.0
 31
0.0
  0
SOLID
  8
L-ZISSEN
 10
395.49032
 20
248.646494
 30
0.0
 11
396.0109
 21
248.230031
 31
0.0
 12
397.0
 22
250.0
 32
0.0
 13
397.0
 23
250.0
 33
0.0
  0
SOLID
  8
L-ZISSEN
 10
395.49032
 20
68.646494
 30
0.0
 11
396.0109
 21
68.230031
 31
0.0
 12
397.0
 22
70.0
 32
0.0
 13
397.0
 23
70.0
 33
0.0
  0
LINE
  8
L-ZISSEN
 10
395.75061
 20
68.438262
 30
0.0
 11
385.0
 21
55.0
 31
0.0
  0
LINE
  8
L-ZISSEN
 10
385.0
 20
55.0
 30
0.0
 11
383.0
 21
55.0
 31
0.0
  0
TEXT
  8
L-ZISSEN
 10
372.0
 20
52.75
 30
0.0
 40
4.5
  1
P.P
  0
SOLID
  8
L-ZISSEN
 10
695.279784
 20
423.926703
 30
0.0
 11
695.720865
 21
423.426811
 31
0.0
 12
697.0
 22
425.0
 32
0.0
 13
697.0
 23
425.0
 33
0.0
  0
LINE
  8
L-ZISSEN
 10
695.500324
 20
423.676757
 30
0.0
 11
680.0
 21
410.0
 31
0.0
  0
LINE
  8
L-ZISSEN
 10
680.0
 20
410.0
 30
0.0
 11
678.0
 21
410.0
 31
0.0
  0
TEXT
  8
L-ZISSEN
 10
667.0
 20
407.75
 30
0.0
 40
4.5
  1
P.P
  0
SOLID
  8
L-ZISSEN
 10
395.826356
 20
498.346618
 30
0.0
 11
396.426028
 21
498.055349
 31
0.0
 12
397.0
 22
500.0
 32
0.0
 13
397.0
 23
500.0
 33
0.0
  0
LINE
  8
L-ZISSEN
 10
396.126192
 20
498.200984
 30
0.0
 11
380.0
 21
465.0
 31
0.0
  0
LINE
  8
L-ZISSEN
 10
380.0
 20
465.0
 30
0.0
 11
378.0
 21
465.0
 31
0.0
  0
TEXT
  8
L-ZISSEN
 10
367.0
 20
462.75
 30
0.0
 40
4.5
  1
P.P
  0
LINE
  8
L-ZISSEN
 10
396.126192
 20
138.200984
 30
0.0
 11
380.0
 21
105.0
 31
0.0
  0
LINE
  8
L-ZISSEN
 10
380.0
 20
105.0
 30
0.0
 11
378.0
 21
105.0
 31
0.0
  0
TEXT
  8
L-ZISSEN
 10
367.0
 20
102.75
 30
0.0
 40
4.5
  1
P.P
  0
SOLID
  8
L-ZISSEN
 10
395.826356
 20
138.346618
 30
0.0
 11
396.426028
 21
138.055349
 31
0.0
 12
397.0
 22
140.0
 32
0.0
 13
397.0
 23
140.0
 33
0.0
  0
SOLID
  8
L-ZISSEN
 10
76.793308
 20
328.865951
 30
0.0
 11
76.145254
 21
329.022378
 31
0.0
 12
76.0
 22
327.0
 32
0.0
 13
76.0
 23
327.0
 33
0.0
  0
LINE
  8
L-ZISSEN
 10
76.469281
 20
328.944164
 30
0.0
 11
90.0
 21
385.0
 31
0.0
  0
LINE
  8
L-ZISSEN
 10
90.0
 20
385.0
 30
0.0
 11
92.0
 21
385.0
 31
0.0
  0
TEXT
  8
L-ZISSEN
 10
94.0
 20
382.75
 30
0.0
 40
4.5
  1
IN
  0
ENDSEC
  0
EOF
