  0
SECTION
  2
HEADER
  9
$ACADVER
  1
AC1006
  9
$INSBASE
 10
0.0
 20
0.0
 30
0.0
  9
$EXTMIN
 10
50.0
 20
60.0
  9
$EXTMAX
 10
1805.0
 20
1060.0
  9
$LIMMIN
 10
0.0
 20
0.0
  9
$LIMMAX
 10
1680.0
 20
1188.0
  9
$ORTHOMODE
 70
     0
  9
$REGENMODE
 70
     1
  9
$FILLMODE
 70
     1
  9
$QTEXTMODE
 70
     0
  9
$MIRRTEXT
 70
     1
  9
$DRAGMODE
 70
     2
  9
$LTSCALE
 40
1.0
  9
$OSMODE
 70
     0
  9
$ATTMODE
 70
     1
  9
$TEXTSIZE
 40
4.5
  9
$TRACEWID
 40
0.05
  9
$TEXTSTYLE
  7
STANDARD
  9
$CLAYER
  8
L-ZISSEN
  9
$CELTYPE
  6
BYLAYER
  9
$CECOLOR
 62
   256
  9
$DIMSCALE
 40
1.0
  9
$DIMASZ
 40
2.0
  9
$DIMEXO
 40
1.0
  9
$DIMDLI
 40
0.38
  9
$DIMRND
 40
0.0
  9
$DIMDLE
 40
1.0
  9
$DIMEXE
 40
1.0
  9
$DIMTP
 40
0.0
  9
$DIMTM
 40
0.0
  9
$DIMTXT
 40
4.5
  9
$DIMCEN
 40
0.09
  9
$DIMTSZ
 40
0.0
  9
$DIMTOL
 70
     0
  9
$DIMLIM
 70
     0
  9
$DIMTIH
 70
     0
  9
$DIMTOH
 70
     0
  9
$DIMSE1
 70
     0
  9
$DIMSE2
 70
     0
  9
$DIMTAD
 70
     1
  9
$DIMZIN
 70
     0
  9
$DIMBLK
  1

  9
$DIMASO
 70
     0
  9
$DIMSHO
 70
     0
  9
$DIMPOST
  1

  9
$DIMAPOST
  1

  9
$DIMALT
 70
     0
  9
$DIMALTD
 70
     2
  9
$DIMALTF
 40
25.4
  9
$DIMLFAC
 40
1.0
  9
$DIMTOFL
 70
     1
  9
$DIMTVP
 40
0.0
  9
$DIMTIX
 70
     0
  9
$DIMSOXD
 70
     0
  9
$DIMSAH
 70
     0
  9
$DIMBLK1
  1

  9
$DIMBLK2
  1

  9
$LUNITS
 70
     2
  9
$LUPREC
 70
     4
  9
$AXISMODE
 70
     0
  9
$AXISUNIT
 10
0.0
 20
0.0
  9
$SKETCHINC
 40
0.1
  9
$FILLETRAD
 40
0.0
  9
$AUNITS
 70
     0
  9
$AUPREC
 70
     0
  9
$MENU
  1
acad
  9
$ELEVATION
 40
0.0
  9
$THICKNESS
 40
0.0
  9
$LIMCHECK
 70
     0
  9
$BLIPMODE
 70
     1
  9
$CHAMFERA
 40
0.0
  9
$CHAMFERB
 40
0.0
  9
$SKPOLY
 70
     0
  9
$TDCREATE
 40
2449251.4817072917
  9
$TDUPDATE
 40
2449251.4817072917
  9
$TDINDWG
 40
0.0000000000
  9
$TDUSRTIMER
 40
0.0000000000
  9
$USRTIMER
 70
     1
  9
$ANGBASE
 50
0.0
  9
$ANGDIR
 70
     0
  9
$PDMODE
 70
     0
  9
$PDSIZE
 40
0.0
  9
$PLINEWID
 40
0.0
  9
$COORDS
 70
     2
  9
$SPLFRAME
 70
     0
  9
$SPLINETYPE
 70
     6
  9
$SPLINESEGS
 70
     8
  9
$ATTDIA
 70
     0
  9
$ATTREQ
 70
     1
  9
$HANDLING
 70
     0
  9
$HANDSEED
  5
0
  9
$SURFTAB1
 70
     6
  9
$SURFTAB2
 70
     6
  9
$SURFTYPE
 70
     6
  9
$SURFU
 70
     6
  9
$SURFV
 70
     6
  9
$FLATLAND
 70
     0
  9
$UCSNAME
  2

  9
$UCSORG
 10
0.0
 20
0.0
 30
0.0
  9
$UCSXDIR
 10
1.0
 20
0.0
 30
0.0
  9
$UCSYDIR
 10
0.0
 20
1.0
 30
0.0
  9
$USERI1
 70
     0
  9
$USERI2
 70
     0
  9
$USERI3
 70
     0
  9
$USERI4
 70
     0
  9
$USERI5
 70
     0
  9
$USERR1
 40
0.0
  9
$USERR2
 40
0.0
  9
$USERR3
 40
0.0
  9
$USERR4
 40
0.0
  9
$USERR5
 40
0.0
  9
$WORLDVIEW
 70
     1
  0
ENDSEC
  0
SECTION
  2
TABLES
  0
TABLE
  2
VPORT
 70
     2
  0
VPORT
  2
*ACTIVE
 70
     0
 10
0.0
 20
0.0
 11
1.0
 21
1.0
 12
952.911956
 22
615.298075
 13
0.0
 23
0.0
 14
5.0
 24
5.0
 15
0.0
 25
0.0
 16
0.0
 26
0.0
 36
1.0
 17
0.0
 27
0.0
 37
0.0
 40
1230.59615
 41
1.5487
 42
50.0
 43
0.0
 44
0.0
 50
0.0
 51
0.0
 71
     0
 72
   100
 73
     1
 74
     0
 75
     0
 76
     0
 77
     0
 78
     0
  0
ENDTAB
  0
TABLE
  2
LTYPE
 70
     2
  0
LTYPE
  2
CONTINUOUS
 70
    64
  3
Solid line
 72
    65
 73
     0
 40
0.0
  0
LTYPE
  2
CENTER
 70
    64
  3
____ _ ____ _ ____ _ ____ _ 
 72
    65
 73
     4
 40
60.0
 49
45.0
 49
-5.0
 49
5.0
 49
-5.0
  0
ENDTAB
  0
TABLE
  2
LAYER
 70
     3
  0
LAYER
  2
0
 70
     0
 62
     7
  6
CONTINUOUS
  0
LAYER
  2
L-ZISSEN
 70
    64
 62
     7
  6
CONTINUOUS
  0
LAYER
  2
L-TYUSIN
 70
    64
 62
     1
  6
CENTER
  0
ENDTAB
  0
TABLE
  2
STYLE
 70
     1
  0
STYLE
  2
STANDARD
 70
    64
 40
0.0
 41
1.0
 50
0.0
 71
     0
 42
4.5
  3
TXT
  4

  0
ENDTAB
  0
TABLE
  2
VIEW
 70
     0
  0
ENDTAB
  0
TABLE
  2
UCS
 70
     0
  0
ENDTAB
  0
TABLE
  2
DWGMGR
 70
     0
  0
ENDTAB
  0
ENDSEC
  0
SECTION
  2
BLOCKS
  0
ENDSEC
  0
SECTION
  2
ENTITIES
  0
LINE
  8
L-TYUSIN
  6
CENTER
 62
     1
 10
180.0
 20
350.5
 30
0.0
 11
180.0
 21
66.682303
 31
0.0
  0
LINE
  8
L-ZISSEN
  6
CONTINUOUS
 62
     7
 10
225.0
 20
79.0
 30
0.0
 11
225.0
 21
284.0
 31
0.0
  0
LINE
  8
L-ZISSEN
  6
CONTINUOUS
 62
     7
 10
135.0
 20
284.0
 30
0.0
 11
135.0
 21
79.0
 31
0.0
  0
LINE
  8
L-ZISSEN
  6
CONTINUOUS
 62
     7
 10
135.0
 20
79.0
 30
0.0
 11
225.0
 21
79.0
 31
0.0
  0
LINE
  8
L-ZISSEN
  6
CONTINUOUS
 62
     7
 10
225.0
 20
264.0
 30
0.0
 11
135.0
 21
264.0
 31
0.0
  0
LINE
  8
L-ZISSEN
  6
CONTINUOUS
 62
     7
 10
225.0
 20
251.0
 30
0.0
 11
135.0
 21
251.0
 31
0.0
  0
LINE
  8
L-ZISSEN
  6
CONTINUOUS
 62
     7
 10
135.0
 20
161.0
 30
0.0
 11
225.0
 21
161.0
 31
0.0
  0
LINE
  8
L-TYUSIN
  6
CENTER
 62
     1
 10
255.0
 20
150.0
 30
0.0
 11
105.0
 21
150.0
 31
0.0
  0
CIRCLE
  8
L-ZISSEN
  6
CONTINUOUS
 62
     7
 10
215.5
 20
241.5
 30
0.0
 40
8.0
  0
LINE
  8
L-ZISSEN
  6
CONTINUOUS
 62
     7
 10
125.0
 20
106.5
 30
0.0
 11
112.5
 21
106.5
 31
0.0
  0
LINE
  8
L-ZISSEN
  6
CONTINUOUS
 62
     7
 10
112.5
 20
106.5
 30
0.0
 11
112.5
 21
122.5
 31
0.0
  0
LINE
  8
L-ZISSEN
  6
CONTINUOUS
 62
     7
 10
112.5
 20
122.5
 30
0.0
 11
125.0
 21
122.5
 31
0.0
  0
LINE
  8
L-ZISSEN
  6
CONTINUOUS
 62
     7
 10
135.0
 20
105.0
 30
0.0
 11
125.0
 21
105.0
 31
0.0
  0
CIRCLE
  8
L-ZISSEN
  6
CONTINUOUS
 62
     7
 10
144.5
 20
241.5
 30
0.0
 40
8.0
  0
CIRCLE
  8
L-ZISSEN
  6
CONTINUOUS
 62
     7
 10
144.5
 20
170.5
 30
0.0
 40
8.0
  0
CIRCLE
  8
L-ZISSEN
  6
CONTINUOUS
 62
     7
 10
215.5
 20
170.5
 30
0.0
 40
8.0
  0
LINE
  8
L-ZISSEN
  6
CONTINUOUS
 62
     7
 10
355.0
 20
251.0
 30
0.0
 11
345.5
 21
251.0
 31
0.0
  0
LINE
  8
L-ZISSEN
  6
CONTINUOUS
 62
     7
 10
355.0
 20
161.0
 30
0.0
 11
345.5
 21
161.0
 31
0.0
  0
CIRCLE
  8
L-ZISSEN
  6
CONTINUOUS
 62
     7
 10
400.0
 20
150.0
 30
0.0
 40
40.0
  0
LINE
  8
L-ZISSEN
  6
CONTINUOUS
 62
     7
 10
355.0
 20
105.0
 30
0.0
 11
445.0
 21
105.0
 31
0.0
  0
LINE
  8
L-ZISSEN
  6
CONTINUOUS
 62
     7
 10
445.0
 20
195.0
 30
0.0
 11
355.0
 21
195.0
 31
0.0
  0
LINE
  8
L-ZISSEN
  6
CONTINUOUS
 62
     7
 10
445.0
 20
264.0
 30
0.0
 11
355.0
 21
264.0
 31
0.0
  0
LINE
  8
L-ZISSEN
  6
CONTINUOUS
 62
     7
 10
355.0
 20
79.0
 30
0.0
 11
394.0
 21
79.0
 31
0.0
  0
LINE
  8
L-ZISSEN
  6
CONTINUOUS
 62
     7
 10
355.0
 20
274.0
 30
0.0
 11
355.0
 21
251.0
 31
0.0
  0
LINE
  8
L-ZISSEN
  6
CONTINUOUS
 62
     7
 10
450.0
 20
251.0
 30
0.0
 11
450.0
 21
161.0
 31
0.0
  0
LINE
  8
L-ZISSEN
  6
CONTINUOUS
 62
     7
 10
450.0
 20
251.0
 30
0.0
 11
445.0
 21
251.0
 31
0.0
  0
LINE
  8
L-ZISSEN
  6
CONTINUOUS
 62
     7
 10
350.0
 20
251.0
 30
0.0
 11
350.0
 21
161.0
 31
0.0
  0
LINE
  8
L-ZISSEN
  6
CONTINUOUS
 62
     7
 10
445.0
 20
251.0
 30
0.0
 11
445.0
 21
274.0
 31
0.0
  0
LINE
  8
L-ZISSEN
  6
CONTINUOUS
 62
     7
 10
355.0
 20
195.0
 30
0.0
 11
355.0
 21
74.5
 31
0.0
  0
LINE
  8
L-ZISSEN
  6
CONTINUOUS
 62
     7
 10
406.0
 20
79.0
 30
0.0
 11
445.0
 21
79.0
 31
0.0
  0
LINE
  8
L-ZISSEN
  6
CONTINUOUS
 62
     7
 10
225.0
 20
79.0
 30
0.0
 11
225.0
 21
74.5
 31
0.0
  0
LINE
  8
L-ZISSEN
  6
CONTINUOUS
 62
     7
 10
225.0
 20
74.5
 30
0.0
 11
135.0
 21
74.5
 31
0.0
  0
LINE
  8
L-ZISSEN
  6
CONTINUOUS
 62
     7
 10
135.0
 20
74.5
 30
0.0
 11
135.0
 21
79.0
 31
0.0
  0
LINE
  8
L-ZISSEN
  6
CONTINUOUS
 62
     7
 10
207.5
 20
74.5
 30
0.0
 11
207.5
 21
62.0
 31
0.0
  0
LINE
  8
L-ZISSEN
  6
CONTINUOUS
 62
     7
 10
207.5
 20
62.0
 30
0.0
 11
223.5
 21
62.0
 31
0.0
  0
LINE
  8
L-ZISSEN
  6
CONTINUOUS
 62
     7
 10
223.5
 20
62.0
 30
0.0
 11
223.5
 21
74.5
 31
0.0
  0
LINE
  8
L-ZISSEN
  6
CONTINUOUS
 62
     7
 10
136.5
 20
62.0
 30
0.0
 11
136.5
 21
74.5
 31
0.0
  0
LINE
  8
L-ZISSEN
  6
CONTINUOUS
 62
     7
 10
152.5
 20
62.0
 30
0.0
 11
136.5
 21
62.0
 31
0.0
  0
LINE
  8
L-ZISSEN
  6
CONTINUOUS
 62
     7
 10
152.5
 20
74.5
 30
0.0
 11
152.5
 21
62.0
 31
0.0
  0
LINE
  8
L-ZISSEN
  6
CONTINUOUS
 62
     7
 10
445.0
 20
74.5
 30
0.0
 11
355.0
 21
74.5
 31
0.0
  0
LINE
  8
L-ZISSEN
  6
CONTINUOUS
 62
     7
 10
355.0
 20
79.0
 30
0.0
 11
445.0
 21
79.0
 31
0.0
  0
LINE
  8
L-ZISSEN
  6
CONTINUOUS
 62
     7
 10
152.5
 20
274.0
 30
0.0
 11
152.5
 21
286.5
 31
0.0
  0
LINE
  8
L-ZISSEN
  6
CONTINUOUS
 62
     7
 10
152.5
 20
286.5
 30
0.0
 11
136.5
 21
286.5
 31
0.0
  0
LINE
  8
L-ZISSEN
  6
CONTINUOUS
 62
     7
 10
136.5
 20
286.5
 30
0.0
 11
136.5
 21
274.0
 31
0.0
  0
LINE
  8
L-ZISSEN
  6
CONTINUOUS
 62
     7
 10
152.5
 20
284.0
 30
0.0
 11
207.5
 21
284.0
 31
0.0
  0
LINE
  8
L-TYUSIN
  6
CENTER
 62
     1
 10
230.0
 20
275.0
 30
0.0
 11
220.0
 21
275.0
 31
0.0
  0
LINE
  8
L-TYUSIN
  6
CENTER
 62
     1
 10
390.0
 20
275.0
 30
0.0
 11
410.0
 21
275.0
 31
0.0
  0
LINE
  8
L-ZISSEN
  6
CONTINUOUS
 62
     7
 10
112.5
 20
110.0
 30
0.0
 11
110.0
 21
110.0
 31
0.0
  0
LINE
  8
L-ZISSEN
  6
CONTINUOUS
 62
     7
 10
85.0
 20
261.5
 30
0.0
 11
135.0
 21
261.5
 31
0.0
  0
LINE
  8
L-ZISSEN
  6
CONTINUOUS
 62
     7
 10
275.0
 20
261.5
 30
0.0
 11
275.0
 21
81.5
 31
0.0
  0
LINE
  8
L-ZISSEN
  6
CONTINUOUS
 62
     7
 10
275.0
 20
81.5
 30
0.0
 11
225.0
 21
81.5
 31
0.0
  0
LINE
  8
L-ZISSEN
  6
CONTINUOUS
 62
     7
 10
233.0
 20
261.5
 30
0.0
 11
233.0
 21
195.0
 31
0.0
  0
LINE
  8
L-ZISSEN
  6
CONTINUOUS
 62
     7
 10
127.0
 20
261.5
 30
0.0
 11
127.0
 21
195.0
 31
0.0
  0
LINE
  8
L-ZISSEN
  6
CONTINUOUS
 62
     7
 10
85.0
 20
261.5
 30
0.0
 11
85.0
 21
81.5
 31
0.0
  0
ARC
  8
L-ZISSEN
  6
CONTINUOUS
 62
     7
 10
250.0
 20
236.5
 30
0.0
 40
5.6
 50
90.0
 51
270.0
  0
ARC
  8
L-ZISSEN
  6
CONTINUOUS
 62
     7
 10
260.0
 20
236.5
 30
0.0
 40
5.6
 50
270.0
 51
90.0
  0
LINE
  8
L-ZISSEN
  6
CONTINUOUS
 62
     7
 10
250.0
 20
242.1
 30
0.0
 11
260.0
 21
242.1
 31
0.0
  0
LINE
  8
L-ZISSEN
  6
CONTINUOUS
 62
     7
 10
250.0
 20
230.9
 30
0.0
 11
260.0
 21
230.9
 31
0.0
  0
LINE
  8
L-ZISSEN
  6
CONTINUOUS
 62
     7
 10
250.0
 20
90.9
 30
0.0
 11
260.0
 21
90.9
 31
0.0
  0
LINE
  8
L-ZISSEN
  6
CONTINUOUS
 62
     7
 10
250.0
 20
102.1
 30
0.0
 11
260.0
 21
102.1
 31
0.0
  0
ARC
  8
L-ZISSEN
  6
CONTINUOUS
 62
     7
 10
260.0
 20
96.5
 30
0.0
 40
5.6
 50
270.0
 51
90.0
  0
ARC
  8
L-ZISSEN
  6
CONTINUOUS
 62
     7
 10
110.0
 20
96.5
 30
0.0
 40
5.6
 50
270.0
 51
90.0
  0
ARC
  8
L-ZISSEN
  6
CONTINUOUS
 62
     7
 10
100.0
 20
96.5
 30
0.0
 40
5.6
 50
90.0
 51
270.0
  0
LINE
  8
L-ZISSEN
  6
CONTINUOUS
 62
     7
 10
110.0
 20
102.1
 30
0.0
 11
100.0
 21
102.1
 31
0.0
  0
LINE
  8
L-ZISSEN
  6
CONTINUOUS
 62
     7
 10
110.0
 20
90.9
 30
0.0
 11
100.0
 21
90.9
 31
0.0
  0
LINE
  8
L-ZISSEN
  6
CONTINUOUS
 62
     7
 10
110.0
 20
230.9
 30
0.0
 11
100.0
 21
230.9
 31
0.0
  0
LINE
  8
L-ZISSEN
  6
CONTINUOUS
 62
     7
 10
110.0
 20
242.1
 30
0.0
 11
100.0
 21
242.1
 31
0.0
  0
ARC
  8
L-ZISSEN
  6
CONTINUOUS
 62
     7
 10
100.0
 20
236.5
 30
0.0
 40
5.6
 50
90.0
 51
270.0
  0
ARC
  8
L-ZISSEN
  6
CONTINUOUS
 62
     7
 10
110.0
 20
236.5
 30
0.0
 40
5.6
 50
270.0
 51
90.0
  0
LINE
  8
L-TYUSIN
  6
CENTER
 62
     1
 10
90.0
 20
96.5
 30
0.0
 11
120.0
 21
96.5
 31
0.0
  0
LINE
  8
L-ZISSEN
  6
CONTINUOUS
 62
     7
 10
450.0
 20
81.5
 30
0.0
 11
471.0
 21
81.5
 31
0.0
  0
LINE
  8
L-ZISSEN
  6
CONTINUOUS
 62
     7
 10
471.0
 20
81.5
 30
0.0
 11
471.0
 21
261.5
 31
0.0
  0
LINE
  8
L-ZISSEN
  6
CONTINUOUS
 62
     7
 10
471.0
 20
261.5
 30
0.0
 11
450.0
 21
261.5
 31
0.0
  0
LINE
  8
L-ZISSEN
  6
CONTINUOUS
 62
     7
 10
450.0
 20
261.5
 30
0.0
 11
450.0
 21
81.5
 31
0.0
  0
LINE
  8
L-ZISSEN
  6
CONTINUOUS
 62
     7
 10
466.5
 20
81.5
 30
0.0
 11
466.5
 21
261.5
 31
0.0
  0
LINE
  8
L-ZISSEN
  6
CONTINUOUS
 62
     7
 10
225.0
 20
261.5
 30
0.0
 11
275.0
 21
261.5
 31
0.0
  0
LINE
  8
L-ZISSEN
  6
CONTINUOUS
 62
     7
 10
135.0
 20
81.5
 30
0.0
 11
85.0
 21
81.5
 31
0.0
  0
LINE
  8
L-ZISSEN
  6
CONTINUOUS
 62
     7
 10
233.0
 20
105.0
 30
0.0
 11
233.0
 21
81.5
 31
0.0
  0
ARC
  8
L-ZISSEN
  6
CONTINUOUS
 62
     7
 10
250.0
 20
96.5
 30
0.0
 40
5.6
 50
90.0
 51
270.0
  0
LINE
  8
L-ZISSEN
  6
CONTINUOUS
 62
     7
 10
450.0
 20
161.0
 30
0.0
 11
445.0
 21
161.0
 31
0.0
  0
LINE
  8
L-TYUSIN
  6
CENTER
 62
     1
 10
105.0
 20
106.5
 30
0.0
 11
105.0
 21
86.5
 31
0.0
  0
LINE
  8
L-TYUSIN
  6
CENTER
 62
     1
 10
400.0
 20
350.5
 30
0.0
 11
400.0
 21
69.5
 31
0.0
  0
LINE
  8
L-ZISSEN
  6
CONTINUOUS
 62
     7
 10
225.0
 20
274.0
 30
0.0
 11
135.0
 21
274.0
 31
0.0
  0
LINE
  8
L-ZISSEN
  6
CONTINUOUS
 62
     7
 10
374.0
 20
274.0
 30
0.0
 11
374.0
 21
345.5
 31
0.0
  0
LINE
  8
L-ZISSEN
  6
CONTINUOUS
 62
     7
 10
374.0
 20
274.0
 30
0.0
 11
355.0
 21
274.0
 31
0.0
  0
LINE
  8
L-ZISSEN
 10
426.0
 20
284.0
 30
0.0
 11
374.0
 21
284.0
 31
0.0
  0
LINE
  8
L-ZISSEN
  6
CONTINUOUS
 62
     7
 10
426.0
 20
274.0
 30
0.0
 11
426.0
 21
345.5
 31
0.0
  0
LINE
  8
L-ZISSEN
  6
CONTINUOUS
 62
     7
 10
445.0
 20
274.0
 30
0.0
 11
426.0
 21
274.0
 31
0.0
  0
LINE
  8
L-ZISSEN
  6
CONTINUOUS
 62
     7
 10
110.0
 20
110.0
 30
0.0
 11
110.0
 21
190.0
 31
0.0
  0
LINE
  8
L-ZISSEN
  6
CONTINUOUS
 62
     7
 10
127.0
 20
105.0
 30
0.0
 11
127.0
 21
81.5
 31
0.0
  0
LINE
  8
L-ZISSEN
  6
CONTINUOUS
 62
     7
 10
125.0
 20
105.0
 30
0.0
 11
125.0
 21
195.0
 31
0.0
  0
LINE
  8
L-ZISSEN
  6
CONTINUOUS
 62
     7
 10
135.0
 20
195.0
 30
0.0
 11
125.0
 21
195.0
 31
0.0
  0
LINE
  8
L-ZISSEN
  6
CONTINUOUS
 62
     7
 10
112.5
 20
177.5
 30
0.0
 11
125.0
 21
177.5
 31
0.0
  0
LINE
  8
L-ZISSEN
  6
CONTINUOUS
 62
     7
 10
112.5
 20
193.5
 30
0.0
 11
112.5
 21
177.5
 31
0.0
  0
LINE
  8
L-ZISSEN
  6
CONTINUOUS
 62
     7
 10
125.0
 20
193.5
 30
0.0
 11
112.5
 21
193.5
 31
0.0
  0
LINE
  8
L-ZISSEN
  6
CONTINUOUS
 62
     7
 10
112.5
 20
190.0
 30
0.0
 11
110.0
 21
190.0
 31
0.0
  0
LINE
  8
L-ZISSEN
  6
CONTINUOUS
 62
     7
 10
247.5
 20
190.0
 30
0.0
 11
250.0
 21
190.0
 31
0.0
  0
LINE
  8
L-ZISSEN
  6
CONTINUOUS
 62
     7
 10
235.0
 20
193.5
 30
0.0
 11
247.5
 21
193.5
 31
0.0
  0
LINE
  8
L-ZISSEN
  6
CONTINUOUS
 62
     7
 10
247.5
 20
193.5
 30
0.0
 11
247.5
 21
177.5
 31
0.0
  0
LINE
  8
L-ZISSEN
  6
CONTINUOUS
 62
     7
 10
247.5
 20
177.5
 30
0.0
 11
235.0
 21
177.5
 31
0.0
  0
LINE
  8
L-ZISSEN
  6
CONTINUOUS
 62
     7
 10
225.0
 20
195.0
 30
0.0
 11
235.0
 21
195.0
 31
0.0
  0
LINE
  8
L-ZISSEN
  6
CONTINUOUS
 62
     7
 10
235.0
 20
105.0
 30
0.0
 11
235.0
 21
195.0
 31
0.0
  0
LINE
  8
L-ZISSEN
  6
CONTINUOUS
 62
     7
 10
250.0
 20
110.0
 30
0.0
 11
250.0
 21
190.0
 31
0.0
  0
LINE
  8
L-ZISSEN
  6
CONTINUOUS
 62
     7
 10
247.5
 20
110.0
 30
0.0
 11
250.0
 21
110.0
 31
0.0
  0
LINE
  8
L-ZISSEN
  6
CONTINUOUS
 62
     7
 10
225.0
 20
105.0
 30
0.0
 11
235.0
 21
105.0
 31
0.0
  0
LINE
  8
L-ZISSEN
  6
CONTINUOUS
 62
     7
 10
247.5
 20
122.5
 30
0.0
 11
235.0
 21
122.5
 31
0.0
  0
LINE
  8
L-ZISSEN
  6
CONTINUOUS
 62
     7
 10
247.5
 20
106.5
 30
0.0
 11
247.5
 21
122.5
 31
0.0
  0
LINE
  8
L-ZISSEN
  6
CONTINUOUS
 62
     7
 10
235.0
 20
106.5
 30
0.0
 11
247.5
 21
106.5
 31
0.0
  0
LINE
  8
L-TYUSIN
  6
CENTER
 62
     1
 10
270.0
 20
96.5
 30
0.0
 11
240.0
 21
96.5
 31
0.0
  0
LINE
  8
L-TYUSIN
  6
CENTER
 62
     1
 10
255.0
 20
106.5
 30
0.0
 11
255.0
 21
86.5
 31
0.0
  0
LINE
  8
L-TYUSIN
  6
CENTER
 62
     1
 10
90.0
 20
236.5
 30
0.0
 11
120.0
 21
236.5
 31
0.0
  0
LINE
  8
L-TYUSIN
  6
CENTER
 62
     1
 10
105.0
 20
246.5
 30
0.0
 11
105.0
 21
226.5
 31
0.0
  0
LINE
  8
L-TYUSIN
  6
CENTER
 62
     1
 10
270.0
 20
236.5
 30
0.0
 11
240.0
 21
236.5
 31
0.0
  0
LINE
  8
L-TYUSIN
  6
CENTER
 62
     1
 10
255.0
 20
246.5
 30
0.0
 11
255.0
 21
226.5
 31
0.0
  0
LINE
  8
L-ZISSEN
 10
157.690129
 20
284.0
 30
0.0
 11
152.5
 21
284.0
 31
0.0
  0
LINE
  8
L-ZISSEN
 10
136.5
 20
284.0
 30
0.0
 11
135.0
 21
284.0
 31
0.0
  0
LINE
  8
L-ZISSEN
  6
CONTINUOUS
 62
     7
 10
223.5
 20
284.0
 30
0.0
 11
225.0
 21
284.0
 31
0.0
  0
LINE
  8
L-ZISSEN
  6
CONTINUOUS
 62
     7
 10
223.5
 20
286.5
 30
0.0
 11
207.5
 21
286.5
 31
0.0
  0
LINE
  8
L-ZISSEN
  6
CONTINUOUS
 62
     7
 10
207.5
 20
286.5
 30
0.0
 11
207.5
 21
274.0
 31
0.0
  0
LINE
  8
L-ZISSEN
  6
CONTINUOUS
 62
     7
 10
223.5
 20
274.0
 30
0.0
 11
223.5
 21
286.5
 31
0.0
  0
CIRCLE
  8
L-ZISSEN
 10
400.0
 20
275.0
 30
0.0
 40
4.283
  0
LINE
  8
L-ZISSEN
  6
CONTINUOUS
 62
     7
 10
356.5
 20
286.5
 30
0.0
 11
356.5
 21
274.0
 31
0.0
  0
LINE
  8
L-ZISSEN
  6
CONTINUOUS
 62
     7
 10
372.5
 20
286.5
 30
0.0
 11
356.5
 21
286.5
 31
0.0
  0
LINE
  8
L-ZISSEN
  6
CONTINUOUS
 62
     7
 10
372.5
 20
274.0
 30
0.0
 11
372.5
 21
286.5
 31
0.0
  0
LINE
  8
L-ZISSEN
  6
CONTINUOUS
 62
     7
 10
443.5
 20
274.0
 30
0.0
 11
443.5
 21
286.5
 31
0.0
  0
LINE
  8
L-ZISSEN
  6
CONTINUOUS
 62
     7
 10
443.5
 20
286.5
 30
0.0
 11
427.5
 21
286.5
 31
0.0
  0
LINE
  8
L-ZISSEN
  6
CONTINUOUS
 62
     7
 10
427.5
 20
286.5
 30
0.0
 11
427.5
 21
274.0
 31
0.0
  0
LINE
  8
L-ZISSEN
  6
CONTINUOUS
 62
     7
 10
445.0
 20
195.0
 30
0.0
 11
445.0
 21
74.5
 31
0.0
  0
LINE
  8
L-ZISSEN
  6
CONTINUOUS
 62
     7
 10
345.5
 20
249.5
 30
0.0
 11
333.0
 21
249.5
 31
0.0
  0
LINE
  8
L-ZISSEN
  6
CONTINUOUS
 62
     7
 10
333.0
 20
249.5
 30
0.0
 11
333.0
 21
233.5
 31
0.0
  0
LINE
  8
L-ZISSEN
  6
CONTINUOUS
 62
     7
 10
333.0
 20
233.5
 30
0.0
 11
345.5
 21
233.5
 31
0.0
  0
LINE
  8
L-ZISSEN
  6
CONTINUOUS
 62
     7
 10
345.5
 20
161.0
 30
0.0
 11
345.5
 21
251.0
 31
0.0
  0
LINE
  8
L-ZISSEN
  6
CONTINUOUS
 62
     7
 10
333.0
 20
178.5
 30
0.0
 11
345.5
 21
178.5
 31
0.0
  0
LINE
  8
L-ZISSEN
  6
CONTINUOUS
 62
     7
 10
333.0
 20
162.5
 30
0.0
 11
333.0
 21
178.5
 31
0.0
  0
LINE
  8
L-ZISSEN
  6
CONTINUOUS
 62
     7
 10
345.5
 20
162.5
 30
0.0
 11
333.0
 21
162.5
 31
0.0
  0
CIRCLE
  8
L-ZISSEN
 10
400.0
 20
150.0
 30
0.0
 40
22.4225
  0
LINE
  8
L-ZISSEN
  6
CONTINUOUS
 62
     7
 10
372.5
 20
74.5
 30
0.0
 11
372.5
 21
62.0
 31
0.0
  0
LINE
  8
L-ZISSEN
  6
CONTINUOUS
 62
     7
 10
372.5
 20
62.0
 30
0.0
 11
356.5
 21
62.0
 31
0.0
  0
LINE
  8
L-ZISSEN
  6
CONTINUOUS
 62
     7
 10
356.5
 20
62.0
 30
0.0
 11
356.5
 21
74.5
 31
0.0
  0
LINE
  8
L-ZISSEN
  6
CONTINUOUS
 62
     7
 10
427.5
 20
62.0
 30
0.0
 11
427.5
 21
74.5
 31
0.0
  0
LINE
  8
L-ZISSEN
  6
CONTINUOUS
 62
     7
 10
443.5
 20
62.0
 30
0.0
 11
427.5
 21
62.0
 31
0.0
  0
LINE
  8
L-ZISSEN
  6
CONTINUOUS
 62
     7
 10
443.5
 20
74.5
 30
0.0
 11
443.5
 21
62.0
 31
0.0
  0
CIRCLE
  8
L-ZISSEN
  6
CONTINUOUS
 62
     7
 10
435.5
 20
114.5
 30
0.0
 40
8.0
  0
CIRCLE
  8
L-ZISSEN
  6
CONTINUOUS
 62
     7
 10
435.5
 20
185.5
 30
0.0
 40
8.0
  0
CIRCLE
  8
L-ZISSEN
  6
CONTINUOUS
 62
     7
 10
364.5
 20
185.5
 30
0.0
 40
8.0
  0
CIRCLE
  8
L-ZISSEN
  6
CONTINUOUS
 62
     7
 10
364.5
 20
114.5
 30
0.0
 40
8.0
  0
LINE
  8
L-TYUSIN
  6
CENTER
 62
     1
 10
476.0
 20
96.5
 30
0.0
 11
461.5
 21
96.5
 31
0.0
  0
LINE
  8
L-TYUSIN
  6
CENTER
 62
     1
 10
476.0
 20
236.5
 30
0.0
 11
461.5
 21
236.5
 31
0.0
  0
LINE
  8
L-TYUSIN
  6
CENTER
 62
     1
 10
450.0
 20
150.0
 30
0.0
 11
350.0
 21
150.0
 31
0.0
  0
LINE
  8
L-ZISSEN
  6
CONTINUOUS
 62
     7
 10
1612.5
 20
475.0
 30
0.0
 11
1607.0
 21
475.0
 31
0.0
  0
LINE
  8
L-ZISSEN
  6
CONTINUOUS
 62
     7
 10
1625.0
 20
478.5
 30
0.0
 11
1612.5
 21
478.5
 31
0.0
  0
LINE
  8
L-ZISSEN
  6
CONTINUOUS
 62
     7
 10
1612.5
 20
478.5
 30
0.0
 11
1612.5
 21
462.5
 31
0.0
  0
LINE
  8
L-ZISSEN
  6
CONTINUOUS
 62
     7
 10
1612.5
 20
462.5
 30
0.0
 11
1625.0
 21
462.5
 31
0.0
  0
LINE
  8
L-ZISSEN
  6
CONTINUOUS
 62
     7
 10
1635.0
 20
480.0
 30
0.0
 11
1625.0
 21
480.0
 31
0.0
  0
LINE
  8
L-ZISSEN
  6
CONTINUOUS
 62
     7
 10
1625.0
 20
390.0
 30
0.0
 11
1625.0
 21
480.0
 31
0.0
  0
LINE
  8
L-ZISSEN
  6
CONTINUOUS
 62
     7
 10
1607.0
 20
395.0
 30
0.0
 11
1607.0
 21
475.0
 31
0.0
  0
LINE
  8
L-ZISSEN
  6
CONTINUOUS
 62
     7
 10
1612.5
 20
395.0
 30
0.0
 11
1607.0
 21
395.0
 31
0.0
  0
LINE
  8
L-ZISSEN
  6
CONTINUOUS
 62
     7
 10
1635.0
 20
390.0
 30
0.0
 11
1625.0
 21
390.0
 31
0.0
  0
LINE
  8
L-ZISSEN
  6
CONTINUOUS
 62
     7
 10
1612.5
 20
407.5
 30
0.0
 11
1625.0
 21
407.5
 31
0.0
  0
LINE
  8
L-ZISSEN
  6
CONTINUOUS
 62
     7
 10
1612.5
 20
391.5
 30
0.0
 11
1612.5
 21
407.5
 31
0.0
  0
LINE
  8
L-ZISSEN
  6
CONTINUOUS
 62
     7
 10
1625.0
 20
391.5
 30
0.0
 11
1612.5
 21
391.5
 31
0.0
  0
LINE
  8
L-ZISSEN
  6
CONTINUOUS
 62
     7
 10
1735.0
 20
391.5
 30
0.0
 11
1747.5
 21
391.5
 31
0.0
  0
LINE
  8
L-ZISSEN
  6
CONTINUOUS
 62
     7
 10
1747.5
 20
391.5
 30
0.0
 11
1747.5
 21
407.5
 31
0.0
  0
LINE
  8
L-ZISSEN
  6
CONTINUOUS
 62
     7
 10
1747.5
 20
407.5
 30
0.0
 11
1735.0
 21
407.5
 31
0.0
  0
LINE
  8
L-ZISSEN
  6
CONTINUOUS
 62
     7
 10
1725.0
 20
390.0
 30
0.0
 11
1735.0
 21
390.0
 31
0.0
  0
LINE
  8
L-ZISSEN
  6
CONTINUOUS
 62
     7
 10
1747.5
 20
395.0
 30
0.0
 11
1753.0
 21
395.0
 31
0.0
  0
LINE
  8
L-ZISSEN
  6
CONTINUOUS
 62
     7
 10
1753.0
 20
395.0
 30
0.0
 11
1753.0
 21
475.0
 31
0.0
  0
LINE
  8
L-ZISSEN
  6
CONTINUOUS
 62
     7
 10
1735.0
 20
390.0
 30
0.0
 11
1735.0
 21
480.0
 31
0.0
  0
LINE
  8
L-ZISSEN
  6
CONTINUOUS
 62
     7
 10
1725.0
 20
480.0
 30
0.0
 11
1735.0
 21
480.0
 31
0.0
  0
LINE
  8
L-ZISSEN
  6
CONTINUOUS
 62
     7
 10
1747.5
 20
462.5
 30
0.0
 11
1735.0
 21
462.5
 31
0.0
  0
LINE
  8
L-ZISSEN
  6
CONTINUOUS
 62
     7
 10
1747.5
 20
478.5
 30
0.0
 11
1747.5
 21
462.5
 31
0.0
  0
LINE
  8
L-ZISSEN
  6
CONTINUOUS
 62
     7
 10
1735.0
 20
478.5
 30
0.0
 11
1747.5
 21
478.5
 31
0.0
  0
LINE
  8
L-ZISSEN
  6
CONTINUOUS
 62
     7
 10
1747.5
 20
475.0
 30
0.0
 11
1753.0
 21
475.0
 31
0.0
  0
LINE
  8
L-TYUSIN
  6
CENTER
 62
     1
 10
270.1
 20
500.0
 30
0.0
 11
105.0
 21
500.0
 31
0.0
  0
LINE
  8
L-TYUSIN
  6
CENTER
 62
     1
 10
180.0
 20
557.0
 30
0.0
 11
180.0
 21
440.5
 31
0.0
  0
LINE
  8
L-ZISSEN
  6
CONTINUOUS
 62
     7
 10
135.0
 20
450.0
 30
0.0
 11
225.0
 21
450.0
 31
0.0
  0
LINE
  8
L-ZISSEN
  6
CONTINUOUS
 62
     7
 10
136.5
 20
445.5
 30
0.0
 11
136.5
 21
433.0
 31
0.0
  0
LINE
  8
L-ZISSEN
  6
CONTINUOUS
 62
     7
 10
136.5
 20
433.0
 30
0.0
 11
152.5
 21
433.0
 31
0.0
  0
LINE
  8
L-ZISSEN
  6
CONTINUOUS
 62
     7
 10
152.5
 20
433.0
 30
0.0
 11
152.5
 21
445.5
 31
0.0
  0
LINE
  8
L-ZISSEN
  6
CONTINUOUS
 62
     7
 10
207.5
 20
433.0
 30
0.0
 11
207.5
 21
445.5
 31
0.0
  0
LINE
  8
L-ZISSEN
  6
CONTINUOUS
 62
     7
 10
223.5
 20
433.0
 30
0.0
 11
207.5
 21
433.0
 31
0.0
  0
LINE
  8
L-ZISSEN
  6
CONTINUOUS
 62
     7
 10
223.5
 20
445.5
 30
0.0
 11
223.5
 21
433.0
 31
0.0
  0
LINE
  8
L-ZISSEN
  6
CONTINUOUS
 62
     7
 10
135.0
 20
550.0
 30
0.0
 11
135.0
 21
445.5
 31
0.0
  0
LINE
  8
L-ZISSEN
  6
CONTINUOUS
 62
     7
 10
225.0
 20
550.0
 30
0.0
 11
225.0
 21
525.759047
 31
0.0
  0
LINE
  8
L-ZISSEN
 10
233.0
 20
550.0
 30
0.0
 11
127.0
 21
550.0
 31
0.0
  0
LINE
  8
L-ZISSEN
  6
CONTINUOUS
 62
     7
 10
112.5
 20
540.0
 30
0.0
 11
110.0
 21
540.0
 31
0.0
  0
LINE
  8
L-ZISSEN
  6
CONTINUOUS
 62
     7
 10
125.0
 20
543.5
 30
0.0
 11
112.5
 21
543.5
 31
0.0
  0
LINE
  8
L-ZISSEN
  6
CONTINUOUS
 62
     7
 10
112.5
 20
543.5
 30
0.0
 11
112.5
 21
527.5
 31
0.0
  0
LINE
  8
L-ZISSEN
  6
CONTINUOUS
 62
     7
 10
112.5
 20
527.5
 30
0.0
 11
125.0
 21
527.5
 31
0.0
  0
LINE
  8
L-ZISSEN
  6
CONTINUOUS
 62
     7
 10
125.0
 20
455.0
 30
0.0
 11
125.0
 21
545.0
 31
0.0
  0
LINE
  8
L-ZISSEN
  6
CONTINUOUS
 62
     7
 10
110.0
 20
460.0
 30
0.0
 11
110.0
 21
540.0
 31
0.0
  0
LINE
  8
L-ZISSEN
  6
CONTINUOUS
 62
     7
 10
112.5
 20
460.0
 30
0.0
 11
110.0
 21
460.0
 31
0.0
  0
LINE
  8
L-ZISSEN
  6
CONTINUOUS
 62
     7
 10
112.5
 20
472.5
 30
0.0
 11
125.0
 21
472.5
 31
0.0
  0
LINE
  8
L-ZISSEN
  6
CONTINUOUS
 62
     7
 10
112.5
 20
456.5
 30
0.0
 11
112.5
 21
472.5
 31
0.0
  0
LINE
  8
L-ZISSEN
  6
CONTINUOUS
 62
     7
 10
125.0
 20
456.5
 30
0.0
 11
112.5
 21
456.5
 31
0.0
  0
LINE
  8
L-ZISSEN
  6
CONTINUOUS
 62
     7
 10
235.0
 20
545.0
 30
0.0
 11
125.0
 21
545.0
 31
0.0
  0
LINE
  8
L-ZISSEN
  6
CONTINUOUS
 62
     7
 10
235.0
 20
455.0
 30
0.0
 11
125.0
 21
455.0
 31
0.0
  0
LINE
  8
L-ZISSEN
  6
CONTINUOUS
 62
     7
 10
235.0
 20
456.5
 30
0.0
 11
247.5
 21
456.5
 31
0.0
  0
LINE
  8
L-ZISSEN
  6
CONTINUOUS
 62
     7
 10
247.5
 20
456.5
 30
0.0
 11
247.5
 21
472.5
 31
0.0
  0
LINE
  8
L-ZISSEN
  6
CONTINUOUS
 62
     7
 10
247.5
 20
472.5
 30
0.0
 11
235.0
 21
472.5
 31
0.0
  0
LINE
  8
L-ZISSEN
  6
CONTINUOUS
 62
     7
 10
247.5
 20
460.0
 30
0.0
 11
250.0
 21
460.0
 31
0.0
  0
LINE
  8
L-ZISSEN
  6
CONTINUOUS
 62
     7
 10
250.0
 20
460.0
 30
0.0
 11
250.0
 21
475.113973
 31
0.0
  0
LINE
  8
L-ZISSEN
  6
CONTINUOUS
 62
     7
 10
235.0
 20
455.0
 30
0.0
 11
235.0
 21
474.590161
 31
0.0
  0
LINE
  8
L-ZISSEN
  6
CONTINUOUS
 62
     7
 10
247.5
 20
527.5
 30
0.0
 11
235.0
 21
527.5
 31
0.0
  0
LINE
  8
L-ZISSEN
  6
CONTINUOUS
 62
     7
 10
247.5
 20
543.5
 30
0.0
 11
247.5
 21
527.5
 31
0.0
  0
LINE
  8
L-ZISSEN
  6
CONTINUOUS
 62
     7
 10
235.0
 20
543.5
 30
0.0
 11
247.5
 21
543.5
 31
0.0
  0
LINE
  8
L-ZISSEN
  6
CONTINUOUS
 62
     7
 10
247.5
 20
540.0
 30
0.0
 11
250.0
 21
540.0
 31
0.0
  0
LINE
  8
L-ZISSEN
 10
275.0
 20
571.0
 30
0.0
 11
228.5
 21
571.0
 31
0.0
  0
LINE
  8
L-ZISSEN
 10
275.0
 20
566.5
 30
0.0
 11
275.0
 21
571.0
 31
0.0
  0
LINE
  8
L-ZISSEN
 10
275.0
 20
566.5
 30
0.0
 11
233.0
 21
566.5
 31
0.0
  0
CIRCLE
  8
L-ZISSEN
  6
CONTINUOUS
 62
     7
 10
144.5
 20
464.5
 30
0.0
 40
8.0
  0
CIRCLE
  8
L-ZISSEN
  6
CONTINUOUS
 62
     7
 10
215.5
 20
464.5
 30
0.0
 40
8.0
  0
CIRCLE
  8
L-ZISSEN
  6
CONTINUOUS
 62
     7
 10
215.5
 20
535.5
 30
0.0
 40
8.0
  0
CIRCLE
  8
L-ZISSEN
  6
CONTINUOUS
 62
     7
 10
144.5
 20
535.5
 30
0.0
 40
8.0
  0
LINE
  8
L-ZISSEN
 10
233.0
 20
550.0
 30
0.0
 11
233.0
 21
566.5
 31
0.0
  0
LINE
  8
L-ZISSEN
 10
228.5
 20
554.5
 30
0.0
 11
131.5
 21
554.5
 31
0.0
  0
LINE
  8
L-ZISSEN
 10
228.5
 20
554.5
 30
0.0
 11
228.5
 21
571.0
 31
0.0
  0
LINE
  8
L-ZISSEN
 10
131.5
 20
554.5
 30
0.0
 11
131.5
 21
571.0
 31
0.0
  0
LINE
  8
L-ZISSEN
 10
127.0
 20
550.0
 30
0.0
 11
127.0
 21
566.5
 31
0.0
  0
LINE
  8
L-ZISSEN
 10
85.0
 20
566.5
 30
0.0
 11
127.0
 21
566.5
 31
0.0
  0
LINE
  8
L-ZISSEN
 10
85.0
 20
566.5
 30
0.0
 11
85.0
 21
571.0
 31
0.0
  0
LINE
  8
L-ZISSEN
 10
85.0
 20
571.0
 30
0.0
 11
131.5
 21
571.0
 31
0.0
  0
LINE
  8
L-TYUSIN
  6
CENTER
 62
     1
 10
255.0
 20
576.0
 30
0.0
 11
255.0
 21
561.5
 31
0.0
  0
LINE
  8
L-TYUSIN
  6
CENTER
 62
     1
 10
105.0
 20
576.0
 30
0.0
 11
105.0
 21
561.5
 31
0.0
  0
LINE
  8
L-ZISSEN
  6
CONTINUOUS
 62
     7
 10
136.5
 20
567.0
 30
0.0
 11
136.5
 21
554.5
 31
0.0
  0
LINE
  8
L-ZISSEN
  6
CONTINUOUS
 62
     7
 10
152.5
 20
567.0
 30
0.0
 11
136.5
 21
567.0
 31
0.0
  0
LINE
  8
L-ZISSEN
  6
CONTINUOUS
 62
     7
 10
152.5
 20
554.5
 30
0.0
 11
152.5
 21
567.0
 31
0.0
  0
LINE
  8
L-ZISSEN
  6
CONTINUOUS
 62
     7
 10
223.5
 20
567.0
 30
0.0
 11
207.5
 21
567.0
 31
0.0
  0
LINE
  8
L-ZISSEN
  6
CONTINUOUS
 62
     7
 10
207.5
 20
567.0
 30
0.0
 11
207.5
 21
554.5
 31
0.0
  0
LINE
  8
L-ZISSEN
  6
CONTINUOUS
 62
     7
 10
223.5
 20
554.5
 30
0.0
 11
223.5
 21
567.0
 31
0.0
  0
TEXT
  8
L-ZISSEN
 10
1600.0
 20
520.0
 30
0.0
 40
4.5
  1
MODEL NO. : 26B-C00-****
  0
TEXT
  8
L-ZISSEN
 10
1600.0
 20
530.0
 30
0.0
 40
4.5
  1
FLANGE
  0
SOLID
  8
L-ZISSEN
 10
180.933333
 20
148.2
 30
0.0
 11
181.466667
 21
148.6
 31
0.0
 12
180.0
 22
150.0
 32
0.0
 13
180.0
 23
150.0
 33
0.0
  0
LINE
  8
L-ZISSEN
 10
181.2
 20
148.4
 30
0.0
 11
240.0
 21
70.0
 31
0.0
  0
LINE
  8
L-ZISSEN
 10
240.0
 20
70.0
 30
0.0
 11
242.0
 21
70.0
 31
0.0
  0
TEXT
  8
L-ZISSEN
 10
244.0
 20
67.75
 30
0.0
 40
4.5
  1
P.P
  0
SOLID
  8
L-ZISSEN
 10
1680.370222
 20
433.006499
 30
0.0
 11
1680.996751
 21
433.234328
 31
0.0
 12
1680.0
 22
435.0
 32
0.0
 13
1680.0
 23
435.0
 33
0.0
  0
LINE
  8
L-ZISSEN
 10
1680.683486
 20
433.120413
 30
0.0
 11
1700.0
 21
380.0
 31
0.0
  0
LINE
  8
L-ZISSEN
 10
1700.0
 20
380.0
 30
0.0
 11
1702.0
 21
380.0
 31
0.0
  0
TEXT
  8
L-ZISSEN
 10
1704.0
 20
377.75
 30
0.0
 40
4.5
  1
P.P
  0
SOLID
  8
L-ZISSEN
 10
180.186628
 20
497.98102
 30
0.0
 11
180.831345
 21
498.150682
 31
0.0
 12
180.0
 22
500.0
 32
0.0
 13
180.0
 23
500.0
 33
0.0
  0
LINE
  8
L-ZISSEN
 10
180.508987
 20
498.065851
 30
0.0
 11
200.984456
 21
420.259067
 31
0.0
  0
LINE
  8
L-ZISSEN
 10
200.984456
 20
420.259067
 30
0.0
 11
202.984456
 21
420.259067
 31
0.0
  0
TEXT
  8
L-ZISSEN
 10
204.984456
 20
418.009067
 30
0.0
 40
4.5
  1
P.P
  0
TEXT
  8
L-ZISSEN
 10
50.0
 20
625.0
 30
0.0
 40
4.5
  1
MODEL NO. : 26B- 00-  B0
  0
TEXT
  8
L-ZISSEN
 10
133.0
 20
628.0
 30
0.0
 40
4.5
  1
0
  0
TEXT
  8
L-ZISSEN
 10
133.0
 20
622.0
 30
0.0
 40
4.5
  1
1
  0
LINE
  8
L-ZISSEN
 10
206.0
 20
344.0
 30
0.0
 11
154.0
 21
344.0
 31
0.0
  0
ARC
  8
L-ZISSEN
 10
180.0
 20
331.0
 30
0.0
 40
13.0
 50
125.234418
 51
54.765582
  0
CIRCLE
  8
L-ZISSEN
 10
180.0
 20
331.0
 30
0.0
 40
9.3
  0
LINE
  8
L-ZISSEN
 10
187.5
 20
344.0
 30
0.0
 11
187.5
 21
341.618381
 31
0.0
  0
LINE
  8
L-ZISSEN
 10
172.5
 20
344.0
 30
0.0
 11
172.5
 21
341.618381
 31
0.0
  0
LINE
  8
L-ZISSEN
 10
206.0
 20
345.5
 30
0.0
 11
206.0
 21
336.0
 31
0.0
  0
LINE
  8
L-ZISSEN
 10
154.0
 20
345.5
 30
0.0
 11
154.0
 21
336.0
 31
0.0
  0
LINE
  8
L-ZISSEN
 10
149.9
 20
336.0
 30
0.0
 11
154.0
 21
336.0
 31
0.0
  0
LINE
  8
L-ZISSEN
 10
206.0
 20
336.0
 30
0.0
 11
218.1
 21
336.0
 31
0.0
  0
LINE
  8
L-ZISSEN
 10
208.1
 20
336.0
 30
0.0
 11
208.1
 21
286.5
 31
0.0
  0
LINE
  8
L-ZISSEN
 10
149.9
 20
336.0
 30
0.0
 11
149.9
 21
286.5
 31
0.0
  0
LINE
  8
L-ZISSEN
 10
151.9
 20
336.0
 30
0.0
 11
151.9
 21
286.5
 31
0.0
  0
LINE
  8
L-ZISSEN
 10
154.0
 20
345.5
 30
0.0
 11
206.0
 21
345.5
 31
0.0
  0
LINE
  8
L-ZISSEN
 10
1406.7
 20
639.0
 30
0.0
 11
1406.7
 21
601.0
 31
0.0
  0
LINE
  8
L-ZISSEN
 10
1396.1
 20
646.0
 30
0.0
 11
1396.1
 21
594.0
 31
0.0
  0
LINE
  8
L-ZISSEN
 10
1322.0
 20
646.0
 30
0.0
 11
1396.1
 21
646.0
 31
0.0
  0
LINE
  8
L-ZISSEN
 10
1177.9
 20
594.0
 30
0.0
 11
1396.1
 21
594.0
 31
0.0
  0
LINE
  8
L-ZISSEN
 10
1400.74282
 20
639.0
 30
0.0
 11
1406.7
 21
639.0
 31
0.0
  0
LINE
  8
L-ZISSEN
 10
1400.74282
 20
601.0
 30
0.0
 11
1406.7
 21
601.0
 31
0.0
  0
LINE
  8
L-ZISSEN
 10
1400.74282
 20
644.49995
 30
0.0
 11
1396.1
 21
644.49995
 31
0.0
  0
LINE
  8
L-ZISSEN
 10
1406.7
 20
631.0
 30
0.0
 11
1407.7
 21
631.0
 31
0.0
  0
LINE
  8
L-ZISSEN
 10
1407.7
 20
609.0
 30
0.0
 11
1406.7
 21
609.0
 31
0.0
  0
LINE
  8
L-ZISSEN
 10
1407.7
 20
631.0
 30
0.0
 11
1407.7
 21
609.0
 31
0.0
  0
LINE
  8
L-ZISSEN
  6
CONTINUOUS
 62
     7
 10
1324.1
 20
594.0
 30
0.0
 11
1324.1
 21
646.0
 31
0.0
  0
LINE
  8
L-ZISSEN
 10
1400.74282
 20
635.50005
 30
0.0
 11
1400.74282
 21
644.49995
 31
0.0
  0
LINE
  8
L-ZISSEN
 10
1400.74282
 20
635.50005
 30
0.0
 11
1396.1
 21
635.50005
 31
0.0
  0
LINE
  8
L-ZISSEN
 10
1400.74282
 20
604.49995
 30
0.0
 11
1396.1
 21
604.49995
 31
0.0
  0
LINE
  8
L-ZISSEN
 10
1400.74282
 20
604.49995
 30
0.0
 11
1400.74282
 21
595.50005
 31
0.0
  0
LINE
  8
L-ZISSEN
 10
1400.74282
 20
595.50005
 30
0.0
 11
1396.1
 21
595.50005
 31
0.0
  0
CIRCLE
  8
L-ZISSEN
 10
1287.0
 20
641.0
 30
0.0
 40
9.3155
  0
LINE
  8
L-ZISSEN
  6
CONTINUOUS
 62
     7
 10
1259.5
 20
659.1
 30
0.0
 11
1252.5
 21
659.1
 31
0.0
  0
LINE
  8
L-ZISSEN
  6
CONTINUOUS
 62
     7
 10
1259.5
 20
655.5
 30
0.0
 11
1259.5
 21
659.1
 31
0.0
  0
LINE
  8
L-ZISSEN
  6
CONTINUOUS
 62
     7
 10
1252.5
 20
655.5
 30
0.0
 11
1252.5
 21
659.1
 31
0.0
  0
LINE
  8
L-ZISSEN
  6
CONTINUOUS
 62
     7
 10
1252.0
 20
655.5
 30
0.0
 11
1252.0
 21
646.0
 31
0.0
  0
LINE
  8
L-ZISSEN
  6
CONTINUOUS
 62
     7
 10
1321.5
 20
655.5
 30
0.0
 11
1321.5
 21
659.1
 31
0.0
  0
LINE
  8
L-ZISSEN
  6
CONTINUOUS
 62
     7
 10
1314.5
 20
655.5
 30
0.0
 11
1314.5
 21
659.1
 31
0.0
  0
LINE
  8
L-ZISSEN
  6
CONTINUOUS
 62
     7
 10
1314.5
 20
659.1
 30
0.0
 11
1321.5
 21
659.1
 31
0.0
  0
LINE
  8
L-ZISSEN
  6
CONTINUOUS
 62
     7
 10
1279.5
 20
654.0
 30
0.0
 11
1279.5
 21
651.618381
 31
0.0
  0
LINE
  8
L-ZISSEN
  6
CONTINUOUS
 62
     7
 10
1294.5
 20
654.0
 30
0.0
 11
1294.5
 21
651.618381
 31
0.0
  0
ARC
  8
L-ZISSEN
  6
CONTINUOUS
 62
     7
 10
1287.0
 20
641.0
 30
0.0
 40
13.0
 50
125.234418
 51
54.765582
  0
LINE
  8
L-ZISSEN
  6
CONTINUOUS
 62
     7
 10
1324.1
 20
594.0
 30
0.0
 11
1324.1
 21
646.0
 31
0.0
  0
LINE
  8
L-ZISSEN
  6
CONTINUOUS
 62
     7
 10
1252.0
 20
655.5
 30
0.0
 11
1321.9
 21
655.5
 31
0.0
  0
LINE
  8
L-ZISSEN
  6
CONTINUOUS
 62
     7
 10
1322.0
 20
655.5
 30
0.0
 11
1322.0
 21
646.0
 31
0.0
  0
LINE
  8
L-ZISSEN
  6
CONTINUOUS
 62
     7
 10
1321.9
 20
654.0
 30
0.0
 11
1252.0
 21
654.0
 31
0.0
  0
LINE
  8
L-ZISSEN
 10
193.0
 20
472.0
 30
0.0
 11
167.0
 21
472.0
 31
0.0
  0
LINE
  8
L-ZISSEN
 10
193.0
 20
474.0
 30
0.0
 11
193.0
 21
472.0
 31
0.0
  0
LINE
  8
L-ZISSEN
 10
193.0
 20
528.0
 30
0.0
 11
167.0
 21
528.0
 31
0.0
  0
LINE
  8
L-ZISSEN
 10
193.0
 20
528.0
 30
0.0
 11
193.0
 21
526.0
 31
0.0
  0
LINE
  8
L-ZISSEN
 10
167.0
 20
528.0
 30
0.0
 11
167.0
 21
526.0
 31
0.0
  0
LINE
  8
L-ZISSEN
 10
167.0
 20
474.0
 30
0.0
 11
167.0
 21
472.0
 31
0.0
  0
LINE
  8
L-ZISSEN
  6
CONTINUOUS
 62
     7
 10
151.9
 20
474.0
 30
0.0
 11
151.9
 21
526.0
 31
0.0
  0
LINE
  8
L-ZISSEN
  6
CONTINUOUS
 62
     7
 10
149.9
 20
526.0
 30
0.0
 11
149.9
 21
474.0
 31
0.0
  0
LINE
  8
L-ZISSEN
  6
CONTINUOUS
 62
     7
 10
146.6
 20
524.5
 30
0.0
 11
146.6
 21
515.5
 31
0.0
  0
LINE
  8
L-ZISSEN
  6
CONTINUOUS
 62
     7
 10
149.9
 20
515.5
 30
0.0
 11
146.6
 21
515.5
 31
0.0
  0
LINE
  8
L-ZISSEN
  6
CONTINUOUS
 62
     7
 10
149.9
 20
524.5
 30
0.0
 11
146.6
 21
524.5
 31
0.0
  0
LINE
  8
L-ZISSEN
  6
CONTINUOUS
 62
     7
 10
149.9
 20
484.5
 30
0.0
 11
146.6
 21
484.5
 31
0.0
  0
LINE
  8
L-ZISSEN
  6
CONTINUOUS
 62
     7
 10
149.9
 20
475.5
 30
0.0
 11
146.6
 21
475.5
 31
0.0
  0
LINE
  8
L-ZISSEN
  6
CONTINUOUS
 62
     7
 10
146.6
 20
484.5
 30
0.0
 11
146.6
 21
475.5
 31
0.0
  0
LINE
  8
L-ZISSEN
  6
CONTINUOUS
 62
     7
 10
208.1
 20
474.0
 30
0.0
 11
208.1
 21
526.0
 31
0.0
  0
LINE
  8
L-ZISSEN
  6
CONTINUOUS
 62
     7
 10
218.1
 20
526.0
 30
0.0
 11
264.1
 21
524.393644
 31
0.0
  0
LINE
  8
L-ZISSEN
  6
CONTINUOUS
 62
     7
 10
265.1
 20
489.0
 30
0.0
 11
264.1
 21
489.0
 31
0.0
  0
LINE
  8
L-ZISSEN
  6
CONTINUOUS
 62
     7
 10
265.1
 20
511.0
 30
0.0
 11
265.1
 21
489.0
 31
0.0
  0
LINE
  8
L-ZISSEN
  6
CONTINUOUS
 62
     7
 10
265.1
 20
511.0
 30
0.0
 11
264.1
 21
511.0
 31
0.0
  0
LINE
  8
L-ZISSEN
  6
CONTINUOUS
 62
     7
 10
264.1
 20
475.606356
 30
0.0
 11
264.1
 21
524.393644
 31
0.0
  0
LINE
  8
L-ZISSEN
  6
CONTINUOUS
 62
     7
 10
218.1
 20
474.0
 30
0.0
 11
264.1
 21
475.606356
 31
0.0
  0
LINE
  8
L-ZISSEN
 10
208.1
 20
474.0
 30
0.0
 11
208.1
 21
526.0
 31
0.0
  0
LINE
  8
L-ZISSEN
 10
225.0
 20
526.0
 30
0.0
 11
135.0
 21
526.0
 31
0.0
  0
LINE
  8
L-ZISSEN
 10
225.0
 20
474.0
 30
0.0
 11
135.0
 21
474.0
 31
0.0
  0
LINE
  8
L-ZISSEN
 10
154.0
 20
474.0
 30
0.0
 11
154.0
 21
526.0
 31
0.0
  0
LINE
  8
L-ZISSEN
 10
206.0
 20
474.0
 30
0.0
 11
206.0
 21
526.0
 31
0.0
  0
LINE
  8
L-ZISSEN
 10
1396.1
 20
684.0
 30
0.0
 11
1177.9
 21
684.0
 31
0.0
  0
LINE
  8
L-ZISSEN
 10
1322.0
 20
684.0
 30
0.0
 11
1322.0
 21
736.0
 31
0.0
  0
LINE
  8
L-ZISSEN
  6
CONTINUOUS
 62
     7
 10
1324.1
 20
684.0
 30
0.0
 11
1324.1
 21
736.0
 31
0.0
  0
LINE
  8
L-ZISSEN
 10
1274.0
 20
682.0
 30
0.0
 11
1274.0
 21
684.0
 31
0.0
  0
LINE
  8
L-ZISSEN
 10
1300.0
 20
682.0
 30
0.0
 11
1274.0
 21
682.0
 31
0.0
  0
LINE
  8
L-ZISSEN
 10
1300.0
 20
682.0
 30
0.0
 11
1300.0
 21
684.0
 31
0.0
  0
LINE
  8
L-ZISSEN
 10
1396.1
 20
736.0
 30
0.0
 11
1177.9
 21
736.0
 31
0.0
  0
LINE
  8
L-ZISSEN
 10
1300.0
 20
738.0
 30
0.0
 11
1300.0
 21
736.0
 31
0.0
  0
LINE
  8
L-ZISSEN
 10
1300.0
 20
738.0
 30
0.0
 11
1274.0
 21
738.0
 31
0.0
  0
LINE
  8
L-ZISSEN
 10
1274.0
 20
738.0
 30
0.0
 11
1274.0
 21
736.0
 31
0.0
  0
LINE
  8
L-ZISSEN
 10
1400.74282
 20
685.50005
 30
0.0
 11
1396.1
 21
685.50005
 31
0.0
  0
LINE
  8
L-ZISSEN
 10
1400.74282
 20
694.49995
 30
0.0
 11
1400.74282
 21
685.50005
 31
0.0
  0
LINE
  8
L-ZISSEN
 10
1400.74282
 20
694.49995
 30
0.0
 11
1396.1
 21
694.49995
 31
0.0
  0
LINE
  8
L-ZISSEN
 10
1400.74282
 20
725.50005
 30
0.0
 11
1396.1
 21
725.50005
 31
0.0
  0
LINE
  8
L-ZISSEN
 10
1400.74282
 20
725.50005
 30
0.0
 11
1400.74282
 21
734.49995
 31
0.0
  0
LINE
  8
L-ZISSEN
 10
1407.7
 20
721.0
 30
0.0
 11
1407.7
 21
699.0
 31
0.0
  0
LINE
  8
L-ZISSEN
 10
1407.7
 20
699.0
 30
0.0
 11
1406.7
 21
699.0
 31
0.0
  0
LINE
  8
L-ZISSEN
 10
1406.7
 20
721.0
 30
0.0
 11
1407.7
 21
721.0
 31
0.0
  0
LINE
  8
L-ZISSEN
 10
1400.74282
 20
734.49995
 30
0.0
 11
1396.1
 21
734.49995
 31
0.0
  0
LINE
  8
L-ZISSEN
 10
1400.74282
 20
691.0
 30
0.0
 11
1406.7
 21
691.0
 31
0.0
  0
LINE
  8
L-ZISSEN
 10
1400.74282
 20
729.0
 30
0.0
 11
1406.7
 21
729.0
 31
0.0
  0
LINE
  8
L-ZISSEN
 10
1396.1
 20
736.0
 30
0.0
 11
1396.1
 21
684.0
 31
0.0
  0
LINE
  8
L-ZISSEN
 10
1406.7
 20
729.0
 30
0.0
 11
1406.7
 21
691.0
 31
0.0
  0
CIRCLE
  8
L-ZISSEN
 10
1490.0
 20
620.0
 30
0.0
 40
11.0
  0
LINE
  8
L-ZISSEN
  6
CONTINUOUS
 62
     7
 10
1515.5
 20
655.5
 30
0.0
 11
1515.5
 21
659.1
 31
0.0
  0
LINE
  8
L-ZISSEN
  6
CONTINUOUS
 62
     7
 10
1508.5
 20
655.5
 30
0.0
 11
1508.5
 21
659.1
 31
0.0
  0
LINE
  8
L-ZISSEN
  6
CONTINUOUS
 62
     7
 10
1508.5
 20
659.1
 30
0.0
 11
1515.5
 21
659.1
 31
0.0
  0
LINE
  8
L-ZISSEN
 10
1516.0
 20
628.0
 30
0.0
 11
1518.0
 21
628.0
 31
0.0
  0
LINE
  8
L-ZISSEN
 10
1462.0
 20
628.0
 30
0.0
 11
1464.0
 21
628.0
 31
0.0
  0
LINE
  8
L-ZISSEN
  6
CONTINUOUS
 62
     7
 10
1471.5
 20
659.1
 30
0.0
 11
1464.5
 21
659.1
 31
0.0
  0
LINE
  8
L-ZISSEN
  6
CONTINUOUS
 62
     7
 10
1471.5
 20
655.5
 30
0.0
 11
1471.5
 21
659.1
 31
0.0
  0
LINE
  8
L-ZISSEN
  6
CONTINUOUS
 62
     7
 10
1464.5
 20
655.5
 30
0.0
 11
1464.5
 21
659.1
 31
0.0
  0
LINE
  8
L-ZISSEN
 10
1518.0
 20
628.0
 30
0.0
 11
1518.0
 21
654.0
 31
0.0
  0
LINE
  8
L-ZISSEN
 10
1464.0
 20
655.5
 30
0.0
 11
1516.0
 21
655.5
 31
0.0
  0
LINE
  8
L-ZISSEN
 10
1462.0
 20
654.0
 30
0.0
 11
1518.0
 21
654.0
 31
0.0
  0
LINE
  8
L-ZISSEN
 10
1516.0
 20
655.5
 30
0.0
 11
1516.0
 21
594.0
 31
0.0
  0
LINE
  8
L-ZISSEN
 10
1462.0
 20
628.0
 30
0.0
 11
1462.0
 21
654.0
 31
0.0
  0
LINE
  8
L-ZISSEN
 10
1464.0
 20
646.0
 30
0.0
 11
1516.0
 21
646.0
 31
0.0
  0
LINE
  8
L-ZISSEN
 10
1464.0
 20
594.0
 30
0.0
 11
1464.0
 21
655.5
 31
0.0
  0
LINE
  8
L-ZISSEN
 10
1464.0
 20
594.0
 30
0.0
 11
1516.0
 21
594.0
 31
0.0
  0
CIRCLE
  8
L-ZISSEN
 10
1490.0
 20
620.0
 30
0.0
 40
19.0
  0
CIRCLE
  8
L-ZISSEN
 10
1470.0
 20
640.0
 30
0.0
 40
4.49995
  0
CIRCLE
  8
L-ZISSEN
 10
1510.0
 20
640.0
 30
0.0
 40
4.49995
  0
CIRCLE
  8
L-ZISSEN
 10
1470.0
 20
600.0
 30
0.0
 40
4.49995
  0
CIRCLE
  8
L-ZISSEN
 10
1510.0
 20
600.0
 30
0.0
 40
4.49995
  0
LINE
  8
L-ZISSEN
 10
1714.0
 20
594.0
 30
0.0
 11
1714.0
 21
659.6
 31
0.0
  0
LINE
  8
L-ZISSEN
 10
1766.0
 20
659.6
 30
0.0
 11
1766.0
 21
594.0
 31
0.0
  0
LINE
  8
L-ZISSEN
 10
1712.0
 20
654.0
 30
0.0
 11
1768.0
 21
654.0
 31
0.0
  0
LINE
  8
L-ZISSEN
 10
1714.0
 20
659.6
 30
0.0
 11
1766.0
 21
659.6
 31
0.0
  0
LINE
  8
L-ZISSEN
  6
CONTINUOUS
 62
     7
 10
1714.5
 20
659.6
 30
0.0
 11
1714.5
 21
663.2
 31
0.0
  0
LINE
  8
L-ZISSEN
  6
CONTINUOUS
 62
     7
 10
1721.5
 20
659.6
 30
0.0
 11
1721.5
 21
663.2
 31
0.0
  0
LINE
  8
L-ZISSEN
  6
CONTINUOUS
 62
     7
 10
1721.5
 20
663.2
 30
0.0
 11
1714.5
 21
663.2
 31
0.0
  0
LINE
  8
L-ZISSEN
  6
CONTINUOUS
 62
     7
 10
1758.5
 20
663.2
 30
0.0
 11
1765.5
 21
663.2
 31
0.0
  0
LINE
  8
L-ZISSEN
  6
CONTINUOUS
 62
     7
 10
1758.5
 20
659.6
 30
0.0
 11
1758.5
 21
663.2
 31
0.0
  0
LINE
  8
L-ZISSEN
  6
CONTINUOUS
 62
     7
 10
1765.5
 20
659.6
 30
0.0
 11
1765.5
 21
663.2
 31
0.0
  0
LINE
  8
L-ZISSEN
  6
CONTINUOUS
 62
     7
 10
1672.0
 20
654.0
 30
0.0
 11
1602.0
 21
654.0
 31
0.0
  0
LINE
  8
L-ZISSEN
  6
CONTINUOUS
 62
     7
 10
1672.0
 20
659.6
 30
0.0
 11
1672.0
 21
646.0
 31
0.0
  0
LINE
  8
L-ZISSEN
  6
CONTINUOUS
 62
     7
 10
1602.0
 20
659.6
 30
0.0
 11
1672.0
 21
659.6
 31
0.0
  0
LINE
  8
L-ZISSEN
  6
CONTINUOUS
 62
     7
 10
1664.5
 20
663.2
 30
0.0
 11
1671.5
 21
663.2
 31
0.0
  0
LINE
  8
L-ZISSEN
  6
CONTINUOUS
 62
     7
 10
1664.5
 20
659.6
 30
0.0
 11
1664.5
 21
663.2
 31
0.0
  0
LINE
  8
L-ZISSEN
  6
CONTINUOUS
 62
     7
 10
1671.5
 20
659.6
 30
0.0
 11
1671.5
 21
663.2
 31
0.0
  0
LINE
  8
L-ZISSEN
  6
CONTINUOUS
 62
     7
 10
1602.0
 20
659.6
 30
0.0
 11
1602.0
 21
646.0
 31
0.0
  0
LINE
  8
L-ZISSEN
  6
CONTINUOUS
 62
     7
 10
1602.5
 20
659.6
 30
0.0
 11
1602.5
 21
663.2
 31
0.0
  0
LINE
  8
L-ZISSEN
  6
CONTINUOUS
 62
     7
 10
1609.5
 20
659.6
 30
0.0
 11
1609.5
 21
663.2
 31
0.0
  0
LINE
  8
L-ZISSEN
  6
CONTINUOUS
 62
     7
 10
1609.5
 20
663.2
 30
0.0
 11
1602.5
 21
663.2
 31
0.0
  0
LINE
  8
L-ZISSEN
 10
1656.0
 20
659.6
 30
0.0
 11
1656.0
 21
666.1
 31
0.0
  0
LINE
  8
L-ZISSEN
 10
1648.0
 20
666.1
 30
0.0
 11
1648.0
 21
659.6
 31
0.0
  0
CIRCLE
  8
L-ZISSEN
 10
1652.0
 20
728.0
 30
0.0
 40
4.0
  0
LINE
  8
L-ZISSEN
  6
CONTINUOUS
 62
     7
 10
1648.0
 20
666.1
 30
0.0
 11
1656.0
 21
666.1
 31
0.0
  0
LINE
  8
L-ZISSEN
  6
CONTINUOUS
 62
     7
 10
1762.0
 20
666.1
 30
0.0
 11
1754.0
 21
666.1
 31
0.0
  0
LINE
  8
L-ZISSEN
 10
1762.0
 20
666.1
 30
0.0
 11
1762.0
 21
663.2
 31
0.0
  0
LINE
  8
L-ZISSEN
 10
1754.0
 20
659.6
 30
0.0
 11
1754.0
 21
666.1
 31
0.0
  0
TEXT
  8
L-ZISSEN
 10
1600.0
 20
780.0
 30
0.0
 40
4.5
  1
PILOT LAMP
  0
LINE
  8
L-TYUSIN
 10
1115.0
 20
1060.0
 30
0.0
 11
1115.0
 21
60.0
 31
0.0
  0
LINE
  8
L-TYUSIN
 10
775.0
 20
560.0
 30
0.0
 11
1805.0
 21
560.0
 31
0.0
  0
LINE
  8
L-ZISSEN
  6
CONTINUOUS
 62
     7
 10
161.5
 20
349.1
 30
0.0
 11
154.5
 21
349.1
 31
0.0
  0
LINE
  8
L-ZISSEN
  6
CONTINUOUS
 62
     7
 10
161.5
 20
345.5
 30
0.0
 11
161.5
 21
349.1
 31
0.0
  0
LINE
  8
L-ZISSEN
  6
CONTINUOUS
 62
     7
 10
154.5
 20
345.5
 30
0.0
 11
154.5
 21
349.1
 31
0.0
  0
LINE
  8
L-ZISSEN
  6
CONTINUOUS
 62
     7
 10
146.6
 20
334.5
 30
0.0
 11
146.6
 21
325.5
 31
0.0
  0
LINE
  8
L-ZISSEN
  6
CONTINUOUS
 62
     7
 10
149.9
 20
325.5
 30
0.0
 11
146.6
 21
325.5
 31
0.0
  0
LINE
  8
L-ZISSEN
  6
CONTINUOUS
 62
     7
 10
149.9
 20
334.5
 30
0.0
 11
146.6
 21
334.5
 31
0.0
  0
LINE
  8
L-ZISSEN
  6
CONTINUOUS
 62
     7
 10
149.9
 20
294.5
 30
0.0
 11
146.6
 21
294.5
 31
0.0
  0
LINE
  8
L-ZISSEN
  6
CONTINUOUS
 62
     7
 10
146.6
 20
294.5
 30
0.0
 11
146.6
 21
286.5
 31
0.0
  0
LINE
  8
L-ZISSEN
  6
CONTINUOUS
 62
     7
 10
223.5
 20
284.188572
 30
0.0
 11
264.1
 21
285.606356
 31
0.0
  0
LINE
  8
L-ZISSEN
  6
CONTINUOUS
 62
     7
 10
218.1
 20
336.0
 30
0.0
 11
264.1
 21
334.393644
 31
0.0
  0
LINE
  8
L-ZISSEN
  6
CONTINUOUS
 62
     7
 10
265.1
 20
299.0
 30
0.0
 11
264.1
 21
299.0
 31
0.0
  0
LINE
  8
L-ZISSEN
  6
CONTINUOUS
 62
     7
 10
265.1
 20
321.0
 30
0.0
 11
265.1
 21
299.0
 31
0.0
  0
LINE
  8
L-ZISSEN
  6
CONTINUOUS
 62
     7
 10
265.1
 20
321.0
 30
0.0
 11
264.1
 21
321.0
 31
0.0
  0
LINE
  8
L-ZISSEN
  6
CONTINUOUS
 62
     7
 10
264.1
 20
285.606356
 30
0.0
 11
264.1
 21
334.393644
 31
0.0
  0
CIRCLE
  8
L-ZISSEN
 10
400.0
 20
310.0
 30
0.0
 40
11.0
  0
LINE
  8
L-ZISSEN
  6
CONTINUOUS
 62
     7
 10
425.5
 20
345.5
 30
0.0
 11
425.5
 21
349.1
 31
0.0
  0
LINE
  8
L-ZISSEN
  6
CONTINUOUS
 62
     7
 10
418.5
 20
345.5
 30
0.0
 11
418.5
 21
349.1
 31
0.0
  0
LINE
  8
L-ZISSEN
  6
CONTINUOUS
 62
     7
 10
418.5
 20
349.1
 30
0.0
 11
425.5
 21
349.1
 31
0.0
  0
LINE
  8
L-ZISSEN
 10
426.0
 20
318.0
 30
0.0
 11
428.0
 21
318.0
 31
0.0
  0
LINE
  8
L-ZISSEN
 10
372.0
 20
318.0
 30
0.0
 11
374.0
 21
318.0
 31
0.0
  0
LINE
  8
L-ZISSEN
  6
CONTINUOUS
 62
     7
 10
381.5
 20
349.1
 30
0.0
 11
374.5
 21
349.1
 31
0.0
  0
LINE
  8
L-ZISSEN
  6
CONTINUOUS
 62
     7
 10
381.5
 20
345.5
 30
0.0
 11
381.5
 21
349.1
 31
0.0
  0
LINE
  8
L-ZISSEN
  6
CONTINUOUS
 62
     7
 10
374.5
 20
345.5
 30
0.0
 11
374.5
 21
349.1
 31
0.0
  0
LINE
  8
L-ZISSEN
 10
428.0
 20
318.0
 30
0.0
 11
428.0
 21
344.0
 31
0.0
  0
LINE
  8
L-ZISSEN
 10
374.0
 20
345.5
 30
0.0
 11
426.0
 21
345.5
 31
0.0
  0
LINE
  8
L-ZISSEN
 10
372.0
 20
344.0
 30
0.0
 11
428.0
 21
344.0
 31
0.0
  0
LINE
  8
L-ZISSEN
 10
372.0
 20
318.0
 30
0.0
 11
372.0
 21
344.0
 31
0.0
  0
LINE
  8
L-ZISSEN
 10
374.0
 20
336.0
 30
0.0
 11
426.0
 21
336.0
 31
0.0
  0
LINE
  8
L-ZISSEN
  6
CONTINUOUS
 62
     7
 10
198.5
 20
345.5
 30
0.0
 11
198.5
 21
349.1
 31
0.0
  0
LINE
  8
L-ZISSEN
  6
CONTINUOUS
 62
     7
 10
205.5
 20
345.5
 30
0.0
 11
205.5
 21
349.1
 31
0.0
  0
LINE
  8
L-ZISSEN
  6
CONTINUOUS
 62
     7
 10
205.5
 20
349.1
 30
0.0
 11
198.5
 21
349.1
 31
0.0
  0
LINE
  8
L-ZISSEN
 10
1167.3
 20
729.0
 30
0.0
 11
1167.3
 21
691.0
 31
0.0
  0
LINE
  8
L-ZISSEN
 10
1177.9
 20
736.0
 30
0.0
 11
1177.9
 21
684.0
 31
0.0
  0
LINE
  8
L-ZISSEN
 10
1173.25718
 20
729.0
 30
0.0
 11
1167.3
 21
729.0
 31
0.0
  0
LINE
  8
L-ZISSEN
 10
1173.25718
 20
691.0
 30
0.0
 11
1167.3
 21
691.0
 31
0.0
  0
LINE
  8
L-ZISSEN
 10
1173.25718
 20
734.49995
 30
0.0
 11
1177.9
 21
734.49995
 31
0.0
  0
LINE
  8
L-ZISSEN
 10
1167.3
 20
721.0
 30
0.0
 11
1166.3
 21
721.0
 31
0.0
  0
LINE
  8
L-ZISSEN
 10
1166.3
 20
699.0
 30
0.0
 11
1167.3
 21
699.0
 31
0.0
  0
LINE
  8
L-ZISSEN
 10
1166.3
 20
721.0
 30
0.0
 11
1166.3
 21
699.0
 31
0.0
  0
LINE
  8
L-ZISSEN
 10
1173.25718
 20
725.50005
 30
0.0
 11
1173.25718
 21
734.49995
 31
0.0
  0
LINE
  8
L-ZISSEN
 10
1173.25718
 20
725.50005
 30
0.0
 11
1177.9
 21
725.50005
 31
0.0
  0
LINE
  8
L-ZISSEN
 10
1173.25718
 20
694.49995
 30
0.0
 11
1177.9
 21
694.49995
 31
0.0
  0
LINE
  8
L-ZISSEN
 10
1173.25718
 20
694.49995
 30
0.0
 11
1173.25718
 21
685.50005
 31
0.0
  0
LINE
  8
L-ZISSEN
 10
1173.25718
 20
685.50005
 30
0.0
 11
1177.9
 21
685.50005
 31
0.0
  0
LINE
  8
L-ZISSEN
  6
CONTINUOUS
 62
     7
 10
1249.9
 20
684.0
 30
0.0
 11
1249.9
 21
736.0
 31
0.0
  0
LINE
  8
L-ZISSEN
 10
1252.0
 20
684.0
 30
0.0
 11
1252.0
 21
736.0
 31
0.0
  0
LINE
  8
L-ZISSEN
  6
CONTINUOUS
 62
     7
 10
1249.9
 20
594.0
 30
0.0
 11
1249.9
 21
646.0
 31
0.0
  0
LINE
  8
L-ZISSEN
 10
1173.25718
 20
595.50005
 30
0.0
 11
1177.9
 21
595.50005
 31
0.0
  0
LINE
  8
L-ZISSEN
 10
1173.25718
 20
604.49995
 30
0.0
 11
1173.25718
 21
595.50005
 31
0.0
  0
LINE
  8
L-ZISSEN
 10
1173.25718
 20
604.49995
 30
0.0
 11
1177.9
 21
604.49995
 31
0.0
  0
LINE
  8
L-ZISSEN
 10
1173.25718
 20
635.50005
 30
0.0
 11
1177.9
 21
635.50005
 31
0.0
  0
LINE
  8
L-ZISSEN
 10
1173.25718
 20
635.50005
 30
0.0
 11
1173.25718
 21
644.49995
 31
0.0
  0
LINE
  8
L-ZISSEN
  6
CONTINUOUS
 62
     7
 10
1249.9
 20
594.0
 30
0.0
 11
1249.9
 21
646.0
 31
0.0
  0
LINE
  8
L-ZISSEN
 10
1166.3
 20
631.0
 30
0.0
 11
1166.3
 21
609.0
 31
0.0
  0
LINE
  8
L-ZISSEN
 10
1166.3
 20
609.0
 30
0.0
 11
1167.3
 21
609.0
 31
0.0
  0
LINE
  8
L-ZISSEN
 10
1167.3
 20
631.0
 30
0.0
 11
1166.3
 21
631.0
 31
0.0
  0
LINE
  8
L-ZISSEN
 10
1173.25718
 20
644.49995
 30
0.0
 11
1177.9
 21
644.49995
 31
0.0
  0
LINE
  8
L-ZISSEN
 10
1173.25718
 20
601.0
 30
0.0
 11
1167.3
 21
601.0
 31
0.0
  0
LINE
  8
L-ZISSEN
 10
1173.25718
 20
639.0
 30
0.0
 11
1167.3
 21
639.0
 31
0.0
  0
LINE
  8
L-ZISSEN
 10
1252.0
 20
646.0
 30
0.0
 11
1177.9
 21
646.0
 31
0.0
  0
LINE
  8
L-ZISSEN
 10
1177.9
 20
646.0
 30
0.0
 11
1177.9
 21
594.0
 31
0.0
  0
LINE
  8
L-ZISSEN
 10
1167.3
 20
639.0
 30
0.0
 11
1167.3
 21
601.0
 31
0.0
  0
CIRCLE
  8
L-ZISSEN
 10
1318.0
 20
688.0
 30
0.0
 40
3.5
  0
CIRCLE
  8
L-ZISSEN
 10
1256.0
 20
688.0
 30
0.0
 40
3.5
  0
CIRCLE
  8
L-ZISSEN
 10
1256.0
 20
732.0
 30
0.0
 40
3.5
  0
CIRCLE
  8
L-ZISSEN
 10
1318.0
 20
732.0
 30
0.0
 40
3.5
  0
LINE
  8
L-TYUSIN
 10
775.0
 20
810.0
 30
0.0
 11
1805.0
 21
810.0
 31
0.0
  0
LINE
  8
L-TYUSIN
 10
1555.0
 20
1060.0
 30
0.0
 11
1555.0
 21
60.0
 31
0.0
  0
CIRCLE
  8
L-ZISSEN
 10
1318.0
 20
482.0
 30
0.0
 40
3.5
  0
CIRCLE
  8
L-ZISSEN
 10
1256.0
 20
482.0
 30
0.0
 40
3.5
  0
CIRCLE
  8
L-ZISSEN
 10
1256.0
 20
438.0
 30
0.0
 40
3.5
  0
CIRCLE
  8
L-ZISSEN
 10
1318.0
 20
438.0
 30
0.0
 40
3.5
  0
LINE
  8
L-ZISSEN
  6
CONTINUOUS
 62
     7
 10
1249.9
 20
344.0
 30
0.0
 11
1249.9
 21
396.0
 31
0.0
  0
LINE
  8
L-ZISSEN
  6
CONTINUOUS
 62
     7
 10
1249.9
 20
344.0
 30
0.0
 11
1249.9
 21
396.0
 31
0.0
  0
LINE
  8
L-ZISSEN
 10
1252.0
 20
434.0
 30
0.0
 11
1252.0
 21
486.0
 31
0.0
  0
LINE
  8
L-ZISSEN
  6
CONTINUOUS
 62
     7
 10
1249.9
 20
434.0
 30
0.0
 11
1249.9
 21
486.0
 31
0.0
  0
LINE
  8
L-TYUSIN
 10
775.0
 20
310.0
 30
0.0
 11
1555.0
 21
310.0
 31
0.0
  0
LINE
  8
L-ZISSEN
 10
1464.0
 20
344.0
 30
0.0
 11
1516.0
 21
344.0
 31
0.0
  0
LINE
  8
L-ZISSEN
 10
1464.0
 20
344.0
 30
0.0
 11
1464.0
 21
405.5
 31
0.0
  0
LINE
  8
L-ZISSEN
 10
1464.0
 20
396.0
 30
0.0
 11
1516.0
 21
396.0
 31
0.0
  0
LINE
  8
L-ZISSEN
 10
1462.0
 20
378.0
 30
0.0
 11
1462.0
 21
404.0
 31
0.0
  0
LINE
  8
L-ZISSEN
 10
1516.0
 20
405.5
 30
0.0
 11
1516.0
 21
344.0
 31
0.0
  0
LINE
  8
L-ZISSEN
 10
1462.0
 20
404.0
 30
0.0
 11
1518.0
 21
404.0
 31
0.0
  0
LINE
  8
L-ZISSEN
 10
1464.0
 20
405.5
 30
0.0
 11
1516.0
 21
405.5
 31
0.0
  0
LINE
  8
L-ZISSEN
 10
1518.0
 20
378.0
 30
0.0
 11
1518.0
 21
404.0
 31
0.0
  0
LINE
  8
L-ZISSEN
  6
CONTINUOUS
 62
     7
 10
1464.5
 20
405.5
 30
0.0
 11
1464.5
 21
409.1
 31
0.0
  0
LINE
  8
L-ZISSEN
  6
CONTINUOUS
 62
     7
 10
1471.5
 20
405.5
 30
0.0
 11
1471.5
 21
409.1
 31
0.0
  0
LINE
  8
L-ZISSEN
  6
CONTINUOUS
 62
     7
 10
1471.5
 20
409.1
 30
0.0
 11
1464.5
 21
409.1
 31
0.0
  0
LINE
  8
L-ZISSEN
 10
1462.0
 20
378.0
 30
0.0
 11
1464.0
 21
378.0
 31
0.0
  0
LINE
  8
L-ZISSEN
 10
1516.0
 20
378.0
 30
0.0
 11
1518.0
 21
378.0
 31
0.0
  0
LINE
  8
L-ZISSEN
  6
CONTINUOUS
 62
     7
 10
1508.5
 20
409.1
 30
0.0
 11
1515.5
 21
409.1
 31
0.0
  0
LINE
  8
L-ZISSEN
  6
CONTINUOUS
 62
     7
 10
1508.5
 20
405.5
 30
0.0
 11
1508.5
 21
409.1
 31
0.0
  0
LINE
  8
L-ZISSEN
  6
CONTINUOUS
 62
     7
 10
1515.5
 20
405.5
 30
0.0
 11
1515.5
 21
409.1
 31
0.0
  0
LINE
  8
L-ZISSEN
 10
1274.0
 20
488.0
 30
0.0
 11
1274.0
 21
486.0
 31
0.0
  0
LINE
  8
L-ZISSEN
 10
1300.0
 20
488.0
 30
0.0
 11
1274.0
 21
488.0
 31
0.0
  0
LINE
  8
L-ZISSEN
 10
1300.0
 20
488.0
 30
0.0
 11
1300.0
 21
486.0
 31
0.0
  0
LINE
  8
L-ZISSEN
 10
1334.1
 20
486.0
 30
0.0
 11
1239.9
 21
486.0
 31
0.0
  0
LINE
  8
L-ZISSEN
 10
1300.0
 20
432.0
 30
0.0
 11
1300.0
 21
434.0
 31
0.0
  0
LINE
  8
L-ZISSEN
 10
1300.0
 20
432.0
 30
0.0
 11
1274.0
 21
432.0
 31
0.0
  0
LINE
  8
L-ZISSEN
 10
1274.0
 20
432.0
 30
0.0
 11
1274.0
 21
434.0
 31
0.0
  0
LINE
  8
L-ZISSEN
  6
CONTINUOUS
 62
     7
 10
1324.1
 20
434.0
 30
0.0
 11
1324.1
 21
486.0
 31
0.0
  0
LINE
  8
L-ZISSEN
 10
1322.0
 20
434.0
 30
0.0
 11
1322.0
 21
486.0
 31
0.0
  0
LINE
  8
L-ZISSEN
 10
1334.1
 20
434.0
 30
0.0
 11
1239.9
 21
434.0
 31
0.0
  0
LINE
  8
L-ZISSEN
  6
CONTINUOUS
 62
     7
 10
1321.9
 20
404.0
 30
0.0
 11
1252.0
 21
404.0
 31
0.0
  0
LINE
  8
L-ZISSEN
  6
CONTINUOUS
 62
     7
 10
1322.0
 20
405.5
 30
0.0
 11
1322.0
 21
396.0
 31
0.0
  0
LINE
  8
L-ZISSEN
  6
CONTINUOUS
 62
     7
 10
1252.0
 20
405.5
 30
0.0
 11
1321.9
 21
405.5
 31
0.0
  0
LINE
  8
L-ZISSEN
  6
CONTINUOUS
 62
     7
 10
1324.1
 20
344.0
 30
0.0
 11
1324.1
 21
396.0
 31
0.0
  0
ARC
  8
L-ZISSEN
  6
CONTINUOUS
 62
     7
 10
1287.0
 20
391.0
 30
0.0
 40
13.0
 50
125.234418
 51
54.765582
  0
LINE
  8
L-ZISSEN
  6
CONTINUOUS
 62
     7
 10
1294.5
 20
404.0
 30
0.0
 11
1294.5
 21
401.618381
 31
0.0
  0
LINE
  8
L-ZISSEN
  6
CONTINUOUS
 62
     7
 10
1279.5
 20
404.0
 30
0.0
 11
1279.5
 21
401.618381
 31
0.0
  0
LINE
  8
L-ZISSEN
  6
CONTINUOUS
 62
     7
 10
1314.5
 20
409.1
 30
0.0
 11
1321.5
 21
409.1
 31
0.0
  0
LINE
  8
L-ZISSEN
  6
CONTINUOUS
 62
     7
 10
1314.5
 20
405.5
 30
0.0
 11
1314.5
 21
409.1
 31
0.0
  0
LINE
  8
L-ZISSEN
  6
CONTINUOUS
 62
     7
 10
1321.5
 20
405.5
 30
0.0
 11
1321.5
 21
409.1
 31
0.0
  0
LINE
  8
L-ZISSEN
  6
CONTINUOUS
 62
     7
 10
1252.0
 20
405.5
 30
0.0
 11
1252.0
 21
396.0
 31
0.0
  0
LINE
  8
L-ZISSEN
  6
CONTINUOUS
 62
     7
 10
1252.5
 20
405.5
 30
0.0
 11
1252.5
 21
409.1
 31
0.0
  0
LINE
  8
L-ZISSEN
  6
CONTINUOUS
 62
     7
 10
1259.5
 20
405.5
 30
0.0
 11
1259.5
 21
409.1
 31
0.0
  0
LINE
  8
L-ZISSEN
  6
CONTINUOUS
 62
     7
 10
1259.5
 20
409.1
 30
0.0
 11
1252.5
 21
409.1
 31
0.0
  0
CIRCLE
  8
L-ZISSEN
 10
1287.0
 20
391.0
 30
0.0
 40
9.3155
  0
LINE
  8
L-ZISSEN
  6
CONTINUOUS
 62
     7
 10
1324.1
 20
344.0
 30
0.0
 11
1324.1
 21
396.0
 31
0.0
  0
LINE
  8
L-ZISSEN
 10
1239.9
 20
344.0
 30
0.0
 11
1334.1
 21
344.0
 31
0.0
  0
LINE
  8
L-ZISSEN
 10
1322.0
 20
396.0
 30
0.0
 11
1334.1
 21
396.0
 31
0.0
  0
LINE
  8
L-ZISSEN
  6
CONTINUOUS
 62
     7
 10
1334.1
 20
344.0
 30
0.0
 11
1380.1
 21
345.606356
 31
0.0
  0
LINE
  8
L-ZISSEN
  6
CONTINUOUS
 62
     7
 10
1380.1
 20
345.606356
 30
0.0
 11
1380.1
 21
394.393644
 31
0.0
  0
LINE
  8
L-ZISSEN
 10
1380.1
 20
381.0
 30
0.0
 11
1393.1
 21
381.0
 31
0.0
  0
LINE
  8
L-ZISSEN
  6
CONTINUOUS
 62
     7
 10
1393.1
 20
379.0
 30
0.0
 11
1399.1
 21
379.0
 31
0.0
  0
LINE
  8
L-ZISSEN
  6
CONTINUOUS
 62
     7
 10
1399.1
 20
377.25
 30
0.0
 11
1406.1
 21
377.25
 31
0.0
  0
LINE
  8
L-ZISSEN
 10
1380.1
 20
359.0
 30
0.0
 11
1393.1
 21
359.0
 31
0.0
  0
LINE
  8
L-ZISSEN
  6
CONTINUOUS
 62
     7
 10
1399.1
 20
379.0
 30
0.0
 11
1399.1
 21
361.0
 31
0.0
  0
LINE
  8
L-ZISSEN
  6
CONTINUOUS
 62
     7
 10
1393.1
 20
361.0
 30
0.0
 11
1399.1
 21
361.0
 31
0.0
  0
LINE
  8
L-ZISSEN
  6
CONTINUOUS
 62
     7
 10
1399.1
 20
362.75
 30
0.0
 11
1406.1
 21
362.75
 31
0.0
  0
LINE
  8
L-ZISSEN
  6
CONTINUOUS
 62
     7
 10
1406.1
 20
377.25
 30
0.0
 11
1406.1
 21
362.75
 31
0.0
  0
LINE
  8
L-ZISSEN
  6
CONTINUOUS
 62
     7
 10
1393.1
 20
381.0
 30
0.0
 11
1393.1
 21
359.0
 31
0.0
  0
LINE
  8
L-ZISSEN
  6
CONTINUOUS
 62
     7
 10
1334.1
 20
396.0
 30
0.0
 11
1380.1
 21
394.393644
 31
0.0
  0
CIRCLE
  8
L-ZISSEN
 10
1490.0
 20
370.0
 30
0.0
 40
7.25
  0
CIRCLE
  8
L-ZISSEN
 10
1490.0
 20
370.0
 30
0.0
 40
9.0
  0
CIRCLE
  8
L-ZISSEN
 10
1490.0
 20
370.0
 30
0.0
 40
11.0
  0
LINE
  8
L-ZISSEN
  6
CONTINUOUS
 62
     7
 10
1239.9
 20
396.0
 30
0.0
 11
1193.9
 21
394.393644
 31
0.0
  0
LINE
  8
L-ZISSEN
  6
CONTINUOUS
 62
     7
 10
1180.9
 20
381.0
 30
0.0
 11
1180.9
 21
359.0
 31
0.0
  0
LINE
  8
L-ZISSEN
  6
CONTINUOUS
 62
     7
 10
1167.9
 20
377.25
 30
0.0
 11
1167.9
 21
362.75
 31
0.0
  0
LINE
  8
L-ZISSEN
  6
CONTINUOUS
 62
     7
 10
1174.9
 20
362.75
 30
0.0
 11
1167.9
 21
362.75
 31
0.0
  0
LINE
  8
L-ZISSEN
  6
CONTINUOUS
 62
     7
 10
1180.9
 20
361.0
 30
0.0
 11
1174.9
 21
361.0
 31
0.0
  0
LINE
  8
L-ZISSEN
  6
CONTINUOUS
 62
     7
 10
1174.9
 20
379.0
 30
0.0
 11
1174.9
 21
361.0
 31
0.0
  0
LINE
  8
L-ZISSEN
 10
1193.9
 20
359.0
 30
0.0
 11
1180.9
 21
359.0
 31
0.0
  0
LINE
  8
L-ZISSEN
  6
CONTINUOUS
 62
     7
 10
1174.9
 20
377.25
 30
0.0
 11
1167.9
 21
377.25
 31
0.0
  0
LINE
  8
L-ZISSEN
  6
CONTINUOUS
 62
     7
 10
1180.9
 20
379.0
 30
0.0
 11
1174.9
 21
379.0
 31
0.0
  0
LINE
  8
L-ZISSEN
 10
1193.9
 20
381.0
 30
0.0
 11
1180.9
 21
381.0
 31
0.0
  0
LINE
  8
L-ZISSEN
  6
CONTINUOUS
 62
     7
 10
1193.9
 20
345.606356
 30
0.0
 11
1193.9
 21
394.393644
 31
0.0
  0
LINE
  8
L-ZISSEN
  6
CONTINUOUS
 62
     7
 10
1239.9
 20
344.0
 30
0.0
 11
1193.9
 21
345.606356
 31
0.0
  0
LINE
  8
L-ZISSEN
 10
1252.0
 20
396.0
 30
0.0
 11
1239.9
 21
396.0
 31
0.0
  0
LINE
  8
L-ZISSEN
  6
CONTINUOUS
 62
     7
 10
1249.9
 20
344.0
 30
0.0
 11
1249.9
 21
396.0
 31
0.0
  0
LINE
  8
L-ZISSEN
  6
CONTINUOUS
 62
     7
 10
1249.9
 20
344.0
 30
0.0
 11
1249.9
 21
396.0
 31
0.0
  0
LINE
  8
L-ZISSEN
  6
CONTINUOUS
 62
     7
 10
1334.1
 20
486.0
 30
0.0
 11
1380.1
 21
484.393644
 31
0.0
  0
LINE
  8
L-ZISSEN
  6
CONTINUOUS
 62
     7
 10
1393.1
 20
471.0
 30
0.0
 11
1393.1
 21
449.0
 31
0.0
  0
LINE
  8
L-ZISSEN
  6
CONTINUOUS
 62
     7
 10
1406.1
 20
467.25
 30
0.0
 11
1406.1
 21
452.75
 31
0.0
  0
LINE
  8
L-ZISSEN
  6
CONTINUOUS
 62
     7
 10
1399.1
 20
452.75
 30
0.0
 11
1406.1
 21
452.75
 31
0.0
  0
LINE
  8
L-ZISSEN
  6
CONTINUOUS
 62
     7
 10
1393.1
 20
451.0
 30
0.0
 11
1399.1
 21
451.0
 31
0.0
  0
LINE
  8
L-ZISSEN
  6
CONTINUOUS
 62
     7
 10
1399.1
 20
469.0
 30
0.0
 11
1399.1
 21
451.0
 31
0.0
  0
LINE
  8
L-ZISSEN
 10
1380.1
 20
449.0
 30
0.0
 11
1393.1
 21
449.0
 31
0.0
  0
LINE
  8
L-ZISSEN
  6
CONTINUOUS
 62
     7
 10
1399.1
 20
467.25
 30
0.0
 11
1406.1
 21
467.25
 31
0.0
  0
LINE
  8
L-ZISSEN
  6
CONTINUOUS
 62
     7
 10
1393.1
 20
469.0
 30
0.0
 11
1399.1
 21
469.0
 31
0.0
  0
LINE
  8
L-ZISSEN
 10
1380.1
 20
471.0
 30
0.0
 11
1393.1
 21
471.0
 31
0.0
  0
LINE
  8
L-ZISSEN
  6
CONTINUOUS
 62
     7
 10
1380.1
 20
435.606356
 30
0.0
 11
1380.1
 21
484.393644
 31
0.0
  0
LINE
  8
L-ZISSEN
  6
CONTINUOUS
 62
     7
 10
1334.1
 20
434.0
 30
0.0
 11
1380.1
 21
435.606356
 31
0.0
  0
LINE
  8
L-ZISSEN
  6
CONTINUOUS
 62
     7
 10
1239.9
 20
434.0
 30
0.0
 11
1193.9
 21
435.606356
 31
0.0
  0
LINE
  8
L-ZISSEN
  6
CONTINUOUS
 62
     7
 10
1193.9
 20
435.606356
 30
0.0
 11
1193.9
 21
484.393644
 31
0.0
  0
LINE
  8
L-ZISSEN
 10
1193.9
 20
471.0
 30
0.0
 11
1180.9
 21
471.0
 31
0.0
  0
LINE
  8
L-ZISSEN
  6
CONTINUOUS
 62
     7
 10
1180.9
 20
469.0
 30
0.0
 11
1174.9
 21
469.0
 31
0.0
  0
LINE
  8
L-ZISSEN
  6
CONTINUOUS
 62
     7
 10
1174.9
 20
467.25
 30
0.0
 11
1167.9
 21
467.25
 31
0.0
  0
LINE
  8
L-ZISSEN
 10
1193.9
 20
449.0
 30
0.0
 11
1180.9
 21
449.0
 31
0.0
  0
LINE
  8
L-ZISSEN
  6
CONTINUOUS
 62
     7
 10
1174.9
 20
469.0
 30
0.0
 11
1174.9
 21
451.0
 31
0.0
  0
LINE
  8
L-ZISSEN
  6
CONTINUOUS
 62
     7
 10
1180.9
 20
451.0
 30
0.0
 11
1174.9
 21
451.0
 31
0.0
  0
LINE
  8
L-ZISSEN
  6
CONTINUOUS
 62
     7
 10
1174.9
 20
452.75
 30
0.0
 11
1167.9
 21
452.75
 31
0.0
  0
LINE
  8
L-ZISSEN
  6
CONTINUOUS
 62
     7
 10
1167.9
 20
467.25
 30
0.0
 11
1167.9
 21
452.75
 31
0.0
  0
LINE
  8
L-ZISSEN
  6
CONTINUOUS
 62
     7
 10
1180.9
 20
471.0
 30
0.0
 11
1180.9
 21
449.0
 31
0.0
  0
LINE
  8
L-ZISSEN
  6
CONTINUOUS
 62
     7
 10
1239.9
 20
486.0
 30
0.0
 11
1193.9
 21
484.393644
 31
0.0
  0
CIRCLE
  8
L-ZISSEN
 10
1318.0
 20
232.0
 30
0.0
 40
3.5
  0
CIRCLE
  8
L-ZISSEN
 10
1256.0
 20
232.0
 30
0.0
 40
3.5
  0
CIRCLE
  8
L-ZISSEN
 10
1256.0
 20
188.0
 30
0.0
 40
3.5
  0
CIRCLE
  8
L-ZISSEN
 10
1318.0
 20
188.0
 30
0.0
 40
3.5
  0
LINE
  8
L-ZISSEN
 10
1167.3
 20
139.0
 30
0.0
 11
1167.3
 21
101.0
 31
0.0
  0
LINE
  8
L-ZISSEN
 10
1177.9
 20
146.0
 30
0.0
 11
1177.9
 21
94.0
 31
0.0
  0
LINE
  8
L-ZISSEN
 10
1252.0
 20
146.0
 30
0.0
 11
1177.9
 21
146.0
 31
0.0
  0
LINE
  8
L-ZISSEN
 10
1173.25718
 20
139.0
 30
0.0
 11
1167.3
 21
139.0
 31
0.0
  0
LINE
  8
L-ZISSEN
 10
1173.25718
 20
101.0
 30
0.0
 11
1167.3
 21
101.0
 31
0.0
  0
LINE
  8
L-ZISSEN
 10
1173.25718
 20
144.49995
 30
0.0
 11
1177.9
 21
144.49995
 31
0.0
  0
LINE
  8
L-ZISSEN
  6
CONTINUOUS
 62
     7
 10
1249.9
 20
94.0
 30
0.0
 11
1249.9
 21
146.0
 31
0.0
  0
LINE
  8
L-ZISSEN
 10
1173.25718
 20
135.50005
 30
0.0
 11
1173.25718
 21
144.49995
 31
0.0
  0
LINE
  8
L-ZISSEN
 10
1173.25718
 20
135.50005
 30
0.0
 11
1177.9
 21
135.50005
 31
0.0
  0
LINE
  8
L-ZISSEN
 10
1173.25718
 20
104.49995
 30
0.0
 11
1177.9
 21
104.49995
 31
0.0
  0
LINE
  8
L-ZISSEN
 10
1173.25718
 20
104.49995
 30
0.0
 11
1173.25718
 21
95.50005
 31
0.0
  0
LINE
  8
L-ZISSEN
 10
1173.25718
 20
95.50005
 30
0.0
 11
1177.9
 21
95.50005
 31
0.0
  0
LINE
  8
L-ZISSEN
  6
CONTINUOUS
 62
     7
 10
1249.9
 20
94.0
 30
0.0
 11
1249.9
 21
146.0
 31
0.0
  0
LINE
  8
L-ZISSEN
 10
1252.0
 20
184.0
 30
0.0
 11
1252.0
 21
236.0
 31
0.0
  0
LINE
  8
L-ZISSEN
  6
CONTINUOUS
 62
     7
 10
1249.9
 20
184.0
 30
0.0
 11
1249.9
 21
236.0
 31
0.0
  0
LINE
  8
L-ZISSEN
 10
1173.25718
 20
185.50005
 30
0.0
 11
1177.9
 21
185.50005
 31
0.0
  0
LINE
  8
L-ZISSEN
 10
1173.25718
 20
194.49995
 30
0.0
 11
1173.25718
 21
185.50005
 31
0.0
  0
LINE
  8
L-ZISSEN
 10
1173.25718
 20
194.49995
 30
0.0
 11
1177.9
 21
194.49995
 31
0.0
  0
LINE
  8
L-ZISSEN
 10
1173.25718
 20
225.50005
 30
0.0
 11
1177.9
 21
225.50005
 31
0.0
  0
LINE
  8
L-ZISSEN
 10
1173.25718
 20
225.50005
 30
0.0
 11
1173.25718
 21
234.49995
 31
0.0
  0
LINE
  8
L-ZISSEN
 10
1173.25718
 20
234.49995
 30
0.0
 11
1177.9
 21
234.49995
 31
0.0
  0
LINE
  8
L-ZISSEN
 10
1173.25718
 20
191.0
 30
0.0
 11
1167.3
 21
191.0
 31
0.0
  0
LINE
  8
L-ZISSEN
 10
1173.25718
 20
229.0
 30
0.0
 11
1167.3
 21
229.0
 31
0.0
  0
LINE
  8
L-ZISSEN
 10
1177.9
 20
236.0
 30
0.0
 11
1177.9
 21
184.0
 31
0.0
  0
LINE
  8
L-ZISSEN
 10
1167.3
 20
229.0
 30
0.0
 11
1167.3
 21
191.0
 31
0.0
  0
CIRCLE
  8
L-ZISSEN
 10
1510.0
 20
100.0
 30
0.0
 40
4.49995
  0
CIRCLE
  8
L-ZISSEN
 10
1470.0
 20
100.0
 30
0.0
 40
4.49995
  0
CIRCLE
  8
L-ZISSEN
 10
1510.0
 20
140.0
 30
0.0
 40
4.49995
  0
CIRCLE
  8
L-ZISSEN
 10
1470.0
 20
140.0
 30
0.0
 40
4.49995
  0
CIRCLE
  8
L-ZISSEN
 10
1490.0
 20
120.0
 30
0.0
 40
19.0
  0
LINE
  8
L-ZISSEN
 10
1464.0
 20
94.0
 30
0.0
 11
1516.0
 21
94.0
 31
0.0
  0
LINE
  8
L-ZISSEN
 10
1464.0
 20
94.0
 30
0.0
 11
1464.0
 21
155.5
 31
0.0
  0
LINE
  8
L-ZISSEN
 10
1464.0
 20
146.0
 30
0.0
 11
1516.0
 21
146.0
 31
0.0
  0
LINE
  8
L-ZISSEN
 10
1462.0
 20
128.0
 30
0.0
 11
1462.0
 21
154.0
 31
0.0
  0
LINE
  8
L-ZISSEN
 10
1516.0
 20
155.5
 30
0.0
 11
1516.0
 21
94.0
 31
0.0
  0
LINE
  8
L-ZISSEN
 10
1462.0
 20
154.0
 30
0.0
 11
1518.0
 21
154.0
 31
0.0
  0
LINE
  8
L-ZISSEN
 10
1464.0
 20
155.5
 30
0.0
 11
1516.0
 21
155.5
 31
0.0
  0
LINE
  8
L-ZISSEN
 10
1518.0
 20
128.0
 30
0.0
 11
1518.0
 21
154.0
 31
0.0
  0
LINE
  8
L-ZISSEN
  6
CONTINUOUS
 62
     7
 10
1464.5
 20
155.5
 30
0.0
 11
1464.5
 21
159.1
 31
0.0
  0
LINE
  8
L-ZISSEN
  6
CONTINUOUS
 62
     7
 10
1471.5
 20
155.5
 30
0.0
 11
1471.5
 21
159.1
 31
0.0
  0
LINE
  8
L-ZISSEN
  6
CONTINUOUS
 62
     7
 10
1471.5
 20
159.1
 30
0.0
 11
1464.5
 21
159.1
 31
0.0
  0
LINE
  8
L-ZISSEN
 10
1462.0
 20
128.0
 30
0.0
 11
1464.0
 21
128.0
 31
0.0
  0
LINE
  8
L-ZISSEN
 10
1516.0
 20
128.0
 30
0.0
 11
1518.0
 21
128.0
 31
0.0
  0
LINE
  8
L-ZISSEN
  6
CONTINUOUS
 62
     7
 10
1508.5
 20
159.1
 30
0.0
 11
1515.5
 21
159.1
 31
0.0
  0
LINE
  8
L-ZISSEN
  6
CONTINUOUS
 62
     7
 10
1508.5
 20
155.5
 30
0.0
 11
1508.5
 21
159.1
 31
0.0
  0
LINE
  8
L-ZISSEN
  6
CONTINUOUS
 62
     7
 10
1515.5
 20
155.5
 30
0.0
 11
1515.5
 21
159.1
 31
0.0
  0
LINE
  8
L-ZISSEN
 10
1406.7
 20
229.0
 30
0.0
 11
1406.7
 21
191.0
 31
0.0
  0
LINE
  8
L-ZISSEN
 10
1396.1
 20
236.0
 30
0.0
 11
1396.1
 21
184.0
 31
0.0
  0
LINE
  8
L-ZISSEN
 10
1400.74282
 20
229.0
 30
0.0
 11
1406.7
 21
229.0
 31
0.0
  0
LINE
  8
L-ZISSEN
 10
1400.74282
 20
191.0
 30
0.0
 11
1406.7
 21
191.0
 31
0.0
  0
LINE
  8
L-ZISSEN
 10
1400.74282
 20
234.49995
 30
0.0
 11
1396.1
 21
234.49995
 31
0.0
  0
LINE
  8
L-ZISSEN
 10
1400.74282
 20
225.50005
 30
0.0
 11
1400.74282
 21
234.49995
 31
0.0
  0
LINE
  8
L-ZISSEN
 10
1400.74282
 20
225.50005
 30
0.0
 11
1396.1
 21
225.50005
 31
0.0
  0
LINE
  8
L-ZISSEN
 10
1400.74282
 20
194.49995
 30
0.0
 11
1396.1
 21
194.49995
 31
0.0
  0
LINE
  8
L-ZISSEN
 10
1400.74282
 20
194.49995
 30
0.0
 11
1400.74282
 21
185.50005
 31
0.0
  0
LINE
  8
L-ZISSEN
 10
1400.74282
 20
185.50005
 30
0.0
 11
1396.1
 21
185.50005
 31
0.0
  0
LINE
  8
L-ZISSEN
 10
1274.0
 20
238.0
 30
0.0
 11
1274.0
 21
236.0
 31
0.0
  0
LINE
  8
L-ZISSEN
 10
1300.0
 20
238.0
 30
0.0
 11
1274.0
 21
238.0
 31
0.0
  0
LINE
  8
L-ZISSEN
 10
1300.0
 20
238.0
 30
0.0
 11
1300.0
 21
236.0
 31
0.0
  0
LINE
  8
L-ZISSEN
 10
1396.1
 20
236.0
 30
0.0
 11
1177.9
 21
236.0
 31
0.0
  0
LINE
  8
L-ZISSEN
 10
1300.0
 20
182.0
 30
0.0
 11
1300.0
 21
184.0
 31
0.0
  0
LINE
  8
L-ZISSEN
 10
1300.0
 20
182.0
 30
0.0
 11
1274.0
 21
182.0
 31
0.0
  0
LINE
  8
L-ZISSEN
 10
1274.0
 20
182.0
 30
0.0
 11
1274.0
 21
184.0
 31
0.0
  0
LINE
  8
L-ZISSEN
  6
CONTINUOUS
 62
     7
 10
1324.1
 20
184.0
 30
0.0
 11
1324.1
 21
236.0
 31
0.0
  0
LINE
  8
L-ZISSEN
 10
1322.0
 20
184.0
 30
0.0
 11
1322.0
 21
236.0
 31
0.0
  0
LINE
  8
L-ZISSEN
 10
1396.1
 20
184.0
 30
0.0
 11
1177.9
 21
184.0
 31
0.0
  0
LINE
  8
L-ZISSEN
  6
CONTINUOUS
 62
     7
 10
1321.9
 20
154.0
 30
0.0
 11
1252.0
 21
154.0
 31
0.0
  0
LINE
  8
L-ZISSEN
  6
CONTINUOUS
 62
     7
 10
1322.0
 20
155.5
 30
0.0
 11
1322.0
 21
146.0
 31
0.0
  0
LINE
  8
L-ZISSEN
  6
CONTINUOUS
 62
     7
 10
1252.0
 20
155.5
 30
0.0
 11
1321.9
 21
155.5
 31
0.0
  0
LINE
  8
L-ZISSEN
  6
CONTINUOUS
 62
     7
 10
1324.1
 20
94.0
 30
0.0
 11
1324.1
 21
146.0
 31
0.0
  0
ARC
  8
L-ZISSEN
  6
CONTINUOUS
 62
     7
 10
1287.0
 20
141.0
 30
0.0
 40
13.0
 50
125.234418
 51
54.765582
  0
LINE
  8
L-ZISSEN
  6
CONTINUOUS
 62
     7
 10
1294.5
 20
154.0
 30
0.0
 11
1294.5
 21
151.618381
 31
0.0
  0
LINE
  8
L-ZISSEN
  6
CONTINUOUS
 62
     7
 10
1279.5
 20
154.0
 30
0.0
 11
1279.5
 21
151.618381
 31
0.0
  0
LINE
  8
L-ZISSEN
  6
CONTINUOUS
 62
     7
 10
1314.5
 20
159.1
 30
0.0
 11
1321.5
 21
159.1
 31
0.0
  0
LINE
  8
L-ZISSEN
  6
CONTINUOUS
 62
     7
 10
1314.5
 20
155.5
 30
0.0
 11
1314.5
 21
159.1
 31
0.0
  0
LINE
  8
L-ZISSEN
  6
CONTINUOUS
 62
     7
 10
1321.5
 20
155.5
 30
0.0
 11
1321.5
 21
159.1
 31
0.0
  0
LINE
  8
L-ZISSEN
  6
CONTINUOUS
 62
     7
 10
1252.0
 20
155.5
 30
0.0
 11
1252.0
 21
146.0
 31
0.0
  0
LINE
  8
L-ZISSEN
  6
CONTINUOUS
 62
     7
 10
1252.5
 20
155.5
 30
0.0
 11
1252.5
 21
159.1
 31
0.0
  0
LINE
  8
L-ZISSEN
  6
CONTINUOUS
 62
     7
 10
1259.5
 20
155.5
 30
0.0
 11
1259.5
 21
159.1
 31
0.0
  0
LINE
  8
L-ZISSEN
  6
CONTINUOUS
 62
     7
 10
1259.5
 20
159.1
 30
0.0
 11
1252.5
 21
159.1
 31
0.0
  0
CIRCLE
  8
L-ZISSEN
 10
1287.0
 20
141.0
 30
0.0
 40
9.3155
  0
LINE
  8
L-ZISSEN
 10
1400.74282
 20
95.50005
 30
0.0
 11
1396.1
 21
95.50005
 31
0.0
  0
LINE
  8
L-ZISSEN
 10
1400.74282
 20
104.49995
 30
0.0
 11
1400.74282
 21
95.50005
 31
0.0
  0
LINE
  8
L-ZISSEN
 10
1400.74282
 20
104.49995
 30
0.0
 11
1396.1
 21
104.49995
 31
0.0
  0
LINE
  8
L-ZISSEN
 10
1400.74282
 20
135.50005
 30
0.0
 11
1396.1
 21
135.50005
 31
0.0
  0
LINE
  8
L-ZISSEN
 10
1400.74282
 20
135.50005
 30
0.0
 11
1400.74282
 21
144.49995
 31
0.0
  0
LINE
  8
L-ZISSEN
  6
CONTINUOUS
 62
     7
 10
1324.1
 20
94.0
 30
0.0
 11
1324.1
 21
146.0
 31
0.0
  0
LINE
  8
L-ZISSEN
 10
1400.74282
 20
144.49995
 30
0.0
 11
1396.1
 21
144.49995
 31
0.0
  0
LINE
  8
L-ZISSEN
 10
1400.74282
 20
101.0
 30
0.0
 11
1406.7
 21
101.0
 31
0.0
  0
LINE
  8
L-ZISSEN
 10
1400.74282
 20
139.0
 30
0.0
 11
1406.7
 21
139.0
 31
0.0
  0
LINE
  8
L-ZISSEN
 10
1177.9
 20
94.0
 30
0.0
 11
1396.1
 21
94.0
 31
0.0
  0
LINE
  8
L-ZISSEN
 10
1322.0
 20
146.0
 30
0.0
 11
1396.1
 21
146.0
 31
0.0
  0
LINE
  8
L-ZISSEN
 10
1396.1
 20
146.0
 30
0.0
 11
1396.1
 21
94.0
 31
0.0
  0
LINE
  8
L-ZISSEN
 10
1406.7
 20
139.0
 30
0.0
 11
1406.7
 21
101.0
 31
0.0
  0
LINE
  8
L-ZISSEN
  6
CONTINUOUS
 62
     7
 10
1419.7
 20
221.0
 30
0.0
 11
1419.7
 21
199.0
 31
0.0
  0
LINE
  8
L-ZISSEN
  6
CONTINUOUS
 62
     7
 10
1433.0
 20
217.25
 30
0.0
 11
1433.0
 21
202.75
 31
0.0
  0
LINE
  8
L-ZISSEN
  6
CONTINUOUS
 62
     7
 10
1425.7
 20
202.75
 30
0.0
 11
1433.0
 21
202.75
 31
0.0
  0
LINE
  8
L-ZISSEN
  6
CONTINUOUS
 62
     7
 10
1419.7
 20
201.0
 30
0.0
 11
1425.7
 21
201.0
 31
0.0
  0
LINE
  8
L-ZISSEN
  6
CONTINUOUS
 62
     7
 10
1425.7
 20
219.0
 30
0.0
 11
1425.7
 21
201.0
 31
0.0
  0
LINE
  8
L-ZISSEN
 10
1406.7
 20
199.0
 30
0.0
 11
1419.7
 21
199.0
 31
0.0
  0
LINE
  8
L-ZISSEN
  6
CONTINUOUS
 62
     7
 10
1425.7
 20
217.25
 30
0.0
 11
1433.0
 21
217.25
 31
0.0
  0
LINE
  8
L-ZISSEN
  6
CONTINUOUS
 62
     7
 10
1419.7
 20
219.0
 30
0.0
 11
1425.7
 21
219.0
 31
0.0
  0
LINE
  8
L-ZISSEN
 10
1406.7
 20
221.0
 30
0.0
 11
1419.7
 21
221.0
 31
0.0
  0
LINE
  8
L-ZISSEN
 10
1167.3
 20
221.0
 30
0.0
 11
1154.3
 21
221.0
 31
0.0
  0
LINE
  8
L-ZISSEN
  6
CONTINUOUS
 62
     7
 10
1154.3
 20
219.0
 30
0.0
 11
1148.3
 21
219.0
 31
0.0
  0
LINE
  8
L-ZISSEN
  6
CONTINUOUS
 62
     7
 10
1148.3
 20
217.25
 30
0.0
 11
1141.0
 21
217.25
 31
0.0
  0
LINE
  8
L-ZISSEN
 10
1167.3
 20
199.0
 30
0.0
 11
1154.3
 21
199.0
 31
0.0
  0
LINE
  8
L-ZISSEN
  6
CONTINUOUS
 62
     7
 10
1148.3
 20
219.0
 30
0.0
 11
1148.3
 21
201.0
 31
0.0
  0
LINE
  8
L-ZISSEN
  6
CONTINUOUS
 62
     7
 10
1154.3
 20
201.0
 30
0.0
 11
1148.3
 21
201.0
 31
0.0
  0
LINE
  8
L-ZISSEN
  6
CONTINUOUS
 62
     7
 10
1148.3
 20
202.75
 30
0.0
 11
1141.0
 21
202.75
 31
0.0
  0
LINE
  8
L-ZISSEN
  6
CONTINUOUS
 62
     7
 10
1141.0
 20
217.25
 30
0.0
 11
1141.0
 21
202.75
 31
0.0
  0
LINE
  8
L-ZISSEN
  6
CONTINUOUS
 62
     7
 10
1154.3
 20
221.0
 30
0.0
 11
1154.3
 21
199.0
 31
0.0
  0
LINE
  8
L-ZISSEN
 10
1406.7
 20
131.0
 30
0.0
 11
1419.7
 21
131.0
 31
0.0
  0
LINE
  8
L-ZISSEN
  6
CONTINUOUS
 62
     7
 10
1419.7
 20
129.0
 30
0.0
 11
1425.7
 21
129.0
 31
0.0
  0
LINE
  8
L-ZISSEN
  6
CONTINUOUS
 62
     7
 10
1425.7
 20
127.25
 30
0.0
 11
1433.0
 21
127.25
 31
0.0
  0
LINE
  8
L-ZISSEN
 10
1406.7
 20
109.0
 30
0.0
 11
1419.7
 21
109.0
 31
0.0
  0
LINE
  8
L-ZISSEN
  6
CONTINUOUS
 62
     7
 10
1425.7
 20
129.0
 30
0.0
 11
1425.7
 21
111.0
 31
0.0
  0
LINE
  8
L-ZISSEN
  6
CONTINUOUS
 62
     7
 10
1419.7
 20
111.0
 30
0.0
 11
1425.7
 21
111.0
 31
0.0
  0
LINE
  8
L-ZISSEN
  6
CONTINUOUS
 62
     7
 10
1425.7
 20
112.75
 30
0.0
 11
1433.0
 21
112.75
 31
0.0
  0
LINE
  8
L-ZISSEN
  6
CONTINUOUS
 62
     7
 10
1433.0
 20
127.25
 30
0.0
 11
1433.0
 21
112.75
 31
0.0
  0
LINE
  8
L-ZISSEN
  6
CONTINUOUS
 62
     7
 10
1419.7
 20
131.0
 30
0.0
 11
1419.7
 21
109.0
 31
0.0
  0
LINE
  8
L-ZISSEN
  6
CONTINUOUS
 62
     7
 10
1154.3
 20
131.0
 30
0.0
 11
1154.3
 21
109.0
 31
0.0
  0
LINE
  8
L-ZISSEN
  6
CONTINUOUS
 62
     7
 10
1141.0
 20
127.25
 30
0.0
 11
1141.0
 21
112.75
 31
0.0
  0
LINE
  8
L-ZISSEN
  6
CONTINUOUS
 62
     7
 10
1148.3
 20
112.75
 30
0.0
 11
1141.0
 21
112.75
 31
0.0
  0
LINE
  8
L-ZISSEN
  6
CONTINUOUS
 62
     7
 10
1154.3
 20
111.0
 30
0.0
 11
1148.3
 21
111.0
 31
0.0
  0
LINE
  8
L-ZISSEN
  6
CONTINUOUS
 62
     7
 10
1148.3
 20
129.0
 30
0.0
 11
1148.3
 21
111.0
 31
0.0
  0
LINE
  8
L-ZISSEN
 10
1167.3
 20
109.0
 30
0.0
 11
1154.3
 21
109.0
 31
0.0
  0
LINE
  8
L-ZISSEN
  6
CONTINUOUS
 62
     7
 10
1148.3
 20
127.25
 30
0.0
 11
1141.0
 21
127.25
 31
0.0
  0
LINE
  8
L-ZISSEN
  6
CONTINUOUS
 62
     7
 10
1154.3
 20
129.0
 30
0.0
 11
1148.3
 21
129.0
 31
0.0
  0
LINE
  8
L-ZISSEN
 10
1167.3
 20
131.0
 30
0.0
 11
1154.3
 21
131.0
 31
0.0
  0
CIRCLE
  8
L-ZISSEN
 10
1490.0
 20
120.0
 30
0.0
 40
7.25
  0
CIRCLE
  8
L-ZISSEN
 10
1490.0
 20
120.0
 30
0.0
 40
9.0
  0
CIRCLE
  8
L-ZISSEN
 10
1490.0
 20
120.0
 30
0.0
 40
11.0
  0
LINE
  8
L-ZISSEN
  6
CONTINUOUS
 62
     7
 10
1626.0
 20
666.1
 30
0.0
 11
1618.0
 21
666.1
 31
0.0
  0
LINE
  8
L-ZISSEN
 10
1626.0
 20
666.1
 30
0.0
 11
1626.0
 21
659.6
 31
0.0
  0
LINE
  8
L-ZISSEN
 10
1618.0
 20
659.6
 30
0.0
 11
1618.0
 21
666.1
 31
0.0
  0
CIRCLE
  8
L-ZISSEN
 10
1622.0
 20
728.0
 30
0.0
 40
4.0
  0
TEXT
  8
L-ZISSEN
 10
1600.0
 20
770.0
 30
0.0
 40
4.5
  1
MODEL NO. : 26B-*00-2**2
  0
LINE
  8
L-TYUSIN
 10
775.0
 20
1060.0
 30
0.0
 11
775.0
 21
310.0
 31
0.0
  0
CIRCLE
  8
L-ZISSEN
 10
1070.0
 20
850.0
 30
0.0
 40
4.49995
  0
CIRCLE
  8
L-ZISSEN
 10
1030.0
 20
850.0
 30
0.0
 40
4.49995
  0
CIRCLE
  8
L-ZISSEN
 10
1070.0
 20
890.0
 30
0.0
 40
4.49995
  0
CIRCLE
  8
L-ZISSEN
 10
1030.0
 20
890.0
 30
0.0
 40
4.49995
  0
CIRCLE
  8
L-ZISSEN
 10
1050.0
 20
870.0
 30
0.0
 40
19.0
  0
LINE
  8
L-ZISSEN
 10
1024.0
 20
844.0
 30
0.0
 11
1076.0
 21
844.0
 31
0.0
  0
LINE
  8
L-ZISSEN
 10
1024.0
 20
844.0
 30
0.0
 11
1024.0
 21
905.5
 31
0.0
  0
LINE
  8
L-ZISSEN
 10
1024.0
 20
896.0
 30
0.0
 11
1076.0
 21
896.0
 31
0.0
  0
LINE
  8
L-ZISSEN
 10
1022.0
 20
878.0
 30
0.0
 11
1022.0
 21
904.0
 31
0.0
  0
LINE
  8
L-ZISSEN
 10
1076.0
 20
905.5
 30
0.0
 11
1076.0
 21
844.0
 31
0.0
  0
LINE
  8
L-ZISSEN
 10
1022.0
 20
904.0
 30
0.0
 11
1078.0
 21
904.0
 31
0.0
  0
LINE
  8
L-ZISSEN
 10
1024.0
 20
905.5
 30
0.0
 11
1076.0
 21
905.5
 31
0.0
  0
LINE
  8
L-ZISSEN
 10
1078.0
 20
878.0
 30
0.0
 11
1078.0
 21
904.0
 31
0.0
  0
LINE
  8
L-ZISSEN
  6
CONTINUOUS
 62
     7
 10
1024.5
 20
905.5
 30
0.0
 11
1024.5
 21
909.1
 31
0.0
  0
LINE
  8
L-ZISSEN
  6
CONTINUOUS
 62
     7
 10
1031.5
 20
905.5
 30
0.0
 11
1031.5
 21
909.1
 31
0.0
  0
LINE
  8
L-ZISSEN
  6
CONTINUOUS
 62
     7
 10
1031.5
 20
909.1
 30
0.0
 11
1024.5
 21
909.1
 31
0.0
  0
LINE
  8
L-ZISSEN
 10
1022.0
 20
878.0
 30
0.0
 11
1024.0
 21
878.0
 31
0.0
  0
LINE
  8
L-ZISSEN
 10
1076.0
 20
878.0
 30
0.0
 11
1078.0
 21
878.0
 31
0.0
  0
LINE
  8
L-ZISSEN
  6
CONTINUOUS
 62
     7
 10
1068.5
 20
909.1
 30
0.0
 11
1075.5
 21
909.1
 31
0.0
  0
LINE
  8
L-ZISSEN
  6
CONTINUOUS
 62
     7
 10
1068.5
 20
905.5
 30
0.0
 11
1068.5
 21
909.1
 31
0.0
  0
LINE
  8
L-ZISSEN
  6
CONTINUOUS
 62
     7
 10
1075.5
 20
905.5
 30
0.0
 11
1075.5
 21
909.1
 31
0.0
  0
CIRCLE
  8
L-ZISSEN
 10
1050.0
 20
870.0
 30
0.0
 40
11.0
  0
LINE
  8
L-ZISSEN
  6
CONTINUOUS
 62
     7
 10
872.5
 20
909.1
 30
0.0
 11
865.5
 21
909.1
 31
0.0
  0
LINE
  8
L-ZISSEN
  6
CONTINUOUS
 62
     7
 10
872.5
 20
905.5
 30
0.0
 11
872.5
 21
909.1
 31
0.0
  0
LINE
  8
L-ZISSEN
  6
CONTINUOUS
 62
     7
 10
865.5
 20
905.5
 30
0.0
 11
865.5
 21
909.1
 31
0.0
  0
LINE
  8
L-ZISSEN
  6
CONTINUOUS
 62
     7
 10
813.6
 20
854.5
 30
0.0
 11
813.6
 21
845.5
 31
0.0
  0
LINE
  8
L-ZISSEN
  6
CONTINUOUS
 62
     7
 10
816.9
 20
845.5
 30
0.0
 11
813.6
 21
845.5
 31
0.0
  0
LINE
  8
L-ZISSEN
  6
CONTINUOUS
 62
     7
 10
816.9
 20
854.5
 30
0.0
 11
813.6
 21
854.5
 31
0.0
  0
LINE
  8
L-ZISSEN
  6
CONTINUOUS
 62
     7
 10
816.9
 20
894.5
 30
0.0
 11
813.6
 21
894.5
 31
0.0
  0
LINE
  8
L-ZISSEN
  6
CONTINUOUS
 62
     7
 10
816.9
 20
885.5
 30
0.0
 11
813.6
 21
885.5
 31
0.0
  0
LINE
  8
L-ZISSEN
  6
CONTINUOUS
 62
     7
 10
813.6
 20
894.5
 30
0.0
 11
813.6
 21
885.5
 31
0.0
  0
LINE
  8
L-ZISSEN
  6
CONTINUOUS
 62
     7
 10
821.5
 20
905.5
 30
0.0
 11
821.5
 21
909.1
 31
0.0
  0
LINE
  8
L-ZISSEN
  6
CONTINUOUS
 62
     7
 10
828.5
 20
905.5
 30
0.0
 11
828.5
 21
909.1
 31
0.0
  0
LINE
  8
L-ZISSEN
  6
CONTINUOUS
 62
     7
 10
828.5
 20
909.1
 30
0.0
 11
821.5
 21
909.1
 31
0.0
  0
LINE
  8
L-ZISSEN
 10
821.0
 20
905.5
 30
0.0
 11
873.0
 21
905.5
 31
0.0
  0
LINE
  8
L-ZISSEN
 10
873.0
 20
896.0
 30
0.0
 11
947.1
 21
896.0
 31
0.0
  0
LINE
  8
L-ZISSEN
 10
816.9
 20
896.0
 30
0.0
 11
821.0
 21
896.0
 31
0.0
  0
LINE
  8
L-ZISSEN
 10
821.0
 20
905.5
 30
0.0
 11
821.0
 21
896.0
 31
0.0
  0
LINE
  8
L-ZISSEN
 10
873.0
 20
905.5
 30
0.0
 11
873.0
 21
896.0
 31
0.0
  0
LINE
  8
L-ZISSEN
 10
839.5
 20
904.0
 30
0.0
 11
839.5
 21
901.618381
 31
0.0
  0
LINE
  8
L-ZISSEN
 10
854.5
 20
904.0
 30
0.0
 11
854.5
 21
901.618381
 31
0.0
  0
CIRCLE
  8
L-ZISSEN
 10
847.0
 20
891.0
 30
0.0
 40
9.3
  0
ARC
  8
L-ZISSEN
 10
847.0
 20
891.0
 30
0.0
 40
13.0
 50
125.234418
 51
54.765582
  0
LINE
  8
L-ZISSEN
 10
873.0
 20
904.0
 30
0.0
 11
821.0
 21
904.0
 31
0.0
  0
LINE
  8
L-ZISSEN
 10
875.1
 20
896.0
 30
0.0
 11
875.1
 21
844.0
 31
0.0
  0
LINE
  8
L-ZISSEN
 10
818.9
 20
896.0
 30
0.0
 11
818.9
 21
844.0
 31
0.0
  0
LINE
  8
L-ZISSEN
 10
816.9
 20
896.0
 30
0.0
 11
816.9
 21
844.0
 31
0.0
  0
LINE
  8
L-ZISSEN
 10
816.9
 20
844.0
 30
0.0
 11
947.1
 21
844.0
 31
0.0
  0
CIRCLE
  8
L-ZISSEN
 10
202.0
 20
478.0
 30
0.0
 40
3.5
  0
CIRCLE
  8
L-ZISSEN
 10
202.0
 20
522.0
 30
0.0
 40
3.5
  0
CIRCLE
  8
L-ZISSEN
 10
158.0
 20
522.0
 30
0.0
 40
3.5
  0
CIRCLE
  8
L-ZISSEN
 10
158.0
 20
478.0
 30
0.0
 40
3.5
  0
CIRCLE
  8
L-ZISSEN
 10
825.0
 20
938.0
 30
0.0
 40
3.5
  0
CIRCLE
  8
L-ZISSEN
 10
825.0
 20
982.0
 30
0.0
 40
3.5
  0
CIRCLE
  8
L-ZISSEN
 10
869.0
 20
982.0
 30
0.0
 40
3.5
  0
CIRCLE
  8
L-ZISSEN
 10
869.0
 20
938.0
 30
0.0
 40
3.5
  0
LINE
  8
L-ZISSEN
 10
873.0
 20
934.0
 30
0.0
 11
873.0
 21
986.0
 31
0.0
  0
LINE
  8
L-ZISSEN
 10
821.0
 20
934.0
 30
0.0
 11
821.0
 21
986.0
 31
0.0
  0
LINE
  8
L-ZISSEN
 10
947.1
 20
934.0
 30
0.0
 11
816.9
 21
934.0
 31
0.0
  0
LINE
  8
L-ZISSEN
 10
947.1
 20
986.0
 30
0.0
 11
816.9
 21
986.0
 31
0.0
  0
LINE
  8
L-ZISSEN
 10
875.1
 20
934.0
 30
0.0
 11
875.1
 21
986.0
 31
0.0
  0
LINE
  8
L-ZISSEN
  6
CONTINUOUS
 62
     7
 10
813.6
 20
944.5
 30
0.0
 11
813.6
 21
935.5
 31
0.0
  0
LINE
  8
L-ZISSEN
  6
CONTINUOUS
 62
     7
 10
816.9
 20
935.5
 30
0.0
 11
813.6
 21
935.5
 31
0.0
  0
LINE
  8
L-ZISSEN
  6
CONTINUOUS
 62
     7
 10
816.9
 20
944.5
 30
0.0
 11
813.6
 21
944.5
 31
0.0
  0
LINE
  8
L-ZISSEN
  6
CONTINUOUS
 62
     7
 10
816.9
 20
984.5
 30
0.0
 11
813.6
 21
984.5
 31
0.0
  0
LINE
  8
L-ZISSEN
  6
CONTINUOUS
 62
     7
 10
816.9
 20
975.5
 30
0.0
 11
813.6
 21
975.5
 31
0.0
  0
LINE
  8
L-ZISSEN
  6
CONTINUOUS
 62
     7
 10
813.6
 20
984.5
 30
0.0
 11
813.6
 21
975.5
 31
0.0
  0
LINE
  8
L-ZISSEN
  6
CONTINUOUS
 62
     7
 10
816.9
 20
986.0
 30
0.0
 11
816.9
 21
934.0
 31
0.0
  0
LINE
  8
L-ZISSEN
  6
CONTINUOUS
 62
     7
 10
818.9
 20
934.0
 30
0.0
 11
818.9
 21
986.0
 31
0.0
  0
LINE
  8
L-ZISSEN
 10
834.0
 20
934.0
 30
0.0
 11
834.0
 21
932.0
 31
0.0
  0
LINE
  8
L-ZISSEN
 10
834.0
 20
988.0
 30
0.0
 11
834.0
 21
986.0
 31
0.0
  0
LINE
  8
L-ZISSEN
 10
860.0
 20
988.0
 30
0.0
 11
860.0
 21
986.0
 31
0.0
  0
LINE
  8
L-ZISSEN
 10
860.0
 20
988.0
 30
0.0
 11
834.0
 21
988.0
 31
0.0
  0
LINE
  8
L-ZISSEN
 10
860.0
 20
934.0
 30
0.0
 11
860.0
 21
932.0
 31
0.0
  0
LINE
  8
L-ZISSEN
 10
860.0
 20
932.0
 30
0.0
 11
834.0
 21
932.0
 31
0.0
  0
LINE
  8
L-ZISSEN
 10
860.0
 20
682.0
 30
0.0
 11
834.0
 21
682.0
 31
0.0
  0
LINE
  8
L-ZISSEN
 10
860.0
 20
684.0
 30
0.0
 11
860.0
 21
682.0
 31
0.0
  0
LINE
  8
L-ZISSEN
 10
860.0
 20
738.0
 30
0.0
 11
834.0
 21
738.0
 31
0.0
  0
LINE
  8
L-ZISSEN
 10
860.0
 20
738.0
 30
0.0
 11
860.0
 21
736.0
 31
0.0
  0
LINE
  8
L-ZISSEN
 10
834.0
 20
738.0
 30
0.0
 11
834.0
 21
736.0
 31
0.0
  0
LINE
  8
L-ZISSEN
 10
834.0
 20
684.0
 30
0.0
 11
834.0
 21
682.0
 31
0.0
  0
LINE
  8
L-ZISSEN
  6
CONTINUOUS
 62
     7
 10
818.9
 20
684.0
 30
0.0
 11
818.9
 21
736.0
 31
0.0
  0
LINE
  8
L-ZISSEN
  6
CONTINUOUS
 62
     7
 10
816.9
 20
736.0
 30
0.0
 11
816.9
 21
684.0
 31
0.0
  0
LINE
  8
L-ZISSEN
  6
CONTINUOUS
 62
     7
 10
813.6
 20
734.5
 30
0.0
 11
813.6
 21
725.5
 31
0.0
  0
LINE
  8
L-ZISSEN
  6
CONTINUOUS
 62
     7
 10
816.9
 20
725.5
 30
0.0
 11
813.6
 21
725.5
 31
0.0
  0
LINE
  8
L-ZISSEN
  6
CONTINUOUS
 62
     7
 10
816.9
 20
734.5
 30
0.0
 11
813.6
 21
734.5
 31
0.0
  0
LINE
  8
L-ZISSEN
  6
CONTINUOUS
 62
     7
 10
816.9
 20
694.5
 30
0.0
 11
813.6
 21
694.5
 31
0.0
  0
LINE
  8
L-ZISSEN
  6
CONTINUOUS
 62
     7
 10
816.9
 20
685.5
 30
0.0
 11
813.6
 21
685.5
 31
0.0
  0
LINE
  8
L-ZISSEN
  6
CONTINUOUS
 62
     7
 10
813.6
 20
694.5
 30
0.0
 11
813.6
 21
685.5
 31
0.0
  0
LINE
  8
L-ZISSEN
  6
CONTINUOUS
 62
     7
 10
875.1
 20
684.0
 30
0.0
 11
875.1
 21
736.0
 31
0.0
  0
LINE
  8
L-ZISSEN
  6
CONTINUOUS
 62
     7
 10
885.1
 20
736.0
 30
0.0
 11
931.1
 21
734.393644
 31
0.0
  0
LINE
  8
L-ZISSEN
  6
CONTINUOUS
 62
     7
 10
931.1
 20
685.606356
 30
0.0
 11
931.1
 21
734.393644
 31
0.0
  0
LINE
  8
L-ZISSEN
  6
CONTINUOUS
 62
     7
 10
885.1
 20
684.0
 30
0.0
 11
931.1
 21
685.606356
 31
0.0
  0
LINE
  8
L-ZISSEN
 10
885.1
 20
736.0
 30
0.0
 11
816.9
 21
736.0
 31
0.0
  0
LINE
  8
L-ZISSEN
 10
885.1
 20
684.0
 30
0.0
 11
816.9
 21
684.0
 31
0.0
  0
LINE
  8
L-ZISSEN
 10
821.0
 20
684.0
 30
0.0
 11
821.0
 21
736.0
 31
0.0
  0
LINE
  8
L-ZISSEN
 10
873.0
 20
684.0
 30
0.0
 11
873.0
 21
736.0
 31
0.0
  0
CIRCLE
  8
L-ZISSEN
 10
869.0
 20
688.0
 30
0.0
 40
3.5
  0
CIRCLE
  8
L-ZISSEN
 10
869.0
 20
732.0
 30
0.0
 40
3.5
  0
CIRCLE
  8
L-ZISSEN
 10
825.0
 20
732.0
 30
0.0
 40
3.5
  0
CIRCLE
  8
L-ZISSEN
 10
825.0
 20
688.0
 30
0.0
 40
3.5
  0
LINE
  8
L-ZISSEN
 10
816.9
 20
594.0
 30
0.0
 11
885.1
 21
594.0
 31
0.0
  0
LINE
  8
L-ZISSEN
 10
816.9
 20
646.0
 30
0.0
 11
816.9
 21
594.0
 31
0.0
  0
LINE
  8
L-ZISSEN
 10
818.9
 20
646.0
 30
0.0
 11
818.9
 21
594.0
 31
0.0
  0
LINE
  8
L-ZISSEN
  6
CONTINUOUS
 62
     7
 10
885.1
 20
594.0
 30
0.0
 11
931.1
 21
595.606356
 31
0.0
  0
LINE
  8
L-ZISSEN
 10
875.1
 20
646.0
 30
0.0
 11
875.1
 21
594.0
 31
0.0
  0
LINE
  8
L-ZISSEN
 10
873.0
 20
654.0
 30
0.0
 11
821.0
 21
654.0
 31
0.0
  0
ARC
  8
L-ZISSEN
 10
847.0
 20
641.0
 30
0.0
 40
13.0
 50
125.234418
 51
54.765582
  0
CIRCLE
  8
L-ZISSEN
 10
847.0
 20
641.0
 30
0.0
 40
9.3
  0
LINE
  8
L-ZISSEN
 10
854.5
 20
654.0
 30
0.0
 11
854.5
 21
651.618381
 31
0.0
  0
LINE
  8
L-ZISSEN
 10
839.5
 20
654.0
 30
0.0
 11
839.5
 21
651.618381
 31
0.0
  0
LINE
  8
L-ZISSEN
 10
873.0
 20
655.5
 30
0.0
 11
873.0
 21
646.0
 31
0.0
  0
LINE
  8
L-ZISSEN
 10
821.0
 20
655.5
 30
0.0
 11
821.0
 21
646.0
 31
0.0
  0
LINE
  8
L-ZISSEN
 10
816.9
 20
646.0
 30
0.0
 11
821.0
 21
646.0
 31
0.0
  0
LINE
  8
L-ZISSEN
 10
873.0
 20
646.0
 30
0.0
 11
885.1
 21
646.0
 31
0.0
  0
LINE
  8
L-ZISSEN
 10
821.0
 20
655.5
 30
0.0
 11
873.0
 21
655.5
 31
0.0
  0
LINE
  8
L-ZISSEN
  6
CONTINUOUS
 62
     7
 10
828.5
 20
659.1
 30
0.0
 11
821.5
 21
659.1
 31
0.0
  0
LINE
  8
L-ZISSEN
  6
CONTINUOUS
 62
     7
 10
828.5
 20
655.5
 30
0.0
 11
828.5
 21
659.1
 31
0.0
  0
LINE
  8
L-ZISSEN
  6
CONTINUOUS
 62
     7
 10
821.5
 20
655.5
 30
0.0
 11
821.5
 21
659.1
 31
0.0
  0
LINE
  8
L-ZISSEN
  6
CONTINUOUS
 62
     7
 10
813.6
 20
644.5
 30
0.0
 11
813.6
 21
635.5
 31
0.0
  0
LINE
  8
L-ZISSEN
  6
CONTINUOUS
 62
     7
 10
816.9
 20
635.5
 30
0.0
 11
813.6
 21
635.5
 31
0.0
  0
LINE
  8
L-ZISSEN
  6
CONTINUOUS
 62
     7
 10
816.9
 20
644.5
 30
0.0
 11
813.6
 21
644.5
 31
0.0
  0
LINE
  8
L-ZISSEN
  6
CONTINUOUS
 62
     7
 10
816.9
 20
604.5
 30
0.0
 11
813.6
 21
604.5
 31
0.0
  0
LINE
  8
L-ZISSEN
  6
CONTINUOUS
 62
     7
 10
816.9
 20
595.5
 30
0.0
 11
813.6
 21
595.5
 31
0.0
  0
LINE
  8
L-ZISSEN
  6
CONTINUOUS
 62
     7
 10
813.6
 20
604.5
 30
0.0
 11
813.6
 21
595.5
 31
0.0
  0
LINE
  8
L-ZISSEN
  6
CONTINUOUS
 62
     7
 10
885.1
 20
646.0
 30
0.0
 11
931.1
 21
644.393644
 31
0.0
  0
LINE
  8
L-ZISSEN
  6
CONTINUOUS
 62
     7
 10
931.1
 20
595.606356
 30
0.0
 11
931.1
 21
644.393644
 31
0.0
  0
LINE
  8
L-ZISSEN
  6
CONTINUOUS
 62
     7
 10
865.5
 20
655.5
 30
0.0
 11
865.5
 21
659.1
 31
0.0
  0
LINE
  8
L-ZISSEN
  6
CONTINUOUS
 62
     7
 10
872.5
 20
655.5
 30
0.0
 11
872.5
 21
659.1
 31
0.0
  0
LINE
  8
L-ZISSEN
  6
CONTINUOUS
 62
     7
 10
872.5
 20
659.1
 30
0.0
 11
865.5
 21
659.1
 31
0.0
  0
LINE
  8
L-ZISSEN
 10
951.74282
 20
845.50005
 30
0.0
 11
947.1
 21
845.50005
 31
0.0
  0
LINE
  8
L-ZISSEN
 10
951.74282
 20
854.49995
 30
0.0
 11
951.74282
 21
845.50005
 31
0.0
  0
LINE
  8
L-ZISSEN
 10
951.74282
 20
854.49995
 30
0.0
 11
947.1
 21
854.49995
 31
0.0
  0
LINE
  8
L-ZISSEN
 10
951.74282
 20
885.50005
 30
0.0
 11
947.1
 21
885.50005
 31
0.0
  0
LINE
  8
L-ZISSEN
 10
951.74282
 20
885.50005
 30
0.0
 11
951.74282
 21
894.49995
 31
0.0
  0
LINE
  8
L-ZISSEN
 10
958.7
 20
881.0
 30
0.0
 11
958.7
 21
859.0
 31
0.0
  0
LINE
  8
L-ZISSEN
 10
958.7
 20
859.0
 30
0.0
 11
957.7
 21
859.0
 31
0.0
  0
LINE
  8
L-ZISSEN
 10
957.7
 20
881.0
 30
0.0
 11
958.7
 21
881.0
 31
0.0
  0
LINE
  8
L-ZISSEN
 10
951.74282
 20
894.49995
 30
0.0
 11
947.1
 21
894.49995
 31
0.0
  0
LINE
  8
L-ZISSEN
 10
951.74282
 20
851.0
 30
0.0
 11
957.7
 21
851.0
 31
0.0
  0
LINE
  8
L-ZISSEN
 10
951.74282
 20
889.0
 30
0.0
 11
957.7
 21
889.0
 31
0.0
  0
LINE
  8
L-ZISSEN
 10
947.1
 20
896.0
 30
0.0
 11
947.1
 21
844.0
 31
0.0
  0
LINE
  8
L-ZISSEN
 10
957.7
 20
889.0
 30
0.0
 11
957.7
 21
851.0
 31
0.0
  0
LINE
  8
L-ZISSEN
 10
957.7
 20
979.0
 30
0.0
 11
957.7
 21
941.0
 31
0.0
  0
LINE
  8
L-ZISSEN
 10
947.1
 20
986.0
 30
0.0
 11
947.1
 21
934.0
 31
0.0
  0
LINE
  8
L-ZISSEN
 10
951.74282
 20
979.0
 30
0.0
 11
957.7
 21
979.0
 31
0.0
  0
LINE
  8
L-ZISSEN
 10
951.74282
 20
941.0
 30
0.0
 11
957.7
 21
941.0
 31
0.0
  0
LINE
  8
L-ZISSEN
 10
951.74282
 20
984.49995
 30
0.0
 11
947.1
 21
984.49995
 31
0.0
  0
LINE
  8
L-ZISSEN
 10
957.7
 20
971.0
 30
0.0
 11
958.7
 21
971.0
 31
0.0
  0
LINE
  8
L-ZISSEN
 10
958.7
 20
949.0
 30
0.0
 11
957.7
 21
949.0
 31
0.0
  0
LINE
  8
L-ZISSEN
 10
958.7
 20
971.0
 30
0.0
 11
958.7
 21
949.0
 31
0.0
  0
LINE
  8
L-ZISSEN
 10
951.74282
 20
975.50005
 30
0.0
 11
951.74282
 21
984.49995
 31
0.0
  0
LINE
  8
L-ZISSEN
 10
951.74282
 20
975.50005
 30
0.0
 11
947.1
 21
975.50005
 31
0.0
  0
LINE
  8
L-ZISSEN
 10
951.74282
 20
944.49995
 30
0.0
 11
947.1
 21
944.49995
 31
0.0
  0
LINE
  8
L-ZISSEN
 10
951.74282
 20
944.49995
 30
0.0
 11
951.74282
 21
935.50005
 31
0.0
  0
LINE
  8
L-ZISSEN
 10
951.74282
 20
935.50005
 30
0.0
 11
947.1
 21
935.50005
 31
0.0
  0
CIRCLE
  8
L-ZISSEN
 10
1050.0
 20
620.0
 30
0.0
 40
11.0
  0
CIRCLE
  8
L-ZISSEN
 10
1050.0
 20
620.0
 30
0.0
 40
9.0
  0
CIRCLE
  8
L-ZISSEN
 10
1050.0
 20
620.0
 30
0.0
 40
7.25
  0
LINE
  8
L-ZISSEN
  6
CONTINUOUS
 62
     7
 10
1075.5
 20
655.5
 30
0.0
 11
1075.5
 21
659.1
 31
0.0
  0
LINE
  8
L-ZISSEN
  6
CONTINUOUS
 62
     7
 10
1068.5
 20
655.5
 30
0.0
 11
1068.5
 21
659.1
 31
0.0
  0
LINE
  8
L-ZISSEN
  6
CONTINUOUS
 62
     7
 10
1068.5
 20
659.1
 30
0.0
 11
1075.5
 21
659.1
 31
0.0
  0
LINE
  8
L-ZISSEN
 10
1076.0
 20
628.0
 30
0.0
 11
1078.0
 21
628.0
 31
0.0
  0
LINE
  8
L-ZISSEN
 10
1022.0
 20
628.0
 30
0.0
 11
1024.0
 21
628.0
 31
0.0
  0
LINE
  8
L-ZISSEN
  6
CONTINUOUS
 62
     7
 10
1031.5
 20
659.1
 30
0.0
 11
1024.5
 21
659.1
 31
0.0
  0
LINE
  8
L-ZISSEN
  6
CONTINUOUS
 62
     7
 10
1031.5
 20
655.5
 30
0.0
 11
1031.5
 21
659.1
 31
0.0
  0
LINE
  8
L-ZISSEN
  6
CONTINUOUS
 62
     7
 10
1024.5
 20
655.5
 30
0.0
 11
1024.5
 21
659.1
 31
0.0
  0
LINE
  8
L-ZISSEN
 10
1078.0
 20
628.0
 30
0.0
 11
1078.0
 21
654.0
 31
0.0
  0
LINE
  8
L-ZISSEN
 10
1024.0
 20
655.5
 30
0.0
 11
1076.0
 21
655.5
 31
0.0
  0
LINE
  8
L-ZISSEN
 10
1022.0
 20
654.0
 30
0.0
 11
1078.0
 21
654.0
 31
0.0
  0
LINE
  8
L-ZISSEN
 10
1076.0
 20
655.5
 30
0.0
 11
1076.0
 21
594.0
 31
0.0
  0
LINE
  8
L-ZISSEN
 10
1022.0
 20
628.0
 30
0.0
 11
1022.0
 21
654.0
 31
0.0
  0
LINE
  8
L-ZISSEN
 10
1024.0
 20
646.0
 30
0.0
 11
1076.0
 21
646.0
 31
0.0
  0
LINE
  8
L-ZISSEN
 10
1024.0
 20
594.0
 30
0.0
 11
1024.0
 21
655.5
 31
0.0
  0
LINE
  8
L-ZISSEN
 10
1024.0
 20
594.0
 30
0.0
 11
1076.0
 21
594.0
 31
0.0
  0
LINE
  8
L-ZISSEN
 10
931.1
 20
721.0
 30
0.0
 11
944.1
 21
721.0
 31
0.0
  0
LINE
  8
L-ZISSEN
  6
CONTINUOUS
 62
     7
 10
944.1
 20
719.0
 30
0.0
 11
950.1
 21
719.0
 31
0.0
  0
LINE
  8
L-ZISSEN
  6
CONTINUOUS
 62
     7
 10
950.1
 20
717.25
 30
0.0
 11
957.1
 21
717.25
 31
0.0
  0
LINE
  8
L-ZISSEN
 10
931.1
 20
699.0
 30
0.0
 11
944.1
 21
699.0
 31
0.0
  0
LINE
  8
L-ZISSEN
  6
CONTINUOUS
 62
     7
 10
950.1
 20
719.0
 30
0.0
 11
950.1
 21
701.0
 31
0.0
  0
LINE
  8
L-ZISSEN
  6
CONTINUOUS
 62
     7
 10
944.1
 20
701.0
 30
0.0
 11
950.1
 21
701.0
 31
0.0
  0
LINE
  8
L-ZISSEN
  6
CONTINUOUS
 62
     7
 10
950.1
 20
702.75
 30
0.0
 11
957.1
 21
702.75
 31
0.0
  0
LINE
  8
L-ZISSEN
  6
CONTINUOUS
 62
     7
 10
957.1
 20
717.25
 30
0.0
 11
957.1
 21
702.75
 31
0.0
  0
LINE
  8
L-ZISSEN
  6
CONTINUOUS
 62
     7
 10
944.1
 20
721.0
 30
0.0
 11
944.1
 21
699.0
 31
0.0
  0
LINE
  8
L-ZISSEN
  6
CONTINUOUS
 62
     7
 10
944.1
 20
631.0
 30
0.0
 11
944.1
 21
609.0
 31
0.0
  0
LINE
  8
L-ZISSEN
  6
CONTINUOUS
 62
     7
 10
957.1
 20
627.25
 30
0.0
 11
957.1
 21
612.75
 31
0.0
  0
LINE
  8
L-ZISSEN
  6
CONTINUOUS
 62
     7
 10
950.1
 20
612.75
 30
0.0
 11
957.1
 21
612.75
 31
0.0
  0
LINE
  8
L-ZISSEN
  6
CONTINUOUS
 62
     7
 10
944.1
 20
611.0
 30
0.0
 11
950.1
 21
611.0
 31
0.0
  0
LINE
  8
L-ZISSEN
  6
CONTINUOUS
 62
     7
 10
950.1
 20
629.0
 30
0.0
 11
950.1
 21
611.0
 31
0.0
  0
LINE
  8
L-ZISSEN
 10
931.1
 20
609.0
 30
0.0
 11
944.1
 21
609.0
 31
0.0
  0
LINE
  8
L-ZISSEN
  6
CONTINUOUS
 62
     7
 10
950.1
 20
627.25
 30
0.0
 11
957.1
 21
627.25
 31
0.0
  0
LINE
  8
L-ZISSEN
  6
CONTINUOUS
 62
     7
 10
944.1
 20
629.0
 30
0.0
 11
950.1
 21
629.0
 31
0.0
  0
LINE
  8
L-ZISSEN
 10
931.1
 20
631.0
 30
0.0
 11
944.1
 21
631.0
 31
0.0
  0
LINE
  8
L-ZISSEN
  6
CONTINUOUS
 62
     7
 10
872.5
 20
409.1
 30
0.0
 11
865.5
 21
409.1
 31
0.0
  0
LINE
  8
L-ZISSEN
  6
CONTINUOUS
 62
     7
 10
872.5
 20
405.5
 30
0.0
 11
872.5
 21
409.1
 31
0.0
  0
LINE
  8
L-ZISSEN
  6
CONTINUOUS
 62
     7
 10
865.5
 20
405.5
 30
0.0
 11
865.5
 21
409.1
 31
0.0
  0
LINE
  8
L-ZISSEN
  6
CONTINUOUS
 62
     7
 10
813.6
 20
354.5
 30
0.0
 11
813.6
 21
345.5
 31
0.0
  0
LINE
  8
L-ZISSEN
  6
CONTINUOUS
 62
     7
 10
816.9
 20
345.5
 30
0.0
 11
813.6
 21
345.5
 31
0.0
  0
LINE
  8
L-ZISSEN
  6
CONTINUOUS
 62
     7
 10
816.9
 20
354.5
 30
0.0
 11
813.6
 21
354.5
 31
0.0
  0
LINE
  8
L-ZISSEN
  6
CONTINUOUS
 62
     7
 10
816.9
 20
394.5
 30
0.0
 11
813.6
 21
394.5
 31
0.0
  0
LINE
  8
L-ZISSEN
  6
CONTINUOUS
 62
     7
 10
816.9
 20
385.5
 30
0.0
 11
813.6
 21
385.5
 31
0.0
  0
LINE
  8
L-ZISSEN
  6
CONTINUOUS
 62
     7
 10
813.6
 20
394.5
 30
0.0
 11
813.6
 21
385.5
 31
0.0
  0
LINE
  8
L-ZISSEN
  6
CONTINUOUS
 62
     7
 10
821.5
 20
405.5
 30
0.0
 11
821.5
 21
409.1
 31
0.0
  0
LINE
  8
L-ZISSEN
  6
CONTINUOUS
 62
     7
 10
828.5
 20
405.5
 30
0.0
 11
828.5
 21
409.1
 31
0.0
  0
LINE
  8
L-ZISSEN
  6
CONTINUOUS
 62
     7
 10
828.5
 20
409.1
 30
0.0
 11
821.5
 21
409.1
 31
0.0
  0
LINE
  8
L-ZISSEN
 10
821.0
 20
405.5
 30
0.0
 11
873.0
 21
405.5
 31
0.0
  0
LINE
  8
L-ZISSEN
 10
873.0
 20
396.0
 30
0.0
 11
947.1
 21
396.0
 31
0.0
  0
LINE
  8
L-ZISSEN
 10
816.9
 20
396.0
 30
0.0
 11
821.0
 21
396.0
 31
0.0
  0
LINE
  8
L-ZISSEN
 10
821.0
 20
405.5
 30
0.0
 11
821.0
 21
396.0
 31
0.0
  0
LINE
  8
L-ZISSEN
 10
873.0
 20
405.5
 30
0.0
 11
873.0
 21
396.0
 31
0.0
  0
LINE
  8
L-ZISSEN
 10
839.5
 20
404.0
 30
0.0
 11
839.5
 21
401.618381
 31
0.0
  0
LINE
  8
L-ZISSEN
 10
854.5
 20
404.0
 30
0.0
 11
854.5
 21
401.618381
 31
0.0
  0
CIRCLE
  8
L-ZISSEN
 10
847.0
 20
391.0
 30
0.0
 40
9.3
  0
ARC
  8
L-ZISSEN
 10
847.0
 20
391.0
 30
0.0
 40
13.0
 50
125.234418
 51
54.765582
  0
LINE
  8
L-ZISSEN
 10
873.0
 20
404.0
 30
0.0
 11
821.0
 21
404.0
 31
0.0
  0
LINE
  8
L-ZISSEN
 10
875.1
 20
396.0
 30
0.0
 11
875.1
 21
344.0
 31
0.0
  0
LINE
  8
L-ZISSEN
 10
818.9
 20
396.0
 30
0.0
 11
818.9
 21
344.0
 31
0.0
  0
LINE
  8
L-ZISSEN
 10
816.9
 20
396.0
 30
0.0
 11
816.9
 21
344.0
 31
0.0
  0
LINE
  8
L-ZISSEN
 10
816.9
 20
344.0
 30
0.0
 11
947.1
 21
344.0
 31
0.0
  0
CIRCLE
  8
L-ZISSEN
 10
825.0
 20
438.0
 30
0.0
 40
3.5
  0
CIRCLE
  8
L-ZISSEN
 10
825.0
 20
482.0
 30
0.0
 40
3.5
  0
CIRCLE
  8
L-ZISSEN
 10
869.0
 20
482.0
 30
0.0
 40
3.5
  0
CIRCLE
  8
L-ZISSEN
 10
869.0
 20
438.0
 30
0.0
 40
3.5
  0
LINE
  8
L-ZISSEN
 10
873.0
 20
434.0
 30
0.0
 11
873.0
 21
486.0
 31
0.0
  0
LINE
  8
L-ZISSEN
 10
821.0
 20
434.0
 30
0.0
 11
821.0
 21
486.0
 31
0.0
  0
LINE
  8
L-ZISSEN
 10
947.1
 20
434.0
 30
0.0
 11
816.9
 21
434.0
 31
0.0
  0
LINE
  8
L-ZISSEN
 10
947.1
 20
486.0
 30
0.0
 11
816.9
 21
486.0
 31
0.0
  0
LINE
  8
L-ZISSEN
 10
875.1
 20
434.0
 30
0.0
 11
875.1
 21
486.0
 31
0.0
  0
LINE
  8
L-ZISSEN
  6
CONTINUOUS
 62
     7
 10
813.6
 20
444.5
 30
0.0
 11
813.6
 21
435.5
 31
0.0
  0
LINE
  8
L-ZISSEN
  6
CONTINUOUS
 62
     7
 10
816.9
 20
435.5
 30
0.0
 11
813.6
 21
435.5
 31
0.0
  0
LINE
  8
L-ZISSEN
  6
CONTINUOUS
 62
     7
 10
816.9
 20
444.5
 30
0.0
 11
813.6
 21
444.5
 31
0.0
  0
LINE
  8
L-ZISSEN
  6
CONTINUOUS
 62
     7
 10
816.9
 20
484.5
 30
0.0
 11
813.6
 21
484.5
 31
0.0
  0
LINE
  8
L-ZISSEN
  6
CONTINUOUS
 62
     7
 10
816.9
 20
475.5
 30
0.0
 11
813.6
 21
475.5
 31
0.0
  0
LINE
  8
L-ZISSEN
  6
CONTINUOUS
 62
     7
 10
813.6
 20
484.5
 30
0.0
 11
813.6
 21
475.5
 31
0.0
  0
LINE
  8
L-ZISSEN
  6
CONTINUOUS
 62
     7
 10
816.9
 20
486.0
 30
0.0
 11
816.9
 21
434.0
 31
0.0
  0
LINE
  8
L-ZISSEN
  6
CONTINUOUS
 62
     7
 10
818.9
 20
434.0
 30
0.0
 11
818.9
 21
486.0
 31
0.0
  0
LINE
  8
L-ZISSEN
 10
834.0
 20
434.0
 30
0.0
 11
834.0
 21
432.0
 31
0.0
  0
LINE
  8
L-ZISSEN
 10
834.0
 20
488.0
 30
0.0
 11
834.0
 21
486.0
 31
0.0
  0
LINE
  8
L-ZISSEN
 10
860.0
 20
488.0
 30
0.0
 11
860.0
 21
486.0
 31
0.0
  0
LINE
  8
L-ZISSEN
 10
860.0
 20
488.0
 30
0.0
 11
834.0
 21
488.0
 31
0.0
  0
LINE
  8
L-ZISSEN
 10
860.0
 20
434.0
 30
0.0
 11
860.0
 21
432.0
 31
0.0
  0
LINE
  8
L-ZISSEN
 10
860.0
 20
432.0
 30
0.0
 11
834.0
 21
432.0
 31
0.0
  0
CIRCLE
  8
L-ZISSEN
 10
1050.0
 20
370.0
 30
0.0
 40
11.0
  0
CIRCLE
  8
L-ZISSEN
 10
1050.0
 20
370.0
 30
0.0
 40
9.0
  0
CIRCLE
  8
L-ZISSEN
 10
1050.0
 20
370.0
 30
0.0
 40
7.25
  0
LINE
  8
L-ZISSEN
  6
CONTINUOUS
 62
     7
 10
1075.5
 20
405.5
 30
0.0
 11
1075.5
 21
409.1
 31
0.0
  0
LINE
  8
L-ZISSEN
  6
CONTINUOUS
 62
     7
 10
1068.5
 20
405.5
 30
0.0
 11
1068.5
 21
409.1
 31
0.0
  0
LINE
  8
L-ZISSEN
  6
CONTINUOUS
 62
     7
 10
1068.5
 20
409.1
 30
0.0
 11
1075.5
 21
409.1
 31
0.0
  0
LINE
  8
L-ZISSEN
 10
1076.0
 20
378.0
 30
0.0
 11
1078.0
 21
378.0
 31
0.0
  0
LINE
  8
L-ZISSEN
 10
1022.0
 20
378.0
 30
0.0
 11
1024.0
 21
378.0
 31
0.0
  0
LINE
  8
L-ZISSEN
  6
CONTINUOUS
 62
     7
 10
1031.5
 20
409.1
 30
0.0
 11
1024.5
 21
409.1
 31
0.0
  0
LINE
  8
L-ZISSEN
  6
CONTINUOUS
 62
     7
 10
1031.5
 20
405.5
 30
0.0
 11
1031.5
 21
409.1
 31
0.0
  0
LINE
  8
L-ZISSEN
  6
CONTINUOUS
 62
     7
 10
1024.5
 20
405.5
 30
0.0
 11
1024.5
 21
409.1
 31
0.0
  0
LINE
  8
L-ZISSEN
 10
1078.0
 20
378.0
 30
0.0
 11
1078.0
 21
404.0
 31
0.0
  0
LINE
  8
L-ZISSEN
 10
1024.0
 20
405.5
 30
0.0
 11
1076.0
 21
405.5
 31
0.0
  0
LINE
  8
L-ZISSEN
 10
1022.0
 20
404.0
 30
0.0
 11
1078.0
 21
404.0
 31
0.0
  0
LINE
  8
L-ZISSEN
 10
1076.0
 20
405.5
 30
0.0
 11
1076.0
 21
344.0
 31
0.0
  0
LINE
  8
L-ZISSEN
 10
1022.0
 20
378.0
 30
0.0
 11
1022.0
 21
404.0
 31
0.0
  0
LINE
  8
L-ZISSEN
 10
1024.0
 20
396.0
 30
0.0
 11
1076.0
 21
396.0
 31
0.0
  0
LINE
  8
L-ZISSEN
 10
1024.0
 20
344.0
 30
0.0
 11
1024.0
 21
405.5
 31
0.0
  0
LINE
  8
L-ZISSEN
 10
1024.0
 20
344.0
 30
0.0
 11
1076.0
 21
344.0
 31
0.0
  0
CIRCLE
  8
L-ZISSEN
 10
1050.0
 20
370.0
 30
0.0
 40
19.0
  0
CIRCLE
  8
L-ZISSEN
 10
1030.0
 20
390.0
 30
0.0
 40
4.49995
  0
CIRCLE
  8
L-ZISSEN
 10
1070.0
 20
390.0
 30
0.0
 40
4.49995
  0
CIRCLE
  8
L-ZISSEN
 10
1030.0
 20
350.0
 30
0.0
 40
4.49995
  0
CIRCLE
  8
L-ZISSEN
 10
1070.0
 20
350.0
 30
0.0
 40
4.49995
  0
LINE
  8
L-ZISSEN
  6
CONTINUOUS
 62
     7
 10
970.7
 20
381.0
 30
0.0
 11
970.7
 21
359.0
 31
0.0
  0
LINE
  8
L-ZISSEN
  6
CONTINUOUS
 62
     7
 10
984.0
 20
377.25
 30
0.0
 11
984.0
 21
362.75
 31
0.0
  0
LINE
  8
L-ZISSEN
  6
CONTINUOUS
 62
     7
 10
976.7
 20
362.75
 30
0.0
 11
984.0
 21
362.75
 31
0.0
  0
LINE
  8
L-ZISSEN
  6
CONTINUOUS
 62
     7
 10
970.7
 20
361.0
 30
0.0
 11
976.7
 21
361.0
 31
0.0
  0
LINE
  8
L-ZISSEN
  6
CONTINUOUS
 62
     7
 10
976.7
 20
379.0
 30
0.0
 11
976.7
 21
361.0
 31
0.0
  0
LINE
  8
L-ZISSEN
 10
957.7
 20
359.0
 30
0.0
 11
970.7
 21
359.0
 31
0.0
  0
LINE
  8
L-ZISSEN
  6
CONTINUOUS
 62
     7
 10
976.7
 20
377.25
 30
0.0
 11
984.0
 21
377.25
 31
0.0
  0
LINE
  8
L-ZISSEN
  6
CONTINUOUS
 62
     7
 10
970.7
 20
379.0
 30
0.0
 11
976.7
 21
379.0
 31
0.0
  0
LINE
  8
L-ZISSEN
 10
957.7
 20
381.0
 30
0.0
 11
970.7
 21
381.0
 31
0.0
  0
LINE
  8
L-ZISSEN
 10
957.7
 20
471.0
 30
0.0
 11
970.7
 21
471.0
 31
0.0
  0
LINE
  8
L-ZISSEN
  6
CONTINUOUS
 62
     7
 10
970.7
 20
469.0
 30
0.0
 11
976.7
 21
469.0
 31
0.0
  0
LINE
  8
L-ZISSEN
  6
CONTINUOUS
 62
     7
 10
976.7
 20
467.25
 30
0.0
 11
984.0
 21
467.25
 31
0.0
  0
LINE
  8
L-ZISSEN
 10
957.7
 20
449.0
 30
0.0
 11
970.7
 21
449.0
 31
0.0
  0
LINE
  8
L-ZISSEN
  6
CONTINUOUS
 62
     7
 10
976.7
 20
469.0
 30
0.0
 11
976.7
 21
451.0
 31
0.0
  0
LINE
  8
L-ZISSEN
  6
CONTINUOUS
 62
     7
 10
970.7
 20
451.0
 30
0.0
 11
976.7
 21
451.0
 31
0.0
  0
LINE
  8
L-ZISSEN
  6
CONTINUOUS
 62
     7
 10
976.7
 20
452.75
 30
0.0
 11
984.0
 21
452.75
 31
0.0
  0
LINE
  8
L-ZISSEN
  6
CONTINUOUS
 62
     7
 10
984.0
 20
467.25
 30
0.0
 11
984.0
 21
452.75
 31
0.0
  0
LINE
  8
L-ZISSEN
  6
CONTINUOUS
 62
     7
 10
970.7
 20
471.0
 30
0.0
 11
970.7
 21
449.0
 31
0.0
  0
LINE
  8
L-ZISSEN
 10
957.7
 20
389.0
 30
0.0
 11
957.7
 21
351.0
 31
0.0
  0
LINE
  8
L-ZISSEN
 10
947.1
 20
396.0
 30
0.0
 11
947.1
 21
344.0
 31
0.0
  0
LINE
  8
L-ZISSEN
 10
951.74282
 20
389.0
 30
0.0
 11
957.7
 21
389.0
 31
0.0
  0
LINE
  8
L-ZISSEN
 10
951.74282
 20
351.0
 30
0.0
 11
957.7
 21
351.0
 31
0.0
  0
LINE
  8
L-ZISSEN
 10
951.74282
 20
394.49995
 30
0.0
 11
947.1
 21
394.49995
 31
0.0
  0
LINE
  8
L-ZISSEN
 10
951.74282
 20
385.50005
 30
0.0
 11
951.74282
 21
394.49995
 31
0.0
  0
LINE
  8
L-ZISSEN
 10
951.74282
 20
385.50005
 30
0.0
 11
947.1
 21
385.50005
 31
0.0
  0
LINE
  8
L-ZISSEN
 10
951.74282
 20
354.49995
 30
0.0
 11
947.1
 21
354.49995
 31
0.0
  0
LINE
  8
L-ZISSEN
 10
951.74282
 20
354.49995
 30
0.0
 11
951.74282
 21
345.50005
 31
0.0
  0
LINE
  8
L-ZISSEN
 10
951.74282
 20
345.50005
 30
0.0
 11
947.1
 21
345.50005
 31
0.0
  0
LINE
  8
L-ZISSEN
 10
951.74282
 20
435.50005
 30
0.0
 11
947.1
 21
435.50005
 31
0.0
  0
LINE
  8
L-ZISSEN
 10
951.74282
 20
444.49995
 30
0.0
 11
951.74282
 21
435.50005
 31
0.0
  0
LINE
  8
L-ZISSEN
 10
951.74282
 20
444.49995
 30
0.0
 11
947.1
 21
444.49995
 31
0.0
  0
LINE
  8
L-ZISSEN
 10
951.74282
 20
475.50005
 30
0.0
 11
947.1
 21
475.50005
 31
0.0
  0
LINE
  8
L-ZISSEN
 10
951.74282
 20
475.50005
 30
0.0
 11
951.74282
 21
484.49995
 31
0.0
  0
LINE
  8
L-ZISSEN
 10
951.74282
 20
484.49995
 30
0.0
 11
947.1
 21
484.49995
 31
0.0
  0
LINE
  8
L-ZISSEN
 10
951.74282
 20
441.0
 30
0.0
 11
957.7
 21
441.0
 31
0.0
  0
LINE
  8
L-ZISSEN
 10
951.74282
 20
479.0
 30
0.0
 11
957.7
 21
479.0
 31
0.0
  0
LINE
  8
L-ZISSEN
 10
947.1
 20
486.0
 30
0.0
 11
947.1
 21
434.0
 31
0.0
  0
LINE
  8
L-ZISSEN
 10
957.7
 20
479.0
 30
0.0
 11
957.7
 21
441.0
 31
0.0
  0
LINE
  8
L-ZISSEN
 10
1663.0
 20
904.0
 30
0.0
 11
1611.0
 21
904.0
 31
0.0
  0
LINE
  8
L-ZISSEN
 10
1663.0
 20
909.6
 30
0.0
 11
1663.0
 21
896.0
 31
0.0
  0
LINE
  8
L-ZISSEN
 10
1611.0
 20
909.6
 30
0.0
 11
1611.0
 21
896.0
 31
0.0
  0
LINE
  8
L-ZISSEN
 10
1611.0
 20
909.6
 30
0.0
 11
1663.0
 21
909.6
 31
0.0
  0
LINE
  8
L-ZISSEN
  6
CONTINUOUS
 62
     7
 10
1618.5
 20
913.2
 30
0.0
 11
1611.5
 21
913.2
 31
0.0
  0
LINE
  8
L-ZISSEN
  6
CONTINUOUS
 62
     7
 10
1618.5
 20
909.6
 30
0.0
 11
1618.5
 21
913.2
 31
0.0
  0
LINE
  8
L-ZISSEN
  6
CONTINUOUS
 62
     7
 10
1611.5
 20
909.6
 30
0.0
 11
1611.5
 21
913.2
 31
0.0
  0
LINE
  8
L-ZISSEN
  6
CONTINUOUS
 62
     7
 10
1655.5
 20
909.6
 30
0.0
 11
1655.5
 21
913.2
 31
0.0
  0
LINE
  8
L-ZISSEN
  6
CONTINUOUS
 62
     7
 10
1662.5
 20
909.6
 30
0.0
 11
1662.5
 21
913.2
 31
0.0
  0
LINE
  8
L-ZISSEN
  6
CONTINUOUS
 62
     7
 10
1662.5
 20
913.2
 30
0.0
 11
1655.5
 21
913.2
 31
0.0
  0
LINE
  8
L-ZISSEN
 10
1754.0
 20
909.6
 30
0.0
 11
1754.0
 21
916.1
 31
0.0
  0
LINE
  8
L-ZISSEN
 10
1762.0
 20
916.1
 30
0.0
 11
1762.0
 21
913.2
 31
0.0
  0
LINE
  8
L-ZISSEN
  6
CONTINUOUS
 62
     7
 10
1762.0
 20
916.1
 30
0.0
 11
1754.0
 21
916.1
 31
0.0
  0
LINE
  8
L-ZISSEN
  6
CONTINUOUS
 62
     7
 10
1765.5
 20
909.6
 30
0.0
 11
1765.5
 21
913.2
 31
0.0
  0
LINE
  8
L-ZISSEN
  6
CONTINUOUS
 62
     7
 10
1758.5
 20
909.6
 30
0.0
 11
1758.5
 21
913.2
 31
0.0
  0
LINE
  8
L-ZISSEN
  6
CONTINUOUS
 62
     7
 10
1758.5
 20
913.2
 30
0.0
 11
1765.5
 21
913.2
 31
0.0
  0
LINE
  8
L-ZISSEN
  6
CONTINUOUS
 62
     7
 10
1721.5
 20
913.2
 30
0.0
 11
1714.5
 21
913.2
 31
0.0
  0
LINE
  8
L-ZISSEN
  6
CONTINUOUS
 62
     7
 10
1721.5
 20
909.6
 30
0.0
 11
1721.5
 21
913.2
 31
0.0
  0
LINE
  8
L-ZISSEN
  6
CONTINUOUS
 62
     7
 10
1714.5
 20
909.6
 30
0.0
 11
1714.5
 21
913.2
 31
0.0
  0
LINE
  8
L-ZISSEN
 10
1714.0
 20
909.6
 30
0.0
 11
1766.0
 21
909.6
 31
0.0
  0
LINE
  8
L-ZISSEN
 10
1712.0
 20
904.0
 30
0.0
 11
1768.0
 21
904.0
 31
0.0
  0
LINE
  8
L-ZISSEN
 10
1766.0
 20
909.6
 30
0.0
 11
1766.0
 21
844.0
 31
0.0
  0
LINE
  8
L-ZISSEN
 10
1714.0
 20
844.0
 30
0.0
 11
1714.0
 21
909.6
 31
0.0
  0
TEXT
  8
L-ZISSEN
 10
1600.0
 20
1030.0
 30
0.0
 40
4.5
  1
PILOT LAMP
  0
CIRCLE
  8
L-ZISSEN
 10
1652.0
 20
978.0
 30
0.0
 40
4.0
  0
LINE
  8
L-ZISSEN
  6
CONTINUOUS
 62
     7
 10
1648.0
 20
916.1
 30
0.0
 11
1656.0
 21
916.1
 31
0.0
  0
LINE
  8
L-ZISSEN
 10
1648.0
 20
916.1
 30
0.0
 11
1648.0
 21
909.6
 31
0.0
  0
LINE
  8
L-ZISSEN
 10
1656.0
 20
913.2
 30
0.0
 11
1656.0
 21
916.1
 31
0.0
  0
TEXT
  8
L-ZISSEN
 10
815.0
 20
1030.0
 30
0.0
 40
4.5
  1
PILOT VALVE
  0
TEXT
  8
L-ZISSEN
 10
920.0
 20
1020.0
 30
0.0
 40
4.5
  1
DC-24V
  0
TEXT
  8
L-ZISSEN
 10
920.0
 20
1010.0
 30
0.0
 40
4.5
  1
DC-100V
  0
TEXT
  8
L-ZISSEN
 10
1170.0
 20
780.0
 30
0.0
 40
4.5
  1
PILOT VALVE
  0
TEXT
  8
L-ZISSEN
 10
1170.0
 20
770.0
 30
0.0
 40
4.5
  1
MODEL NO. : 26B-*00-2*B0
  0
TEXT
  8
L-ZISSEN
 10
1275.0
 20
775.0
 30
0.0
 40
4.5
  1
DC-24V
  0
TEXT
  8
L-ZISSEN
 10
1275.0
 20
765.0
 30
0.0
 40
4.5
  1
DC-100V
  0
TEXT
  8
L-ZISSEN
 10
1170.0
 20
520.0
 30
0.0
 40
4.5
  1
MODEL NO. : 26B-*00-2*R0
  0
TEXT
  8
L-ZISSEN
 10
1170.0
 20
530.0
 30
0.0
 40
4.5
  1
PILOT VALVE
  0
TEXT
  8
L-ZISSEN
 10
1275.0
 20
525.0
 30
0.0
 40
4.5
  1
AC-100V
  0
TEXT
  8
L-ZISSEN
 10
1275.0
 20
515.0
 30
0.0
 40
4.5
  1
AC-200V
  0
TEXT
  8
L-ZISSEN
 10
898.0
 20
763.0
 30
0.0
 40
4.5
  1
1
  0
TEXT
  8
L-ZISSEN
 10
898.0
 20
769.0
 30
0.0
 40
4.5
  1
0
  0
TEXT
  8
L-ZISSEN
 10
815.0
 20
780.0
 30
0.0
 40
4.5
  1
PILOT VALVE
  0
TEXT
  8
L-ZISSEN
 10
815.0
 20
765.0
 30
0.0
 40
4.5
  1
MODEL NO. : 26B-*00- *R0
  0
TEXT
  8
L-ZISSEN
 10
920.0
 20
770.0
 30
0.0
 40
4.5
  1
AC-100V
  0
TEXT
  8
L-ZISSEN
 10
920.0
 20
760.0
 30
0.0
 40
4.5
  1
AC-200V
  0
TEXT
  8
L-ZISSEN
 10
815.0
 20
1015.0
 30
0.0
 40
4.5
  1
MODEL NO. : 26B-*00- *B0
  0
TEXT
  8
L-ZISSEN
 10
898.0
 20
1019.0
 30
0.0
 40
4.5
  1
0
  0
TEXT
  8
L-ZISSEN
 10
898.0
 20
1013.0
 30
0.0
 40
4.5
  1
1
  0
TEXT
  8
L-ZISSEN
 10
898.0
 20
518.0
 30
0.0
 40
4.5
  1
1
  0
TEXT
  8
L-ZISSEN
 10
898.0
 20
524.0
 30
0.0
 40
4.5
  1
0
  0
TEXT
  8
L-ZISSEN
 10
815.0
 20
520.0
 30
0.0
 40
4.5
  1
MODEL NO. : 26B-*00- *R0
  0
TEXT
  8
L-ZISSEN
 10
920.0
 20
515.0
 30
0.0
 40
4.5
  1
DC-100V
  0
TEXT
  8
L-ZISSEN
 10
920.0
 20
525.0
 30
0.0
 40
4.5
  1
DC-24V
  0
TEXT
  8
L-ZISSEN
 10
815.0
 20
535.0
 30
0.0
 40
4.5
  1
PILOT VALVE
  0
TEXT
  8
L-ZISSEN
 10
1275.0
 20
265.0
 30
0.0
 40
4.5
  1
DC-100V
  0
TEXT
  8
L-ZISSEN
 10
1275.0
 20
275.0
 30
0.0
 40
4.5
  1
DC-24V
  0
TEXT
  8
L-ZISSEN
 10
1170.0
 20
270.0
 30
0.0
 40
4.5
  1
MODEL NO. : 26B-*00-2*R0
  0
TEXT
  8
L-ZISSEN
 10
1170.0
 20
280.0
 30
0.0
 40
4.5
  1
PILOT VALVE
  0
TEXT
  8
L-ZISSEN
 10
1600.0
 20
1020.0
 30
0.0
 40
4.5
  1
MODEL NO. : 26B-*00- **2
  0
TEXT
  8
L-ZISSEN
 10
1683.0
 20
1023.0
 30
0.0
 40
4.5
  1
1
  0
TEXT
  8
L-ZISSEN
 10
1682.5
 20
1017.0
 30
0.0
 40
4.5
  1
0
  0
SOLID
  8
L-ZISSEN
 10
847.707973
 20
958.10003
 30
0.0
 11
848.285911
 21
958.432344
 31
0.0
 12
847.0
 22
960.0
 32
0.0
 13
847.0
 23
960.0
 33
0.0
  0
LINE
  8
L-ZISSEN
 10
847.996942
 20
958.266187
 30
0.0
 11
870.0
 21
920.0
 31
0.0
  0
LINE
  8
L-ZISSEN
 10
870.0
 20
920.0
 30
0.0
 11
872.0
 21
920.0
 31
0.0
  0
TEXT
  8
L-ZISSEN
 10
874.0
 20
917.75
 30
0.0
 40
4.5
  1
P.P
  0
SOLID
  8
L-ZISSEN
 10
848.133505
 20
842.318846
 30
0.0
 11
848.617474
 21
842.777343
 31
0.0
 12
847.0
 22
844.0
 32
0.0
 13
847.0
 23
844.0
 33
0.0
  0
LINE
  8
L-ZISSEN
 10
848.375489
 20
842.548095
 30
0.0
 11
865.0
 21
825.0
 31
0.0
  0
LINE
  8
L-ZISSEN
 10
865.0
 20
825.0
 30
0.0
 11
867.0
 21
825.0
 31
0.0
  0
TEXT
  8
L-ZISSEN
 10
869.0
 20
822.75
 30
0.0
 40
4.5
  1
P.P
  0
SOLID
  8
L-ZISSEN
 10
1050.977661
 20
842.223686
 30
0.0
 11
1051.500916
 21
842.636783
 31
0.0
 12
1050.0
 22
844.0
 32
0.0
 13
1050.0
 23
844.0
 33
0.0
  0
LINE
  8
L-ZISSEN
 10
1051.239289
 20
842.430234
 30
0.0
 11
1065.0
 21
825.0
 31
0.0
  0
LINE
  8
L-ZISSEN
 10
1065.0
 20
825.0
 30
0.0
 11
1067.0
 21
825.0
 31
0.0
  0
TEXT
  8
L-ZISSEN
 10
1069.0
 20
822.75
 30
0.0
 40
4.5
  1
P.P
  0
TEXT
  8
L-ZISSEN
 10
869.0
 20
572.75
 30
0.0
 40
4.5
  1
P.P
  0
LINE
  8
L-ZISSEN
 10
865.0
 20
575.0
 30
0.0
 11
867.0
 21
575.0
 31
0.0
  0
LINE
  8
L-ZISSEN
 10
848.375489
 20
592.548095
 30
0.0
 11
865.0
 21
575.0
 31
0.0
  0
SOLID
  8
L-ZISSEN
 10
848.133505
 20
592.318846
 30
0.0
 11
848.617474
 21
592.777343
 31
0.0
 12
847.0
 22
594.0
 32
0.0
 13
847.0
 23
594.0
 33
0.0
  0
TEXT
  8
L-ZISSEN
 10
1069.0
 20
572.75
 30
0.0
 40
4.5
  1
P.P
  0
LINE
  8
L-ZISSEN
 10
1065.0
 20
575.0
 30
0.0
 11
1067.0
 21
575.0
 31
0.0
  0
LINE
  8
L-ZISSEN
 10
1051.239289
 20
592.430234
 30
0.0
 11
1065.0
 21
575.0
 31
0.0
  0
SOLID
  8
L-ZISSEN
 10
1050.977661
 20
592.223686
 30
0.0
 11
1051.500916
 21
592.636783
 31
0.0
 12
1050.0
 22
594.0
 32
0.0
 13
1050.0
 23
594.0
 33
0.0
  0
SOLID
  8
L-ZISSEN
 10
847.707973
 20
708.10003
 30
0.0
 11
848.285911
 21
708.432344
 31
0.0
 12
847.0
 22
710.0
 32
0.0
 13
847.0
 23
710.0
 33
0.0
  0
LINE
  8
L-ZISSEN
 10
847.996942
 20
708.266187
 30
0.0
 11
870.0
 21
670.0
 31
0.0
  0
TEXT
  8
L-ZISSEN
 10
874.0
 20
667.75
 30
0.0
 40
4.5
  1
P.P
  0
LINE
  8
L-ZISSEN
 10
870.0
 20
670.0
 30
0.0
 11
872.0
 21
670.0
 31
0.0
  0
SOLID
  8
L-ZISSEN
 10
848.133505
 20
342.318846
 30
0.0
 11
848.617474
 21
342.777343
 31
0.0
 12
847.0
 22
344.0
 32
0.0
 13
847.0
 23
344.0
 33
0.0
  0
LINE
  8
L-ZISSEN
 10
848.375489
 20
342.548095
 30
0.0
 11
865.0
 21
325.0
 31
0.0
  0
LINE
  8
L-ZISSEN
 10
865.0
 20
325.0
 30
0.0
 11
867.0
 21
325.0
 31
0.0
  0
TEXT
  8
L-ZISSEN
 10
869.0
 20
322.75
 30
0.0
 40
4.5
  1
P.P
  0
SOLID
  8
L-ZISSEN
 10
1050.977661
 20
342.223686
 30
0.0
 11
1051.500916
 21
342.636783
 31
0.0
 12
1050.0
 22
344.0
 32
0.0
 13
1050.0
 23
344.0
 33
0.0
  0
LINE
  8
L-ZISSEN
 10
1051.239289
 20
342.430234
 30
0.0
 11
1065.0
 21
325.0
 31
0.0
  0
LINE
  8
L-ZISSEN
 10
1065.0
 20
325.0
 30
0.0
 11
1067.0
 21
325.0
 31
0.0
  0
TEXT
  8
L-ZISSEN
 10
1069.0
 20
322.75
 30
0.0
 40
4.5
  1
P.P
  0
SOLID
  8
L-ZISSEN
 10
847.707973
 20
458.10003
 30
0.0
 11
848.285911
 21
458.432344
 31
0.0
 12
847.0
 22
460.0
 32
0.0
 13
847.0
 23
460.0
 33
0.0
  0
LINE
  8
L-ZISSEN
 10
847.996942
 20
458.266187
 30
0.0
 11
870.0
 21
420.0
 31
0.0
  0
LINE
  8
L-ZISSEN
 10
870.0
 20
420.0
 30
0.0
 11
872.0
 21
420.0
 31
0.0
  0
TEXT
  8
L-ZISSEN
 10
874.0
 20
417.75
 30
0.0
 40
4.5
  1
P.P
  0
TEXT
  8
L-ZISSEN
 10
1509.0
 20
572.75
 30
0.0
 40
4.5
  1
P.P
  0
LINE
  8
L-ZISSEN
 10
1505.0
 20
575.0
 30
0.0
 11
1507.0
 21
575.0
 31
0.0
  0
LINE
  8
L-ZISSEN
 10
1491.239289
 20
592.430234
 30
0.0
 11
1505.0
 21
575.0
 31
0.0
  0
SOLID
  8
L-ZISSEN
 10
1490.977661
 20
592.223686
 30
0.0
 11
1491.500916
 21
592.636783
 31
0.0
 12
1490.0
 22
594.0
 32
0.0
 13
1490.0
 23
594.0
 33
0.0
  0
SOLID
  8
L-ZISSEN
 10
1287.707973
 20
708.10003
 30
0.0
 11
1288.285911
 21
708.432344
 31
0.0
 12
1287.0
 22
710.0
 32
0.0
 13
1287.0
 23
710.0
 33
0.0
  0
LINE
  8
L-ZISSEN
 10
1287.996942
 20
708.266187
 30
0.0
 11
1310.0
 21
670.0
 31
0.0
  0
TEXT
  8
L-ZISSEN
 10
1314.0
 20
667.75
 30
0.0
 40
4.5
  1
P.P
  0
LINE
  8
L-ZISSEN
 10
1310.0
 20
670.0
 30
0.0
 11
1312.0
 21
670.0
 31
0.0
  0
TEXT
  8
L-ZISSEN
 10
1309.0
 20
572.75
 30
0.0
 40
4.5
  1
P.P
  0
LINE
  8
L-ZISSEN
 10
1305.0
 20
575.0
 30
0.0
 11
1307.0
 21
575.0
 31
0.0
  0
LINE
  8
L-ZISSEN
 10
1288.375489
 20
592.548095
 30
0.0
 11
1305.0
 21
575.0
 31
0.0
  0
SOLID
  8
L-ZISSEN
 10
1288.133505
 20
592.318846
 30
0.0
 11
1288.617474
 21
592.777343
 31
0.0
 12
1287.0
 22
594.0
 32
0.0
 13
1287.0
 23
594.0
 33
0.0
  0
SOLID
  8
L-ZISSEN
 10
1490.977661
 20
342.223686
 30
0.0
 11
1491.500916
 21
342.636783
 31
0.0
 12
1490.0
 22
344.0
 32
0.0
 13
1490.0
 23
344.0
 33
0.0
  0
LINE
  8
L-ZISSEN
 10
1491.239289
 20
342.430234
 30
0.0
 11
1505.0
 21
325.0
 31
0.0
  0
LINE
  8
L-ZISSEN
 10
1505.0
 20
325.0
 30
0.0
 11
1507.0
 21
325.0
 31
0.0
  0
TEXT
  8
L-ZISSEN
 10
1509.0
 20
322.75
 30
0.0
 40
4.5
  1
P.P
  0
SOLID
  8
L-ZISSEN
 10
1288.133505
 20
342.318846
 30
0.0
 11
1288.617474
 21
342.777343
 31
0.0
 12
1287.0
 22
344.0
 32
0.0
 13
1287.0
 23
344.0
 33
0.0
  0
LINE
  8
L-ZISSEN
 10
1288.375489
 20
342.548095
 30
0.0
 11
1305.0
 21
325.0
 31
0.0
  0
LINE
  8
L-ZISSEN
 10
1305.0
 20
325.0
 30
0.0
 11
1307.0
 21
325.0
 31
0.0
  0
TEXT
  8
L-ZISSEN
 10
1309.0
 20
322.75
 30
0.0
 40
4.5
  1
P.P
  0
SOLID
  8
L-ZISSEN
 10
1287.707973
 20
458.10003
 30
0.0
 11
1288.285911
 21
458.432344
 31
0.0
 12
1287.0
 22
460.0
 32
0.0
 13
1287.0
 23
460.0
 33
0.0
  0
LINE
  8
L-ZISSEN
 10
1287.996942
 20
458.266187
 30
0.0
 11
1310.0
 21
420.0
 31
0.0
  0
LINE
  8
L-ZISSEN
 10
1310.0
 20
420.0
 30
0.0
 11
1312.0
 21
420.0
 31
0.0
  0
TEXT
  8
L-ZISSEN
 10
1314.0
 20
417.75
 30
0.0
 40
4.5
  1
P.P
  0
TEXT
  8
L-ZISSEN
 10
1309.0
 20
72.75
 30
0.0
 40
4.5
  1
P.P
  0
LINE
  8
L-ZISSEN
 10
1305.0
 20
75.0
 30
0.0
 11
1307.0
 21
75.0
 31
0.0
  0
LINE
  8
L-ZISSEN
 10
1288.375489
 20
92.548095
 30
0.0
 11
1305.0
 21
75.0
 31
0.0
  0
SOLID
  8
L-ZISSEN
 10
1288.133505
 20
92.318846
 30
0.0
 11
1288.617474
 21
92.777343
 31
0.0
 12
1287.0
 22
94.0
 32
0.0
 13
1287.0
 23
94.0
 33
0.0
  0
TEXT
  8
L-ZISSEN
 10
1509.0
 20
72.75
 30
0.0
 40
4.5
  1
P.P
  0
LINE
  8
L-ZISSEN
 10
1505.0
 20
75.0
 30
0.0
 11
1507.0
 21
75.0
 31
0.0
  0
LINE
  8
L-ZISSEN
 10
1491.239289
 20
92.430234
 30
0.0
 11
1505.0
 21
75.0
 31
0.0
  0
SOLID
  8
L-ZISSEN
 10
1490.977661
 20
92.223686
 30
0.0
 11
1491.500916
 21
92.636783
 31
0.0
 12
1490.0
 22
94.0
 32
0.0
 13
1490.0
 23
94.0
 33
0.0
  0
TEXT
  8
L-ZISSEN
 10
1314.0
 20
167.75
 30
0.0
 40
4.5
  1
P.P
  0
LINE
  8
L-ZISSEN
 10
1310.0
 20
170.0
 30
0.0
 11
1312.0
 21
170.0
 31
0.0
  0
LINE
  8
L-ZISSEN
 10
1287.996942
 20
208.266187
 30
0.0
 11
1310.0
 21
170.0
 31
0.0
  0
SOLID
  8
L-ZISSEN
 10
1287.707973
 20
208.10003
 30
0.0
 11
1288.285911
 21
208.432344
 31
0.0
 12
1287.0
 22
210.0
 32
0.0
 13
1287.0
 23
210.0
 33
0.0
  0
SOLID
  8
L-ZISSEN
 10
1637.935184
 20
711.799039
 30
0.0
 11
1637.301161
 21
712.005097
 31
0.0
 12
1637.0
 22
710.0
 32
0.0
 13
1637.0
 23
710.0
 33
0.0
  0
LINE
  8
L-ZISSEN
 10
1637.618172
 20
711.902068
 30
0.0
 11
1650.0
 21
750.0
 31
0.0
  0
LINE
  8
L-ZISSEN
 10
1650.0
 20
750.0
 30
0.0
 11
1652.0
 21
750.0
 31
0.0
  0
TEXT
  8
L-ZISSEN
 10
1654.0
 20
747.75
 30
0.0
 40
4.5
  1
P.P
  0
SOLID
  8
L-ZISSEN
 10
1637.935184
 20
961.799039
 30
0.0
 11
1637.301161
 21
962.005097
 31
0.0
 12
1637.0
 22
960.0
 32
0.0
 13
1637.0
 23
960.0
 33
0.0
  0
LINE
  8
L-ZISSEN
 10
1637.618172
 20
961.902068
 30
0.0
 11
1650.0
 21
1000.0
 31
0.0
  0
TEXT
  8
L-ZISSEN
 10
1654.0
 20
997.75
 30
0.0
 40
4.5
  1
P.P
  0
LINE
  8
L-ZISSEN
 10
1650.0
 20
1000.0
 30
0.0
 11
1652.0
 21
1000.0
 31
0.0
  0
TEXT
  8
L-ZISSEN
 10
1314.0
 20
917.75
 30
0.0
 40
4.5
  1
P.P
  0
LINE
  8
L-ZISSEN
 10
1310.0
 20
920.0
 30
0.0
 11
1312.0
 21
920.0
 31
0.0
  0
LINE
  8
L-ZISSEN
 10
1287.996942
 20
958.266187
 30
0.0
 11
1310.0
 21
920.0
 31
0.0
  0
SOLID
  8
L-ZISSEN
 10
1287.707973
 20
958.10003
 30
0.0
 11
1288.285911
 21
958.432344
 31
0.0
 12
1287.0
 22
960.0
 32
0.0
 13
1287.0
 23
960.0
 33
0.0
  0
TEXT
  8
L-ZISSEN
 10
1309.0
 20
822.75
 30
0.0
 40
4.5
  1
P.P
  0
LINE
  8
L-ZISSEN
 10
1305.0
 20
825.0
 30
0.0
 11
1307.0
 21
825.0
 31
0.0
  0
LINE
  8
L-ZISSEN
 10
1288.375489
 20
842.548095
 30
0.0
 11
1305.0
 21
825.0
 31
0.0
  0
SOLID
  8
L-ZISSEN
 10
1288.133505
 20
842.318846
 30
0.0
 11
1288.617474
 21
842.777343
 31
0.0
 12
1287.0
 22
844.0
 32
0.0
 13
1287.0
 23
844.0
 33
0.0
  0
TEXT
  8
L-ZISSEN
 10
1509.0
 20
822.75
 30
0.0
 40
4.5
  1
P.P
  0
LINE
  8
L-ZISSEN
 10
1505.0
 20
825.0
 30
0.0
 11
1507.0
 21
825.0
 31
0.0
  0
LINE
  8
L-ZISSEN
 10
1491.239289
 20
842.430234
 30
0.0
 11
1505.0
 21
825.0
 31
0.0
  0
SOLID
  8
L-ZISSEN
 10
1490.977661
 20
842.223686
 30
0.0
 11
1491.500916
 21
842.636783
 31
0.0
 12
1490.0
 22
844.0
 32
0.0
 13
1490.0
 23
844.0
 33
0.0
  0
TEXT
  8
L-ZISSEN
 10
1275.0
 20
1015.0
 30
0.0
 40
4.5
  1
AC-200V
  0
TEXT
  8
L-ZISSEN
 10
1275.0
 20
1025.0
 30
0.0
 40
4.5
  1
AC-100V
  0
TEXT
  8
L-ZISSEN
 10
1170.0
 20
1030.0
 30
0.0
 40
4.5
  1
PILOT VALVE
  0
TEXT
  8
L-ZISSEN
 10
1170.0
 20
1020.0
 30
0.0
 40
4.5
  1
MODEL NO. : 26B-*00-2*B0
  0
LINE
  8
L-ZISSEN
  6
CONTINUOUS
 62
     7
 10
1239.9
 20
986.0
 30
0.0
 11
1193.9
 21
984.393644
 31
0.0
  0
LINE
  8
L-ZISSEN
  6
CONTINUOUS
 62
     7
 10
1193.9
 20
935.606356
 30
0.0
 11
1193.9
 21
984.393644
 31
0.0
  0
LINE
  8
L-ZISSEN
  6
CONTINUOUS
 62
     7
 10
1239.9
 20
934.0
 30
0.0
 11
1193.9
 21
935.606356
 31
0.0
  0
LINE
  8
L-ZISSEN
  6
CONTINUOUS
 62
     7
 10
1334.1
 20
934.0
 30
0.0
 11
1380.1
 21
935.606356
 31
0.0
  0
LINE
  8
L-ZISSEN
  6
CONTINUOUS
 62
     7
 10
1380.1
 20
935.606356
 30
0.0
 11
1380.1
 21
984.393644
 31
0.0
  0
LINE
  8
L-ZISSEN
  6
CONTINUOUS
 62
     7
 10
1334.1
 20
986.0
 30
0.0
 11
1380.1
 21
984.393644
 31
0.0
  0
LINE
  8
L-ZISSEN
  6
CONTINUOUS
 62
     7
 10
1249.9
 20
844.0
 30
0.0
 11
1249.9
 21
896.0
 31
0.0
  0
LINE
  8
L-ZISSEN
  6
CONTINUOUS
 62
     7
 10
1249.9
 20
844.0
 30
0.0
 11
1249.9
 21
896.0
 31
0.0
  0
LINE
  8
L-ZISSEN
 10
1252.0
 20
896.0
 30
0.0
 11
1239.9
 21
896.0
 31
0.0
  0
LINE
  8
L-ZISSEN
  6
CONTINUOUS
 62
     7
 10
1239.9
 20
844.0
 30
0.0
 11
1193.9
 21
845.606356
 31
0.0
  0
LINE
  8
L-ZISSEN
  6
CONTINUOUS
 62
     7
 10
1193.9
 20
845.606356
 30
0.0
 11
1193.9
 21
894.393644
 31
0.0
  0
LINE
  8
L-ZISSEN
  6
CONTINUOUS
 62
     7
 10
1239.9
 20
896.0
 30
0.0
 11
1193.9
 21
894.393644
 31
0.0
  0
LINE
  8
L-ZISSEN
  6
CONTINUOUS
 62
     7
 10
1334.1
 20
896.0
 30
0.0
 11
1380.1
 21
894.393644
 31
0.0
  0
LINE
  8
L-ZISSEN
  6
CONTINUOUS
 62
     7
 10
1380.1
 20
845.606356
 30
0.0
 11
1380.1
 21
894.393644
 31
0.0
  0
LINE
  8
L-ZISSEN
  6
CONTINUOUS
 62
     7
 10
1334.1
 20
844.0
 30
0.0
 11
1380.1
 21
845.606356
 31
0.0
  0
LINE
  8
L-ZISSEN
 10
1322.0
 20
896.0
 30
0.0
 11
1334.1
 21
896.0
 31
0.0
  0
LINE
  8
L-ZISSEN
 10
1239.9
 20
844.0
 30
0.0
 11
1334.1
 21
844.0
 31
0.0
  0
LINE
  8
L-ZISSEN
  6
CONTINUOUS
 62
     7
 10
1324.1
 20
844.0
 30
0.0
 11
1324.1
 21
896.0
 31
0.0
  0
CIRCLE
  8
L-ZISSEN
 10
1287.0
 20
891.0
 30
0.0
 40
9.3155
  0
LINE
  8
L-ZISSEN
  6
CONTINUOUS
 62
     7
 10
1259.5
 20
909.1
 30
0.0
 11
1252.5
 21
909.1
 31
0.0
  0
LINE
  8
L-ZISSEN
  6
CONTINUOUS
 62
     7
 10
1259.5
 20
905.5
 30
0.0
 11
1259.5
 21
909.1
 31
0.0
  0
LINE
  8
L-ZISSEN
  6
CONTINUOUS
 62
     7
 10
1252.5
 20
905.5
 30
0.0
 11
1252.5
 21
909.1
 31
0.0
  0
LINE
  8
L-ZISSEN
  6
CONTINUOUS
 62
     7
 10
1252.0
 20
905.5
 30
0.0
 11
1252.0
 21
896.0
 31
0.0
  0
LINE
  8
L-ZISSEN
  6
CONTINUOUS
 62
     7
 10
1321.5
 20
905.5
 30
0.0
 11
1321.5
 21
909.1
 31
0.0
  0
LINE
  8
L-ZISSEN
  6
CONTINUOUS
 62
     7
 10
1314.5
 20
905.5
 30
0.0
 11
1314.5
 21
909.1
 31
0.0
  0
LINE
  8
L-ZISSEN
  6
CONTINUOUS
 62
     7
 10
1314.5
 20
909.1
 30
0.0
 11
1321.5
 21
909.1
 31
0.0
  0
LINE
  8
L-ZISSEN
  6
CONTINUOUS
 62
     7
 10
1279.5
 20
904.0
 30
0.0
 11
1279.5
 21
901.618381
 31
0.0
  0
LINE
  8
L-ZISSEN
  6
CONTINUOUS
 62
     7
 10
1294.5
 20
904.0
 30
0.0
 11
1294.5
 21
901.618381
 31
0.0
  0
ARC
  8
L-ZISSEN
  6
CONTINUOUS
 62
     7
 10
1287.0
 20
891.0
 30
0.0
 40
13.0
 50
125.234418
 51
54.765582
  0
LINE
  8
L-ZISSEN
  6
CONTINUOUS
 62
     7
 10
1324.1
 20
844.0
 30
0.0
 11
1324.1
 21
896.0
 31
0.0
  0
LINE
  8
L-ZISSEN
  6
CONTINUOUS
 62
     7
 10
1252.0
 20
905.5
 30
0.0
 11
1321.9
 21
905.5
 31
0.0
  0
LINE
  8
L-ZISSEN
  6
CONTINUOUS
 62
     7
 10
1322.0
 20
905.5
 30
0.0
 11
1322.0
 21
896.0
 31
0.0
  0
LINE
  8
L-ZISSEN
  6
CONTINUOUS
 62
     7
 10
1321.9
 20
904.0
 30
0.0
 11
1252.0
 21
904.0
 31
0.0
  0
LINE
  8
L-ZISSEN
 10
1334.1
 20
934.0
 30
0.0
 11
1239.9
 21
934.0
 31
0.0
  0
LINE
  8
L-ZISSEN
 10
1322.0
 20
934.0
 30
0.0
 11
1322.0
 21
986.0
 31
0.0
  0
LINE
  8
L-ZISSEN
  6
CONTINUOUS
 62
     7
 10
1324.1
 20
934.0
 30
0.0
 11
1324.1
 21
986.0
 31
0.0
  0
LINE
  8
L-ZISSEN
 10
1274.0
 20
932.0
 30
0.0
 11
1274.0
 21
934.0
 31
0.0
  0
LINE
  8
L-ZISSEN
 10
1300.0
 20
932.0
 30
0.0
 11
1274.0
 21
932.0
 31
0.0
  0
LINE
  8
L-ZISSEN
 10
1300.0
 20
932.0
 30
0.0
 11
1300.0
 21
934.0
 31
0.0
  0
LINE
  8
L-ZISSEN
 10
1334.1
 20
986.0
 30
0.0
 11
1239.9
 21
986.0
 31
0.0
  0
LINE
  8
L-ZISSEN
 10
1300.0
 20
988.0
 30
0.0
 11
1300.0
 21
986.0
 31
0.0
  0
LINE
  8
L-ZISSEN
 10
1300.0
 20
988.0
 30
0.0
 11
1274.0
 21
988.0
 31
0.0
  0
LINE
  8
L-ZISSEN
 10
1274.0
 20
988.0
 30
0.0
 11
1274.0
 21
986.0
 31
0.0
  0
LINE
  8
L-ZISSEN
  6
CONTINUOUS
 62
     7
 10
1515.5
 20
905.5
 30
0.0
 11
1515.5
 21
909.1
 31
0.0
  0
LINE
  8
L-ZISSEN
  6
CONTINUOUS
 62
     7
 10
1508.5
 20
905.5
 30
0.0
 11
1508.5
 21
909.1
 31
0.0
  0
LINE
  8
L-ZISSEN
  6
CONTINUOUS
 62
     7
 10
1508.5
 20
909.1
 30
0.0
 11
1515.5
 21
909.1
 31
0.0
  0
LINE
  8
L-ZISSEN
 10
1516.0
 20
878.0
 30
0.0
 11
1518.0
 21
878.0
 31
0.0
  0
LINE
  8
L-ZISSEN
 10
1462.0
 20
878.0
 30
0.0
 11
1464.0
 21
878.0
 31
0.0
  0
LINE
  8
L-ZISSEN
  6
CONTINUOUS
 62
     7
 10
1471.5
 20
909.1
 30
0.0
 11
1464.5
 21
909.1
 31
0.0
  0
LINE
  8
L-ZISSEN
  6
CONTINUOUS
 62
     7
 10
1471.5
 20
905.5
 30
0.0
 11
1471.5
 21
909.1
 31
0.0
  0
LINE
  8
L-ZISSEN
  6
CONTINUOUS
 62
     7
 10
1464.5
 20
905.5
 30
0.0
 11
1464.5
 21
909.1
 31
0.0
  0
LINE
  8
L-ZISSEN
 10
1518.0
 20
878.0
 30
0.0
 11
1518.0
 21
904.0
 31
0.0
  0
LINE
  8
L-ZISSEN
 10
1464.0
 20
905.5
 30
0.0
 11
1516.0
 21
905.5
 31
0.0
  0
LINE
  8
L-ZISSEN
 10
1462.0
 20
904.0
 30
0.0
 11
1518.0
 21
904.0
 31
0.0
  0
LINE
  8
L-ZISSEN
 10
1516.0
 20
905.5
 30
0.0
 11
1516.0
 21
844.0
 31
0.0
  0
LINE
  8
L-ZISSEN
 10
1462.0
 20
878.0
 30
0.0
 11
1462.0
 21
904.0
 31
0.0
  0
LINE
  8
L-ZISSEN
 10
1464.0
 20
896.0
 30
0.0
 11
1516.0
 21
896.0
 31
0.0
  0
LINE
  8
L-ZISSEN
 10
1464.0
 20
844.0
 30
0.0
 11
1464.0
 21
905.5
 31
0.0
  0
LINE
  8
L-ZISSEN
 10
1464.0
 20
844.0
 30
0.0
 11
1516.0
 21
844.0
 31
0.0
  0
LINE
  8
L-ZISSEN
  6
CONTINUOUS
 62
     7
 10
1249.9
 20
934.0
 30
0.0
 11
1249.9
 21
986.0
 31
0.0
  0
LINE
  8
L-ZISSEN
 10
1252.0
 20
934.0
 30
0.0
 11
1252.0
 21
986.0
 31
0.0
  0
LINE
  8
L-ZISSEN
  6
CONTINUOUS
 62
     7
 10
1249.9
 20
844.0
 30
0.0
 11
1249.9
 21
896.0
 31
0.0
  0
LINE
  8
L-ZISSEN
  6
CONTINUOUS
 62
     7
 10
1249.9
 20
844.0
 30
0.0
 11
1249.9
 21
896.0
 31
0.0
  0
CIRCLE
  8
L-ZISSEN
 10
1318.0
 20
938.0
 30
0.0
 40
3.5
  0
CIRCLE
  8
L-ZISSEN
 10
1256.0
 20
938.0
 30
0.0
 40
3.5
  0
CIRCLE
  8
L-ZISSEN
 10
1256.0
 20
982.0
 30
0.0
 40
3.5
  0
CIRCLE
  8
L-ZISSEN
 10
1318.0
 20
982.0
 30
0.0
 40
3.5
  0
LINE
  8
L-ZISSEN
  6
CONTINUOUS
 62
     7
 10
1381.1
 20
971.0
 30
0.0
 11
1380.1
 21
971.0
 31
0.0
  0
LINE
  8
L-ZISSEN
  6
CONTINUOUS
 62
     7
 10
1381.1
 20
971.0
 30
0.0
 11
1381.1
 21
949.0
 31
0.0
  0
LINE
  8
L-ZISSEN
  6
CONTINUOUS
 62
     7
 10
1381.1
 20
949.0
 30
0.0
 11
1380.1
 21
949.0
 31
0.0
  0
CIRCLE
  8
L-ZISSEN
 10
1490.0
 20
870.0
 30
0.0
 40
11.0
  0
LINE
  8
L-ZISSEN
  6
CONTINUOUS
 62
     7
 10
1192.9
 20
949.0
 30
0.0
 11
1193.9
 21
949.0
 31
0.0
  0
LINE
  8
L-ZISSEN
  6
CONTINUOUS
 62
     7
 10
1192.9
 20
971.0
 30
0.0
 11
1192.9
 21
949.0
 31
0.0
  0
LINE
  8
L-ZISSEN
  6
CONTINUOUS
 62
     7
 10
1192.9
 20
971.0
 30
0.0
 11
1193.9
 21
971.0
 31
0.0
  0
LINE
  8
L-ZISSEN
  6
CONTINUOUS
 62
     7
 10
1192.9
 20
881.0
 30
0.0
 11
1193.9
 21
881.0
 31
0.0
  0
LINE
  8
L-ZISSEN
  6
CONTINUOUS
 62
     7
 10
1192.9
 20
881.0
 30
0.0
 11
1192.9
 21
859.0
 31
0.0
  0
LINE
  8
L-ZISSEN
  6
CONTINUOUS
 62
     7
 10
1192.9
 20
859.0
 30
0.0
 11
1193.9
 21
859.0
 31
0.0
  0
LINE
  8
L-ZISSEN
  6
CONTINUOUS
 62
     7
 10
1381.1
 20
859.0
 30
0.0
 11
1380.1
 21
859.0
 31
0.0
  0
LINE
  8
L-ZISSEN
  6
CONTINUOUS
 62
     7
 10
1381.1
 20
881.0
 30
0.0
 11
1381.1
 21
859.0
 31
0.0
  0
LINE
  8
L-ZISSEN
  6
CONTINUOUS
 62
     7
 10
1381.1
 20
881.0
 30
0.0
 11
1380.1
 21
881.0
 31
0.0
  0
LINE
  8
L-ZISSEN
  6
CONTINUOUS
 62
     7
 10
225.0
 20
474.240953
 30
0.0
 11
225.0
 21
445.5
 31
0.0
  0
LINE
  8
L-ZISSEN
  6
CONTINUOUS
 62
     7
 10
235.0
 20
525.409839
 30
0.0
 11
235.0
 21
545.0
 31
0.0
  0
LINE
  8
L-ZISSEN
  6
CONTINUOUS
 62
     7
 10
250.0
 20
524.886027
 30
0.0
 11
250.0
 21
540.0
 31
0.0
  0
LINE
  8
L-ZISSEN
  6
CONTINUOUS
 62
     7
 10
604.5
 20
349.1
 30
0.0
 11
611.5
 21
349.1
 31
0.0
  0
LINE
  8
L-ZISSEN
  6
CONTINUOUS
 62
     7
 10
604.5
 20
345.5
 30
0.0
 11
604.5
 21
349.1
 31
0.0
  0
LINE
  8
L-ZISSEN
  6
CONTINUOUS
 62
     7
 10
611.5
 20
345.5
 30
0.0
 11
611.5
 21
349.1
 31
0.0
  0
LINE
  8
L-ZISSEN
  6
CONTINUOUS
 62
     7
 10
545.9
 20
285.606356
 30
0.0
 11
545.9
 21
334.393644
 31
0.0
  0
LINE
  8
L-ZISSEN
  6
CONTINUOUS
 62
     7
 10
544.9
 20
321.0
 30
0.0
 11
545.9
 21
321.0
 31
0.0
  0
LINE
  8
L-ZISSEN
  6
CONTINUOUS
 62
     7
 10
544.9
 20
321.0
 30
0.0
 11
544.9
 21
299.0
 31
0.0
  0
LINE
  8
L-ZISSEN
  6
CONTINUOUS
 62
     7
 10
544.9
 20
299.0
 30
0.0
 11
545.9
 21
299.0
 31
0.0
  0
LINE
  8
L-ZISSEN
  6
CONTINUOUS
 62
     7
 10
591.9
 20
336.0
 30
0.0
 11
545.9
 21
334.393644
 31
0.0
  0
LINE
  8
L-ZISSEN
  6
CONTINUOUS
 62
     7
 10
586.5
 20
284.188572
 30
0.0
 11
545.9
 21
285.606356
 31
0.0
  0
LINE
  8
L-ZISSEN
  6
CONTINUOUS
 62
     7
 10
663.4
 20
294.5
 30
0.0
 11
663.4
 21
286.5
 31
0.0
  0
LINE
  8
L-ZISSEN
  6
CONTINUOUS
 62
     7
 10
660.1
 20
294.5
 30
0.0
 11
663.4
 21
294.5
 31
0.0
  0
LINE
  8
L-ZISSEN
  6
CONTINUOUS
 62
     7
 10
660.1
 20
334.5
 30
0.0
 11
663.4
 21
334.5
 31
0.0
  0
LINE
  8
L-ZISSEN
  6
CONTINUOUS
 62
     7
 10
660.1
 20
325.5
 30
0.0
 11
663.4
 21
325.5
 31
0.0
  0
LINE
  8
L-ZISSEN
  6
CONTINUOUS
 62
     7
 10
663.4
 20
334.5
 30
0.0
 11
663.4
 21
325.5
 31
0.0
  0
LINE
  8
L-ZISSEN
  6
CONTINUOUS
 62
     7
 10
655.5
 20
345.5
 30
0.0
 11
655.5
 21
349.1
 31
0.0
  0
LINE
  8
L-ZISSEN
  6
CONTINUOUS
 62
     7
 10
648.5
 20
345.5
 30
0.0
 11
648.5
 21
349.1
 31
0.0
  0
LINE
  8
L-ZISSEN
  6
CONTINUOUS
 62
     7
 10
648.5
 20
349.1
 30
0.0
 11
655.5
 21
349.1
 31
0.0
  0
LINE
  8
L-ZISSEN
 10
656.0
 20
345.5
 30
0.0
 11
604.0
 21
345.5
 31
0.0
  0
LINE
  8
L-ZISSEN
 10
658.1
 20
336.0
 30
0.0
 11
658.1
 21
286.5
 31
0.0
  0
LINE
  8
L-ZISSEN
 10
660.1
 20
336.0
 30
0.0
 11
660.1
 21
286.5
 31
0.0
  0
LINE
  8
L-ZISSEN
 10
601.9
 20
336.0
 30
0.0
 11
601.9
 21
286.5
 31
0.0
  0
LINE
  8
L-ZISSEN
 10
604.0
 20
336.0
 30
0.0
 11
591.9
 21
336.0
 31
0.0
  0
LINE
  8
L-ZISSEN
 10
660.1
 20
336.0
 30
0.0
 11
656.0
 21
336.0
 31
0.0
  0
LINE
  8
L-ZISSEN
 10
656.0
 20
345.5
 30
0.0
 11
656.0
 21
336.0
 31
0.0
  0
LINE
  8
L-ZISSEN
 10
604.0
 20
345.5
 30
0.0
 11
604.0
 21
336.0
 31
0.0
  0
LINE
  8
L-ZISSEN
 10
637.5
 20
344.0
 30
0.0
 11
637.5
 21
341.618381
 31
0.0
  0
LINE
  8
L-ZISSEN
 10
622.5
 20
344.0
 30
0.0
 11
622.5
 21
341.618381
 31
0.0
  0
CIRCLE
  8
L-ZISSEN
 10
630.0
 20
331.0
 30
0.0
 40
9.3
  0
ARC
  8
L-ZISSEN
 10
630.0
 20
331.0
 30
0.0
 40
13.0
 50
125.234418
 51
54.765582
  0
LINE
  8
L-ZISSEN
 10
604.0
 20
344.0
 30
0.0
 11
656.0
 21
344.0
 31
0.0
  0
LINE
  8
L-ZISSEN
  6
CONTINUOUS
 62
     7
 10
586.5
 20
274.0
 30
0.0
 11
586.5
 21
286.5
 31
0.0
  0
LINE
  8
L-ZISSEN
  6
CONTINUOUS
 62
     7
 10
602.5
 20
286.5
 30
0.0
 11
602.5
 21
274.0
 31
0.0
  0
LINE
  8
L-ZISSEN
  6
CONTINUOUS
 62
     7
 10
586.5
 20
286.5
 30
0.0
 11
602.5
 21
286.5
 31
0.0
  0
LINE
  8
L-ZISSEN
  6
CONTINUOUS
 62
     7
 10
586.5
 20
284.0
 30
0.0
 11
585.0
 21
284.0
 31
0.0
  0
LINE
  8
L-ZISSEN
 10
673.5
 20
284.0
 30
0.0
 11
675.0
 21
284.0
 31
0.0
  0
LINE
  8
L-ZISSEN
 10
652.309871
 20
284.0
 30
0.0
 11
657.5
 21
284.0
 31
0.0
  0
LINE
  8
L-TYUSIN
  6
CENTER
 62
     1
 10
555.0
 20
246.5
 30
0.0
 11
555.0
 21
226.5
 31
0.0
  0
LINE
  8
L-TYUSIN
  6
CENTER
 62
     1
 10
540.0
 20
236.5
 30
0.0
 11
570.0
 21
236.5
 31
0.0
  0
LINE
  8
L-TYUSIN
  6
CENTER
 62
     1
 10
705.0
 20
246.5
 30
0.0
 11
705.0
 21
226.5
 31
0.0
  0
LINE
  8
L-TYUSIN
  6
CENTER
 62
     1
 10
720.0
 20
236.5
 30
0.0
 11
690.0
 21
236.5
 31
0.0
  0
LINE
  8
L-TYUSIN
  6
CENTER
 62
     1
 10
555.0
 20
106.5
 30
0.0
 11
555.0
 21
86.5
 31
0.0
  0
LINE
  8
L-TYUSIN
  6
CENTER
 62
     1
 10
540.0
 20
96.5
 30
0.0
 11
570.0
 21
96.5
 31
0.0
  0
LINE
  8
L-ZISSEN
  6
CONTINUOUS
 62
     7
 10
585.0
 20
274.0
 30
0.0
 11
675.0
 21
274.0
 31
0.0
  0
LINE
  8
L-TYUSIN
  6
CENTER
 62
     1
 10
705.0
 20
106.5
 30
0.0
 11
705.0
 21
86.5
 31
0.0
  0
ARC
  8
L-ZISSEN
  6
CONTINUOUS
 62
     7
 10
560.0
 20
96.5
 30
0.0
 40
5.6
 50
270.0
 51
90.0
  0
LINE
  8
L-ZISSEN
  6
CONTINUOUS
 62
     7
 10
535.0
 20
81.5
 30
0.0
 11
725.0
 21
81.5
 31
0.0
  0
LINE
  8
L-TYUSIN
  6
CENTER
 62
     1
 10
720.0
 20
96.5
 30
0.0
 11
690.0
 21
96.5
 31
0.0
  0
ARC
  8
L-ZISSEN
  6
CONTINUOUS
 62
     7
 10
700.0
 20
236.5
 30
0.0
 40
5.6
 50
90.0
 51
270.0
  0
ARC
  8
L-ZISSEN
  6
CONTINUOUS
 62
     7
 10
710.0
 20
236.5
 30
0.0
 40
5.6
 50
270.0
 51
90.0
  0
LINE
  8
L-ZISSEN
  6
CONTINUOUS
 62
     7
 10
700.0
 20
242.1
 30
0.0
 11
710.0
 21
242.1
 31
0.0
  0
LINE
  8
L-ZISSEN
  6
CONTINUOUS
 62
     7
 10
700.0
 20
230.9
 30
0.0
 11
710.0
 21
230.9
 31
0.0
  0
LINE
  8
L-ZISSEN
  6
CONTINUOUS
 62
     7
 10
700.0
 20
90.9
 30
0.0
 11
710.0
 21
90.9
 31
0.0
  0
LINE
  8
L-ZISSEN
  6
CONTINUOUS
 62
     7
 10
700.0
 20
102.1
 30
0.0
 11
710.0
 21
102.1
 31
0.0
  0
ARC
  8
L-ZISSEN
  6
CONTINUOUS
 62
     7
 10
710.0
 20
96.5
 30
0.0
 40
5.6
 50
270.0
 51
90.0
  0
ARC
  8
L-ZISSEN
  6
CONTINUOUS
 62
     7
 10
700.0
 20
96.5
 30
0.0
 40
5.6
 50
90.0
 51
270.0
  0
ARC
  8
L-ZISSEN
  6
CONTINUOUS
 62
     7
 10
550.0
 20
96.5
 30
0.0
 40
5.6
 50
90.0
 51
270.0
  0
LINE
  8
L-ZISSEN
  6
CONTINUOUS
 62
     7
 10
560.0
 20
102.1
 30
0.0
 11
550.0
 21
102.1
 31
0.0
  0
LINE
  8
L-ZISSEN
  6
CONTINUOUS
 62
     7
 10
560.0
 20
90.9
 30
0.0
 11
550.0
 21
90.9
 31
0.0
  0
LINE
  8
L-ZISSEN
  6
CONTINUOUS
 62
     7
 10
560.0
 20
230.9
 30
0.0
 11
550.0
 21
230.9
 31
0.0
  0
LINE
  8
L-ZISSEN
  6
CONTINUOUS
 62
     7
 10
560.0
 20
242.1
 30
0.0
 11
550.0
 21
242.1
 31
0.0
  0
ARC
  8
L-ZISSEN
  6
CONTINUOUS
 62
     7
 10
550.0
 20
236.5
 30
0.0
 40
5.6
 50
90.0
 51
270.0
  0
ARC
  8
L-ZISSEN
  6
CONTINUOUS
 62
     7
 10
560.0
 20
236.5
 30
0.0
 40
5.6
 50
270.0
 51
90.0
  0
LINE
  8
L-ZISSEN
  6
CONTINUOUS
 62
     7
 10
725.0
 20
261.5
 30
0.0
 11
725.0
 21
81.5
 31
0.0
  0
LINE
  8
L-ZISSEN
  6
CONTINUOUS
 62
     7
 10
535.0
 20
261.5
 30
0.0
 11
535.0
 21
81.5
 31
0.0
  0
LINE
  8
L-ZISSEN
  6
CONTINUOUS
 62
     7
 10
725.0
 20
261.5
 30
0.0
 11
535.0
 21
261.5
 31
0.0
  0
LINE
  8
L-TYUSIN
  6
CENTER
 62
     1
 10
580.0
 20
275.0
 30
0.0
 11
590.0
 21
275.0
 31
0.0
  0
LINE
  8
L-ZISSEN
  6
CONTINUOUS
 62
     7
 10
657.5
 20
284.0
 30
0.0
 11
602.5
 21
284.0
 31
0.0
  0
LINE
  8
L-ZISSEN
  6
CONTINUOUS
 62
     7
 10
673.5
 20
286.5
 30
0.0
 11
673.5
 21
274.0
 31
0.0
  0
LINE
  8
L-ZISSEN
  6
CONTINUOUS
 62
     7
 10
657.5
 20
286.5
 30
0.0
 11
673.5
 21
286.5
 31
0.0
  0
LINE
  8
L-ZISSEN
  6
CONTINUOUS
 62
     7
 10
657.5
 20
274.0
 30
0.0
 11
657.5
 21
286.5
 31
0.0
  0
LINE
  8
L-ZISSEN
  6
CONTINUOUS
 62
     7
 10
657.5
 20
74.5
 30
0.0
 11
657.5
 21
62.0
 31
0.0
  0
LINE
  8
L-ZISSEN
  6
CONTINUOUS
 62
     7
 10
657.5
 20
62.0
 30
0.0
 11
673.5
 21
62.0
 31
0.0
  0
LINE
  8
L-ZISSEN
  6
CONTINUOUS
 62
     7
 10
673.5
 20
62.0
 30
0.0
 11
673.5
 21
74.5
 31
0.0
  0
LINE
  8
L-ZISSEN
  6
CONTINUOUS
 62
     7
 10
586.5
 20
62.0
 30
0.0
 11
586.5
 21
74.5
 31
0.0
  0
LINE
  8
L-ZISSEN
  6
CONTINUOUS
 62
     7
 10
602.5
 20
62.0
 30
0.0
 11
586.5
 21
62.0
 31
0.0
  0
LINE
  8
L-ZISSEN
  6
CONTINUOUS
 62
     7
 10
602.5
 20
74.5
 30
0.0
 11
602.5
 21
62.0
 31
0.0
  0
LINE
  8
L-ZISSEN
  6
CONTINUOUS
 62
     7
 10
675.0
 20
74.5
 30
0.0
 11
675.0
 21
79.0
 31
0.0
  0
LINE
  8
L-ZISSEN
  6
CONTINUOUS
 62
     7
 10
585.0
 20
74.5
 30
0.0
 11
675.0
 21
74.5
 31
0.0
  0
LINE
  8
L-ZISSEN
  6
CONTINUOUS
 62
     7
 10
585.0
 20
79.0
 30
0.0
 11
585.0
 21
74.5
 31
0.0
  0
CIRCLE
  8
L-ZISSEN
  6
CONTINUOUS
 62
     7
 10
665.5
 20
241.5
 30
0.0
 40
8.0
  0
CIRCLE
  8
L-ZISSEN
  6
CONTINUOUS
 62
     7
 10
594.5
 20
241.5
 30
0.0
 40
8.0
  0
LINE
  8
L-ZISSEN
  6
CONTINUOUS
 62
     7
 10
585.0
 20
264.0
 30
0.0
 11
675.0
 21
264.0
 31
0.0
  0
LINE
  8
L-ZISSEN
  6
CONTINUOUS
 62
     7
 10
675.0
 20
79.0
 30
0.0
 11
585.0
 21
79.0
 31
0.0
  0
LINE
  8
L-ZISSEN
  6
CONTINUOUS
 62
     7
 10
675.0
 20
284.0
 30
0.0
 11
675.0
 21
261.5
 31
0.0
  0
LINE
  8
L-ZISSEN
  6
CONTINUOUS
 62
     7
 10
585.0
 20
79.0
 30
0.0
 11
585.0
 21
81.5
 31
0.0
  0
LINE
  8
L-TYUSIN
  6
CENTER
 62
     1
 10
630.0
 20
350.5
 30
0.0
 11
630.0
 21
66.682303
 31
0.0
  0
CIRCLE
  8
L-ZISSEN
 10
642.0
 20
305.0
 30
0.0
 40
5.7225
  0
LINE
  8
L-TYUSIN
  6
CENTER
 62
     1
 10
642.0
 20
296.0
 30
0.0
 11
642.0
 21
314.0
 31
0.0
  0
LINE
  8
L-TYUSIN
  6
CENTER
 62
     1
 10
651.0
 20
305.0
 30
0.0
 11
633.0
 21
305.0
 31
0.0
  0
CIRCLE
  8
L-ZISSEN
  6
CONTINUOUS
 62
     7
 10
665.5
 20
170.5
 30
0.0
 40
8.0
  0
CIRCLE
  8
L-ZISSEN
  6
CONTINUOUS
 62
     7
 10
594.5
 20
170.5
 30
0.0
 40
8.0
  0
LINE
  8
L-ZISSEN
  6
CONTINUOUS
 62
     7
 10
585.0
 20
261.5
 30
0.0
 11
585.0
 21
284.0
 31
0.0
  0
LINE
  8
L-ZISSEN
  6
CONTINUOUS
 62
     7
 10
675.0
 20
81.5
 30
0.0
 11
675.0
 21
79.0
 31
0.0
  0
LINE
  8
L-ZISSEN
 10
581.5
 20
261.5
 30
0.0
 11
581.5
 21
81.5
 31
0.0
  0
LINE
  8
L-ZISSEN
 10
678.5
 20
261.5
 30
0.0
 11
678.5
 21
81.5
 31
0.0
  0
SOLID
  8
L-ZISSEN
 10
178.504776
 20
285.369458
 30
0.0
 11
178.14145
 21
284.810495
 31
0.0
 12
180.0
 22
284.0
 32
0.0
 13
180.0
 23
284.0
 33
0.0
  0
LINE
  8
L-ZISSEN
 10
178.323113
 20
285.089977
 30
0.0
 11
140.0
 21
310.0
 31
0.0
  0
LINE
  8
L-ZISSEN
 10
140.0
 20
310.0
 30
0.0
 11
138.0
 21
310.0
 31
0.0
  0
TEXT
  8
L-ZISSEN
 10
127.0
 20
307.75
 30
0.0
 40
4.5
  1
P.P
  0
SOLID
  8
L-ZISSEN
 10
401.804262
 20
284.925067
 30
0.0
 11
401.406713
 21
285.460229
 31
0.0
 12
400.0
 22
284.0
 32
0.0
 13
400.0
 23
284.0
 33
0.0
  0
LINE
  8
L-ZISSEN
 10
401.605488
 20
285.192648
 30
0.0
 11
435.0
 21
310.0
 31
0.0
  0
LINE
  8
L-ZISSEN
 10
435.0
 20
310.0
 30
0.0
 11
437.0
 21
310.0
 31
0.0
  0
TEXT
  8
L-ZISSEN
 10
439.0
 20
307.75
 30
0.0
 40
4.5
  1
P.P
  0
TEXT
  8
L-ZISSEN
 10
152.0
 20
629.0
 30
0.0
 40
4.5
  1
AC-100V
  0
TEXT
  8
L-ZISSEN
 10
152.0
 20
621.0
 30
0.0
 40
4.5
  1
AC-200V
  0
CIRCLE
  8
L-ZISSEN
 10
180.0
 20
206.0
 30
0.0
 40
2.067
  0
LINE
  8
L-ZISSEN
  6
CONTINUOUS
 62
     7
 10
135.0
 20
445.5
 30
0.0
 11
225.0
 21
445.5
 31
0.0
  0
SOLID
  8
L-ZISSEN
 10
251.433721
 20
148.566279
 30
0.0
 11
251.821213
 21
149.108768
 31
0.0
 12
250.0
 22
150.0
 32
0.0
 13
250.0
 23
150.0
 33
0.0
  0
LINE
  8
L-ZISSEN
 10
251.627467
 20
148.837524
 30
0.0
 11
285.0
 21
125.0
 31
0.0
  0
LINE
  8
L-ZISSEN
 10
285.0
 20
125.0
 30
0.0
 11
287.0
 21
125.0
 31
0.0
  0
TEXT
  8
L-ZISSEN
 10
289.0
 20
122.75
 30
0.0
 40
4.5
  1
IN
  0
TEXT
  8
L-ZISSEN
 10
290.0
 20
115.0
 30
0.0
 40
4.5
  1
Rc 1-1/4
  0
TEXT
  8
L-ZISSEN
 10
290.0
 20
105.0
 30
0.0
 40
4.5
  1
Rc 1-1/2
  0
TEXT
  8
L-ZISSEN
 10
137.0
 20
622.0
 30
0.0
 40
4.5
  1
1
  0
TEXT
  8
L-ZISSEN
 10
137.0
 20
628.0
 30
0.0
 40
4.5
  1
0
  0
TEXT
  8
L-ZISSEN
 10
116.0
 20
628.0
 30
0.0
 40
4.5
  1
A
  0
TEXT
  8
L-ZISSEN
 10
116.0
 20
622.0
 30
0.0
 40
4.5
  1
B
  0
SOLID
  8
L-ZISSEN
 10
1635.504776
 20
595.369458
 30
0.0
 11
1635.14145
 21
594.810495
 31
0.0
 12
1637.0
 22
594.0
 32
0.0
 13
1637.0
 23
594.0
 33
0.0
  0
LINE
  8
L-ZISSEN
 10
1635.323113
 20
595.089977
 30
0.0
 11
1597.0
 21
620.0
 31
0.0
  0
LINE
  8
L-ZISSEN
 10
1597.0
 20
620.0
 30
0.0
 11
1595.0
 21
620.0
 31
0.0
  0
TEXT
  8
L-ZISSEN
 10
1584.0
 20
617.75
 30
0.0
 40
4.5
  1
P.P
  0
SOLID
  8
L-ZISSEN
 10
1741.804262
 20
594.925067
 30
0.0
 11
1741.406713
 21
595.460229
 31
0.0
 12
1740.0
 22
594.0
 32
0.0
 13
1740.0
 23
594.0
 33
0.0
  0
LINE
  8
L-ZISSEN
 10
1741.605488
 20
595.192648
 30
0.0
 11
1775.0
 21
620.0
 31
0.0
  0
LINE
  8
L-ZISSEN
 10
1775.0
 20
620.0
 30
0.0
 11
1777.0
 21
620.0
 31
0.0
  0
TEXT
  8
L-ZISSEN
 10
1779.0
 20
617.75
 30
0.0
 40
4.5
  1
P.P
  0
TEXT
  8
L-ZISSEN
 10
1779.0
 20
867.75
 30
0.0
 40
4.5
  1
P.P
  0
LINE
  8
L-ZISSEN
 10
1775.0
 20
870.0
 30
0.0
 11
1777.0
 21
870.0
 31
0.0
  0
LINE
  8
L-ZISSEN
 10
1741.605488
 20
845.192648
 30
0.0
 11
1775.0
 21
870.0
 31
0.0
  0
SOLID
  8
L-ZISSEN
 10
1741.804262
 20
844.925067
 30
0.0
 11
1741.406713
 21
845.460229
 31
0.0
 12
1740.0
 22
844.0
 32
0.0
 13
1740.0
 23
844.0
 33
0.0
  0
TEXT
  8
L-ZISSEN
 10
1584.0
 20
867.75
 30
0.0
 40
4.5
  1
P.P
  0
LINE
  8
L-ZISSEN
 10
1597.0
 20
870.0
 30
0.0
 11
1595.0
 21
870.0
 31
0.0
  0
LINE
  8
L-ZISSEN
 10
1635.323113
 20
845.089977
 30
0.0
 11
1597.0
 21
870.0
 31
0.0
  0
SOLID
  8
L-ZISSEN
 10
1635.504776
 20
845.369458
 30
0.0
 11
1635.14145
 21
844.810495
 31
0.0
 12
1637.0
 22
844.0
 32
0.0
 13
1637.0
 23
844.0
 33
0.0
  0
SOLID
  8
L-ZISSEN
 10
1754.279135
 20
433.426811
 30
0.0
 11
1754.720216
 21
433.926703
 31
0.0
 12
1753.0
 22
435.0
 32
0.0
 13
1753.0
 23
435.0
 33
0.0
  0
LINE
  8
L-ZISSEN
 10
1754.499676
 20
433.676757
 30
0.0
 11
1770.0
 21
420.0
 31
0.0
  0
LINE
  8
L-ZISSEN
 10
1770.0
 20
420.0
 30
0.0
 11
1772.0
 21
420.0
 31
0.0
  0
TEXT
  8
L-ZISSEN
 10
1774.0
 20
417.75
 30
0.0
 40
4.5
  1
IN
  0
TEXT
  8
L-ZISSEN
 10
1775.0
 20
410.0
 30
0.0
 40
4.5
  1
Rc 2
  0
ENDSEC
  0
EOF
