  0
SECTION
  2
HEADER
  9
$ACADVER
  1
AC1006
  9
$INSBASE
 10
0.0
 20
0.0
 30
0.0
  9
$EXTMIN
 10
0.0
 20
0.0
  9
$EXTMAX
 10
697.5
 20
420.0
  9
$LIMMIN
 10
0.0
 20
0.0
  9
$LIMMAX
 10
12.0
 20
9.0
  9
$ORTHOMODE
 70
     1
  9
$REGENMODE
 70
     1
  9
$FILLMODE
 70
     1
  9
$QTEXTMODE
 70
     0
  9
$MIRRTEXT
 70
     1
  9
$DRAGMODE
 70
     2
  9
$LTSCALE
 40
1.0
  9
$OSMODE
 70
     0
  9
$ATTMODE
 70
     1
  9
$TEXTSIZE
 40
4.5
  9
$TRACEWID
 40
0.05
  9
$TEXTSTYLE
  7
STANDARD
  9
$CLAYER
  8
L-ZISSEN
  9
$CELTYPE
  6
BYLAYER
  9
$CECOLOR
 62
   256
  9
$DIMSCALE
 40
1.0
  9
$DIMASZ
 40
2.0
  9
$DIMEXO
 40
1.0
  9
$DIMDLI
 40
0.38
  9
$DIMRND
 40
0.0
  9
$DIMDLE
 40
0.0
  9
$DIMEXE
 40
1.0
  9
$DIMTP
 40
0.0
  9
$DIMTM
 40
0.0
  9
$DIMTXT
 40
4.5
  9
$DIMCEN
 40
0.09
  9
$DIMTSZ
 40
0.0
  9
$DIMTOL
 70
     0
  9
$DIMLIM
 70
     0
  9
$DIMTIH
 70
     0
  9
$DIMTOH
 70
     0
  9
$DIMSE1
 70
     0
  9
$DIMSE2
 70
     0
  9
$DIMTAD
 70
     1
  9
$DIMZIN
 70
     0
  9
$DIMBLK
  1

  9
$DIMASO
 70
     1
  9
$DIMSHO
 70
     0
  9
$DIMPOST
  1

  9
$DIMAPOST
  1

  9
$DIMALT
 70
     0
  9
$DIMALTD
 70
     2
  9
$DIMALTF
 40
25.4
  9
$DIMLFAC
 40
1.0
  9
$DIMTOFL
 70
     1
  9
$DIMTVP
 40
0.0
  9
$DIMTIX
 70
     0
  9
$DIMSOXD
 70
     0
  9
$DIMSAH
 70
     0
  9
$DIMBLK1
  1

  9
$DIMBLK2
  1

  9
$LUNITS
 70
     2
  9
$LUPREC
 70
     4
  9
$AXISMODE
 70
     0
  9
$AXISUNIT
 10
0.0
 20
0.0
  9
$SKETCHINC
 40
0.1
  9
$FILLETRAD
 40
0.0
  9
$AUNITS
 70
     0
  9
$AUPREC
 70
     0
  9
$MENU
  1
acad
  9
$ELEVATION
 40
0.0
  9
$THICKNESS
 40
0.0
  9
$LIMCHECK
 70
     0
  9
$BLIPMODE
 70
     1
  9
$CHAMFERA
 40
0.0
  9
$CHAMFERB
 40
0.0
  9
$SKPOLY
 70
     0
  9
$TDCREATE
 40
2449238.5735065974
  9
$TDUPDATE
 40
2449238.5735065974
  9
$TDINDWG
 40
0.0000000000
  9
$TDUSRTIMER
 40
0.0000000000
  9
$USRTIMER
 70
     1
  9
$ANGBASE
 50
0.0
  9
$ANGDIR
 70
     0
  9
$PDMODE
 70
     0
  9
$PDSIZE
 40
0.0
  9
$PLINEWID
 40
0.0
  9
$COORDS
 70
     0
  9
$SPLFRAME
 70
     0
  9
$SPLINETYPE
 70
     6
  9
$SPLINESEGS
 70
     8
  9
$ATTDIA
 70
     0
  9
$ATTREQ
 70
     1
  9
$HANDLING
 70
     0
  9
$HANDSEED
  5
0
  9
$SURFTAB1
 70
     6
  9
$SURFTAB2
 70
     6
  9
$SURFTYPE
 70
     6
  9
$SURFU
 70
     6
  9
$SURFV
 70
     6
  9
$FLATLAND
 70
     0
  9
$UCSNAME
  2

  9
$UCSORG
 10
0.0
 20
0.0
 30
0.0
  9
$UCSXDIR
 10
1.0
 20
0.0
 30
0.0
  9
$UCSYDIR
 10
0.0
 20
1.0
 30
0.0
  9
$USERI1
 70
     0
  9
$USERI2
 70
     0
  9
$USERI3
 70
     0
  9
$USERI4
 70
     0
  9
$USERI5
 70
     0
  9
$USERR1
 40
0.0
  9
$USERR2
 40
0.0
  9
$USERR3
 40
0.0
  9
$USERR4
 40
0.0
  9
$USERR5
 40
0.0
  9
$WORLDVIEW
 70
     1
  0
ENDSEC
  0
SECTION
  2
TABLES
  0
TABLE
  2
VPORT
 70
     1
  0
VPORT
  2
*ACTIVE
 70
     0
 10
0.0
 20
0.0
 11
1.0
 21
1.0
 12
205.297793
 22
129.702302
 13
0.0
 23
0.0
 14
1.0
 24
1.0
 15
0.0
 25
0.0
 16
0.0
 26
0.0
 36
1.0
 17
0.0
 27
0.0
 37
0.0
 40
273.308191
 41
1.5487
 42
50.0
 43
0.0
 44
0.0
 50
0.0
 51
0.0
 71
     0
 72
   100
 73
     1
 74
     0
 75
     0
 76
     0
 77
     0
 78
     0
  0
ENDTAB
  0
TABLE
  2
LTYPE
 70
     2
  0
LTYPE
  2
CONTINUOUS
 70
    64
  3
Solid line
 72
    65
 73
     0
 40
0.0
  0
LTYPE
  2
CENTER
 70
    64
  3
____ _ ____ _ ____
 72
    65
 73
     4
 40
8.0
 49
5.0
 49
-1.0
 49
1.0
 49
-1.0
  0
ENDTAB
  0
TABLE
  2
LAYER
 70
     3
  0
LAYER
  2
0
 70
     0
 62
     7
  6
CONTINUOUS
  0
LAYER
  2
L-ZISSEN
 70
    64
 62
     7
  6
CONTINUOUS
  0
LAYER
  2
L-TYUSIN
 70
    64
 62
     1
  6
CENTER
  0
ENDTAB
  0
TABLE
  2
STYLE
 70
     1
  0
STYLE
  2
STANDARD
 70
    64
 40
0.0
 41
1.0
 50
0.0
 71
     0
 42
4.5
  3
txt
  4

  0
ENDTAB
  0
TABLE
  2
VIEW
 70
     0
  0
ENDTAB
  0
TABLE
  2
UCS
 70
     0
  0
ENDTAB
  0
TABLE
  2
DWGMGR
 70
     0
  0
ENDTAB
  0
ENDSEC
  0
SECTION
  2
BLOCKS
  0
ENDSEC
  0
SECTION
  2
ENTITIES
  0
TEXT
  8
L-ZISSEN
 10
142.149633
 20
216.546123
 30
0.0
 40
4.5
  1
PULL RING
  0
LINE
  8
L-TYUSIN
 10
90.529264
 20
55.0
 30
0.0
 11
108.683509
 21
55.0
 31
0.0
  0
LINE
  8
L-ZISSEN
 10
120.189019
 20
74.294675
 30
0.0
 11
122.189019
 21
74.294675
 31
0.0
  0
TEXT
  8
L-ZISSEN
 10
124.189019
 20
72.044675
 30
0.0
 40
4.5
  1
p.p
  0
LINE
  8
L-ZISSEN
 10
101.613214
 20
60.682176
 30
0.0
 11
120.189019
 21
74.294675
 31
0.0
  0
SOLID
  8
L-ZISSEN
 10
101.810243
 20
60.413307
 30
0.0
 11
101.416185
 21
60.951045
 31
0.0
 12
100.0
 22
59.5
 32
0.0
 13
100.0
 23
59.5
 33
0.0
  0
TEXT
  8
L-ZISSEN
 10
194.394657
 20
113.059629
 30
0.0
 40
4.5
  1
NSV-304
  0
TEXT
  8
L-ZISSEN
 10
138.45554
 20
113.059629
 30
0.0
 40
4.5
  1
NSV-303
  0
TEXT
  8
L-ZISSEN
 10
138.45554
 20
174.280074
 30
0.0
 40
4.5
  1
NSV-302
  0
TEXT
  8
L-ZISSEN
 10
59.323236
 20
41.528373
 30
0.0
 40
4.5
  1
NSV-301
  0
TEXT
  8
L-ZISSEN
 10
37.919253
 20
196.746292
 30
0.0
 40
4.5
  1
NSV-303
  0
TEXT
  8
L-ZISSEN
 10
37.919253
 20
189.746292
 30
0.0
 40
4.5
  1
NSV-304
  0
TEXT
  8
L-ZISSEN
 10
37.919253
 20
203.746292
 30
0.0
 40
4.5
  1
NSV-302
  0
TEXT
  8
L-ZISSEN
 10
37.919253
 20
210.746292
 30
0.0
 40
4.5
  1
NSV-301
  0
TEXT
  8
L-ZISSEN
 10
36.33607
 20
218.479401
 30
0.0
 40
4.5
  1
MODEL NO.
  0
LINE
  8
L-TYUSIN
 10
191.756019
 20
122.459966
 30
0.0
 11
191.756019
 21
55.43969
 31
0.0
  0
LINE
  8
L-TYUSIN
 10
136.34463
 20
181.747134
 30
0.0
 11
246.111953
 21
181.747134
 31
0.0
  0
LINE
  8
L-TYUSIN
 10
136.34463
 20
122.459966
 30
0.0
 11
246.111953
 21
122.459966
 31
0.0
  0
LINE
  8
L-TYUSIN
 10
246.111953
 20
55.43969
 30
0.0
 11
136.34463
 21
55.43969
 31
0.0
  0
LINE
  8
L-TYUSIN
 10
246.111953
 20
224.279232
 30
0.0
 11
246.111953
 21
55.43969
 31
0.0
  0
LINE
  8
L-TYUSIN
 10
136.34463
 20
224.279232
 30
0.0
 11
246.111953
 21
224.279232
 31
0.0
  0
LINE
  8
L-TYUSIN
 10
136.34463
 20
224.279232
 30
0.0
 11
136.34463
 21
55.43969
 31
0.0
  0
TEXT
  8
L-ZISSEN
 10
114.189019
 20
132.544675
 30
0.0
 40
4.5
  1
p.p
  0
LINE
  8
L-ZISSEN
 10
110.189019
 20
134.794675
 30
0.0
 11
112.189019
 21
134.794675
 31
0.0
  0
LINE
  8
L-ZISSEN
 10
101.188251
 20
122.608745
 30
0.0
 11
110.189019
 21
134.794675
 31
0.0
  0
SOLID
  8
L-ZISSEN
 10
101.456375
 20
122.410703
 30
0.0
 11
100.920127
 21
122.806787
 31
0.0
 12
100.0
 22
121.0
 32
0.0
 13
100.0
 23
121.0
 33
0.0
  0
TEXT
  8
L-ZISSEN
 10
69.189019
 20
132.544675
 30
0.0
 40
4.5
  1
p.p
  0
LINE
  8
L-ZISSEN
 10
51.480536
 20
122.344624
 30
0.0
 11
65.189019
 21
134.794675
 31
0.0
  0
SOLID
  8
L-ZISSEN
 10
51.70464
 20
122.097868
 30
0.0
 11
51.256432
 21
122.59138
 31
0.0
 12
50.0
 22
121.0
 32
0.0
 13
50.0
 23
121.0
 33
0.0
  0
TEXT
  8
L-ZISSEN
 10
174.189019
 20
187.044675
 30
0.0
 40
4.5
  1
p.p
  0
LINE
  8
L-ZISSEN
 10
170.189019
 20
189.294675
 30
0.0
 11
172.189019
 21
189.294675
 31
0.0
  0
LINE
  8
L-ZISSEN
 10
161.917775
 20
191.74258
 30
0.0
 11
170.189019
 21
189.294675
 31
0.0
  0
SOLID
  8
L-ZISSEN
 10
161.82318
 20
191.422951
 30
0.0
 11
162.012371
 21
192.062209
 31
0.0
 12
160.0
 22
192.310152
 32
0.0
 13
160.0
 23
192.310152
 33
0.0
  0
TEXT
  8
L-ZISSEN
 10
219.189019
 20
197.044675
 30
0.0
 40
4.5
  1
p.p
  0
LINE
  8
L-ZISSEN
 10
215.189019
 20
199.294675
 30
0.0
 11
217.189019
 21
199.294675
 31
0.0
  0
LINE
  8
L-ZISSEN
 10
209.206004
 20
193.678903
 30
0.0
 11
215.189019
 21
199.294675
 31
0.0
  0
SOLID
  8
L-ZISSEN
 10
209.434129
 20
193.43586
 30
0.0
 11
208.977879
 21
193.921946
 31
0.0
 12
207.747744
 22
192.310152
 32
0.0
 13
207.747744
 23
192.310152
 33
0.0
  0
LINE
  8
L-TYUSIN
 10
202.495652
 20
201.310152
 30
0.0
 11
213.105262
 21
201.310152
 31
0.0
  0
LINE
  8
L-ZISSEN
 10
206.747744
 20
192.310152
 30
0.0
 11
206.747744
 21
210.310152
 31
0.0
  0
LINE
  8
L-ZISSEN
 10
208.747744
 20
192.310152
 30
0.0
 11
206.747744
 21
192.310152
 31
0.0
  0
LINE
  8
L-ZISSEN
 10
208.747744
 20
210.310152
 30
0.0
 11
208.747744
 21
192.310152
 31
0.0
  0
LINE
  8
L-ZISSEN
 10
206.747744
 20
210.310152
 30
0.0
 11
208.747744
 21
210.310152
 31
0.0
  0
TEXT
  8
L-ZISSEN
 10
74.189019
 20
72.044675
 30
0.0
 40
4.5
  1
p.p
  0
LINE
  8
L-ZISSEN
 10
70.189019
 20
74.294675
 30
0.0
 11
72.189019
 21
74.294675
 31
0.0
  0
LINE
  8
L-ZISSEN
 10
51.613214
 20
60.682176
 30
0.0
 11
70.189019
 21
74.294675
 31
0.0
  0
SOLID
  8
L-ZISSEN
 10
51.810243
 20
60.413307
 30
0.0
 11
51.416185
 21
60.951045
 31
0.0
 12
50.0
 22
59.5
 32
0.0
 13
50.0
 23
59.5
 33
0.0
  0
LINE
  8
L-ZISSEN
 10
223.625762
 20
109.815223
 30
0.0
 11
225.625762
 21
109.815223
 31
0.0
  0
TEXT
  8
L-ZISSEN
 10
227.625762
 20
107.565223
 30
0.0
 40
4.5
  1
p.p
  0
LINE
  8
L-ZISSEN
 10
214.275049
 20
89.350335
 30
0.0
 11
223.625762
 21
109.815223
 31
0.0
  0
SOLID
  8
L-ZISSEN
 10
214.578233
 20
89.211806
 30
0.0
 11
213.971865
 21
89.488864
 31
0.0
 12
213.443873
 22
87.531229
 32
0.0
 13
213.443873
 23
87.531229
 33
0.0
  0
SOLID
  8
L-ZISSEN
 10
161.134361
 20
85.211806
 30
0.0
 11
160.527992
 21
85.488864
 31
0.0
 12
160.0
 22
83.531229
 32
0.0
 13
160.0
 23
83.531229
 33
0.0
  0
LINE
  8
L-ZISSEN
 10
160.831177
 20
85.350335
 30
0.0
 11
170.181889
 21
105.815223
 31
0.0
  0
TEXT
  8
L-ZISSEN
 10
174.181889
 20
103.565223
 30
0.0
 40
4.5
  1
p.p
  0
TEXT
  8
L-ZISSEN
 10
174.181889
 20
167.565223
 30
0.0
 40
4.5
  1
p.p
  0
LINE
  8
L-ZISSEN
 10
170.181889
 20
169.815223
 30
0.0
 11
172.181889
 21
169.815223
 31
0.0
  0
LINE
  8
L-ZISSEN
 10
160.831177
 20
149.350335
 30
0.0
 11
170.181889
 21
169.815223
 31
0.0
  0
SOLID
  8
L-ZISSEN
 10
161.134361
 20
149.211806
 30
0.0
 11
160.527992
 21
149.488864
 31
0.0
 12
160.0
 22
147.531229
 32
0.0
 13
160.0
 23
147.531229
 33
0.0
  0
LINE
  8
L-TYUSIN
 10
199.378079
 20
78.531229
 30
0.0
 11
227.509666
 21
78.531229
 31
0.0
  0
LINE
  8
L-TYUSIN
 10
145.934206
 20
78.531229
 30
0.0
 11
174.065794
 21
78.531229
 31
0.0
  0
LINE
  8
L-TYUSIN
 10
145.934206
 20
141.531229
 30
0.0
 11
174.065794
 21
141.531229
 31
0.0
  0
LINE
  8
L-TYUSIN
 10
40.922877
 20
55.0
 30
0.0
 11
59.077123
 21
55.0
 31
0.0
  0
LINE
  8
L-TYUSIN
 10
160.0
 20
211.673093
 30
0.0
 11
160.0
 21
190.947212
 31
0.0
  0
LINE
  8
L-TYUSIN
 10
149.63706
 20
201.310152
 30
0.0
 11
170.36294
 21
201.310152
 31
0.0
  0
CIRCLE
  8
L-ZISSEN
 10
160.0
 20
201.310152
 30
0.0
 40
9.0
  0
CIRCLE
  8
L-ZISSEN
 10
160.0
 20
201.310152
 30
0.0
 40
8.5
  0
LINE
  8
L-ZISSEN
 10
202.966373
 20
87.531229
 30
0.0
 11
202.966373
 21
68.531229
 31
0.0
  0
LINE
  8
L-ZISSEN
 10
223.921373
 20
68.531229
 30
0.0
 11
202.966373
 21
68.531229
 31
0.0
  0
LINE
  8
L-ZISSEN
 10
223.921373
 20
87.531229
 30
0.0
 11
223.921373
 21
68.531229
 31
0.0
  0
LINE
  8
L-ZISSEN
 10
151.669
 20
83.531229
 30
0.0
 11
151.669
 21
69.531229
 31
0.0
  0
LINE
  8
L-ZISSEN
 10
168.331
 20
83.531229
 30
0.0
 11
168.331
 21
69.531229
 31
0.0
  0
LINE
  8
L-TYUSIN
 10
213.443873
 20
91.964889
 30
0.0
 11
213.443873
 21
61.419717
 31
0.0
  0
LINE
  8
L-ZISSEN
 10
168.331
 20
69.531229
 30
0.0
 11
151.669
 21
69.531229
 31
0.0
  0
LINE
  8
L-TYUSIN
 10
160.0
 20
92.4604
 30
0.0
 11
160.0
 21
61.915228
 31
0.0
  0
LINE
  8
L-TYUSIN
 10
160.0
 20
156.4604
 30
0.0
 11
160.0
 21
125.915228
 31
0.0
  0
LINE
  8
L-ZISSEN
 10
153.4215
 20
147.531229
 30
0.0
 11
153.4215
 21
133.531229
 31
0.0
  0
LINE
  8
L-ZISSEN
 10
166.5785
 20
133.531229
 30
0.0
 11
153.4215
 21
133.531229
 31
0.0
  0
LINE
  8
L-ZISSEN
 10
166.5785
 20
147.531229
 30
0.0
 11
166.5785
 21
133.531229
 31
0.0
  0
CIRCLE
  8
L-ZISSEN
 10
100.0
 20
121.0
 30
0.0
 40
1.4
  0
LINE
  8
L-ZISSEN
 10
100.0
 20
59.5
 30
0.0
 11
100.0
 21
67.5
 31
0.0
  0
LINE
  8
L-ZISSEN
 10
100.0
 20
94.5
 30
0.0
 11
100.0
 21
81.0
 31
0.0
  0
LINE
  8
L-ZISSEN
 10
100.0
 20
103.0
 30
0.0
 11
100.0
 21
107.0
 31
0.0
  0
LINE
  8
L-ZISSEN
 10
100.0
 20
120.0
 30
0.0
 11
100.0
 21
111.0
 31
0.0
  0
LINE
  8
L-ZISSEN
 10
88.5
 20
94.5
 30
0.0
 11
111.5
 21
94.5
 31
0.0
  0
LINE
  8
L-ZISSEN
 10
108.5
 20
120.0
 30
0.0
 11
91.5
 21
120.0
 31
0.0
  0
LINE
  8
L-ZISSEN
 10
91.5
 20
111.0
 30
0.0
 11
108.5
 21
111.0
 31
0.0
  0
LINE
  8
L-ZISSEN
 10
108.5
 20
107.0
 30
0.0
 11
91.5
 21
107.0
 31
0.0
  0
LINE
  8
L-ZISSEN
 10
108.5
 20
120.0
 30
0.0
 11
108.5
 21
103.0
 31
0.0
  0
LINE
  8
L-ZISSEN
 10
91.5
 20
120.0
 30
0.0
 11
91.5
 21
103.0
 31
0.0
  0
LINE
  8
L-ZISSEN
 10
91.5
 20
103.0
 30
0.0
 11
108.5
 21
103.0
 31
0.0
  0
LINE
  8
L-ZISSEN
 10
107.0
 20
94.5
 30
0.0
 11
107.0
 21
103.0
 31
0.0
  0
LINE
  8
L-ZISSEN
 10
93.0
 20
94.5
 30
0.0
 11
93.0
 21
103.0
 31
0.0
  0
LINE
  8
L-ZISSEN
 10
111.5
 20
81.0
 30
0.0
 11
88.5
 21
81.0
 31
0.0
  0
LINE
  8
L-ZISSEN
 10
111.5
 20
59.5
 30
0.0
 11
111.5
 21
94.5
 31
0.0
  0
LINE
  8
L-ZISSEN
 10
88.5
 20
59.5
 30
0.0
 11
88.5
 21
94.5
 31
0.0
  0
LINE
  8
L-ZISSEN
 10
111.5
 20
67.5
 30
0.0
 11
88.5
 21
67.5
 31
0.0
  0
LINE
  8
L-ZISSEN
 10
88.5
 20
59.5
 30
0.0
 11
111.5
 21
59.5
 31
0.0
  0
LINE
  8
L-ZISSEN
 10
104.864
 20
50.0
 30
0.0
 11
95.136
 21
50.0
 31
0.0
  0
LINE
  8
L-ZISSEN
 10
104.864
 20
50.0
 30
0.0
 11
104.864
 21
59.5
 31
0.0
  0
LINE
  8
L-ZISSEN
 10
95.136
 20
50.0
 30
0.0
 11
95.136
 21
59.5
 31
0.0
  0
LINE
  8
L-ZISSEN
 10
102.7
 20
120.0
 30
0.0
 11
102.7
 21
124.0
 31
0.0
  0
LINE
  8
L-ZISSEN
 10
102.7
 20
124.0
 30
0.0
 11
97.3
 21
124.0
 31
0.0
  0
LINE
  8
L-ZISSEN
 10
97.3
 20
124.0
 30
0.0
 11
97.3
 21
120.0
 31
0.0
  0
LINE
  8
L-TYUSIN
 10
93.344643
 20
121.0
 30
0.0
 11
106.655357
 21
121.0
 31
0.0
  0
LINE
  8
L-TYUSIN
 10
100.0
 20
130.566712
 30
0.0
 11
100.0
 21
47.706581
 31
0.0
  0
CIRCLE
  8
L-ZISSEN
 10
50.0
 20
160.0
 30
0.0
 40
2.7
  0
LINE
  8
L-ZISSEN
 10
43.360472
 20
67.5
 30
0.0
 11
43.360472
 21
59.5
 31
0.0
  0
LINE
  8
L-ZISSEN
 10
43.360472
 20
94.5
 30
0.0
 11
43.360472
 21
81.0
 31
0.0
  0
LINE
  8
L-ZISSEN
 10
45.092523
 20
107.0
 30
0.0
 11
45.092523
 21
103.0
 31
0.0
  0
LINE
  8
L-ZISSEN
 10
45.092523
 20
120.0
 30
0.0
 11
45.092523
 21
111.0
 31
0.0
  0
LINE
  8
L-ZISSEN
 10
56.639528
 20
67.5
 30
0.0
 11
56.639528
 21
59.5
 31
0.0
  0
LINE
  8
L-ZISSEN
 10
56.639528
 20
94.5
 30
0.0
 11
56.639528
 21
81.0
 31
0.0
  0
LINE
  8
L-ZISSEN
 10
54.907477
 20
107.0
 30
0.0
 11
54.907477
 21
103.0
 31
0.0
  0
LINE
  8
L-ZISSEN
 10
54.907477
 20
120.0
 30
0.0
 11
54.907477
 21
111.0
 31
0.0
  0
LINE
  8
L-TYUSIN
 10
50.0
 20
130.566712
 30
0.0
 11
50.0
 21
47.706581
 31
0.0
  0
LINE
  8
L-TYUSIN
 10
43.344643
 20
121.0
 30
0.0
 11
56.655357
 21
121.0
 31
0.0
  0
LINE
  8
L-ZISSEN
 10
47.3
 20
124.0
 30
0.0
 11
47.3
 21
120.0
 31
0.0
  0
LINE
  8
L-ZISSEN
 10
52.7
 20
124.0
 30
0.0
 11
47.3
 21
124.0
 31
0.0
  0
LINE
  8
L-ZISSEN
 10
52.7
 20
120.0
 30
0.0
 11
52.7
 21
124.0
 31
0.0
  0
LINE
  8
L-ZISSEN
 10
45.136
 20
50.0
 30
0.0
 11
45.136
 21
59.5
 31
0.0
  0
LINE
  8
L-ZISSEN
 10
54.864
 20
50.0
 30
0.0
 11
54.864
 21
59.5
 31
0.0
  0
LINE
  8
L-ZISSEN
 10
54.864
 20
50.0
 30
0.0
 11
45.136
 21
50.0
 31
0.0
  0
LINE
  8
L-ZISSEN
 10
36.720944
 20
59.5
 30
0.0
 11
63.279056
 21
59.5
 31
0.0
  0
LINE
  8
L-ZISSEN
 10
36.720944
 20
94.5
 30
0.0
 11
36.720944
 21
81.0
 31
0.0
  0
LINE
  8
L-ZISSEN
 10
63.279056
 20
67.5
 30
0.0
 11
63.279056
 21
59.5
 31
0.0
  0
LINE
  8
L-ZISSEN
 10
63.279056
 20
67.5
 30
0.0
 11
36.720944
 21
67.5
 31
0.0
  0
LINE
  8
L-ZISSEN
 10
38.5
 20
67.5
 30
0.0
 11
38.5
 21
81.0
 31
0.0
  0
LINE
  8
L-ZISSEN
 10
61.5
 20
67.5
 30
0.0
 11
61.5
 21
81.0
 31
0.0
  0
LINE
  8
L-ZISSEN
 10
63.279056
 20
81.0
 30
0.0
 11
36.720944
 21
81.0
 31
0.0
  0
LINE
  8
L-ZISSEN
 10
43.0
 20
94.5
 30
0.0
 11
43.0
 21
103.0
 31
0.0
  0
LINE
  8
L-ZISSEN
 10
57.0
 20
94.5
 30
0.0
 11
57.0
 21
103.0
 31
0.0
  0
LINE
  8
L-ZISSEN
 10
59.814955
 20
107.0
 30
0.0
 11
59.814955
 21
103.0
 31
0.0
  0
LINE
  8
L-ZISSEN
 10
40.185045
 20
103.0
 30
0.0
 11
59.814955
 21
103.0
 31
0.0
  0
LINE
  8
L-ZISSEN
 10
40.185045
 20
107.0
 30
0.0
 11
40.185045
 21
103.0
 31
0.0
  0
LINE
  8
L-ZISSEN
 10
41.5
 20
111.0
 30
0.0
 11
41.5
 21
107.0
 31
0.0
  0
LINE
  8
L-ZISSEN
 10
58.5
 20
111.0
 30
0.0
 11
58.5
 21
107.0
 31
0.0
  0
LINE
  8
L-ZISSEN
 10
40.185045
 20
120.0
 30
0.0
 11
40.185045
 21
111.0
 31
0.0
  0
LINE
  8
L-ZISSEN
 10
59.814955
 20
107.0
 30
0.0
 11
40.185045
 21
107.0
 31
0.0
  0
LINE
  8
L-ZISSEN
 10
40.185045
 20
111.0
 30
0.0
 11
59.814955
 21
111.0
 31
0.0
  0
LINE
  8
L-ZISSEN
 10
59.814955
 20
120.0
 30
0.0
 11
40.185045
 21
120.0
 31
0.0
  0
LINE
  8
L-ZISSEN
 10
59.814955
 20
120.0
 30
0.0
 11
59.814955
 21
111.0
 31
0.0
  0
LINE
  8
L-ZISSEN
 10
36.720944
 20
67.5
 30
0.0
 11
36.720944
 21
59.5
 31
0.0
  0
LINE
  8
L-ZISSEN
 10
63.279056
 20
94.5
 30
0.0
 11
63.279056
 21
81.0
 31
0.0
  0
LINE
  8
L-ZISSEN
 10
36.720944
 20
94.5
 30
0.0
 11
63.279056
 21
94.5
 31
0.0
  0
LINE
  8
L-ZISSEN
 10
54.907477
 20
168.5
 30
0.0
 11
45.092523
 21
168.5
 31
0.0
  0
LINE
  8
L-ZISSEN
 10
59.814955
 20
160.0
 30
0.0
 11
54.907477
 21
168.5
 31
0.0
  0
LINE
  8
L-ZISSEN
 10
54.907477
 20
151.5
 30
0.0
 11
59.814955
 21
160.0
 31
0.0
  0
LINE
  8
L-ZISSEN
 10
45.092523
 20
151.5
 30
0.0
 11
54.907477
 21
151.5
 31
0.0
  0
LINE
  8
L-ZISSEN
 10
40.185045
 20
160.0
 30
0.0
 11
45.092523
 21
151.5
 31
0.0
  0
LINE
  8
L-ZISSEN
 10
45.092523
 20
168.5
 30
0.0
 11
40.185045
 21
160.0
 31
0.0
  0
LINE
  8
L-ZISSEN
 10
56.639528
 20
171.5
 30
0.0
 11
43.360472
 21
171.5
 31
0.0
  0
LINE
  8
L-ZISSEN
 10
63.279056
 20
160.0
 30
0.0
 11
56.639528
 21
171.5
 31
0.0
  0
LINE
  8
L-ZISSEN
 10
56.639528
 20
148.5
 30
0.0
 11
63.279056
 21
160.0
 31
0.0
  0
LINE
  8
L-ZISSEN
 10
43.360472
 20
148.5
 30
0.0
 11
56.639528
 21
148.5
 31
0.0
  0
LINE
  8
L-ZISSEN
 10
36.720944
 20
160.0
 30
0.0
 11
43.360472
 21
148.5
 31
0.0
  0
LINE
  8
L-ZISSEN
 10
43.360472
 20
171.5
 30
0.0
 11
36.720944
 21
160.0
 31
0.0
  0
LINE
  8
L-TYUSIN
 10
32.950033
 20
160.0
 30
0.0
 11
67.049967
 21
160.0
 31
0.0
  0
LINE
  8
L-TYUSIN
 10
50.0
 20
177.049967
 30
0.0
 11
50.0
 21
142.950033
 31
0.0
  0
ENDSEC
  0
EOF
