  0
SECTION
  2
HEADER
  9
$ACADVER
  1
AC1006
  9
$INSBASE
 10
0.0
 20
0.0
 30
0.0
  9
$EXTMIN
 10
15.0
 20
32.5
  9
$EXTMAX
 10
615.0
 20
404.5
  9
$LIMMIN
 10
0.0
 20
0.0
  9
$LIMMAX
 10
594.0
 20
420.0
  9
$ORTHOMODE
 70
     0
  9
$REGENMODE
 70
     1
  9
$FILLMODE
 70
     1
  9
$QTEXTMODE
 70
     0
  9
$MIRRTEXT
 70
     1
  9
$DRAGMODE
 70
     2
  9
$LTSCALE
 40
1.0
  9
$OSMODE
 70
     0
  9
$ATTMODE
 70
     1
  9
$TEXTSIZE
 40
4.5
  9
$TRACEWID
 40
0.05
  9
$TEXTSTYLE
  7
STANDARD
  9
$CLAYER
  8
L-ZISSEN
  9
$CELTYPE
  6
BYLAYER
  9
$CECOLOR
 62
   256
  9
$DIMSCALE
 40
1.0
  9
$DIMASZ
 40
2.0
  9
$DIMEXO
 40
1.0
  9
$DIMDLI
 40
0.38
  9
$DIMRND
 40
0.0
  9
$DIMDLE
 40
1.0
  9
$DIMEXE
 40
1.0
  9
$DIMTP
 40
0.0
  9
$DIMTM
 40
0.0
  9
$DIMTXT
 40
4.5
  9
$DIMCEN
 40
0.09
  9
$DIMTSZ
 40
0.0
  9
$DIMTOL
 70
     0
  9
$DIMLIM
 70
     0
  9
$DIMTIH
 70
     0
  9
$DIMTOH
 70
     0
  9
$DIMSE1
 70
     0
  9
$DIMSE2
 70
     0
  9
$DIMTAD
 70
     1
  9
$DIMZIN
 70
     0
  9
$DIMBLK
  1

  9
$DIMASO
 70
     0
  9
$DIMSHO
 70
     0
  9
$DIMPOST
  1

  9
$DIMAPOST
  1

  9
$DIMALT
 70
     0
  9
$DIMALTD
 70
     2
  9
$DIMALTF
 40
25.4
  9
$DIMLFAC
 40
1.0
  9
$DIMTOFL
 70
     1
  9
$DIMTVP
 40
0.0
  9
$DIMTIX
 70
     1
  9
$DIMSOXD
 70
     0
  9
$DIMSAH
 70
     0
  9
$DIMBLK1
  1

  9
$DIMBLK2
  1

  9
$LUNITS
 70
     2
  9
$LUPREC
 70
     4
  9
$AXISMODE
 70
     0
  9
$AXISUNIT
 10
0.0
 20
0.0
  9
$SKETCHINC
 40
0.1
  9
$FILLETRAD
 40
0.0
  9
$AUNITS
 70
     0
  9
$AUPREC
 70
     0
  9
$MENU
  1
acad
  9
$ELEVATION
 40
0.0
  9
$THICKNESS
 40
0.0
  9
$LIMCHECK
 70
     0
  9
$BLIPMODE
 70
     1
  9
$CHAMFERA
 40
0.0
  9
$CHAMFERB
 40
0.0
  9
$SKPOLY
 70
     0
  9
$TDCREATE
 40
2449053.3980540507
  9
$TDUPDATE
 40
2449053.3980540507
  9
$TDINDWG
 40
0.0000000000
  9
$TDUSRTIMER
 40
0.0000000000
  9
$USRTIMER
 70
     1
  9
$ANGBASE
 50
0.0
  9
$ANGDIR
 70
     0
  9
$PDMODE
 70
     0
  9
$PDSIZE
 40
0.0
  9
$PLINEWID
 40
0.0
  9
$COORDS
 70
     2
  9
$SPLFRAME
 70
     0
  9
$SPLINETYPE
 70
     6
  9
$SPLINESEGS
 70
     8
  9
$ATTDIA
 70
     0
  9
$ATTREQ
 70
     1
  9
$HANDLING
 70
     0
  9
$HANDSEED
  5
0
  9
$SURFTAB1
 70
     6
  9
$SURFTAB2
 70
     6
  9
$SURFTYPE
 70
     6
  9
$SURFU
 70
     6
  9
$SURFV
 70
     6
  9
$FLATLAND
 70
     0
  9
$UCSNAME
  2

  9
$UCSORG
 10
0.0
 20
0.0
 30
0.0
  9
$UCSXDIR
 10
1.0
 20
0.0
 30
0.0
  9
$UCSYDIR
 10
0.0
 20
1.0
 30
0.0
  9
$USERI1
 70
     0
  9
$USERI2
 70
     0
  9
$USERI3
 70
     0
  9
$USERI4
 70
     0
  9
$USERI5
 70
     0
  9
$USERR1
 40
0.0
  9
$USERR2
 40
0.0
  9
$USERR3
 40
0.0
  9
$USERR4
 40
0.0
  9
$USERR5
 40
0.0
  9
$WORLDVIEW
 70
     1
  0
ENDSEC
  0
SECTION
  2
TABLES
  0
TABLE
  2
VPORT
 70
     2
  0
VPORT
  2
*ACTIVE
 70
     0
 10
0.0
 20
0.0
 11
1.0
 21
1.0
 12
336.888065
 22
217.529623
 13
0.0
 23
0.0
 14
5.0
 24
5.0
 15
0.0
 25
0.0
 16
0.0
 26
0.0
 36
1.0
 17
0.0
 27
0.0
 37
0.0
 40
435.059245
 41
1.5487
 42
50.0
 43
0.0
 44
0.0
 50
0.0
 51
0.0
 71
     0
 72
   100
 73
     1
 74
     0
 75
     0
 76
     0
 77
     0
 78
     0
  0
ENDTAB
  0
TABLE
  2
LTYPE
 70
     2
  0
LTYPE
  2
CONTINUOUS
 70
    64
  3
Solid line
 72
    65
 73
     0
 40
0.0
  0
LTYPE
  2
CENTER
 70
    64
  3
____ _ ____ _ ____ _ ____ _ 
 72
    65
 73
     4
 40
60.0
 49
45.0
 49
-5.0
 49
5.0
 49
-5.0
  0
ENDTAB
  0
TABLE
  2
LAYER
 70
     3
  0
LAYER
  2
0
 70
     0
 62
     7
  6
CONTINUOUS
  0
LAYER
  2
L-ZISSEN
 70
    64
 62
     7
  6
CONTINUOUS
  0
LAYER
  2
L-TYUSIN
 70
    64
 62
     1
  6
CENTER
  0
ENDTAB
  0
TABLE
  2
STYLE
 70
     1
  0
STYLE
  2
STANDARD
 70
    64
 40
0.0
 41
1.0
 50
0.0
 71
     0
 42
4.5
  3
TXT
  4

  0
ENDTAB
  0
TABLE
  2
VIEW
 70
     0
  0
ENDTAB
  0
TABLE
  2
UCS
 70
     0
  0
ENDTAB
  0
TABLE
  2
DWGMGR
 70
     0
  0
ENDTAB
  0
ENDSEC
  0
SECTION
  2
BLOCKS
  0
ENDSEC
  0
SECTION
  2
ENTITIES
  0
LINE
  8
L-ZISSEN
 10
80.0
 20
232.5
 30
0.0
 11
80.0
 21
367.5
 31
0.0
  0
LINE
  8
L-TYUSIN
 10
75.0
 20
300.0
 30
0.0
 11
385.0
 21
300.0
 31
0.0
  0
LINE
  8
L-ZISSEN
 10
80.0
 20
232.5
 30
0.0
 11
96.0
 21
232.5
 31
0.0
  0
LINE
  8
L-ZISSEN
 10
80.0
 20
367.5
 30
0.0
 11
96.0
 21
367.5
 31
0.0
  0
LINE
  8
L-ZISSEN
 10
96.0
 20
232.5
 30
0.0
 11
96.0
 21
367.5
 31
0.0
  0
LINE
  8
L-ZISSEN
 10
380.0
 20
232.5
 30
0.0
 11
380.0
 21
367.5
 31
0.0
  0
LINE
  8
L-ZISSEN
 10
364.0
 20
367.5
 30
0.0
 11
380.0
 21
367.5
 31
0.0
  0
LINE
  8
L-ZISSEN
 10
364.0
 20
232.5
 30
0.0
 11
380.0
 21
232.5
 31
0.0
  0
LINE
  8
L-ZISSEN
 10
364.0
 20
232.5
 30
0.0
 11
364.0
 21
367.5
 31
0.0
  0
LINE
  8
L-ZISSEN
 10
96.0
 20
321.35
 30
0.0
 11
364.0
 21
321.35
 31
0.0
  0
LINE
  8
L-ZISSEN
 10
96.0
 20
278.65
 30
0.0
 11
364.0
 21
278.65
 31
0.0
  0
LINE
  8
L-ZISSEN
 10
96.0
 20
78.65
 30
0.0
 11
364.0
 21
78.65
 31
0.0
  0
LINE
  8
L-ZISSEN
 10
96.0
 20
121.35
 30
0.0
 11
364.0
 21
121.35
 31
0.0
  0
LINE
  8
L-ZISSEN
 10
364.0
 20
32.5
 30
0.0
 11
364.0
 21
167.5
 31
0.0
  0
LINE
  8
L-ZISSEN
 10
364.0
 20
32.5
 30
0.0
 11
380.0
 21
32.5
 31
0.0
  0
LINE
  8
L-ZISSEN
 10
364.0
 20
167.5
 30
0.0
 11
380.0
 21
167.5
 31
0.0
  0
LINE
  8
L-ZISSEN
 10
380.0
 20
32.5
 30
0.0
 11
380.0
 21
167.5
 31
0.0
  0
LINE
  8
L-ZISSEN
 10
96.0
 20
32.5
 30
0.0
 11
96.0
 21
167.5
 31
0.0
  0
LINE
  8
L-ZISSEN
 10
80.0
 20
167.5
 30
0.0
 11
96.0
 21
167.5
 31
0.0
  0
LINE
  8
L-ZISSEN
 10
80.0
 20
32.5
 30
0.0
 11
96.0
 21
32.5
 31
0.0
  0
LINE
  8
L-ZISSEN
 10
80.0
 20
32.5
 30
0.0
 11
80.0
 21
167.5
 31
0.0
  0
LINE
  8
L-TYUSIN
 10
75.0
 20
335.355339
 30
0.0
 11
101.0
 21
335.355339
 31
0.0
  0
LINE
  8
L-TYUSIN
 10
75.0
 20
264.644661
 30
0.0
 11
101.0
 21
264.644661
 31
0.0
  0
LINE
  8
L-TYUSIN
 10
385.0
 20
264.644661
 30
0.0
 11
359.0
 21
264.644661
 31
0.0
  0
LINE
  8
L-TYUSIN
 10
385.0
 20
335.355339
 30
0.0
 11
359.0
 21
335.355339
 31
0.0
  0
LINE
  8
L-TYUSIN
 10
305.0
 20
284.0
 30
0.0
 11
305.0
 21
235.0
 31
0.0
  0
LINE
  8
L-TYUSIN
 10
155.0
 20
284.0
 30
0.0
 11
155.0
 21
244.0
 31
0.0
  0
LINE
  8
L-TYUSIN
 10
555.0
 20
275.0
 30
0.0
 11
575.710678
 21
254.289322
 31
0.0
  0
CIRCLE
  8
L-ZISSEN
 10
565.355339
 20
264.644661
 30
0.0
 40
9.5
  0
LINE
  8
L-TYUSIN
 10
505.0
 20
275.0
 30
0.0
 11
484.289322
 21
254.289322
 31
0.0
  0
CIRCLE
  8
L-ZISSEN
 10
494.644661
 20
264.644661
 30
0.0
 40
9.5
  0
LINE
  8
L-TYUSIN
 10
555.0
 20
325.0
 30
0.0
 11
575.710678
 21
345.710678
 31
0.0
  0
CIRCLE
  8
L-ZISSEN
 10
565.355339
 20
335.355339
 30
0.0
 40
9.5
  0
CIRCLE
  8
L-ZISSEN
 10
494.644661
 20
335.355339
 30
0.0
 40
9.5
  0
LINE
  8
L-TYUSIN
 10
505.0
 20
325.0
 30
0.0
 11
484.289322
 21
345.710678
 31
0.0
  0
CIRCLE
  8
L-TYUSIN
 10
530.0
 20
300.0
 30
0.0
 40
50.0
  0
CIRCLE
  8
L-ZISSEN
 10
530.0
 20
300.0
 30
0.0
 40
67.5
  0
LINE
  8
L-ZISSEN
 10
319.0
 20
278.65
 30
0.0
 11
319.0
 21
240.0
 31
0.0
  0
LINE
  8
L-ZISSEN
 10
319.0
 20
240.0
 30
0.0
 11
291.0
 21
240.0
 31
0.0
  0
LINE
  8
L-ZISSEN
 10
291.0
 20
278.65
 30
0.0
 11
291.0
 21
240.0
 31
0.0
  0
CIRCLE
  8
L-ZISSEN
 10
305.0
 20
100.0
 30
0.0
 40
14.0
  0
LINE
  8
L-TYUSIN
 10
305.0
 20
120.0
 30
0.0
 11
305.0
 21
80.0
 31
0.0
  0
CIRCLE
  8
L-ZISSEN
 10
305.0
 20
100.0
 30
0.0
 40
9.3155
  0
CIRCLE
  8
L-ZISSEN
 10
155.0
 20
100.0
 30
0.0
 40
10.0
  0
LINE
  8
L-ZISSEN
 10
145.0
 20
278.65
 30
0.0
 11
145.0
 21
249.0
 31
0.0
  0
LINE
  8
L-ZISSEN
 10
145.0
 20
249.0
 30
0.0
 11
165.0
 21
249.0
 31
0.0
  0
LINE
  8
L-ZISSEN
 10
165.0
 20
249.0
 30
0.0
 11
165.0
 21
278.65
 31
0.0
  0
LINE
  8
L-TYUSIN
 10
155.0
 20
115.0
 30
0.0
 11
155.0
 21
85.0
 31
0.0
  0
CIRCLE
  8
L-ZISSEN
 10
155.0
 20
100.0
 30
0.0
 40
5.7225
  0
LINE
  8
L-TYUSIN
 10
75.0
 20
100.0
 30
0.0
 11
385.0
 21
100.0
 31
0.0
  0
LINE
  8
L-TYUSIN
 10
75.0
 20
135.355339
 30
0.0
 11
101.0
 21
135.355339
 31
0.0
  0
LINE
  8
L-TYUSIN
 10
75.0
 20
64.644661
 30
0.0
 11
101.0
 21
64.644661
 31
0.0
  0
LINE
  8
L-TYUSIN
 10
385.0
 20
64.644661
 30
0.0
 11
359.0
 21
64.644661
 31
0.0
  0
LINE
  8
L-TYUSIN
 10
385.0
 20
135.355339
 30
0.0
 11
359.0
 21
135.355339
 31
0.0
  0
LINE
  8
L-TYUSIN
 10
455.0
 20
300.0
 30
0.0
 11
605.0
 21
300.0
 31
0.0
  0
LINE
  8
L-TYUSIN
 10
530.0
 20
375.0
 30
0.0
 11
530.0
 21
225.0
 31
0.0
  0
TEXT
  8
L-ZISSEN
 10
75.0
 20
390.0
 30
0.0
 40
4.5
  1
MODEL No. : NBA-712
  0
SOLID
  8
L-ZISSEN
 10
78.2
 20
299.066667
 30
0.0
 11
78.6
 21
298.533333
 31
0.0
 12
80.0
 22
300.0
 32
0.0
 13
80.0
 23
300.0
 33
0.0
  0
LINE
  8
L-ZISSEN
 10
78.4
 20
298.8
 30
0.0
 11
60.0
 21
285.0
 31
0.0
  0
LINE
  8
L-ZISSEN
 10
60.0
 20
285.0
 30
0.0
 11
58.0
 21
285.0
 31
0.0
  0
TEXT
  8
L-ZISSEN
 10
50.0
 20
282.75
 30
0.0
 40
4.5
  1
IN
  0
TEXT
  8
L-ZISSEN
 10
15.0
 20
275.0
 30
0.0
 40
4.5
  1
JIS 10K 32A
  0
CIRCLE
  8
L-ZISSEN
 10
530.0
 20
300.0
 30
0.0
 40
21.35
  0
ENDSEC
  0
EOF
