  0
SECTION
  2
HEADER
  9
$ACADVER
  1
AC1009
  9
$INSBASE
 10
0.0
 20
0.0
 30
0.0
  9
$EXTMIN
 10
80.003628277044299
 20
278.6715728752531
 30
0.0
  9
$EXTMAX
 10
1263.0
 20
1332.0
 30
0.0
  9
$LIMMIN
 10
0.0
 20
0.0
  9
$LIMMAX
 10
2100.0
 20
1485.0
  9
$ORTHOMODE
 70
     0
  9
$REGENMODE
 70
     1
  9
$FILLMODE
 70
     1
  9
$QTEXTMODE
 70
     0
  9
$MIRRTEXT
 70
     1
  9
$DRAGMODE
 70
     2
  9
$LTSCALE
 40
1.0
  9
$OSMODE
 70
   167
  9
$ATTMODE
 70
     1
  9
$TEXTSIZE
 40
12.5
  9
$TRACEWID
 40
0.05
  9
$TEXTSTYLE
  7
STANDARD
  9
$CLAYER
  8
L-ZISSEN
  9
$CELTYPE
  6
BYLAYER
  9
$CECOLOR
 62
   256
  9
$DIMSCALE
 40
1.0
  9
$DIMASZ
 40
10.0
  9
$DIMEXO
 40
5.0
  9
$DIMDLI
 40
0.38
  9
$DIMRND
 40
0.0
  9
$DIMDLE
 40
1.0
  9
$DIMEXE
 40
5.0
  9
$DIMTP
 40
0.0
  9
$DIMTM
 40
0.0
  9
$DIMTXT
 40
12.5
  9
$DIMCEN
 40
0.09
  9
$DIMTSZ
 40
0.0
  9
$DIMTOL
 70
     0
  9
$DIMLIM
 70
     0
  9
$DIMTIH
 70
     0
  9
$DIMTOH
 70
     0
  9
$DIMSE1
 70
     0
  9
$DIMSE2
 70
     0
  9
$DIMTAD
 70
     1
  9
$DIMZIN
 70
     0
  9
$DIMBLK
  1

  9
$DIMASO
 70
     0
  9
$DIMSHO
 70
     0
  9
$DIMPOST
  1

  9
$DIMAPOST
  1

  9
$DIMALT
 70
     0
  9
$DIMALTD
 70
     2
  9
$DIMALTF
 40
25.399999999999999
  9
$DIMLFAC
 40
1.0
  9
$DIMTOFL
 70
     1
  9
$DIMTVP
 40
0.0
  9
$DIMTIX
 70
     1
  9
$DIMSOXD
 70
     0
  9
$DIMSAH
 70
     0
  9
$DIMBLK1
  1

  9
$DIMBLK2
  1

  9
$DIMSTYLE
  2
STANDARD
  9
$DIMCLRD
 70
     0
  9
$DIMCLRE
 70
     0
  9
$DIMCLRT
 70
     0
  9
$DIMTFAC
 40
1.0
  9
$DIMGAP
 40
0.09
  9
$LUNITS
 70
     2
  9
$LUPREC
 70
     4
  9
$SKETCHINC
 40
0.1
  9
$FILLETRAD
 40
3.0
  9
$AUNITS
 70
     0
  9
$AUPREC
 70
     0
  9
$MENU
  1
acad
  9
$ELEVATION
 40
0.0
  9
$PELEVATION
 40
0.0
  9
$THICKNESS
 40
0.0
  9
$LIMCHECK
 70
     0
  9
$BLIPMODE
 70
     0
  9
$CHAMFERA
 40
1.0
  9
$CHAMFERB
 40
1.0
  9
$SKPOLY
 70
     0
  9
$TDCREATE
 40
2448568.3930427078
  9
$TDUPDATE
 40
2452171.3452613419
  9
$TDINDWG
 40
1.5914037036999999
  9
$TDUSRTIMER
 40
1.5914037036999999
  9
$USRTIMER
 70
     1
  9
$ANGBASE
 50
0.0
  9
$ANGDIR
 70
     0
  9
$PDMODE
 70
     0
  9
$PDSIZE
 40
0.0
  9
$PLINEWID
 40
0.0
  9
$COORDS
 70
     2
  9
$SPLFRAME
 70
     0
  9
$SPLINETYPE
 70
     6
  9
$SPLINESEGS
 70
     8
  9
$ATTDIA
 70
     0
  9
$ATTREQ
 70
     1
  9
$HANDLING
 70
-16383
  9
$HANDSEED
  5
A73
  9
$SURFTAB1
 70
     6
  9
$SURFTAB2
 70
     6
  9
$SURFTYPE
 70
     6
  9
$SURFU
 70
     6
  9
$SURFV
 70
     6
  9
$UCSNAME
  2

  9
$UCSORG
 10
0.0
 20
0.0
 30
0.0
  9
$UCSXDIR
 10
1.0
 20
0.0
 30
0.0
  9
$UCSYDIR
 10
0.0
 20
1.0
 30
0.0
  9
$PUCSNAME
  2

  9
$PUCSORG
 10
0.0
 20
0.0
 30
0.0
  9
$PUCSXDIR
 10
1.0
 20
0.0
 30
0.0
  9
$PUCSYDIR
 10
0.0
 20
1.0
 30
0.0
  9
$USERI1
 70
     0
  9
$USERI2
 70
     0
  9
$USERI3
 70
     0
  9
$USERI4
 70
     0
  9
$USERI5
 70
     0
  9
$USERR1
 40
0.0
  9
$USERR2
 40
0.0
  9
$USERR3
 40
0.0
  9
$USERR4
 40
0.0
  9
$USERR5
 40
0.0
  9
$WORLDVIEW
 70
     1
  9
$SHADEDGE
 70
     3
  9
$SHADEDIF
 70
    70
  9
$TILEMODE
 70
     1
  9
$MAXACTVP
 70
    48
  9
$PLIMCHECK
 70
     0
  9
$PEXTMIN
 10
1.0000000000000000E+020
 20
1.0000000000000000E+020
 30
1.0000000000000000E+020
  9
$PEXTMAX
 10
-1.0000000000000000E+020
 20
-1.0000000000000000E+020
 30
-1.0000000000000000E+020
  9
$PLIMMIN
 10
0.0
 20
0.0
  9
$PLIMMAX
 10
12.0
 20
9.0
  9
$UNITMODE
 70
     0
  9
$VISRETAIN
 70
     1
  9
$PLINEGEN
 70
     0
  9
$PSLTSCALE
 70
     0
  0
ENDSEC
  0
SECTION
  2
TABLES
  0
TABLE
  2
VPORT
 70
     2
  0
VPORT
  2
*ACTIVE
 70
     0
 10
0.0
 20
0.0
 11
1.0
 21
1.0
 12
1218.79776344322
 22
788.27051527120102
 13
0.0
 23
0.0
 14
5.0
 24
5.0
 15
0.0
 25
0.0
 16
0.0
 26
0.0
 36
1.0
 17
0.0
 27
0.0
 37
0.0
 40
1289.9435130924451
 41
1.8499025341130599
 42
50.0
 43
0.0
 44
0.0
 50
0.0
 51
0.0
 71
     0
 72
   100
 73
     1
 74
     0
 75
     0
 76
     0
 77
     0
 78
     0
  0
ENDTAB
  0
TABLE
  2
LTYPE
 70
     3
  0
LTYPE
  2
CONTINUOUS
 70
     0
  3
Solid line
 72
    65
 73
     0
 40
0.0
  0
LTYPE
  2
CENTER
 70
     0
  3
____ _ ____ _ ____ _ 
 72
    65
 73
     4
 40
30.0
 49
22.5
 49
-2.5
 49
2.5
 49
-2.5
  0
LTYPE
  2
PHANTOM
 70
     0
  3
____ _ _ ____ _ _ ____ _ _ 
 72
    65
 73
     6
 40
22.5
 49
10.0
 49
-2.5
 49
2.5
 49
-2.5
 49
2.5
 49
-2.5
  0
ENDTAB
  0
TABLE
  2
LAYER
 70
     7
  0
LAYER
  2
0
 70
     0
 62
     7
  6
CONTINUOUS
  0
LAYER
  2
L-ZISSEN
 70
     0
 62
     7
  6
CONTINUOUS
  0
LAYER
  2
L-TYUSIN
 70
     0
 62
     1
  6
CENTER
  0
LAYER
  2
L-SAISEN
 70
     0
 62
     6
  6
CONTINUOUS
  0
LAYER
  2
SUNPOU
 70
     0
 62
     3
  6
CONTINUOUS
  0
LAYER
  2
L-SOUZOU
 70
     0
 62
     2
  6
PHANTOM
  0
LAYER
  2
DEFPOINTS
 70
     0
 62
    -7
  6
CONTINUOUS
  0
ENDTAB
  0
TABLE
  2
STYLE
 70
     2
  0
STYLE
  2
STANDARD
 70
     0
 40
0.0
 41
1.0
 50
0.0
 71
     0
 42
12.5
  3
simplex
  4

  0
STYLE
  2
KANJI
 70
     0
 40
0.0
 41
1.0
 50
0.0
 71
     0
 42
3.0
  3
simplex
  4
bigfont
  0
ENDTAB
  0
TABLE
  2
VIEW
 70
     0
  0
ENDTAB
  0
TABLE
  2
UCS
 70
     0
  0
ENDTAB
  0
TABLE
  2
APPID
 70
     1
  0
APPID
  2
ACAD
 70
     0
  0
ENDTAB
  0
TABLE
  2
DIMSTYLE
 70
     1
  0
DIMSTYLE
  2
STANDARD
 70
     0
  3

  4

  5

  6

  7

 40
1.0
 41
0.18
 42
0.0625
 43
0.38
 44
0.18
 45
0.0
 46
0.0
 47
0.0
 48
0.0
140
0.18
141
0.09
142
0.0
143
25.399999999999999
144
1.0
145
0.0
146
1.0
147
0.09
 71
     0
 72
     0
 73
     1
 74
     1
 75
     0
 76
     0
 77
     0
 78
     0
170
     0
171
     2
172
     0
173
     0
174
     0
175
     0
176
     0
177
     0
178
     0
  0
ENDTAB
  0
ENDSEC
  0
SECTION
  2
BLOCKS
  0
BLOCK
  8
0
  2
$MODEL_SPACE
 70
     0
 10
0.0
 20
0.0
 30
0.0
  3
$MODEL_SPACE
  1

  0
ENDBLK
  5
40
  8
0
  0
BLOCK
 67
     1
  8
0
  2
$PAPER_SPACE
 70
     0
 10
0.0
 20
0.0
 30
0.0
  3
$PAPER_SPACE
  1

  0
ENDBLK
  5
3E
 67
     1
  8
0
  0
ENDSEC
  0
SECTION
  2
ENTITIES
  0
LINE
  5
D5
  8
L-ZISSEN
 10
479.0
 20
650.0
 30
0.0
 11
721.0
 21
649.99999999999989
 31
0.0
  0
LINE
  5
D6
  8
L-ZISSEN
 10
510.00000000000063
 20
799.0
 30
0.0
 11
510.00000000000023
 21
700.00000000000023
 31
0.0
  0
LINE
  5
D7
  8
L-TYUSIN
  6
CENTER
 62
     1
 10
600.0
 20
821.99999999999977
 30
0.0
 11
599.99999999999977
 21
331.49999999999977
 31
0.0
  0
LINE
  5
D8
  8
L-TYUSIN
 10
600.0
 20
1321.1999999999989
 30
0.0
 11
600.0
 21
1088.0
 31
0.0
  0
LINE
  5
D9
  8
L-ZISSEN
 10
1059.9999999999991
 20
780.00000000000011
 30
0.0
 11
1060.0
 21
650.00000000000045
 31
0.0
  0
LINE
  5
DA
  8
L-ZISSEN
 10
1240.0000000000009
 20
790.00000000000011
 30
0.0
 11
1240.0
 21
650.00000000000023
 31
0.0
  0
LINE
  5
DB
  8
L-ZISSEN
 10
1060.0
 20
650.00000000000034
 30
0.0
 11
1240.0
 21
650.00000000000034
 31
0.0
  0
LINE
  5
DC
  8
L-ZISSEN
 10
1240.0
 20
650.00000000000023
 30
0.0
 11
1060.0
 21
650.00000000000045
 31
0.0
  0
LINE
  5
DD
  8
L-ZISSEN
 10
1146.0
 20
616.49999999999716
 30
0.0
 11
1146.0
 21
436.49999999999699
 31
0.0
  0
LINE
  5
DE
  8
L-ZISSEN
 10
1154.0
 20
616.49999999999716
 30
0.0
 11
1154.0
 21
436.49999999999699
 31
0.0
  0
LINE
  5
DF
  8
L-ZISSEN
 10
1143.5
 20
616.49999999999716
 30
0.0
 11
1156.5
 21
616.49999999999716
 31
0.0
  0
LINE
  5
E0
  8
L-ZISSEN
 10
1156.5
 20
616.49999999999716
 30
0.0
 11
1156.5
 21
617.99999999999727
 31
0.0
  0
LINE
  5
E1
  8
L-ZISSEN
 10
1143.5
 20
616.49999999999716
 30
0.0
 11
1143.5
 21
617.99999999999727
 31
0.0
  0
LINE
  5
E2
  8
L-ZISSEN
 10
1144.5
 20
629.49999999999727
 30
0.0
 11
1155.4999999999991
 21
629.49999999999727
 31
0.0
  0
LINE
  5
E3
  8
L-ZISSEN
 10
1155.4999999999991
 20
629.49999999999727
 30
0.0
 11
1155.4999999999991
 21
625.49999999999727
 31
0.0
  0
LINE
  5
E4
  8
L-ZISSEN
 10
1144.5
 20
629.49999999999727
 30
0.0
 11
1144.5
 21
625.49999999999727
 31
0.0
  0
LINE
  5
E5
  8
L-ZISSEN
 10
1144.5
 20
423.49999999999699
 30
0.0
 11
1144.5
 21
427.49999999999699
 31
0.0
  0
LINE
  5
E6
  8
L-ZISSEN
 10
1155.4999999999991
 20
423.49999999999699
 30
0.0
 11
1155.4999999999991
 21
427.49999999999699
 31
0.0
  0
LINE
  5
E7
  8
L-ZISSEN
 10
1144.5
 20
423.49999999999699
 30
0.0
 11
1155.4999999999991
 21
423.49999999999699
 31
0.0
  0
LINE
  5
E8
  8
L-ZISSEN
 10
1143.5
 20
436.49999999999699
 30
0.0
 11
1143.5
 21
427.49999999999699
 31
0.0
  0
LINE
  5
E9
  8
L-ZISSEN
 10
1156.5
 20
436.49999999999699
 30
0.0
 11
1156.5
 21
427.49999999999699
 31
0.0
  0
ARC
  5
EA
  8
L-ZISSEN
 10
1154.0
 20
410.49999999999699
 30
0.0
 40
1.0
 50
270.0
 51
0.0000000000001781
  0
LINE
  5
EB
  8
L-ZISSEN
 10
1143.5
 20
434.99999999999699
 30
0.0
 11
1156.5
 21
434.99999999999699
 31
0.0
  0
LINE
  5
EC
  8
L-ZISSEN
 10
1143.5
 20
427.49999999999699
 30
0.0
 11
1156.5
 21
427.49999999999699
 31
0.0
  0
LINE
  5
ED
  8
L-ZISSEN
 10
1146.0
 20
409.49999999999699
 30
0.0
 11
1154.0
 21
409.49999999999699
 31
0.0
  0
LINE
  5
EE
  8
L-ZISSEN
 10
1155.0
 20
423.49999999999699
 30
0.0
 11
1155.0
 21
410.49999999999699
 31
0.0
  0
LINE
  5
EF
  8
L-ZISSEN
 10
1143.5
 20
436.49999999999699
 30
0.0
 11
1156.5
 21
436.49999999999699
 31
0.0
  0
LINE
  5
F0
  8
L-TYUSIN
  6
CENTER
 62
     1
 10
1150.0
 20
850.00000000000034
 30
0.0
 11
1150.0
 21
347.49999999999977
 31
0.0
  0
LINE
  5
F1
  8
L-ZISSEN
 10
1155.0
 20
374.67799852014173
 30
0.0
 11
1155.0
 21
372.49999999999972
 31
0.0
  0
LINE
  5
F2
  8
L-ZISSEN
 10
1145.0
 20
374.67799852014173
 30
0.0
 11
1145.0
 21
372.49999999999972
 31
0.0
  0
LINE
  5
F3
  8
L-ZISSEN
 62
     7
 10
1145.0881875162579
 20
377.50000000000023
 30
0.0
 11
1145.0
 21
374.67799852014173
 31
0.0
  0
LINE
  5
F4
  8
L-SAISEN
 62
     6
 10
1145.669187516258
 20
377.50000000000023
 30
0.0
 11
1145.5129375693889
 21
372.49999999999972
 31
0.0
  0
LINE
  5
F5
  8
L-SAISEN
 62
     6
 10
1154.3308124837411
 20
377.50000000000023
 30
0.0
 11
1154.48706243061
 21
372.49999999999972
 31
0.0
  0
LINE
  5
F6
  8
L-TYUSIN
 10
1140.000000000005
 20
638.50000000000045
 30
0.0
 11
1159.9999999999941
 21
638.50000000000045
 31
0.0
  0
LINE
  5
F7
  8
L-TYUSIN
 10
1140.0
 20
414.50000000000023
 30
0.0
 11
1160.0
 21
414.50000000000023
 31
0.0
  0
LINE
  5
F8
  8
L-ZISSEN
 10
525.00000000000045
 20
1130.0
 30
0.0
 11
674.99999999999955
 21
1130.0
 31
0.0
  0
LINE
  5
F9
  8
L-ZISSEN
 10
510.0000000000004
 20
1310.0
 30
0.0
 11
689.99999999999943
 21
1309.9999999999991
 31
0.0
  0
ARC
  5
FA
  8
L-ZISSEN
 10
1146.0
 20
410.49999999999699
 30
0.0
 40
1.0
 50
179.9999999999998
 51
270.0
  0
LINE
  5
FB
  8
L-ZISSEN
 10
1145.0
 20
423.49999999999699
 30
0.0
 11
1145.0
 21
410.49999999999699
 31
0.0
  0
LINE
  5
FC
  8
L-ZISSEN
 10
1145.0
 20
629.49999999999704
 30
0.0
 11
1145.0
 21
642.49999999999704
 31
0.0
  0
LINE
  5
FD
  8
L-ZISSEN
 10
1155.0
 20
629.49999999999704
 30
0.0
 11
1155.0
 21
642.49999999999704
 31
0.0
  0
ARC
  5
FE
  8
L-ZISSEN
 10
1154.0
 20
642.49999999999704
 30
0.0
 40
1.0
 50
359.99999999999977
 51
90.000000000000014
  0
ARC
  5
FF
  8
L-ZISSEN
 10
1146.0
 20
642.49999999999704
 30
0.0
 40
1.0
 50
89.999999999999986
 51
180.0000000000002
  0
LINE
  5
100
  8
L-ZISSEN
 10
1146.0
 20
643.49999999999716
 30
0.0
 11
1154.0
 21
643.49999999999716
 31
0.0
  0
LINE
  5
101
  8
L-ZISSEN
 10
1143.5
 20
616.49999999999704
 30
0.0
 11
1143.5
 21
625.49999999999704
 31
0.0
  0
LINE
  5
102
  8
L-ZISSEN
 10
1156.5
 20
616.49999999999704
 30
0.0
 11
1156.5
 21
625.49999999999704
 31
0.0
  0
LINE
  5
103
  8
L-ZISSEN
 10
1143.5
 20
625.49999999999704
 30
0.0
 11
1156.5
 21
625.49999999999704
 31
0.0
  0
LINE
  5
104
  8
L-ZISSEN
 10
1143.5
 20
617.99999999999704
 30
0.0
 11
1156.5
 21
617.99999999999704
 31
0.0
  0
LINE
  5
105
  8
L-ZISSEN
  6
CONTINUOUS
 62
     7
 10
1144.0
 20
364.49999999999972
 30
0.0
 11
1144.0
 21
372.49999999999972
 31
0.0
  0
LINE
  5
106
  8
L-ZISSEN
  6
CONTINUOUS
 62
     7
 10
1156.0
 20
352.49999999999972
 30
0.0
 11
1156.0
 21
372.49999999999972
 31
0.0
  0
LINE
  5
107
  8
L-ZISSEN
  6
CONTINUOUS
 62
     7
 10
1141.0
 20
337.49999999999972
 30
0.0
 11
1141.0
 21
352.49999999999989
 31
0.0
  0
LINE
  5
108
  8
L-ZISSEN
  6
CONTINUOUS
 62
     7
 10
1149.0
 20
337.49999999999972
 30
0.0
 11
1149.0
 21
352.49999999999972
 31
0.0
  0
LINE
  5
109
  8
L-ZISSEN
  6
CONTINUOUS
 62
     7
 10
1156.0
 20
372.49999999999972
 30
0.0
 11
1144.0
 21
372.49999999999972
 31
0.0
  0
LINE
  5
10A
  8
L-TYUSIN
  6
CENTER
 62
     1
 10
1159.9999999999991
 20
358.49999999999972
 30
0.0
 11
1116.1999999999989
 21
358.49999999999972
 31
0.0
  0
LINE
  5
10B
  8
L-ZISSEN
  6
CONTINUOUS
 62
     7
 10
1149.0
 20
337.49999999999972
 30
0.0
 11
1141.0
 21
337.49999999999972
 31
0.0
  0
LINE
  5
10C
  8
L-ZISSEN
  6
CONTINUOUS
 62
     7
 10
1122.0
 20
370.99999999999972
 30
0.0
 11
1122.0
 21
345.99999999999972
 31
0.0
  0
LINE
  5
10D
  8
L-ZISSEN
  6
CONTINUOUS
 62
     7
 10
1126.0
 20
345.99999999999972
 30
0.0
 11
1122.0
 21
345.99999999999972
 31
0.0
  0
LINE
  5
10E
  8
L-ZISSEN
  6
CONTINUOUS
 62
     7
 10
1126.0
 20
370.99999999999972
 30
0.0
 11
1122.0
 21
370.99999999999972
 31
0.0
  0
LINE
  5
10F
  8
L-ZISSEN
  6
CONTINUOUS
 62
     7
 10
1126.0
 20
370.99999999999972
 30
0.0
 11
1126.0
 21
345.99999999999972
 31
0.0
  0
LINE
  5
110
  8
L-ZISSEN
  6
CONTINUOUS
 62
     7
 10
1122.0
 20
361.25
 30
0.0
 11
1120.1999999999989
 21
361.25
 31
0.0
  0
LINE
  5
111
  8
L-ZISSEN
  6
CONTINUOUS
 62
     7
 10
1120.1999999999989
 20
361.25
 30
0.0
 11
1120.1999999999989
 21
355.75
 31
0.0
  0
LINE
  5
112
  8
L-ZISSEN
  6
CONTINUOUS
 62
     7
 10
1120.1999999999989
 20
355.75
 30
0.0
 11
1122.0
 21
355.75
 31
0.0
  0
LINE
  5
113
  8
L-ZISSEN
  6
CONTINUOUS
 62
     7
 10
1126.0
 20
360.99999999999972
 30
0.0
 11
1132.0
 21
360.99999999999972
 31
0.0
  0
LINE
  5
114
  8
L-ZISSEN
  6
CONTINUOUS
 62
     7
 10
1126.0
 20
355.99999999999972
 30
0.0
 11
1132.0
 21
355.99999999999972
 31
0.0
  0
LINE
  5
115
  8
L-ZISSEN
  6
CONTINUOUS
 62
     7
 10
1132.0
 20
351.49999999999972
 30
0.0
 11
1132.0
 21
365.49999999999972
 31
0.0
  0
LINE
  5
116
  8
L-ZISSEN
  6
CONTINUOUS
 62
     7
 10
1138.0
 20
351.49999999999977
 30
0.0
 11
1138.0
 21
365.49999999999972
 31
0.0
  0
LINE
  5
117
  8
L-ZISSEN
  6
CONTINUOUS
 62
     7
 10
1132.0
 20
365.49999999999972
 30
0.0
 11
1138.0
 21
365.49999999999972
 31
0.0
  0
LINE
  5
118
  8
L-ZISSEN
  6
CONTINUOUS
 62
     7
 10
1132.0
 20
351.49999999999972
 30
0.0
 11
1138.0
 21
351.49999999999977
 31
0.0
  0
LINE
  5
119
  8
L-ZISSEN
  6
CONTINUOUS
 62
     7
 10
1138.0
 20
364.49999999999972
 30
0.0
 11
1144.0
 21
364.49999999999972
 31
0.0
  0
LINE
  5
11A
  8
L-ZISSEN
  6
CONTINUOUS
 62
     7
 10
1156.0
 20
352.49999999999972
 30
0.0
 11
1138.0
 21
352.49999999999989
 31
0.0
  0
LINE
  5
11B
  8
L-TYUSIN
  6
CENTER
 62
     1
 10
1145.0
 20
355.49999999999977
 30
0.0
 11
1145.0
 21
333.49999999999972
 31
0.0
  0
LINE
  5
11C
  8
L-TYUSIN
  6
CENTER
 62
     1
 10
667.99999999999977
 20
657.99999999999989
 30
0.0
 11
667.99999999999966
 21
338.0
 31
0.0
  0
LINE
  5
11D
  8
L-ZISSEN
 10
505.0
 20
650.0
 30
0.0
 11
505.0
 21
750.0
 31
0.0
  0
LINE
  5
11E
  8
L-ZISSEN
 10
479.0
 20
750.0
 30
0.0
 11
589.80196097281726
 21
750.0
 31
0.0
  0
LINE
  5
11F
  8
L-ZISSEN
 10
695.0
 20
750.0
 30
0.0
 11
695.0
 21
650.0
 31
0.0
  0
LINE
  5
120
  8
L-TYUSIN
 10
776.99999999999966
 20
700.0
 30
0.0
 11
423.0
 21
700.0
 31
0.0
  0
LINE
  5
121
  8
L-ZISSEN
 10
518.65384435824194
 20
650.0
 30
0.0
 11
510.00000000000023
 21
700.0
 31
0.0
  0
LINE
  5
122
  8
L-ZISSEN
 10
681.34615564175806
 20
650.0
 30
0.0
 11
689.99999999999977
 21
700.0
 31
0.0
  0
LINE
  5
123
  8
L-ZISSEN
 10
689.99999999999955
 20
762.0
 30
0.0
 11
689.99999999999977
 21
700.00000000000023
 31
0.0
  0
LINE
  5
124
  8
L-ZISSEN
 10
1068.6538443582419
 20
650.0
 30
0.0
 11
1060.0
 21
700.0
 31
0.0
  0
LINE
  5
125
  8
L-ZISSEN
 10
1231.3461556417581
 20
650.0
 30
0.0
 11
1240.0
 21
700.0
 31
0.0
  0
LINE
  5
126
  8
L-ZISSEN
 10
1059.9999999999991
 20
750.0
 30
0.0
 11
1240.0000000000009
 21
750.0
 31
0.0
  0
LINE
  5
127
  8
L-TYUSIN
 10
1263.0
 20
700.0
 30
0.0
 11
1019.0
 21
700.0
 31
0.0
  0
LINE
  5
128
  8
L-TYUSIN
  6
CENTER
 62
     1
 10
532.0
 20
658.0
 30
0.0
 11
532.0
 21
338.0
 31
0.0
  0
LINE
  5
129
  8
L-ZISSEN
 10
723.0
 20
748.0
 30
0.0
 11
723.0
 21
651.99999999999977
 31
0.0
  0
LINE
  5
12A
  8
L-ZISSEN
 10
710.0
 20
748.0
 30
0.0
 11
710.0
 21
724.99999999999955
 31
0.0
  0
LINE
  5
12B
  8
L-ZISSEN
 10
720.99999999999989
 20
723.99999999999955
 30
0.0
 11
711.0
 21
723.99999999999955
 31
0.0
  0
ARC
  5
12C
  8
L-ZISSEN
 10
721.0
 20
651.99999999999977
 30
0.0
 40
2.0
 50
270.0
 51
0.0
  0
ARC
  5
12D
  8
L-ZISSEN
 10
721.0
 20
748.0
 30
0.0
 40
2.0
 50
0.0
 51
90.0
  0
ARC
  5
12E
  8
L-ZISSEN
 10
720.99999999999989
 20
721.99999999999955
 30
0.0
 40
2.0
 50
0.0
 51
90.0
  0
ARC
  5
12F
  8
L-ZISSEN
 10
708.0
 20
748.0
 30
0.0
 40
2.0
 50
0.0000000000001018
 51
90.0
  0
ARC
  5
130
  8
L-ZISSEN
 10
711.0
 20
724.99999999999955
 30
0.0
 40
1.0
 50
180.00000000000011
 51
270.0
  0
LINE
  5
131
  8
L-TYUSIN
 10
727.0
 20
736.99999999999966
 30
0.0
 11
687.0
 21
736.99999999999966
 31
0.0
  0
LINE
  5
132
  8
L-ZISSEN
 10
712.5
 20
746.1999999999997
 30
0.0
 11
712.5
 21
727.79999999999984
 31
0.0
  0
LINE
  5
133
  8
L-ZISSEN
 10
712.5
 20
727.79999999999984
 30
0.0
 11
710.0
 21
727.79999999999984
 31
0.0
  0
LINE
  5
134
  8
L-ZISSEN
 10
712.5
 20
746.1999999999997
 30
0.0
 11
710.0
 21
746.1999999999997
 31
0.0
  0
LINE
  5
135
  8
L-ZISSEN
 10
722.5
 20
743.96076951545945
 30
0.0
 11
722.50000000000011
 21
730.03923048453998
 31
0.0
  0
LINE
  5
136
  8
L-ZISSEN
 10
721.89999999999998
 20
745.0000000000008
 30
0.0
 11
712.5
 21
745.0000000000008
 31
0.0
  0
LINE
  5
137
  8
L-ZISSEN
 10
721.89999999999998
 20
745.0000000000008
 30
0.0
 11
722.5
 21
743.96076951545945
 31
0.0
  0
LINE
  5
138
  8
L-ZISSEN
 10
721.89999999999998
 20
728.99999999999864
 30
0.0
 11
722.5
 21
730.03923048453987
 31
0.0
  0
LINE
  5
139
  8
L-ZISSEN
 10
721.89999999999998
 20
728.99999999999864
 30
0.0
 11
712.5
 21
728.99999999999864
 31
0.0
  0
LINE
  5
13A
  8
L-ZISSEN
 10
721.89999999999998
 20
671.00000000000136
 30
0.0
 11
712.5
 21
671.00000000000136
 31
0.0
  0
LINE
  5
13B
  8
L-ZISSEN
 10
721.89999999999998
 20
671.00000000000136
 30
0.0
 11
722.5
 21
669.9607695154599
 31
0.0
  0
LINE
  5
13C
  8
L-ZISSEN
 10
721.89999999999998
 20
654.99999999999898
 30
0.0
 11
722.5
 21
656.03923048454044
 31
0.0
  0
LINE
  5
13D
  8
L-ZISSEN
 10
721.89999999999998
 20
654.99999999999898
 30
0.0
 11
712.5
 21
654.99999999999898
 31
0.0
  0
LINE
  5
13E
  8
L-ZISSEN
 10
722.5
 20
656.03923048454044
 30
0.0
 11
722.50000000000011
 21
669.9607695154599
 31
0.0
  0
LINE
  5
13F
  8
L-ZISSEN
 10
712.5
 20
653.80000000000018
 30
0.0
 11
710.0
 21
653.80000000000018
 31
0.0
  0
LINE
  5
140
  8
L-ZISSEN
 10
712.5
 20
672.20000000000005
 30
0.0
 11
710.0
 21
672.20000000000005
 31
0.0
  0
LINE
  5
141
  8
L-ZISSEN
 10
712.5
 20
653.80000000000018
 30
0.0
 11
712.5
 21
672.20000000000005
 31
0.0
  0
ARC
  5
142
  8
L-ZISSEN
 10
711.0
 20
675.00000000000045
 30
0.0
 40
1.0
 50
90.000000000000014
 51
179.9999999999998
  0
ARC
  5
143
  8
L-ZISSEN
 10
720.99999999999989
 20
678.00000000000045
 30
0.0
 40
2.0
 50
270.0
 51
0.0
  0
LINE
  5
144
  8
L-ZISSEN
 10
720.99999999999989
 20
676.00000000000045
 30
0.0
 11
711.0
 21
676.00000000000045
 31
0.0
  0
ARC
  5
145
  8
L-ZISSEN
 10
708.0
 20
651.99999999999977
 30
0.0
 40
2.0
 50
270.0
 51
359.99999999999977
  0
LINE
  5
146
  8
L-ZISSEN
 10
710.0
 20
651.99999999999977
 30
0.0
 11
710.0
 21
675.00000000000045
 31
0.0
  0
LINE
  5
147
  8
L-TYUSIN
 10
727.0
 20
663.00000000000023
 30
0.0
 11
687.0
 21
663.00000000000023
 31
0.0
  0
LINE
  5
148
  8
L-ZISSEN
 10
490.0
 20
651.99999999999977
 30
0.0
 11
490.0
 21
675.00000000000045
 31
0.0
  0
ARC
  5
149
  8
L-ZISSEN
 10
492.0
 20
651.99999999999977
 30
0.0
 40
2.0
 50
180.00000000000011
 51
270.0
  0
LINE
  5
14A
  8
L-ZISSEN
 10
479.00000000000011
 20
676.00000000000045
 30
0.0
 11
489.0
 21
676.00000000000045
 31
0.0
  0
ARC
  5
14B
  8
L-ZISSEN
 10
479.00000000000011
 20
678.00000000000045
 30
0.0
 40
2.0
 50
180.0
 51
270.0
  0
ARC
  5
14C
  8
L-ZISSEN
 10
489.0
 20
675.00000000000045
 30
0.0
 40
1.0
 50
0.0000000000001342
 51
90.0
  0
LINE
  5
14D
  8
L-ZISSEN
 10
487.5
 20
653.80000000000018
 30
0.0
 11
487.5
 21
672.20000000000005
 31
0.0
  0
LINE
  5
14E
  8
L-ZISSEN
 10
487.5
 20
672.20000000000005
 30
0.0
 11
490.0
 21
672.20000000000005
 31
0.0
  0
LINE
  5
14F
  8
L-ZISSEN
 10
487.5
 20
653.80000000000018
 30
0.0
 11
490.0
 21
653.80000000000018
 31
0.0
  0
LINE
  5
150
  8
L-ZISSEN
 10
477.5
 20
656.03923048454044
 30
0.0
 11
477.5
 21
669.9607695154599
 31
0.0
  0
LINE
  5
151
  8
L-ZISSEN
 10
478.10000000000002
 20
654.99999999999898
 30
0.0
 11
487.5
 21
654.99999999999898
 31
0.0
  0
LINE
  5
152
  8
L-ZISSEN
 10
478.10000000000002
 20
654.99999999999898
 30
0.0
 11
477.5
 21
656.03923048454044
 31
0.0
  0
LINE
  5
153
  8
L-ZISSEN
 10
478.10000000000002
 20
671.00000000000136
 30
0.0
 11
477.5
 21
669.9607695154599
 31
0.0
  0
LINE
  5
154
  8
L-ZISSEN
 10
478.10000000000002
 20
671.00000000000136
 30
0.0
 11
487.5
 21
671.00000000000136
 31
0.0
  0
LINE
  5
155
  8
L-ZISSEN
 10
478.10000000000002
 20
728.99999999999864
 30
0.0
 11
487.5
 21
728.99999999999864
 31
0.0
  0
LINE
  5
156
  8
L-ZISSEN
 10
478.10000000000002
 20
728.99999999999864
 30
0.0
 11
477.5
 21
730.03923048453987
 31
0.0
  0
LINE
  5
157
  8
L-ZISSEN
 10
478.10000000000002
 20
745.0000000000008
 30
0.0
 11
477.5
 21
743.96076951545945
 31
0.0
  0
LINE
  5
158
  8
L-ZISSEN
 10
478.10000000000002
 20
745.0000000000008
 30
0.0
 11
487.5
 21
745.0000000000008
 31
0.0
  0
LINE
  5
159
  8
L-ZISSEN
 10
477.5
 20
743.96076951545945
 30
0.0
 11
477.5
 21
730.03923048453998
 31
0.0
  0
LINE
  5
15A
  8
L-ZISSEN
 10
487.5
 20
746.1999999999997
 30
0.0
 11
490.0
 21
746.1999999999997
 31
0.0
  0
LINE
  5
15B
  8
L-ZISSEN
 10
487.5
 20
727.79999999999984
 30
0.0
 11
490.0
 21
727.79999999999984
 31
0.0
  0
LINE
  5
15C
  8
L-ZISSEN
 10
487.5
 20
746.1999999999997
 30
0.0
 11
487.5
 21
727.79999999999984
 31
0.0
  0
ARC
  5
15D
  8
L-ZISSEN
 10
489.0
 20
724.99999999999955
 30
0.0
 40
1.0
 50
270.0
 51
359.99999999999977
  0
ARC
  5
15E
  8
L-ZISSEN
 10
492.0
 20
748.0
 30
0.0
 40
2.0
 50
90.0
 51
179.9999999999998
  0
ARC
  5
15F
  8
L-ZISSEN
 10
479.00000000000011
 20
721.99999999999955
 30
0.0
 40
2.0
 50
90.0
 51
180.0
  0
ARC
  5
160
  8
L-ZISSEN
 10
479.0
 20
748.0
 30
0.0
 40
2.0
 50
90.0
 51
180.0
  0
ARC
  5
161
  8
L-ZISSEN
 10
479.0
 20
651.99999999999977
 30
0.0
 40
2.0
 50
180.0
 51
270.0
  0
LINE
  5
162
  8
L-ZISSEN
 10
479.00000000000011
 20
723.99999999999955
 30
0.0
 11
489.0
 21
723.99999999999955
 31
0.0
  0
LINE
  5
163
  8
L-ZISSEN
 10
490.0
 20
748.0
 30
0.0
 11
490.0
 21
724.99999999999955
 31
0.0
  0
LINE
  5
164
  8
L-ZISSEN
 10
477.0
 20
748.0
 30
0.0
 11
477.0
 21
651.99999999999977
 31
0.0
  0
LINE
  5
165
  8
L-TYUSIN
 10
473.0
 20
736.99999999999966
 30
0.0
 11
513.0
 21
736.99999999999966
 31
0.0
  0
LINE
  5
166
  8
L-TYUSIN
 10
473.0
 20
663.00000000000023
 30
0.0
 11
513.0
 21
663.00000000000023
 31
0.0
  0
LINE
  5
167
  8
L-ZISSEN
 10
1200.0
 20
737.0
 30
0.0
 11
1200.0
 21
663.00000000000023
 31
0.0
  0
LINE
  5
168
  8
L-ZISSEN
 10
1100.0
 20
737.0
 30
0.0
 11
1100.0
 21
663.00000000000034
 31
0.0
  0
ARC
  5
169
  8
L-ZISSEN
 10
1113.0
 20
663.00000000000034
 30
0.0
 40
13.0
 50
180.0
 51
269.99999999999977
  0
ARC
  5
16A
  8
L-ZISSEN
 10
1187.0
 20
663.00000000000023
 30
0.0
 40
13.0
 50
269.99999999999977
 51
359.99999999999989
  0
ARC
  5
16B
  8
L-ZISSEN
 10
1187.0
 20
737.0
 30
0.0
 40
13.0
 50
359.99999999999977
 51
90.0
  0
ARC
  5
16C
  8
L-ZISSEN
 10
1113.0
 20
737.0
 30
0.0
 40
13.0
 50
90.000000000000057
 51
180.0
  0
LINE
  5
16D
  8
L-TYUSIN
 10
1131.0
 20
663.00000000000045
 30
0.0
 11
1095.0
 21
663.00000000000045
 31
0.0
  0
LINE
  5
16E
  8
L-TYUSIN
  6
CENTER
 62
     1
 10
1113.0
 20
681.00000000000034
 30
0.0
 11
1113.0
 21
644.99999999999989
 31
0.0
  0
ARC
  5
16F
  8
L-ZISSEN
 10
1113.0
 20
663.00000000000045
 30
0.0
 40
12.0
 50
0.0
 51
90.0
  0
LINE
  5
170
  8
L-ZISSEN
 10
1125.786929961281
 20
652.76991050334618
 30
0.0
 11
1125.0
 21
663.00000000000045
 31
0.0
  0
ARC
  5
171
  8
L-ZISSEN
 10
1128.7780934177861
 20
653.00000000000023
 30
0.0
 40
3.0
 50
184.39870535499449
 51
270.0
  0
ARC
  5
172
  8
L-ZISSEN
 10
1103.0
 20
678.77809341778664
 30
0.0
 40
3.0
 50
180.0
 51
265.60129464500551
  0
LINE
  5
173
  8
L-ZISSEN
 10
1102.769910503346
 20
675.78692996128188
 30
0.0
 11
1113.0
 21
675.00000000000102
 31
0.0
  0
CIRCLE
  5
174
  8
L-ZISSEN
 10
1113.0
 20
663.00000000000045
 30
0.0
 40
9.25
  0
CIRCLE
  5
175
  8
L-ZISSEN
 10
1113.0
 20
663.00000000000045
 30
0.0
 40
8.0
  0
POLYLINE
  5
176
  8
L-ZISSEN
 66
     1
 10
0.0
 20
0.0
 30
0.0
 70
     1
  0
VERTEX
  5
A34
  8
L-ZISSEN
 10
1110.6905989232421
 20
667.00000000000045
 30
0.0
  0
VERTEX
  5
A35
  8
L-ZISSEN
 10
1108.381197846483
 20
663.00000000000045
 30
0.0
  0
VERTEX
  5
A36
  8
L-ZISSEN
 10
1110.6905989232421
 20
659.00000000000045
 30
0.0
  0
VERTEX
  5
A37
  8
L-ZISSEN
 10
1115.3094010767591
 20
659.00000000000045
 30
0.0
  0
VERTEX
  5
A38
  8
L-ZISSEN
 10
1117.618802153517
 20
663.00000000000045
 30
0.0
  0
VERTEX
  5
A39
  8
L-ZISSEN
 10
1115.3094010767591
 20
667.00000000000045
 30
0.0
  0
SEQEND
  5
A3A
  8
L-ZISSEN
  0
POLYLINE
  5
17E
  8
L-ZISSEN
 66
     1
 10
0.0
 20
0.0
 30
0.0
 70
     1
  0
VERTEX
  5
A3B
  8
L-ZISSEN
 10
1189.3094010767579
 20
667.00000000000045
 30
0.0
  0
VERTEX
  5
A3C
  8
L-ZISSEN
 10
1191.6188021535161
 20
663.00000000000045
 30
0.0
  0
VERTEX
  5
A3D
  8
L-ZISSEN
 10
1189.3094010767579
 20
659.00000000000045
 30
0.0
  0
VERTEX
  5
A3E
  8
L-ZISSEN
 10
1184.6905989232409
 20
659.00000000000045
 30
0.0
  0
VERTEX
  5
A3F
  8
L-ZISSEN
 10
1182.3811978464821
 20
663.00000000000045
 30
0.0
  0
VERTEX
  5
A40
  8
L-ZISSEN
 10
1184.6905989232409
 20
667.00000000000045
 30
0.0
  0
SEQEND
  5
A41
  8
L-ZISSEN
  0
CIRCLE
  5
186
  8
L-ZISSEN
 10
1186.9999999999991
 20
663.00000000000045
 30
0.0
 40
8.0
  0
CIRCLE
  5
187
  8
L-ZISSEN
 10
1186.9999999999991
 20
663.00000000000045
 30
0.0
 40
9.25
  0
LINE
  5
188
  8
L-ZISSEN
 10
1197.230089496654
 20
675.78692996128188
 30
0.0
 11
1186.9999999999991
 21
675.00000000000102
 31
0.0
  0
ARC
  5
189
  8
L-ZISSEN
 10
1171.221906582213
 20
653.00000000000023
 30
0.0
 40
3.0
 50
270.0
 51
355.60129464500551
  0
LINE
  5
18A
  8
L-ZISSEN
 10
1174.2130700387179
 20
652.76991050334618
 30
0.0
 11
1174.9999999999991
 21
663.00000000000045
 31
0.0
  0
ARC
  5
18B
  8
L-ZISSEN
 10
1186.9999999999991
 20
663.00000000000045
 30
0.0
 40
12.0
 50
90.0
 51
180.0
  0
LINE
  5
18C
  8
L-TYUSIN
  6
CENTER
 62
     1
 10
1186.9999999999991
 20
681.00000000000034
 30
0.0
 11
1186.9999999999991
 21
644.99999999999989
 31
0.0
  0
ARC
  5
18D
  8
L-ZISSEN
 10
1197.0
 20
678.77809341778664
 30
0.0
 40
3.0
 50
274.39870535499438
 51
0.0
  0
LINE
  5
18E
  8
L-TYUSIN
 10
1168.9999999999991
 20
663.00000000000045
 30
0.0
 11
1205.0
 21
663.00000000000045
 31
0.0
  0
LINE
  5
18F
  8
L-TYUSIN
  6
CENTER
 62
     1
 10
1186.9999999999991
 20
718.99999999999966
 30
0.0
 11
1186.9999999999991
 21
755.00000000000023
 31
0.0
  0
ARC
  5
190
  8
L-ZISSEN
 10
1186.9999999999991
 20
736.99999999999955
 30
0.0
 40
12.0
 50
180.0
 51
270.0
  0
LINE
  5
191
  8
L-ZISSEN
 10
1174.2130700387179
 20
747.23008949665393
 30
0.0
 11
1174.9999999999991
 21
736.99999999999955
 31
0.0
  0
ARC
  5
192
  8
L-ZISSEN
 10
1171.221906582213
 20
746.99999999999977
 30
0.0
 40
3.0
 50
4.3987053549944752
 51
89.999999999999986
  0
ARC
  5
193
  8
L-ZISSEN
 10
1128.7780934177861
 20
746.99999999999977
 30
0.0
 40
3.0
 50
90.000000000000014
 51
175.60129464500551
  0
LINE
  5
194
  8
L-ZISSEN
 10
1125.786929961281
 20
747.23008949665393
 30
0.0
 11
1125.0
 21
736.99999999999955
 31
0.0
  0
LINE
  5
195
  8
L-TYUSIN
 10
1168.9999999999991
 20
736.99999999999955
 30
0.0
 11
1205.0
 21
736.99999999999955
 31
0.0
  0
ARC
  5
196
  8
L-ZISSEN
 10
1197.0
 20
721.22190658221336
 30
0.0
 40
3.0
 50
0.0000000000000184
 51
85.601294645005524
  0
LINE
  5
197
  8
L-ZISSEN
 10
1197.230089496654
 20
724.21307003871823
 30
0.0
 11
1186.9999999999991
 21
724.99999999999909
 31
0.0
  0
POLYLINE
  5
198
  8
L-ZISSEN
 66
     1
 10
0.0
 20
0.0
 30
0.0
 70
     1
  0
VERTEX
  5
A42
  8
L-ZISSEN
 10
1189.3094010767579
 20
732.99999999999955
 30
0.0
  0
VERTEX
  5
A43
  8
L-ZISSEN
 10
1191.6188021535161
 20
736.99999999999955
 30
0.0
  0
VERTEX
  5
A44
  8
L-ZISSEN
 10
1189.3094010767579
 20
740.99999999999955
 30
0.0
  0
VERTEX
  5
A45
  8
L-ZISSEN
 10
1184.6905989232409
 20
740.99999999999955
 30
0.0
  0
VERTEX
  5
A46
  8
L-ZISSEN
 10
1182.3811978464821
 20
736.99999999999955
 30
0.0
  0
VERTEX
  5
A47
  8
L-ZISSEN
 10
1184.6905989232409
 20
732.99999999999955
 30
0.0
  0
SEQEND
  5
A48
  8
L-ZISSEN
  0
POLYLINE
  5
1A0
  8
L-ZISSEN
 66
     1
 10
0.0
 20
0.0
 30
0.0
 70
     1
  0
VERTEX
  5
A49
  8
L-ZISSEN
 10
1110.6905989232421
 20
732.99999999999955
 30
0.0
  0
VERTEX
  5
A4A
  8
L-ZISSEN
 10
1108.381197846483
 20
736.99999999999955
 30
0.0
  0
VERTEX
  5
A4B
  8
L-ZISSEN
 10
1110.6905989232421
 20
740.99999999999955
 30
0.0
  0
VERTEX
  5
A4C
  8
L-ZISSEN
 10
1115.3094010767591
 20
740.99999999999955
 30
0.0
  0
VERTEX
  5
A4D
  8
L-ZISSEN
 10
1117.618802153517
 20
736.99999999999955
 30
0.0
  0
VERTEX
  5
A4E
  8
L-ZISSEN
 10
1115.3094010767591
 20
732.99999999999955
 30
0.0
  0
SEQEND
  5
A4F
  8
L-ZISSEN
  0
LINE
  5
1A8
  8
L-ZISSEN
 10
1102.769910503346
 20
724.21307003871823
 30
0.0
 11
1113.0
 21
724.99999999999909
 31
0.0
  0
ARC
  5
1A9
  8
L-ZISSEN
 10
1103.0
 20
721.22190658221336
 30
0.0
 40
3.0
 50
94.398705354994462
 51
179.99999999999989
  0
ARC
  5
1AA
  8
L-ZISSEN
 10
1113.0
 20
736.99999999999955
 30
0.0
 40
12.0
 50
270.0
 51
0.0
  0
LINE
  5
1AB
  8
L-TYUSIN
 10
1131.0
 20
736.99999999999955
 30
0.0
 11
1095.0
 21
736.99999999999955
 31
0.0
  0
CIRCLE
  5
1AC
  8
L-ZISSEN
 10
1113.0
 20
736.99999999999955
 30
0.0
 40
8.0
  0
CIRCLE
  5
1AD
  8
L-ZISSEN
 10
1113.0
 20
736.99999999999955
 30
0.0
 40
9.25
  0
CIRCLE
  5
1AE
  8
L-ZISSEN
 10
1186.9999999999991
 20
736.99999999999955
 30
0.0
 40
9.25
  0
CIRCLE
  5
1AF
  8
L-ZISSEN
 10
1186.9999999999991
 20
736.99999999999955
 30
0.0
 40
8.0
  0
LINE
  5
1B0
  8
L-TYUSIN
  6
CENTER
 62
     1
 10
1113.0
 20
718.99999999999966
 30
0.0
 11
1113.0
 21
755.00000000000023
 31
0.0
  0
CIRCLE
  5
1B1
  8
L-SAISEN
 10
1150.0
 20
700.0
 30
0.0
 40
23.901499999999999
  0
CIRCLE
  5
1B2
  8
L-ZISSEN
 10
1150.0
 20
700.0
 30
0.0
 40
22.422499999999989
  0
LINE
  5
1B3
  8
L-ZISSEN
 10
710.00000000000011
 20
1172.0
 30
0.0
 11
710.00000000000011
 21
1195.0
 31
0.0
  0
ARC
  5
1B4
  8
L-ZISSEN
 10
708.0
 20
1172.0
 30
0.0
 40
2.0
 50
270.0
 51
359.99999999999977
  0
LINE
  5
1B5
  8
L-ZISSEN
 10
720.99999999999989
 20
1196.0
 30
0.0
 11
711.00000000000011
 21
1196.0
 31
0.0
  0
ARC
  5
1B6
  8
L-ZISSEN
 10
720.99999999999989
 20
1198.0
 30
0.0
 40
2.0
 50
270.0
 51
0.0
  0
ARC
  5
1B7
  8
L-ZISSEN
 10
711.00000000000011
 20
1195.0
 30
0.0
 40
1.0
 50
90.000000000000014
 51
179.9999999999998
  0
LINE
  5
1B8
  8
L-ZISSEN
 10
712.5
 20
1173.8
 30
0.0
 11
712.5
 21
1192.2
 31
0.0
  0
LINE
  5
1B9
  8
L-ZISSEN
 10
712.5
 20
1192.2
 30
0.0
 11
710.00000000000011
 21
1192.2
 31
0.0
  0
LINE
  5
1BA
  8
L-ZISSEN
 10
712.5
 20
1173.8
 30
0.0
 11
710.00000000000011
 21
1173.8
 31
0.0
  0
LINE
  5
1BB
  8
L-ZISSEN
 10
722.50000000000011
 20
1176.03923048454
 30
0.0
 11
722.50000000000011
 21
1189.96076951546
 31
0.0
  0
LINE
  5
1BC
  8
L-ZISSEN
 10
721.89999999999998
 20
1174.9999999999991
 30
0.0
 11
712.5
 21
1174.9999999999991
 31
0.0
  0
LINE
  5
1BD
  8
L-ZISSEN
 10
721.89999999999998
 20
1174.9999999999991
 30
0.0
 11
722.50000000000011
 21
1176.03923048454
 31
0.0
  0
LINE
  5
1BE
  8
L-ZISSEN
 10
721.89999999999998
 20
1191.0000000000009
 30
0.0
 11
722.50000000000011
 21
1189.96076951546
 31
0.0
  0
LINE
  5
1BF
  8
L-ZISSEN
 10
721.89999999999998
 20
1191.0000000000009
 30
0.0
 11
712.5
 21
1191.0000000000009
 31
0.0
  0
LINE
  5
1C0
  8
L-ZISSEN
 10
721.89999999999998
 20
1248.999999999998
 30
0.0
 11
712.5
 21
1248.999999999998
 31
0.0
  0
LINE
  5
1C1
  8
L-ZISSEN
 10
721.89999999999998
 20
1248.999999999998
 30
0.0
 11
722.50000000000011
 21
1250.03923048454
 31
0.0
  0
LINE
  5
1C2
  8
L-ZISSEN
 10
721.89999999999998
 20
1265.0000000000009
 30
0.0
 11
722.50000000000011
 21
1263.9607695154591
 31
0.0
  0
LINE
  5
1C3
  8
L-ZISSEN
 10
721.89999999999998
 20
1265.0000000000009
 30
0.0
 11
712.5
 21
1265.0000000000009
 31
0.0
  0
LINE
  5
1C4
  8
L-ZISSEN
 10
722.50000000000011
 20
1263.9607695154591
 30
0.0
 11
722.50000000000011
 21
1250.03923048454
 31
0.0
  0
LINE
  5
1C5
  8
L-ZISSEN
 10
712.5
 20
1266.1999999999989
 30
0.0
 11
710.00000000000011
 21
1266.1999999999989
 31
0.0
  0
LINE
  5
1C6
  8
L-ZISSEN
 10
712.5
 20
1247.799999999999
 30
0.0
 11
710.00000000000011
 21
1247.799999999999
 31
0.0
  0
LINE
  5
1C7
  8
L-ZISSEN
 10
712.5
 20
1266.1999999999989
 30
0.0
 11
712.5
 21
1247.799999999999
 31
0.0
  0
ARC
  5
1C8
  8
L-ZISSEN
 10
711.00000000000011
 20
1244.9999999999991
 30
0.0
 40
1.0
 50
180.00000000000011
 51
270.0
  0
ARC
  5
1C9
  8
L-ZISSEN
 10
708.0
 20
1268.0
 30
0.0
 40
2.0
 50
0.0000000000001018
 51
90.0
  0
ARC
  5
1CA
  8
L-ZISSEN
 10
720.99999999999989
 20
1241.9999999999991
 30
0.0
 40
2.0
 50
0.0
 51
90.0
  0
ARC
  5
1CB
  8
L-ZISSEN
 10
721.0
 20
1268.0
 30
0.0
 40
2.0
 50
0.0
 51
90.0
  0
ARC
  5
1CC
  8
L-ZISSEN
 10
721.0
 20
1172.0
 30
0.0
 40
2.0
 50
270.0
 51
0.0
  0
LINE
  5
1CD
  8
L-ZISSEN
 10
720.99999999999989
 20
1243.9999999999991
 30
0.0
 11
711.00000000000011
 21
1243.9999999999991
 31
0.0
  0
LINE
  5
1CE
  8
L-ZISSEN
 10
710.00000000000011
 20
1268.0
 30
0.0
 11
710.00000000000011
 21
1244.9999999999991
 31
0.0
  0
LINE
  5
1CF
  8
L-ZISSEN
 10
723.00000000000011
 20
1268.0
 30
0.0
 11
723.00000000000011
 21
1172.0
 31
0.0
  0
LINE
  5
1D0
  8
L-ZISSEN
 10
695.00000000000011
 20
1270.0
 30
0.0
 11
695.00000000000011
 21
1170.0
 31
0.0
  0
LINE
  5
1D1
  8
L-ZISSEN
 10
479.0
 20
1270.0
 30
0.0
 11
506.00000000000063
 21
1270.0
 31
0.0
  0
LINE
  5
1D2
  8
L-TYUSIN
 10
727.00000000000011
 20
1256.9999999999991
 30
0.0
 11
689.00000000000011
 21
1256.9999999999991
 31
0.0
  0
LINE
  5
1D3
  8
L-TYUSIN
 10
727.00000000000011
 20
1183.0
 30
0.0
 11
689.00000000000011
 21
1183.0
 31
0.0
  0
LINE
  5
1D4
  8
L-ZISSEN
 10
479.0
 20
1170.0
 30
0.0
 11
506.0000000000004
 21
1170.0
 31
0.0
  0
LINE
  5
1D5
  8
L-ZISSEN
 10
477.00000000000011
 20
1268.0
 30
0.0
 11
477.00000000000011
 21
1172.0
 31
0.0
  0
LINE
  5
1D6
  8
L-ZISSEN
 10
490.00000000000011
 20
1268.0
 30
0.0
 11
490.00000000000011
 21
1244.9999999999991
 31
0.0
  0
LINE
  5
1D7
  8
L-ZISSEN
 10
479.00000000000023
 20
1243.9999999999991
 30
0.0
 11
489.00000000000011
 21
1243.9999999999991
 31
0.0
  0
ARC
  5
1D8
  8
L-ZISSEN
 10
479.0
 20
1172.0
 30
0.0
 40
2.0
 50
180.0
 51
270.0
  0
ARC
  5
1D9
  8
L-ZISSEN
 10
479.0
 20
1268.0
 30
0.0
 40
2.0
 50
90.0
 51
180.0
  0
ARC
  5
1DA
  8
L-ZISSEN
 10
479.00000000000023
 20
1241.9999999999991
 30
0.0
 40
2.0
 50
90.0
 51
180.0
  0
ARC
  5
1DB
  8
L-ZISSEN
 10
492.0
 20
1268.0
 30
0.0
 40
2.0
 50
90.0
 51
179.9999999999998
  0
ARC
  5
1DC
  8
L-ZISSEN
 10
489.00000000000011
 20
1244.9999999999991
 30
0.0
 40
1.0
 50
270.0
 51
359.99999999999977
  0
LINE
  5
1DD
  8
L-ZISSEN
 10
487.5
 20
1266.1999999999989
 30
0.0
 11
487.5
 21
1247.799999999999
 31
0.0
  0
LINE
  5
1DE
  8
L-ZISSEN
 10
487.5
 20
1247.799999999999
 30
0.0
 11
490.00000000000011
 21
1247.799999999999
 31
0.0
  0
LINE
  5
1DF
  8
L-ZISSEN
 10
487.5
 20
1266.1999999999989
 30
0.0
 11
490.00000000000011
 21
1266.1999999999989
 31
0.0
  0
LINE
  5
1E0
  8
L-ZISSEN
 10
477.50000000000011
 20
1263.9607695154591
 30
0.0
 11
477.5
 21
1250.03923048454
 31
0.0
  0
LINE
  5
1E1
  8
L-ZISSEN
 10
478.10000000000008
 20
1265.0000000000009
 30
0.0
 11
487.5
 21
1265.0000000000009
 31
0.0
  0
LINE
  5
1E2
  8
L-ZISSEN
 10
478.10000000000008
 20
1265.0000000000009
 30
0.0
 11
477.50000000000011
 21
1263.9607695154591
 31
0.0
  0
LINE
  5
1E3
  8
L-ZISSEN
 10
478.10000000000008
 20
1248.999999999998
 30
0.0
 11
477.50000000000011
 21
1250.03923048454
 31
0.0
  0
LINE
  5
1E4
  8
L-ZISSEN
 10
478.10000000000008
 20
1248.999999999998
 30
0.0
 11
487.5
 21
1248.999999999998
 31
0.0
  0
LINE
  5
1E5
  8
L-ZISSEN
 10
478.10000000000008
 20
1191.0000000000009
 30
0.0
 11
487.5
 21
1191.0000000000009
 31
0.0
  0
LINE
  5
1E6
  8
L-ZISSEN
 10
478.10000000000008
 20
1191.0000000000009
 30
0.0
 11
477.50000000000011
 21
1189.96076951546
 31
0.0
  0
LINE
  5
1E7
  8
L-ZISSEN
 10
478.10000000000008
 20
1174.9999999999991
 30
0.0
 11
477.50000000000011
 21
1176.03923048454
 31
0.0
  0
LINE
  5
1E8
  8
L-ZISSEN
 10
478.10000000000008
 20
1174.9999999999991
 30
0.0
 11
487.5
 21
1174.9999999999991
 31
0.0
  0
LINE
  5
1E9
  8
L-ZISSEN
 10
477.50000000000011
 20
1176.03923048454
 30
0.0
 11
477.5
 21
1189.96076951546
 31
0.0
  0
LINE
  5
1EA
  8
L-ZISSEN
 10
487.5
 20
1173.8
 30
0.0
 11
490.00000000000011
 21
1173.8
 31
0.0
  0
LINE
  5
1EB
  8
L-ZISSEN
 10
487.5
 20
1192.2
 30
0.0
 11
490.00000000000011
 21
1192.2
 31
0.0
  0
LINE
  5
1EC
  8
L-ZISSEN
 10
487.5
 20
1173.8
 30
0.0
 11
487.5
 21
1192.2
 31
0.0
  0
ARC
  5
1ED
  8
L-ZISSEN
 10
489.00000000000011
 20
1195.0
 30
0.0
 40
1.0
 50
0.0000000000001342
 51
90.0
  0
ARC
  5
1EE
  8
L-ZISSEN
 10
479.00000000000023
 20
1198.0
 30
0.0
 40
2.0
 50
180.0
 51
270.0
  0
LINE
  5
1EF
  8
L-ZISSEN
 10
479.00000000000023
 20
1196.0
 30
0.0
 11
489.00000000000011
 21
1196.0
 31
0.0
  0
ARC
  5
1F0
  8
L-ZISSEN
 10
492.0
 20
1172.0
 30
0.0
 40
2.0
 50
180.00000000000011
 51
270.0
  0
LINE
  5
1F1
  8
L-ZISSEN
 10
490.00000000000011
 20
1172.0
 30
0.0
 11
490.00000000000011
 21
1195.0
 31
0.0
  0
LINE
  5
1F2
  8
L-ZISSEN
 10
505.0
 20
1170.0
 30
0.0
 11
505.0
 21
1270.0
 31
0.0
  0
LINE
  5
1F3
  8
L-TYUSIN
 10
473.00000000000011
 20
1256.9999999999991
 30
0.0
 11
511.0
 21
1256.9999999999991
 31
0.0
  0
LINE
  5
1F4
  8
L-TYUSIN
 10
473.00000000000011
 20
1183.0
 30
0.0
 11
511.0
 21
1183.0
 31
0.0
  0
LINE
  5
1F5
  8
L-TYUSIN
 10
731.00000000000011
 20
1220.0
 30
0.0
 11
469.00000000000011
 21
1220.0
 31
0.0
  0
LINE
  5
1F6
  8
L-ZISSEN
 10
510.0000000000004
 20
1145.0
 30
0.0
 11
510.0000000000004
 21
1310.0
 31
0.0
  0
LINE
  5
1F7
  8
L-ZISSEN
 10
689.99999999999955
 20
1145.0
 30
0.0
 11
689.99999999999955
 21
1310.0
 31
0.0
  0
ARC
  5
1F8
  8
L-ZISSEN
 10
525.00000000000045
 20
1145.0
 30
0.0
 40
15.0
 50
180.0
 51
270.0
  0
ARC
  5
1F9
  8
L-ZISSEN
 10
674.99999999999955
 20
1145.0
 30
0.0
 40
15.0
 50
270.0
 51
0.0
  0
ARC
  5
1FA
  8
L-ZISSEN
 10
525.00000000000045
 20
1295.0
 30
0.0
 40
15.0
 50
89.999999999999957
 51
180.0
  0
ARC
  5
1FB
  8
L-ZISSEN
 10
674.99999999999955
 20
1294.9999999999991
 30
0.0
 40
15.0
 50
0.0
 51
89.999999999999943
  0
ARC
  5
1FC
  8
L-ZISSEN
 10
506.0000000000004
 20
1166.0
 30
0.0
 40
4.0
 50
0.0
 51
90.0
  0
ARC
  5
1FD
  8
L-ZISSEN
 10
506.00000000000051
 20
1274.0
 30
0.0
 40
4.0
 50
270.00000000000023
 51
0.0
  0
ARC
  5
1FE
  8
L-ZISSEN
 10
693.99999999999955
 20
1274.0
 30
0.0
 40
4.0
 50
180.0
 51
269.99999999999977
  0
LINE
  5
1FF
  8
L-ZISSEN
 10
721.0
 20
1270.0
 30
0.0
 11
693.99999999999943
 21
1270.0
 31
0.0
  0
ARC
  5
200
  8
L-ZISSEN
 10
693.99999999999955
 20
1166.0
 30
0.0
 40
4.0
 50
90.0
 51
180.0
  0
LINE
  5
201
  8
L-ZISSEN
 10
721.0
 20
1170.0
 30
0.0
 11
693.99999999999955
 21
1170.0
 31
0.0
  0
LINE
  5
202
  8
L-ZISSEN
 10
428.0
 20
725.0
 30
0.0
 11
477.0
 21
725.0
 31
0.0
  0
LINE
  5
203
  8
L-ZISSEN
 10
771.99999999999977
 20
674.99999999999989
 30
0.0
 11
723.0
 21
675.0
 31
0.0
  0
LINE
  5
204
  8
L-ZISSEN
 10
427.0
 20
675.99999999999977
 30
0.0
 11
427.0
 21
724.0
 31
0.0
  0
LINE
  5
205
  8
L-ZISSEN
 10
772.99999999999977
 20
675.99999999999977
 30
0.0
 11
772.99999999999977
 21
723.99999999999989
 31
0.0
  0
LINE
  5
206
  8
L-ZISSEN
 10
477.0
 20
674.99999999999989
 30
0.0
 11
428.0
 21
674.99999999999989
 31
0.0
  0
LINE
  5
207
  8
L-ZISSEN
 10
723.0
 20
724.99999999999989
 30
0.0
 11
771.99999999999977
 21
724.99999999999989
 31
0.0
  0
LINE
  5
208
  8
L-ZISSEN
 10
428.0
 20
725.0
 30
0.0
 11
427.0
 21
724.0
 31
0.0
  0
LINE
  5
209
  8
L-ZISSEN
 10
427.0
 20
675.99999999999977
 30
0.0
 11
428.0
 21
674.99999999999989
 31
0.0
  0
LINE
  5
20A
  8
L-ZISSEN
 10
771.99999999999977
 20
724.99999999999989
 30
0.0
 11
772.99999999999977
 21
723.99999999999989
 31
0.0
  0
LINE
  5
20B
  8
L-ZISSEN
 10
772.99999999999977
 20
675.99999999999977
 30
0.0
 11
771.99999999999977
 21
674.99999999999989
 31
0.0
  0
LINE
  5
20C
  8
L-TYUSIN
  6
CENTER
 62
     1
 10
451.0
 20
713.0
 30
0.0
 11
451.0
 21
687.0
 31
0.0
  0
ARC
  5
20D
  8
L-ZISSEN
 10
454.0
 20
700.0
 30
0.0
 40
7.0
 50
269.99999999999972
 51
90.0
  0
ARC
  5
20E
  8
L-ZISSEN
 10
448.0
 20
700.0
 30
0.0
 40
7.0
 50
90.0
 51
270.00000000000023
  0
LINE
  5
20F
  8
L-ZISSEN
 10
454.0
 20
707.0
 30
0.0
 11
448.0
 21
707.0
 31
0.0
  0
LINE
  5
210
  8
L-ZISSEN
 10
448.0
 20
693.0
 30
0.0
 11
454.0
 21
693.0
 31
0.0
  0
LINE
  5
211
  8
L-ZISSEN
 10
752.0
 20
693.0
 30
0.0
 11
746.0
 21
693.0
 31
0.0
  0
LINE
  5
212
  8
L-ZISSEN
 10
746.0
 20
707.0
 30
0.0
 11
752.0
 21
707.0
 31
0.0
  0
ARC
  5
213
  8
L-ZISSEN
 10
752.0
 20
700.0
 30
0.0
 40
7.0
 50
269.99999999999972
 51
90.0
  0
ARC
  5
214
  8
L-ZISSEN
 10
746.0
 20
700.0
 30
0.0
 40
7.0
 50
90.0
 51
270.00000000000023
  0
LINE
  5
215
  8
L-ZISSEN
 10
1257.0
 20
674.99999999999704
 30
0.0
 11
1240.0
 21
674.99999999999704
 31
0.0
  0
LINE
  5
216
  8
L-ZISSEN
 10
1240.0
 20
724.99999999999693
 30
0.0
 11
1257.0000000000009
 21
724.99999999999693
 31
0.0
  0
LINE
  5
217
  8
L-ZISSEN
 10
1257.0000000000009
 20
724.99999999999693
 30
0.0
 11
1257.0
 21
674.99999999999704
 31
0.0
  0
LINE
  5
218
  8
L-ZISSEN
 10
1253.8
 20
724.99999999999693
 30
0.0
 11
1253.8
 21
674.99999999999704
 31
0.0
  0
LINE
  5
219
  8
L-ZISSEN
 10
1253.8
 20
723.99999999999693
 30
0.0
 11
1257.0000000000009
 21
723.99999999999693
 31
0.0
  0
LINE
  5
21A
  8
L-ZISSEN
 10
1253.8
 20
676.00000000000296
 30
0.0
 11
1257.0000000000009
 21
676.00000000000307
 31
0.0
  0
LINE
  5
21B
  8
L-ZISSEN
 10
427.0000000000004
 20
1323.799999999999
 30
0.0
 11
427.0000000000004
 21
1327.0
 31
0.0
  0
LINE
  5
21C
  8
L-TYUSIN
  6
CENTER
 62
     1
 10
451.0000000000004
 20
1332.0
 30
0.0
 11
451.00000000000028
 21
1317.799999999999
 31
0.0
  0
LINE
  5
21D
  8
L-ZISSEN
 10
773.00000000000011
 20
1323.799999999999
 30
0.0
 11
773.00000000000011
 21
1326.9999999999991
 31
0.0
  0
LINE
  5
21E
  8
L-ZISSEN
 10
427.0000000000004
 20
1327.0
 30
0.0
 11
497.31189994596758
 21
1327.0
 31
0.0
  0
LINE
  5
21F
  8
L-ZISSEN
 10
427.0000000000004
 20
1323.799999999999
 30
0.0
 11
496.00000000000011
 21
1323.799999999999
 31
0.0
  0
LINE
  5
220
  8
L-ZISSEN
 10
511.31189994596781
 20
1313.2
 30
0.0
 11
688.68810005403191
 21
1313.1999999999989
 31
0.0
  0
LINE
  5
221
  8
L-ZISSEN
 10
510.00000000000028
 20
1310.0
 30
0.0
 11
496.0
 21
1323.799999999999
 31
0.0
  0
LINE
  5
222
  8
L-ZISSEN
 10
511.31189994596781
 20
1313.1999999999989
 30
0.0
 11
497.3118999459677
 21
1327.0
 31
0.0
  0
LINE
  5
223
  8
L-TYUSIN
  6
CENTER
 62
     1
 10
748.99999999999955
 20
1332.0
 30
0.0
 11
748.99999999999955
 21
1317.799999999999
 31
0.0
  0
LINE
  5
224
  8
L-ZISSEN
 10
772.99999999999955
 20
1323.799999999999
 30
0.0
 11
772.99999999999955
 21
1327.0
 31
0.0
  0
LINE
  5
225
  8
L-ZISSEN
 10
772.99999999999955
 20
1327.0
 30
0.0
 11
702.68810005403225
 21
1327.0
 31
0.0
  0
LINE
  5
226
  8
L-ZISSEN
 10
772.99999999999955
 20
1323.799999999999
 30
0.0
 11
703.99999999999989
 21
1323.799999999999
 31
0.0
  0
LINE
  5
227
  8
L-ZISSEN
 10
688.68810005403236
 20
1313.1999999999989
 30
0.0
 11
702.68810005403225
 21
1327.0
 31
0.0
  0
LINE
  5
228
  8
L-ZISSEN
 10
689.99999999999955
 20
1310.0
 30
0.0
 11
703.99999999999989
 21
1323.799999999999
 31
0.0
  0
LINE
  5
229
  8
L-TYUSIN
 10
660.0
 20
1331.9999999999991
 30
0.0
 11
660.00000000000011
 21
1303.9999999999991
 31
0.0
  0
LINE
  5
22A
  8
L-ZISSEN
 10
669.19999999999993
 20
1315.6999999999989
 30
0.0
 11
669.19999999999993
 21
1313.1999999999989
 31
0.0
  0
LINE
  5
22B
  8
L-ZISSEN
 10
650.79999999999995
 20
1315.6999999999989
 30
0.0
 11
650.79999999999995
 21
1313.1999999999989
 31
0.0
  0
LINE
  5
22C
  8
L-ZISSEN
 10
549.19999999999993
 20
1315.6999999999989
 30
0.0
 11
549.19999999999993
 21
1313.1999999999989
 31
0.0
  0
LINE
  5
22D
  8
L-ZISSEN
 10
530.79999999999995
 20
1315.6999999999989
 30
0.0
 11
530.79999999999995
 21
1313.1999999999989
 31
0.0
  0
LINE
  5
22E
  8
L-ZISSEN
 10
549.81495457622373
 20
1315.6999999999989
 30
0.0
 11
530.18504542377616
 21
1315.6999999999989
 31
0.0
  0
LINE
  5
22F
  8
L-TYUSIN
 10
540.0
 20
1331.9999999999991
 30
0.0
 11
540.0
 21
1303.9999999999991
 31
0.0
  0
LINE
  5
230
  8
L-TYUSIN
  6
CENTER
 62
     1
 10
660.0
 20
708.00000000000227
 30
0.0
 11
660.0
 21
691.9999999999975
 31
0.0
  0
CIRCLE
  5
231
  8
L-ZISSEN
 10
660.0
 20
700.0
 30
0.0
 40
4.1879999999999988
  0
CIRCLE
  5
232
  8
L-SAISEN
 10
660.0
 20
700.0
 30
0.0
 40
5.0
  0
CIRCLE
  5
233
  8
L-SAISEN
 10
540.0
 20
700.0
 30
0.0
 40
5.0
  0
CIRCLE
  5
234
  8
L-ZISSEN
 10
540.0
 20
700.0
 30
0.0
 40
4.1879999999999988
  0
LINE
  5
235
  8
L-TYUSIN
  6
CENTER
 62
     1
 10
540.0
 20
708.00000000000227
 30
0.0
 11
540.0
 21
691.9999999999975
 31
0.0
  0
LINE
  5
236
  8
L-ZISSEN
 10
510.00000000000063
 20
799.0
 30
0.0
 11
587.63068312315158
 21
799.0
 31
0.0
  0
LINE
  5
237
  8
L-ZISSEN
 10
513.00000000000045
 20
765.0
 30
0.0
 11
574.92012759203215
 21
764.99999999999977
 31
0.0
  0
ARC
  5
238
  8
L-ZISSEN
 10
600.0
 20
1220.0
 30
0.0
 40
69.0
 50
308.04406916339701
 51
332.72038726402172
  0
ARC
  5
239
  8
L-ZISSEN
 10
600.0
 20
1220.0
 30
0.0
 40
86.0
 50
342.02259133250629
 51
17.977408667493709
  0
LINE
  5
23A
  8
L-ZISSEN
 10
677.04544113703253
 20
1250.0
 30
0.0
 11
629.78352578449642
 21
1250.0
 31
0.0
  0
LINE
  5
23B
  8
L-ZISSEN
 10
677.04544113703253
 20
1190.0
 30
0.0
 11
626.00000000000011
 21
1190.0
 31
0.0
  0
LINE
  5
23C
  8
L-TYUSIN
 10
626.00000000000011
 20
1255.9999999999991
 30
0.0
 11
626.00000000000011
 21
1184.0
 31
0.0
  0
LINE
  5
23D
  8
L-ZISSEN
 10
608.0
 20
1132.0
 30
0.0
 11
608.0
 21
1187.5038463814569
 31
0.0
  0
LINE
  5
23E
  8
L-ZISSEN
 10
592.0
 20
1132.0
 30
0.0
 11
592.00000000000023
 21
1211.9999999999991
 31
0.0
  0
ARC
  5
23F
  8
L-ZISSEN
 10
594.00000000000023
 20
1307.9999999999991
 30
0.0
 40
2.0
 50
89.999999999999588
 51
179.99999999999989
  0
ARC
  5
240
  8
L-ZISSEN
 10
606.00000000000034
 20
1307.9999999999991
 30
0.0
 40
2.0
 50
359.99999999999989
 51
89.999999999999545
  0
ARC
  5
241
  8
L-ZISSEN
 10
606.0
 20
1132.0
 30
0.0
 40
2.0
 50
270.0
 51
359.99999999999977
  0
ARC
  5
242
  8
L-ZISSEN
 10
594.00000000000011
 20
1132.0
 30
0.0
 40
2.0
 50
179.99999999999989
 51
270.0
  0
LINE
  5
243
  8
L-ZISSEN
 10
512.00000000000045
 20
1212.0
 30
0.0
 11
592.00000000000023
 21
1211.9999999999991
 31
0.0
  0
ARC
  5
244
  8
L-ZISSEN
 10
512.00000000000045
 20
1214.0
 30
0.0
 40
2.0
 50
180.0
 51
269.99999999999977
  0
LINE
  5
245
  8
L-ZISSEN
 10
570.0
 20
1293.0
 30
0.0
 11
586.45076499411527
 21
1292.9999999999991
 31
0.0
  0
LINE
  5
246
  8
L-TYUSIN
 10
540.0
 20
1286.0
 30
0.0
 11
540.0
 21
1220.0
 31
0.0
  0
LINE
  5
247
  8
L-TYUSIN
 10
573.00000000000091
 20
1253.0
 30
0.0
 11
506.99999999999898
 21
1253.0
 31
0.0
  0
ARC
  5
248
  8
L-ZISSEN
 10
540.0
 20
1253.0
 30
0.0
 40
26.0
 50
99.867679719930962
 51
180.0
  0
LINE
  5
249
  8
L-ZISSEN
 10
517.31220462267152
 20
1220.0
 30
0.0
 11
563.0
 21
1220.0
 31
0.0
  0
LINE
  5
24A
  8
L-ZISSEN
 10
513.99999999999898
 20
1253.0
 30
0.0
 11
512.78321113667118
 21
1232.9229837550799
 31
0.0
  0
ARC
  5
24B
  8
L-ZISSEN
 10
548.0
 20
1284.0
 30
0.0
 40
5.0
 50
90.0
 51
134.99999999999969
  0
LINE
  5
24C
  8
L-ZISSEN
 10
548.0
 20
1289.0
 30
0.0
 11
561.0557280900041
 21
1289.0
 31
0.0
  0
LINE
  5
24D
  8
L-ZISSEN
 10
544.46446609405848
 20
1287.5355339059411
 30
0.0
 11
535.54429218730434
 21
1278.6153599991869
 31
0.0
  0
ARC
  5
24E
  8
L-ZISSEN
 10
589.00000000000023
 20
1296.0
 30
0.0
 40
3.0
 50
270.0
 51
0.0
  0
LINE
  5
24F
  8
L-TYUSIN
 10
627.99999999999852
 20
1267.0
 30
0.0
 11
572.00000000000261
 21
1267.0
 31
0.0
  0
ARC
  5
250
  8
L-ZISSEN
 10
600.0
 20
1267.0
 30
0.0
 40
22.0
 50
0.0
 51
99.526505055052681
  0
LINE
  5
251
  8
L-ZISSEN
 10
600.0
 20
1289.0
 30
0.0
 11
595.00000000000352
 21
1289.0
 31
0.0
  0
LINE
  5
252
  8
L-ZISSEN
 10
592.00000000000023
 20
1296.0
 30
0.0
 11
592.00000000000023
 21
1307.9999999999991
 31
0.0
  0
ARC
  5
253
  8
L-ZISSEN
 10
600.0
 20
1220.0
 30
0.0
 40
69.0
 50
188.787937322636
 51
231.95593083660239
  0
LINE
  5
254
  8
L-ZISSEN
 10
608.00000000000034
 20
1287.4939015319189
 30
0.0
 11
608.00000000000034
 21
1307.9999999999991
 31
0.0
  0
LINE
  5
255
  8
L-TYUSIN
 10
562.50000000000023
 20
1179.0000000000009
 30
0.0
 11
562.50000000000023
 21
1110.2499999999991
 31
0.0
  0
LINE
  5
256
  8
L-TYUSIN
 10
570.0
 20
1174.0
 30
0.0
 11
570.0
 21
1144.0
 31
0.0
  0
ARC
  5
257
  8
L-ZISSEN
 10
570.0
 20
1159.0
 30
0.0
 40
12.0
 50
163.35211737477539
 51
324.2716612302624
  0
ARC
  5
258
  8
L-ZISSEN
 10
600.0
 20
1220.0
 30
0.0
 40
69.0
 50
255.66784776843591
 51
261.21206267736397
  0
ARC
  5
259
  8
L-ZISSEN
 10
582.17692207898597
 20
1150.2408579939411
 30
0.0
 40
3.0
 50
75.667847768435394
 51
144.27166123026331
  0
ARC
  5
25A
  8
L-ZISSEN
 10
555.62874768946244
 20
1163.297337201903
 30
0.0
 40
3.0
 50
343.35211737477618
 51
51.955930836601723
  0
ARC
  5
25B
  8
L-ZISSEN
 10
589.00000000000011
 20
1148.8452390911191
 30
0.0
 40
3.0
 50
0.0
 51
81.212062677364415
  0
ARC
  5
25C
  8
L-ZISSEN
 10
611.0
 20
1148.8452390911191
 30
0.0
 40
3.0
 50
98.787937322635585
 51
180.0
  0
ARC
  5
25D
  8
L-ZISSEN
 10
600.0
 20
1220.0
 30
0.0
 40
69.0
 50
278.78793732263603
 51
284.33215223156412
  0
ARC
  5
25E
  8
L-ZISSEN
 10
617.82307792101403
 20
1150.2408579939411
 30
0.0
 40
3.0
 50
35.728338769736681
 51
104.33215223156461
  0
ARC
  5
25F
  8
L-ZISSEN
 10
630.00000000000011
 20
1159.0
 30
0.0
 40
12.0
 50
215.72833876973749
 51
16.647882625224561
  0
ARC
  5
260
  8
L-ZISSEN
 10
644.37125231053756
 20
1163.297337201903
 30
0.0
 40
3.0
 50
128.04406916339821
 51
196.6478826252237
  0
LINE
  5
261
  8
L-TYUSIN
 10
630.00000000000011
 20
1174.0
 30
0.0
 11
630.00000000000011
 21
1144.0
 31
0.0
  0
LINE
  5
262
  8
L-TYUSIN
 10
615.0
 20
1159.0
 30
0.0
 11
645.00000000000011
 21
1159.0
 31
0.0
  0
ARC
  5
263
  8
L-ZISSEN
 10
644.37125231053756
 20
1276.7026627980961
 30
0.0
 40
3.0
 50
163.35211737477621
 51
231.95593083660171
  0
ARC
  5
264
  8
L-ZISSEN
 10
630.00000000000011
 20
1281.0
 30
0.0
 40
12.0
 50
343.35211737477539
 51
144.2716612302624
  0
ARC
  5
265
  8
L-ZISSEN
 10
617.82307792101403
 20
1289.7591420060589
 30
0.0
 40
3.0
 50
255.66784776843539
 51
324.27166123026331
  0
ARC
  5
266
  8
L-ZISSEN
 10
600.0
 20
1220.0
 30
0.0
 40
69.0
 50
75.667847768435848
 51
83.342037190683669
  0
ARC
  5
267
  8
L-ZISSEN
 10
600.0
 20
1220.0
 30
0.0
 40
69.0
 50
27.279612735978318
 51
51.955930836602093
  0
ARC
  5
268
  8
L-ZISSEN
 10
663.99218702310407
 20
1253.0
 30
0.0
 40
3.0
 50
207.2796127359793
 51
270.0
  0
ARC
  5
269
  8
L-ZISSEN
 10
663.99218702310418
 20
1187.0
 30
0.0
 40
3.0
 50
90.0
 51
152.72038726402209
  0
ARC
  5
26A
  8
L-ZISSEN
 10
677.04544113703253
 20
1245.0
 30
0.0
 40
5.0
 50
17.977408667493471
 51
90.0
  0
ARC
  5
26B
  8
L-ZISSEN
 10
677.04544113703253
 20
1195.0
 30
0.0
 40
5.0
 50
270.0
 51
342.02259133250669
  0
LINE
  5
26C
  8
L-ZISSEN
 10
592.0
 20
1237.0
 30
0.0
 11
592.0
 21
1225.999999999995
 31
0.0
  0
LINE
  5
26D
  8
L-ZISSEN
 10
579.947784172713
 20
1245.0
 30
0.0
 11
571.0
 21
1245.0
 31
0.0
  0
ARC
  5
26E
  8
L-ZISSEN
 10
589.0
 20
1237.0
 30
0.0
 40
3.0
 50
0.0
 51
90.0
  0
ARC
  5
26F
  8
L-ZISSEN
 10
600.0
 20
1220.0
 30
0.0
 40
10.0
 50
143.13010235417829
 51
248.84164970722171
  0
ARC
  5
270
  8
L-ZISSEN
 10
595.30769230769226
 20
1207.8763764277869
 30
0.0
 40
3.0
 50
21.55428157639874
 51
68.841649707222658
  0
ARC
  5
271
  8
L-ZISSEN
 10
613.00000000000011
 20
1187.5038463814569
 30
0.0
 40
5.0
 50
68.196252010616604
 51
180.0
  0
LINE
  5
272
  8
L-ZISSEN
 10
568.0
 20
1225.0
 30
0.0
 11
568.0
 21
1242.0
 31
0.0
  0
ARC
  5
273
  8
L-ZISSEN
 10
563.0
 20
1225.0
 30
0.0
 40
5.0
 50
270.0
 51
0.0
  0
ARC
  5
274
  8
L-ZISSEN
 10
571.0
 20
1242.0
 30
0.0
 40
3.0
 50
90.0
 51
180.0
  0
LINE
  5
275
  8
L-ZISSEN
 10
626.99999999999557
 20
1257.5749789194699
 30
0.0
 11
626.99999999999534
 21
1254.4818792991341
 31
0.0
  0
ARC
  5
276
  8
L-ZISSEN
 10
626.99999999999977
 20
1267.6602540378369
 30
0.0
 40
5.0
 50
180.00000000000389
 51
228.19184213952801
  0
ARC
  5
277
  8
L-ZISSEN
 10
631.99999999999534
 20
1254.4818792991341
 30
0.0
 40
5.0
 50
180.0
 51
260.12911039386819
  0
ARC
  5
278
  8
L-ZISSEN
 10
517.31220462267152
 20
1225.0
 30
0.0
 40
5.0
 50
176.5317707410845
 51
270.0
  0
LINE
  5
279
  8
L-ZISSEN
 10
663.9999999999992
 20
1215.0
 30
0.0
 11
663.9999999999992
 21
1225.0
 31
0.0
  0
LINE
  5
27A
  8
L-ZISSEN
 10
668.9999999999992
 20
1228.5
 30
0.0
 11
668.9999999999992
 21
1225.0
 31
0.0
  0
LINE
  5
27B
  8
L-ZISSEN
 10
663.9999999999992
 20
1225.0
 30
0.0
 11
668.9999999999992
 21
1225.0
 31
0.0
  0
LINE
  5
27C
  8
L-ZISSEN
 10
663.9999999999992
 20
1215.0
 30
0.0
 11
668.9999999999992
 21
1215.0
 31
0.0
  0
LINE
  5
27D
  8
L-ZISSEN
 10
668.9999999999992
 20
1211.5
 30
0.0
 11
676.9999999999992
 21
1220.0
 31
0.0
  0
LINE
  5
27E
  8
L-ZISSEN
 10
668.9999999999992
 20
1228.5
 30
0.0
 11
676.9999999999992
 21
1220.0
 31
0.0
  0
LINE
  5
27F
  8
L-ZISSEN
 10
668.9999999999992
 20
1215.0
 30
0.0
 11
668.9999999999992
 21
1211.5
 31
0.0
  0
LINE
  5
280
  8
L-ZISSEN
 10
534.46533723727862
 20
775.0
 30
0.0
 11
573.00000000000114
 21
775.0
 31
0.0
  0
ARC
  5
281
  8
L-ZISSEN
 10
528.84523909111931
 20
1209.0
 30
0.0
 40
3.0
 50
8.7879373226367345
 51
90.0
  0
LINE
  5
282
  8
L-ZISSEN
 10
558.0
 20
772.00000000000011
 30
0.0
 11
558.0
 21
767.99999999999977
 31
0.0
  0
LINE
  5
283
  8
L-ZISSEN
 10
626.99999999999886
 20
775.0
 30
0.0
 11
658.32584644081749
 21
775.0
 31
0.0
  0
LINE
  5
284
  8
L-ZISSEN
 10
625.07987240796774
 20
765.0
 30
0.0
 11
686.99999999999955
 21
765.0
 31
0.0
  0
ARC
  5
285
  8
L-ZISSEN
 10
513.00000000000045
 20
762.0
 30
0.0
 40
3.0
 50
89.999999999999915
 51
180.0
  0
ARC
  5
286
  8
L-ZISSEN
 10
534.46533723727862
 20
772.00000000000011
 30
0.0
 40
3.0
 50
90.0
 51
98.923315860973105
  0
ARC
  5
287
  8
L-ZISSEN
 10
561.0
 20
772.00000000000011
 30
0.0
 40
3.0
 50
90.0
 51
180.0
  0
ARC
  5
288
  8
L-ZISSEN
 10
555.0
 20
767.99999999999977
 30
0.0
 40
3.0
 50
270.0
 51
0.000000000000229
  0
ARC
  5
289
  8
L-ZISSEN
 10
645.0
 20
767.99999999999977
 30
0.0
 40
3.0
 50
179.99999999999969
 51
270.0
  0
ARC
  5
28A
  8
L-ZISSEN
 10
639.00000000000011
 20
772.00000000000011
 30
0.0
 40
3.0
 50
0.000000000000007
 51
90.0
  0
LINE
  5
28B
  8
L-ZISSEN
 10
642.00000000000011
 20
772.00000000000011
 30
0.0
 11
642.0
 21
767.99999999999977
 31
0.0
  0
LINE
  5
28C
  8
L-ZISSEN
 10
661.32584644081749
 20
772.0
 30
0.0
 11
661.32584644081749
 21
768.0
 31
0.0
  0
LINE
  5
28D
  8
L-ZISSEN
 10
685.99999999999989
 20
790.0
 30
0.0
 11
685.99999999999989
 21
765.0
 31
0.0
  0
LINE
  5
28E
  8
L-ZISSEN
 10
655.9999999999992
 20
793.0
 30
0.0
 11
682.99999999999989
 21
793.0
 31
0.0
  0
ARC
  5
28F
  8
L-ZISSEN
 10
682.99999999999989
 20
790.0
 30
0.0
 40
3.0
 50
0.0
 51
90.0
  0
ARC
  5
290
  8
L-ZISSEN
 10
686.99999999999955
 20
762.0
 30
0.0
 40
3.0
 50
0.0000000000002417
 51
90.000000000000057
  0
ARC
  5
291
  8
L-ZISSEN
 10
658.32584644081749
 20
772.0
 30
0.0
 40
3.0
 50
0.0
 51
90.0
  0
LINE
  5
292
  8
L-ZISSEN
 10
655.9999999999992
 20
805.0
 30
0.0
 11
655.9999999999992
 21
793.0
 31
0.0
  0
LINE
  5
293
  8
L-ZISSEN
 10
513.00000000000057
 20
783.0
 30
0.0
 11
574.21240608354594
 21
783.0
 31
0.0
  0
ARC
  5
294
  8
L-ZISSEN
 10
513.00000000000057
 20
780.0
 30
0.0
 40
3.0
 50
90.0
 51
180.0
  0
LINE
  5
295
  8
L-ZISSEN
 10
655.9999999999992
 20
793.0
 30
0.0
 11
642.99999999999943
 21
780.00000000000011
 31
0.0
  0
ARC
  5
296
  8
L-ZISSEN
 10
1236.9999999999991
 20
762.0
 30
0.0
 40
3.0
 50
0.0000000000002417
 51
90.000000000000057
  0
LINE
  5
297
  8
L-ZISSEN
 10
1081.4653372372779
 20
765.00000000000011
 30
0.0
 11
1071.514093386148
 21
765.00000000000011
 31
0.0
  0
ARC
  5
298
  8
L-ZISSEN
 10
1063.0
 20
762.0
 30
0.0
 40
3.0
 50
89.999999999999915
 51
180.0
  0
LINE
  5
299
  8
L-ZISSEN
 10
1179.9999999999991
 20
775.00000000000023
 30
0.0
 11
1211.0
 21
775.0
 31
0.0
  0
LINE
  5
29A
  8
L-ZISSEN
 10
1089.0
 20
775.00000000000023
 30
0.0
 11
1117.0
 21
775.00000000000023
 31
0.0
  0
LINE
  5
29B
  8
L-ZISSEN
 10
1063.0
 20
765.00000000000011
 30
0.0
 11
1236.9999999999991
 21
764.99999999999977
 31
0.0
  0
ARC
  5
29C
  8
L-ZISSEN
 10
664.3258464408176
 20
768.0
 30
0.0
 40
3.0
 50
180.0
 51
270.0
  0
LINE
  5
29D
  8
L-ZISSEN
 10
1133.0
 20
793.00000000000034
 30
0.0
 11
1166.9999999999991
 21
793.00000000000034
 31
0.0
  0
LINE
  5
29E
  8
L-ZISSEN
 10
1119.9999999999991
 20
804.99999999999977
 30
0.0
 11
1120.0
 21
764.99999999999977
 31
0.0
  0
LINE
  5
29F
  8
L-ZISSEN
 10
1179.9999999999991
 20
780.00000000000034
 30
0.0
 11
1179.9999999999991
 21
764.99999999999977
 31
0.0
  0
ARC
  5
2A0
  8
L-ZISSEN
 10
1133.0
 20
780.00000000000034
 30
0.0
 40
13.0
 50
90.0
 51
180.0
  0
ARC
  5
2A1
  8
L-ZISSEN
 10
1166.9999999999991
 20
780.00000000000034
 30
0.0
 40
13.0
 50
0.0
 51
90.0
  0
LINE
  5
2A2
  8
L-ZISSEN
 10
1119.9999999999991
 20
799.00000000000034
 30
0.0
 11
1222.9999999999991
 21
799.00000000000034
 31
0.0
  0
LINE
  5
2A3
  8
L-ZISSEN
 10
1222.9999999999991
 20
799.00000000000034
 30
0.0
 11
1222.9999999999991
 21
793.00000000000011
 31
0.0
  0
LINE
  5
2A4
  8
L-ZISSEN
 10
1217.4939015319189
 20
799.00000000000034
 30
0.0
 11
1217.4939015319189
 21
780.0
 31
0.0
  0
LINE
  5
2A5
  8
L-ZISSEN
 10
1220.4939015319189
 20
793.00000000000011
 30
0.0
 11
1237.0000000000009
 21
793.00000000000011
 31
0.0
  0
ARC
  5
2A6
  8
L-ZISSEN
 10
1237.0000000000009
 20
790.00000000000011
 30
0.0
 40
3.0
 50
359.99999999999932
 51
90.0
  0
ARC
  5
2A7
  8
L-ZISSEN
 10
1220.4939015319189
 20
796.00000000000011
 30
0.0
 40
3.0
 50
180.0
 51
270.0
  0
LINE
  5
2A8
  8
L-ZISSEN
 10
1207.5621302384759
 20
772.00000000000023
 30
0.0
 11
1207.5621302384759
 21
767.99999999999977
 31
0.0
  0
ARC
  5
2A9
  8
L-ZISSEN
 10
1204.5621302384759
 20
772.00000000000023
 30
0.0
 40
3.0
 50
0.0
 51
90.0
  0
ARC
  5
2AA
  8
L-ZISSEN
 10
1210.5621302384759
 20
767.99999999999977
 30
0.0
 40
3.0
 50
179.99999999999901
 51
244.06337336905861
  0
ARC
  5
2AB
  8
L-ZISSEN
 10
1089.437869761523
 20
767.99999999999977
 30
0.0
 40
3.0
 50
295.93662663094142
 51
0.000000000000923
  0
ARC
  5
2AC
  8
L-ZISSEN
 10
1095.437869761523
 20
772.00000000000023
 30
0.0
 40
3.0
 50
90.0
 51
180.0
  0
LINE
  5
2AD
  8
L-ZISSEN
 10
1092.437869761523
 20
772.00000000000023
 30
0.0
 11
1092.437869761523
 21
767.99999999999977
 31
0.0
  0
LINE
  5
2AE
  8
L-ZISSEN
 10
1193.330127018914
 20
799.00000000000034
 30
0.0
 11
1193.330127018914
 21
778.00000000000011
 31
0.0
  0
LINE
  5
2AF
  8
L-ZISSEN
 10
1188.9999999999991
 20
799.00000000000034
 30
0.0
 11
1188.9999999999991
 21
778.00000000000011
 31
0.0
  0
ARC
  5
2B0
  8
L-ZISSEN
 10
1196.330127018914
 20
778.00000000000011
 30
0.0
 40
3.0
 50
180.0
 51
270.0
  0
ARC
  5
2B1
  8
L-ZISSEN
 10
1191.9999999999991
 20
778.00000000000011
 30
0.0
 40
3.0
 50
179.99999999999969
 51
270.0
  0
LINE
  5
2B2
  8
L-ZISSEN
 10
1062.9999999999991
 20
783.0
 30
0.0
 11
1120.0
 21
783.0
 31
0.0
  0
ARC
  5
2B3
  8
L-ZISSEN
 10
1062.9999999999991
 20
780.00000000000011
 30
0.0
 40
3.0
 50
90.0
 51
180.0
  0
ARC
  5
2B4
  8
L-ZISSEN
 10
1117.0
 20
778.00000000000023
 30
0.0
 40
3.0
 50
270.0
 51
0.0
  0
LINE
  5
2B5
  8
L-TYUSIN
  6
CENTER
 62
     1
 10
749.0
 20
713.0
 30
0.0
 11
749.0
 21
687.0
 31
0.0
  0
CIRCLE
  5
2B6
  8
L-ZISSEN
 10
626.00000000000011
 20
1220.0
 30
0.0
 40
30.0
  0
LINE
  5
2B7
  8
L-TYUSIN
 10
660.00000000000011
 20
1255.9999999999991
 30
0.0
 11
660.00000000000011
 21
1184.0
 31
0.0
  0
ARC
  5
2B8
  8
L-ZISSEN
 10
660.00000000000023
 20
1220.0
 30
0.0
 40
15.0
 50
145.128546134961
 51
214.8714538651125
  0
ARC
  5
2B9
  8
L-ZISSEN
 10
643.00000000000011
 20
1190.555136271329
 30
0.0
 40
15.0
 50
87.703845894823544
 51
152.2961541050889
  0
ARC
  5
2BA
  8
L-ZISSEN
 10
644.18653347947611
 20
1209.499999999998
 30
0.0
 40
4.0
 50
261.58218254894939
 51
28.74979051978687
  0
ARC
  5
2BB
  8
L-ZISSEN
 10
626.00000000000034
 20
1198.9999999999959
 30
0.0
 40
4.0
 50
201.58218254894999
 51
328.74979051978738
  0
ARC
  5
2BC
  8
L-ZISSEN
 10
609.00000000000011
 20
1190.555136271329
 30
0.0
 40
15.0
 50
27.703845894913091
 51
92.296154105176456
  0
ARC
  5
2BD
  8
L-ZISSEN
 10
607.81346652052412
 20
1209.499999999998
 30
0.0
 40
4.0
 50
151.2502094802131
 51
278.41781745105061
  0
ARC
  5
2BE
  8
L-ZISSEN
 10
592.0
 20
1220.0
 30
0.0
 40
15.0
 50
325.12854613488747
 51
34.871453865029913
  0
ARC
  5
2BF
  8
L-ZISSEN
 10
644.18653347947611
 20
1230.5000000000009
 30
0.0
 40
4.0
 50
331.25020948021307
 51
98.417817451050624
  0
ARC
  5
2C0
  8
L-ZISSEN
 10
607.81346652052412
 20
1230.5000000000009
 30
0.0
 40
4.0
 50
81.582182548949362
 51
208.7497905197869
  0
CIRCLE
  5
2C1
  8
L-ZISSEN
 10
626.00000000000011
 20
1220.0
 30
0.0
 40
10.0
  0
LINE
  5
2C2
  8
L-TYUSIN
 10
626.0
 20
850.00000000000011
 30
0.0
 11
626.0
 21
791.0
 31
0.0
  0
LINE
  5
2C3
  8
L-ZISSEN
 10
580.00000000000023
 20
807.0
 30
0.0
 11
653.9999999999992
 21
807.0
 31
0.0
  0
LINE
  5
2C4
  8
L-ZISSEN
 10
608.89844855195565
 20
842.0
 30
0.0
 11
643.10155144804457
 21
842.00000000000011
 31
0.0
  0
LINE
  5
2C5
  8
L-ZISSEN
 10
595.99999999999909
 20
805.0
 30
0.0
 11
595.99999999999909
 21
801.70205984563643
 31
0.0
  0
LINE
  5
2C6
  8
L-ZISSEN
 10
648.11912937505986
 20
808.93020100659487
 30
0.0
 11
647.09911475612091
 21
838.13959798681003
 31
0.0
  0
LINE
  5
2C7
  8
L-ZISSEN
 10
603.88087062494014
 20
808.93020100659476
 30
0.0
 11
604.9008852438792
 21
838.13959798681003
 31
0.0
  0
LINE
  5
2C8
  8
L-ZISSEN
 10
630.5356496343303
 20
808.93020100659487
 30
0.0
 11
629.44823091096748
 21
840.06979899340524
 31
0.0
  0
ARC
  5
2C9
  8
L-ZISSEN
 10
643.10155144804457
 20
838.0
 30
0.0
 40
4.0
 50
1.9999999999999261
 51
90.0
  0
ARC
  5
2CA
  8
L-ZISSEN
 10
608.89844855195565
 20
838.0
 30
0.0
 40
4.0
 50
90.000000000000171
 51
178.0
  0
ARC
  5
2CB
  8
L-ZISSEN
 10
632.53443128836864
 20
809.0
 30
0.0
 40
2.0
 50
181.99999999999989
 51
270.0
  0
ARC
  5
2CC
  8
L-ZISSEN
 10
627.44944925692926
 20
840.00000000000023
 30
0.0
 40
2.0
 50
1.9999999999998239
 51
90.0
  0
ARC
  5
2CD
  8
L-ZISSEN
 10
624.55055074307074
 20
840.00000000000023
 30
0.0
 40
2.0
 50
90.0
 51
178.00000000000011
  0
LINE
  5
2CE
  8
L-ZISSEN
 10
621.4643503656697
 20
808.93020100659487
 30
0.0
 11
622.55176908903263
 21
840.06979899340524
 31
0.0
  0
ARC
  5
2CF
  8
L-ZISSEN
 10
619.46556871163136
 20
809.0
 30
0.0
 40
2.0
 50
270.0
 51
358.0
  0
ARC
  5
2D0
  8
L-ZISSEN
 10
653.9999999999992
 20
805.0
 30
0.0
 40
2.0
 50
0.0
 51
90.0
  0
ARC
  5
2D1
  8
L-ZISSEN
 10
597.99999999999898
 20
805.0
 30
0.0
 40
2.0
 50
90.0
 51
180.0
  0
ARC
  5
2D2
  8
L-ZISSEN
 10
650.1179110290982
 20
809.0
 30
0.0
 40
2.0
 50
181.99999999999989
 51
270.0
  0
ARC
  5
2D3
  8
L-ZISSEN
 10
601.88208897090203
 20
808.99999999999989
 30
0.0
 40
2.0
 50
270.0
 51
358.0
  0
ARC
  5
2D4
  8
L-ZISSEN
 10
1121.9999999999991
 20
804.99999999999977
 30
0.0
 40
2.0
 50
90.0
 51
180.0
  0
LINE
  5
2D5
  8
L-ZISSEN
 10
1121.9999999999991
 20
806.99999999999977
 30
0.0
 11
1223.693936085989
 21
806.99999999999977
 31
0.0
  0
ARC
  5
2D6
  8
L-ZISSEN
 10
1177.9999999999991
 20
804.99999999999977
 30
0.0
 40
2.0
 50
0.0
 51
90.0
  0
LINE
  5
2D7
  8
L-ZISSEN
 10
1179.9999999999991
 20
804.99999999999977
 30
0.0
 11
1179.9999999999991
 21
799.00000000000034
 31
0.0
  0
LINE
  5
2D8
  8
L-ZISSEN
 10
1128.153604481817
 20
842.00000000000034
 30
0.0
 11
1171.8463955181819
 21
842.00000000000034
 31
0.0
  0
ARC
  5
2D9
  8
L-ZISSEN
 10
626.00000000000034
 20
1241.000000000003
 30
0.0
 40
4.0
 50
31.250209480212501
 51
158.4178174510499
  0
ARC
  5
2DA
  8
L-ZISSEN
 10
609.00000000000011
 20
1249.444863728671
 30
0.0
 40
15.0
 50
267.70384589482347
 51
332.29615410508683
  0
ARC
  5
2DB
  8
L-ZISSEN
 10
643.00000000000011
 20
1249.444863728671
 30
0.0
 40
15.0
 50
207.7038458949111
 51
272.29615410517641
  0
LINE
  5
2DC
  8
L-ZISSEN
 10
1125.067404104416
 20
808.93020100659476
 30
0.0
 11
1126.1548228277791
 21
840.06979899340536
 31
0.0
  0
LINE
  5
2DD
  8
L-ZISSEN
 10
1135.5674041044299
 20
808.93020100659476
 30
0.0
 11
1136.652385393234
 21
840.00000000000034
 31
0.0
  0
LINE
  5
2DE
  8
L-ZISSEN
 10
1139.5674041044231
 20
808.93020100659476
 30
0.0
 11
1140.652385393226
 21
840.00000000000034
 31
0.0
  0
ARC
  5
2DF
  8
L-ZISSEN
 10
1128.153604481817
 20
840.00000000000034
 30
0.0
 40
2.0
 50
90.0
 51
178.0
  0
ARC
  5
2E0
  8
L-ZISSEN
 10
1123.0686224503779
 20
808.99999999999977
 30
0.0
 40
2.0
 50
270.0
 51
358.0000000000004
  0
LINE
  5
2E1
  8
L-ZISSEN
 10
1160.4325958955769
 20
808.93020100659476
 30
0.0
 11
1159.347614606773
 21
840.00000000000034
 31
0.0
  0
LINE
  5
2E2
  8
L-ZISSEN
 10
1164.432595895569
 20
808.93020100659476
 30
0.0
 11
1163.3476146067651
 21
840.00000000000034
 31
0.0
  0
ARC
  5
2E3
  8
L-ZISSEN
 10
1171.8463955181819
 20
840.00000000000034
 30
0.0
 40
2.0
 50
1.999999999999907
 51
90.0
  0
LINE
  5
2E4
  8
L-ZISSEN
 10
1174.932595895584
 20
808.93020100659476
 30
0.0
 11
1173.8451771722209
 21
840.06979899340536
 31
0.0
  0
ARC
  5
2E5
  8
L-ZISSEN
 10
1176.9313775496221
 20
808.99999999999977
 30
0.0
 40
2.0
 50
181.9999999999996
 51
270.0
  0
LINE
  5
2E6
  8
L-TYUSIN
 10
633.54101966249766
 20
775.0
 30
0.0
 11
566.45898033750211
 21
775.0
 31
0.0
  0
CIRCLE
  5
2E7
  8
L-ZISSEN
 10
540.0
 20
1253.0
 30
0.0
 40
20.0
  0
CIRCLE
  5
2E8
  8
L-ZISSEN
 10
540.0
 20
1253.0
 30
0.0
 40
25.5
  0
LINE
  5
2E9
  8
L-ZISSEN
 10
563.0
 20
1225.0
 30
0.0
 11
517.0
 21
1225.0
 31
0.0
  0
ARC
  5
2EA
  8
L-ZISSEN
 10
570.0
 20
1283.0
 30
0.0
 40
10.0
 50
315.00000000000023
 51
140.4788036413477
  0
LINE
  5
2EB
  8
L-ZISSEN
 10
577.07106781186553
 20
1275.928932188134
 30
0.0
 11
563.65796022726306
 21
1262.5158246035321
 31
0.0
  0
ARC
  5
2EC
  8
L-ZISSEN
 10
561.51471862576454
 20
1290.0
 30
0.0
 40
1.0
 50
270.0
 51
320.47880364135068
  0
CIRCLE
  5
2ED
  8
L-ZISSEN
 10
570.0
 20
1283.0
 30
0.0
 40
4.25
  0
ARC
  5
2EE
  8
L-ZISSEN
 10
563.0
 20
1230.0
 30
0.0
 40
5.0
 50
270.0
 51
0.0
  0
LINE
  5
2EF
  8
L-ZISSEN
 10
567.99999999999181
 20
1230.0
 30
0.0
 11
564.08307778954565
 21
1244.61815269868
 31
0.0
  0
ARC
  5
2F0
  8
L-ZISSEN
 10
517.0
 20
1230.0
 30
0.0
 40
5.0
 50
180.0
 51
270.0
  0
LINE
  5
2F1
  8
L-ZISSEN
 10
512.00000000000807
 20
1230.0
 30
0.0
 11
515.91692221045435
 21
1244.61815269868
 31
0.0
  0
LINE
  5
2F2
  8
L-ZISSEN
 10
512.47690294724248
 20
1227.8688986295031
 30
0.0
 11
512.3213621395156
 21
1225.302475302009
 31
0.0
  0
LINE
  5
2F3
  8
L-TYUSIN
 10
563.0
 20
1238.0000000000009
 30
0.0
 11
563.0
 21
1221.999999999998
 31
0.0
  0
LINE
  5
2F4
  8
L-TYUSIN
 10
570.99999999999864
 20
1230.0
 30
0.0
 11
555.00000000000148
 21
1230.0
 31
0.0
  0
CIRCLE
  5
2F5
  8
L-ZISSEN
 10
563.0
 20
1230.0
 30
0.0
 40
4.5
  0
CIRCLE
  5
2F6
  8
L-ZISSEN
 10
517.0
 20
1230.0
 30
0.0
 40
4.5
  0
LINE
  5
2F7
  8
L-TYUSIN
 10
517.0
 20
1238.0000000000009
 30
0.0
 11
517.0
 21
1221.999999999998
 31
0.0
  0
LINE
  5
2F8
  8
L-TYUSIN
 10
509.00000000000148
 20
1230.0
 30
0.0
 11
524.99999999999864
 21
1230.0
 31
0.0
  0
CIRCLE
  5
2F9
  8
L-ZISSEN
 10
548.0
 20
1283.0
 30
0.0
 40
4.5
  0
LINE
  5
2FA
  8
L-TYUSIN
 10
548.0
 20
1291.0000000000009
 30
0.0
 11
548.0
 21
1274.999999999998
 31
0.0
  0
LINE
  5
2FB
  8
L-TYUSIN
 10
555.99999999999864
 20
1283.0
 30
0.0
 11
540.00000000000159
 21
1283.0
 31
0.0
  0
LINE
  5
2FC
  8
L-TYUSIN
 10
577.99999999999864
 20
1283.0
 30
0.0
 11
562.00000000000159
 21
1283.0
 31
0.0
  0
LINE
  5
2FD
  8
L-TYUSIN
 10
570.0
 20
1291.0000000000009
 30
0.0
 11
570.0
 21
1274.999999999998
 31
0.0
  0
CIRCLE
  5
2FE
  8
L-ZISSEN
 10
570.0
 20
1283.0
 30
0.0
 40
3.75
  0
LINE
  5
2FF
  8
L-ZISSEN
 10
572.19322518627098
 20
1286.041753323695
 30
0.0
 11
566.95824667630518
 21
1280.8067748137289
 31
0.0
  0
LINE
  5
300
  8
L-ZISSEN
 10
573.04175332369482
 20
1285.19322518627
 30
0.0
 11
567.80677481372902
 21
1279.958246676305
 31
0.0
  0
LINE
  5
301
  8
L-TYUSIN
 10
540.0
 20
876.00000000000034
 30
0.0
 11
540.0
 21
795.0
 31
0.0
  0
LINE
  5
302
  8
L-ZISSEN
 10
511.99999999999397
 20
809.00000000000011
 30
0.0
 11
511.99999999999397
 21
799.0
 31
0.0
  0
LINE
  5
303
  8
L-ZISSEN
 10
567.99999999999466
 20
809.0
 30
0.0
 11
567.99999999999454
 21
798.99999999999989
 31
0.0
  0
LINE
  5
304
  8
L-ZISSEN
 10
512.74999999999386
 20
810.00000000000011
 30
0.0
 11
579.00000000000023
 21
810.0
 31
0.0
  0
LINE
  5
305
  8
L-ZISSEN
 10
580.00000000000023
 20
809.0
 30
0.0
 11
580.00000000000023
 21
798.99999999999989
 31
0.0
  0
ARC
  5
306
  8
L-ZISSEN
 10
579.00000000000023
 20
809.0
 30
0.0
 40
1.0
 50
0.0
 51
89.999999999999915
  0
ARC
  5
307
  8
L-ZISSEN
 10
512.99999999999409
 20
809.00000000000011
 30
0.0
 40
1.0
 50
89.999999999999915
 51
180.0
  0
ARC
  5
308
  8
L-ZISSEN
 10
566.99999999999466
 20
809.0
 30
0.0
 40
1.0
 50
359.99999999999972
 51
90.0
  0
LINE
  5
309
  8
L-ZISSEN
 10
511.99999999999397
 20
800.0
 30
0.0
 11
580.00000000000023
 21
800.0
 31
0.0
  0
LINE
  5
30A
  8
L-ZISSEN
 10
520.65154617419353
 20
814.0
 30
0.0
 11
559.34845382579169
 21
814.0
 31
0.0
  0
ARC
  5
30B
  8
L-ZISSEN
 10
540.0
 20
847.99999999999977
 30
0.0
 40
20.0
 50
0.0000000000003257
 51
179.9999999999996
  0
LINE
  5
30C
  8
L-ZISSEN
 10
560.00000000000091
 20
848.0
 30
0.0
 11
560.00000000000091
 21
834.5
 31
0.0
  0
LINE
  5
30D
  8
L-ZISSEN
 10
519.99999999999886
 20
848.0
 30
0.0
 11
519.99999999999886
 21
834.5
 31
0.0
  0
LINE
  5
30E
  8
L-ZISSEN
 10
516.00000000000091
 20
834.5
 30
0.0
 11
564.00000000000091
 21
834.5
 31
0.0
  0
LINE
  5
30F
  8
L-ZISSEN
 10
514.50000000000091
 20
833.00000000000011
 30
0.0
 11
514.50000000000091
 21
818.29999999999995
 31
0.0
  0
LINE
  5
310
  8
L-ZISSEN
 10
515.30000000000075
 20
817.5
 30
0.0
 11
564.70000000000095
 21
817.5
 31
0.0
  0
LINE
  5
311
  8
L-ZISSEN
 10
565.50000000000091
 20
818.29999999999995
 30
0.0
 11
565.50000000000091
 21
833.0
 31
0.0
  0
ARC
  5
312
  8
L-ZISSEN
 10
564.00000000000091
 20
833.0
 30
0.0
 40
1.5
 50
0.0
 51
89.999999999999872
  0
ARC
  5
313
  8
L-ZISSEN
 10
516.00000000000091
 20
833.00000000000011
 30
0.0
 40
1.5
 50
89.999999999999872
 51
180.0
  0
ARC
  5
314
  8
L-ZISSEN
 10
564.70000000000095
 20
818.29999999999995
 30
0.0
 40
0.8
 50
270.0
 51
0.0
  0
ARC
  5
315
  8
L-ZISSEN
 10
515.30000000000075
 20
818.29999999999995
 30
0.0
 40
0.8
 50
180.0
 51
270.0
  0
LINE
  5
316
  8
L-ZISSEN
 10
518.0
 20
817.5
 30
0.0
 11
518.0
 21
814.55826074310426
 31
0.0
  0
LINE
  5
317
  8
L-ZISSEN
 10
562.0
 20
817.5
 30
0.0
 11
562.0
 21
814.55826074310426
 31
0.0
  0
LINE
  5
318
  8
L-TYUSIN
 10
516.99999999999977
 20
818.00000000000171
 30
0.0
 11
516.99999999999989
 21
797.0
 31
0.0
  0
LINE
  5
319
  8
L-TYUSIN
 10
562.99999999999977
 20
818.00000000000171
 30
0.0
 11
562.99999999999977
 21
797.0
 31
0.0
  0
LINE
  5
31A
  8
L-ZISSEN
 10
512.49999999999432
 20
811.30000000000007
 30
0.0
 11
521.49999999999898
 21
811.30000000000007
 31
0.0
  0
LINE
  5
31B
  8
L-ZISSEN
 10
512.49999999999432
 20
811.30000000000007
 30
0.0
 11
512.49999999999432
 21
812.58749217771913
 31
0.0
  0
LINE
  5
31C
  8
L-ZISSEN
 10
521.50000000000534
 20
811.30000000000007
 30
0.0
 11
521.50000000000534
 21
812.58749217771617
 31
0.0
  0
ARC
  5
31D
  8
L-ZISSEN
 10
516.99999999999989
 20
802.60000000000264
 30
0.0
 40
12.0
 50
73.808648361345078
 51
106.1913516386504
  0
ARC
  5
31E
  8
L-ZISSEN
 10
514.09999999999422
 20
812.58749217771913
 30
0.0
 40
1.6000000000000001
 50
106.19135163864991
 51
180.0
  0
ARC
  5
31F
  8
L-ZISSEN
 10
519.90000000000555
 20
812.58749217771617
 30
0.0
 40
1.6000000000000001
 50
0.0
 51
73.808648361344865
  0
LINE
  5
320
  8
L-ZISSEN
 10
521.2500000000058
 20
811.30000000000007
 30
0.0
 11
521.2500000000058
 21
810.00000000000011
 31
0.0
  0
LINE
  5
321
  8
L-ZISSEN
 10
512.74999999999386
 20
811.30000000000007
 30
0.0
 11
512.74999999999386
 21
810.00000000000011
 31
0.0
  0
LINE
  5
322
  8
L-ZISSEN
 10
558.74999999999386
 20
811.30000000000007
 30
0.0
 11
558.74999999999386
 21
810.00000000000011
 31
0.0
  0
LINE
  5
323
  8
L-ZISSEN
 10
558.49999999999432
 20
811.30000000000007
 30
0.0
 11
567.49999999999898
 21
811.30000000000007
 31
0.0
  0
LINE
  5
324
  8
L-ZISSEN
 10
558.49999999999432
 20
811.30000000000007
 30
0.0
 11
558.49999999999432
 21
812.58749217771913
 31
0.0
  0
ARC
  5
325
  8
L-ZISSEN
 10
560.09999999999422
 20
812.58749217771913
 30
0.0
 40
1.6000000000000001
 50
106.19135163864991
 51
180.0
  0
ARC
  5
326
  8
L-ZISSEN
 10
562.99999999999989
 20
802.60000000000264
 30
0.0
 40
12.0
 50
73.808648361345078
 51
106.1913516386504
  0
ARC
  5
327
  8
L-ZISSEN
 10
565.90000000000555
 20
812.58749217771617
 30
0.0
 40
1.6000000000000001
 50
0.0
 51
73.808648361344865
  0
LINE
  5
328
  8
L-ZISSEN
 10
567.50000000000534
 20
811.30000000000007
 30
0.0
 11
567.50000000000534
 21
812.58749217771617
 31
0.0
  0
LINE
  5
329
  8
L-ZISSEN
 10
567.2500000000058
 20
811.30000000000007
 30
0.0
 11
567.2500000000058
 21
810.00000000000011
 31
0.0
  0
LINE
  5
32A
  8
L-TYUSIN
 10
1183.0
 20
783.37513209745953
 30
0.0
 11
1183.0
 21
849.37513209746135
 31
0.0
  0
ARC
  5
32B
  8
L-ZISSEN
 10
1207.700000000001
 20
818.29999999999995
 30
0.0
 40
0.8
 50
270.0
 51
0.0
  0
ARC
  5
32C
  8
L-ZISSEN
 10
1207.0
 20
833.0
 30
0.0
 40
1.5
 50
0.0
 51
89.999999999999872
  0
LINE
  5
32D
  8
L-ZISSEN
 10
1208.5000000000009
 20
818.29999999999995
 30
0.0
 11
1208.5000000000009
 21
833.0
 31
0.0
  0
LINE
  5
32E
  8
L-ZISSEN
 10
1174.6333319203441
 20
817.5
 30
0.0
 11
1207.700000000001
 21
817.5
 31
0.0
  0
LINE
  5
32F
  8
L-ZISSEN
 10
1174.0396788389851
 20
834.5
 30
0.0
 11
1207.0
 21
834.5
 31
0.0
  0
LINE
  5
330
  8
L-ZISSEN
 10
1162.9999999999991
 20
848.0
 30
0.0
 11
1162.9999999999991
 21
842.00000000000034
 31
0.0
  0
LINE
  5
331
  8
L-ZISSEN
 10
1203.0000000000009
 20
848.0
 30
0.0
 11
1203.0000000000009
 21
834.5
 31
0.0
  0
ARC
  5
332
  8
L-ZISSEN
 10
1183.0
 20
847.99999999999977
 30
0.0
 40
20.0
 50
0.0000000000003257
 51
179.9999999999996
  0
LINE
  5
333
  8
L-TYUSIN
 10
1183.0
 20
876.00000000000034
 30
0.0
 11
1183.0
 21
795.0
 31
0.0
  0
LINE
  5
334
  8
L-ZISSEN
 10
1205.0
 20
817.5
 30
0.0
 11
1205.0
 21
814.00000000000045
 31
0.0
  0
LINE
  5
335
  8
L-TYUSIN
 10
583.39664008917362
 20
1251.542864627311
 30
0.0
 11
592.60335991082661
 21
1238.4571353726881
 31
0.0
  0
LINE
  5
336
  8
L-TYUSIN
 10
594.54286462731284
 20
1249.6033599108271
 30
0.0
 11
581.45713537268705
 21
1240.396640089172
 31
0.0
  0
CIRCLE
  5
337
  8
L-ZISSEN
 10
587.99999999999977
 20
1245.0
 30
0.0
 40
5.25
  0
LINE
  5
338
  8
L-TYUSIN
 10
594.40738974865928
 20
1292.5472959968131
 30
0.0
 11
581.32166049403395
 21
1283.340576175158
 31
0.0
  0
LINE
  5
339
  8
L-TYUSIN
 10
583.26116521052006
 20
1294.486800713297
 30
0.0
 11
592.46788503217317
 21
1281.4010714586741
 31
0.0
  0
CIRCLE
  5
33A
  8
L-ZISSEN
 10
587.86452512134645
 20
1287.943936085986
 30
0.0
 40
5.25
  0
CIRCLE
  5
33B
  8
L-ZISSEN
 10
621.94022111694949
 20
1258.975385165802
 30
0.0
 40
5.25
  0
LINE
  5
33C
  8
L-ZISSEN
 10
579.69803114767933
 20
1277.402945974763
 30
0.0
 11
605.82907624476502
 21
1288.1627880735689
 31
0.0
  0
LINE
  5
33D
  8
L-ZISSEN
 10
576.93205877203366
 20
1247.0646655616749
 30
0.0
 11
622.29923179992147
 21
1265.745266220227
 31
0.0
  0
LINE
  5
33E
  8
L-ZISSEN
 10
590.87709994426814
 20
1240.9107096079281
 30
0.0
 11
621.99926111732339
 21
1253.7257171497811
 31
0.0
  0
LINE
  5
33F
  8
L-ZISSEN
 10
582.62096253672507
 20
1287.6840295235079
 30
0.0
 11
573.08074738079381
 21
1254.127392012716
 31
0.0
  0
LINE
  5
340
  8
L-ZISSEN
 10
583.26744005911451
 20
1242.72725355441
 30
0.0
 11
574.25211700015689
 21
1248.899442521953
 31
0.0
  0
ARC
  5
341
  8
L-ZISSEN
 10
596.05085780525133
 20
1293.6871022152591
 30
0.0
 40
5.0
 50
228.0505311422416
 51
278.26651214809232
  0
LINE
  5
342
  8
L-TYUSIN
 10
617.3368612061231
 20
1265.5182497931139
 30
0.0
 11
626.54358102777621
 21
1252.432520538491
 31
0.0
  0
ARC
  5
343
  8
L-ZISSEN
 10
579.97712196689565
 20
1252.9273846926919
 30
0.0
 40
7.0
 50
170.12904957836059
 51
215.1290495783613
  0
LINE
  5
344
  8
L-TYUSIN
 10
628.48308574426255
 20
1263.57874507663
 30
0.0
 11
615.39735648963699
 21
1254.3720252549749
 31
0.0
  0
LINE
  5
345
  8
L-ZISSEN
 10
572.97712196689588
 20
814.0
 30
0.0
 11
604.05791190695834
 21
814.0
 31
0.0
  0
LINE
  5
346
  8
L-ZISSEN
 10
572.97712196689588
 20
814.0
 30
0.0
 11
572.97712196689588
 21
810.0
 31
0.0
  0
LINE
  5
347
  8
L-ZISSEN
 10
576.93205877203332
 20
814.0
 30
0.0
 11
576.93205877203332
 21
810.0
 31
0.0
  0
LINE
  5
348
  8
L-TYUSIN
 10
587.99999999999977
 20
816.40000000000077
 30
0.0
 11
587.99999999999977
 21
795.00000000000011
 31
0.0
  0
LINE
  5
349
  8
L-ZISSEN
 10
582.24999999999932
 20
808.5
 30
0.0
 11
593.75000000000296
 21
808.5
 31
0.0
  0
LINE
  5
34A
  8
L-ZISSEN
 10
582.74999999999648
 20
808.5
 30
0.0
 11
582.74999999999648
 21
810.02701595423127
 31
0.0
  0
LINE
  5
34B
  8
L-ZISSEN
 10
593.25000000000318
 20
808.5
 30
0.0
 11
593.25000000000318
 21
810.02701595423127
 31
0.0
  0
LINE
  5
34C
  8
L-ZISSEN
 10
582.24999999999682
 20
808.5
 30
0.0
 11
582.24999999999682
 21
807.0
 31
0.0
  0
LINE
  5
34D
  8
L-ZISSEN
 10
593.75000000000296
 20
808.5
 30
0.0
 11
593.75000000000296
 21
807.0
 31
0.0
  0
ARC
  5
34E
  8
L-ZISSEN
 10
587.99999999999989
 20
798.40000000000168
 30
0.0
 40
14.0
 50
73.927140831157075
 51
106.0728591688423
  0
ARC
  5
34F
  8
L-ZISSEN
 10
591.35000000000332
 20
810.02701595423127
 30
0.0
 40
1.8999999999999999
 50
0.0
 51
73.927140831157033
  0
ARC
  5
350
  8
L-ZISSEN
 10
584.64999999999657
 20
810.02701595423127
 30
0.0
 40
1.8999999999999999
 50
106.072859168842
 51
180.0
  0
LINE
  5
351
  8
L-ZISSEN
 10
1218.1627880735659
 20
814.00000000000045
 30
0.0
 11
1218.1627880735659
 21
812.39828931717943
 31
0.0
  0
LINE
  5
352
  8
L-ZISSEN
 10
1195.7452662202311
 20
814.00000000000045
 30
0.0
 11
1195.7452662202311
 21
806.99999999999977
 31
0.0
  0
LINE
  5
353
  8
L-ZISSEN
 10
1174.755554613565
 20
814.00000000000045
 30
0.0
 11
1218.1627880735659
 21
814.00000000000045
 31
0.0
  0
LINE
  5
354
  8
L-ZISSEN
 10
1222.9439360859751
 20
806.99999999999977
 30
0.0
 11
1222.9439360859751
 21
799.00000000000034
 31
0.0
  0
ARC
  5
355
  8
L-ZISSEN
 10
1185.6253851657989
 20
810.02701595423127
 30
0.0
 40
1.8999999999999999
 50
106.072859168842
 51
180.0
  0
ARC
  5
356
  8
L-ZISSEN
 10
1192.325385165806
 20
810.02701595423127
 30
0.0
 40
1.8999999999999999
 50
0.0
 51
73.927140831157033
  0
ARC
  5
357
  8
L-ZISSEN
 10
1188.975385165802
 20
798.40000000000157
 30
0.0
 40
14.0
 50
73.927140831157075
 51
106.0728591688423
  0
LINE
  5
358
  8
L-ZISSEN
 10
1194.7253851658049
 20
808.49999999999989
 30
0.0
 11
1194.7253851658049
 21
806.99999999999977
 31
0.0
  0
LINE
  5
359
  8
L-ZISSEN
 10
1183.225385165799
 20
808.49999999999989
 30
0.0
 11
1183.225385165799
 21
806.99999999999977
 31
0.0
  0
LINE
  5
35A
  8
L-ZISSEN
 10
1194.2253851658061
 20
808.49999999999989
 30
0.0
 11
1194.2253851658061
 21
810.02701595423127
 31
0.0
  0
LINE
  5
35B
  8
L-ZISSEN
 10
1183.725385165799
 20
808.49999999999989
 30
0.0
 11
1183.725385165799
 21
810.02701595423127
 31
0.0
  0
LINE
  5
35C
  8
L-ZISSEN
 10
1183.225385165802
 20
808.49999999999989
 30
0.0
 11
1194.7253851658049
 21
808.49999999999989
 31
0.0
  0
LINE
  5
35D
  8
L-TYUSIN
 10
1188.975385165802
 20
816.40000000000055
 30
0.0
 11
1188.975385165802
 21
795.0
 31
0.0
  0
LINE
  5
35E
  8
L-ZISSEN
 10
1212.1939360859849
 20
808.49999999999989
 30
0.0
 11
1223.693936085989
 21
808.49999999999989
 31
0.0
  0
LINE
  5
35F
  8
L-ZISSEN
 10
1212.6939360859819
 20
808.49999999999989
 30
0.0
 11
1212.6939360859819
 21
810.02701595423127
 31
0.0
  0
LINE
  5
360
  8
L-ZISSEN
 10
1223.193936085989
 20
808.49999999999989
 30
0.0
 11
1223.193936085989
 21
810.02701595423127
 31
0.0
  0
LINE
  5
361
  8
L-ZISSEN
 10
1212.1939360859831
 20
808.49999999999989
 30
0.0
 11
1212.1939360859831
 21
806.99999999999977
 31
0.0
  0
LINE
  5
362
  8
L-ZISSEN
 10
1223.693936085989
 20
808.49999999999989
 30
0.0
 11
1223.693936085989
 21
806.99999999999977
 31
0.0
  0
ARC
  5
363
  8
L-ZISSEN
 10
1217.943936085986
 20
798.40000000000157
 30
0.0
 40
14.0
 50
73.927140831157075
 51
106.0728591688423
  0
ARC
  5
364
  8
L-ZISSEN
 10
1221.2939360859889
 20
810.02701595423127
 30
0.0
 40
1.8999999999999999
 50
0.0
 51
73.927140831157033
  0
ARC
  5
365
  8
L-ZISSEN
 10
1214.593936085982
 20
810.02701595423127
 30
0.0
 40
1.8999999999999999
 50
106.072859168842
 51
180.0
  0
LINE
  5
366
  8
L-TYUSIN
 10
1217.943936085986
 20
816.40000000000055
 30
0.0
 11
1217.943936085986
 21
795.0
 31
0.0
  0
LINE
  5
367
  8
L-ZISSEN
 10
1175.0
 20
808.49999999999989
 30
0.0
 11
1180.750000000003
 21
808.49999999999989
 31
0.0
  0
LINE
  5
368
  8
L-ZISSEN
 10
1180.250000000003
 20
808.49999999999989
 30
0.0
 11
1180.250000000003
 21
810.02701595423127
 31
0.0
  0
LINE
  5
369
  8
L-ZISSEN
 10
1180.750000000003
 20
808.49999999999989
 30
0.0
 11
1180.750000000003
 21
806.99999999999977
 31
0.0
  0
ARC
  5
36A
  8
L-ZISSEN
 10
1175.0
 20
798.40000000000157
 30
0.0
 40
14.0
 50
73.927140831157075
 51
90.771583943630858
  0
ARC
  5
36B
  8
L-ZISSEN
 10
1178.350000000004
 20
810.02701595423127
 30
0.0
 40
1.8999999999999999
 50
0.0
 51
73.927140831157033
  0
LINE
  5
36C
  8
L-TYUSIN
 10
1175.0
 20
816.40000000000055
 30
0.0
 11
1175.0
 21
795.0
 31
0.0
  0
ARC
  5
36D
  8
L-ZISSEN
 10
1215.9000000000051
 20
812.58749217771617
 30
0.0
 40
1.6000000000000001
 50
61.984113647369107
 51
73.808648361344865
  0
ARC
  5
36E
  8
L-ZISSEN
 10
1213.0
 20
802.60000000000264
 30
0.0
 40
12.0
 50
73.808648361345078
 51
106.1913516386504
  0
ARC
  5
36F
  8
L-ZISSEN
 10
1210.099999999994
 20
812.58749217771913
 30
0.0
 40
1.6000000000000001
 50
106.19135163864991
 51
118.01588635579471
  0
CIRCLE
  5
370
  8
L-ZISSEN
  6
CONTINUOUS
 62
     7
 10
600.0
 20
700.0
 30
0.0
 40
27.0
  0
LINE
  5
371
  8
L-ZISSEN
  6
CONTINUOUS
 62
     7
 10
1023.0
 20
725.99999999999909
 30
0.0
 11
1023.0
 21
674.00000000000114
 31
0.0
  0
LINE
  5
372
  8
L-ZISSEN
  6
CONTINUOUS
 62
     7
 10
1028.0
 20
726.9999999999992
 30
0.0
 11
1028.0
 21
673.00000000000114
 31
0.0
  0
LINE
  5
373
  8
L-ZISSEN
  6
CONTINUOUS
 62
     7
 10
1024.0
 20
673.00000000000114
 30
0.0
 11
1028.0
 21
673.00000000000114
 31
0.0
  0
LINE
  5
374
  8
L-ZISSEN
  6
CONTINUOUS
 62
     7
 10
1024.0
 20
726.9999999999992
 30
0.0
 11
1028.0
 21
726.9999999999992
 31
0.0
  0
LINE
  5
375
  8
L-ZISSEN
  6
CONTINUOUS
 62
     7
 10
1028.0
 20
725.99999999999898
 30
0.0
 11
1045.5
 21
725.99999999999898
 31
0.0
  0
LINE
  5
376
  8
L-ZISSEN
  6
CONTINUOUS
 62
     7
 10
1046.4999999999991
 20
724.99999999999909
 30
0.0
 11
1046.4999999999991
 21
675.00000000000114
 31
0.0
  0
LINE
  5
377
  8
L-ZISSEN
  6
CONTINUOUS
 62
     7
 10
1028.0
 20
674.00000000000114
 30
0.0
 11
1045.5
 21
674.00000000000114
 31
0.0
  0
ARC
  5
378
  8
L-ZISSEN
  6
CONTINUOUS
 62
     7
 10
1024.0
 20
725.99999999999909
 30
0.0
 40
1.0
 50
90.0
 51
180.00000000000011
  0
ARC
  5
379
  8
L-ZISSEN
  6
CONTINUOUS
 62
     7
 10
1024.0
 20
674.00000000000114
 30
0.0
 40
1.0
 50
180.00000000000011
 51
270.0
  0
ARC
  5
37A
  8
L-ZISSEN
  6
CONTINUOUS
 62
     7
 10
1045.5
 20
675.00000000000114
 30
0.0
 40
1.0
 50
270.0
 51
0.0
  0
ARC
  5
37B
  8
L-ZISSEN
  6
CONTINUOUS
 62
     7
 10
1045.5
 20
724.99999999999909
 30
0.0
 40
1.0
 50
0.0
 51
90.0
  0
LINE
  5
37C
  8
L-ZISSEN
  6
CONTINUOUS
 62
     7
 10
1046.4999999999991
 20
706.00000000000011
 30
0.0
 11
1054.4999999999991
 21
706.00000000000011
 31
0.0
  0
LINE
  5
37D
  8
L-ZISSEN
  6
CONTINUOUS
 62
     7
 10
1054.4999999999991
 20
706.00000000000011
 30
0.0
 11
1054.4999999999991
 21
694.00000000000011
 31
0.0
  0
LINE
  5
37E
  8
L-ZISSEN
  6
CONTINUOUS
 62
     7
 10
1054.4999999999991
 20
694.00000000000011
 30
0.0
 11
1046.4999999999991
 21
694.00000000000011
 31
0.0
  0
LINE
  5
37F
  8
L-ZISSEN
  6
CONTINUOUS
 62
     7
 10
1054.4999999999991
 20
704.99999999999488
 30
0.0
 11
1059.9999999999991
 21
704.99999999999488
 31
0.0
  0
LINE
  5
380
  8
L-ZISSEN
  6
CONTINUOUS
 62
     7
 10
1054.4999999999991
 20
695.00000000000523
 30
0.0
 11
1060.0
 21
695.00000000000523
 31
0.0
  0
CIRCLE
  5
381
  8
L-ZISSEN
  6
CONTINUOUS
 62
     7
 10
600.0
 20
775.0
 30
0.0
 40
27.0
  0
LINE
  5
382
  8
L-TYUSIN
 10
1063.9999999999991
 20
775.0
 30
0.0
 11
1018.999999999999
 21
775.0
 31
0.0
  0
LINE
  5
383
  8
L-ZISSEN
  6
CONTINUOUS
 62
     7
 10
1054.4999999999991
 20
770.00000000000534
 30
0.0
 11
1060.0
 21
770.00000000000534
 31
0.0
  0
LINE
  5
384
  8
L-ZISSEN
  6
CONTINUOUS
 62
     7
 10
1054.4999999999991
 20
779.999999999995
 30
0.0
 11
1059.9999999999991
 21
779.999999999995
 31
0.0
  0
LINE
  5
385
  8
L-ZISSEN
  6
CONTINUOUS
 62
     7
 10
1054.4999999999991
 20
769.00000000000023
 30
0.0
 11
1046.4999999999991
 21
769.00000000000023
 31
0.0
  0
LINE
  5
386
  8
L-ZISSEN
  6
CONTINUOUS
 62
     7
 10
1054.4999999999991
 20
781.00000000000023
 30
0.0
 11
1054.4999999999991
 21
769.00000000000023
 31
0.0
  0
LINE
  5
387
  8
L-ZISSEN
  6
CONTINUOUS
 62
     7
 10
1046.4999999999991
 20
781.00000000000023
 30
0.0
 11
1054.4999999999991
 21
781.00000000000023
 31
0.0
  0
ARC
  5
388
  8
L-ZISSEN
  6
CONTINUOUS
 62
     7
 10
1045.5
 20
799.9999999999992
 30
0.0
 40
1.0
 50
0.0
 51
90.0
  0
ARC
  5
389
  8
L-ZISSEN
  6
CONTINUOUS
 62
     7
 10
1045.5
 20
750.00000000000125
 30
0.0
 40
1.0
 50
270.0
 51
0.0
  0
ARC
  5
38A
  8
L-ZISSEN
  6
CONTINUOUS
 62
     7
 10
1024.0
 20
749.00000000000125
 30
0.0
 40
1.0
 50
180.00000000000011
 51
270.0
  0
ARC
  5
38B
  8
L-ZISSEN
  6
CONTINUOUS
 62
     7
 10
1024.0
 20
800.9999999999992
 30
0.0
 40
1.0
 50
90.0
 51
180.00000000000011
  0
LINE
  5
38C
  8
L-ZISSEN
  6
CONTINUOUS
 62
     7
 10
1028.0
 20
749.00000000000125
 30
0.0
 11
1045.5
 21
749.00000000000125
 31
0.0
  0
LINE
  5
38D
  8
L-ZISSEN
  6
CONTINUOUS
 62
     7
 10
1046.4999999999991
 20
799.9999999999992
 30
0.0
 11
1046.4999999999991
 21
750.00000000000125
 31
0.0
  0
LINE
  5
38E
  8
L-ZISSEN
  6
CONTINUOUS
 62
     7
 10
1028.0
 20
800.9999999999992
 30
0.0
 11
1045.5
 21
800.9999999999992
 31
0.0
  0
LINE
  5
38F
  8
L-ZISSEN
  6
CONTINUOUS
 62
     7
 10
1024.0
 20
801.9999999999992
 30
0.0
 11
1028.0
 21
801.9999999999992
 31
0.0
  0
LINE
  5
390
  8
L-ZISSEN
  6
CONTINUOUS
 62
     7
 10
1024.0
 20
748.00000000000125
 30
0.0
 11
1028.0
 21
748.00000000000125
 31
0.0
  0
LINE
  5
391
  8
L-ZISSEN
  6
CONTINUOUS
 62
     7
 10
1028.0
 20
801.9999999999992
 30
0.0
 11
1028.0
 21
748.00000000000125
 31
0.0
  0
LINE
  5
392
  8
L-ZISSEN
  6
CONTINUOUS
 62
     7
 10
1023.0
 20
800.9999999999992
 30
0.0
 11
1023.0
 21
749.00000000000125
 31
0.0
  0
LINE
  5
393
  8
L-ZISSEN
  6
CONTINUOUS
 62
     7
 10
574.00000000000068
 20
1093.0
 30
0.0
 11
625.99999999999875
 21
1093.0
 31
0.0
  0
LINE
  5
394
  8
L-ZISSEN
  6
CONTINUOUS
 62
     7
 10
573.00000000000057
 20
1098.0
 30
0.0
 11
626.99999999999875
 21
1098.0
 31
0.0
  0
LINE
  5
395
  8
L-ZISSEN
  6
CONTINUOUS
 62
     7
 10
626.99999999999875
 20
1094.0
 30
0.0
 11
626.99999999999875
 21
1098.0
 31
0.0
  0
LINE
  5
396
  8
L-ZISSEN
  6
CONTINUOUS
 62
     7
 10
573.00000000000057
 20
1094.0
 30
0.0
 11
573.00000000000057
 21
1098.0
 31
0.0
  0
LINE
  5
397
  8
L-ZISSEN
  6
CONTINUOUS
 62
     7
 10
574.00000000000091
 20
1098.0
 30
0.0
 11
574.00000000000091
 21
1115.5000000000009
 31
0.0
  0
LINE
  5
398
  8
L-ZISSEN
  6
CONTINUOUS
 62
     7
 10
575.0000000000008
 20
1116.5
 30
0.0
 11
624.99999999999875
 21
1116.5
 31
0.0
  0
LINE
  5
399
  8
L-ZISSEN
  6
CONTINUOUS
 62
     7
 10
625.99999999999875
 20
1098.0
 30
0.0
 11
625.99999999999875
 21
1115.5000000000009
 31
0.0
  0
ARC
  5
39A
  8
L-ZISSEN
  6
CONTINUOUS
 62
     7
 10
574.00000000000068
 20
1094.0
 30
0.0
 40
1.0
 50
180.0
 51
270.00000000000011
  0
ARC
  5
39B
  8
L-ZISSEN
  6
CONTINUOUS
 62
     7
 10
625.99999999999875
 20
1094.0
 30
0.0
 40
1.0
 50
270.00000000000011
 51
0.0
  0
ARC
  5
39C
  8
L-ZISSEN
  6
CONTINUOUS
 62
     7
 10
624.99999999999875
 20
1115.5000000000009
 30
0.0
 40
1.0
 50
0.0
 51
90.0
  0
ARC
  5
39D
  8
L-ZISSEN
  6
CONTINUOUS
 62
     7
 10
575.0000000000008
 20
1115.5000000000009
 30
0.0
 40
1.0
 50
90.0
 51
180.0
  0
LINE
  5
39E
  8
L-ZISSEN
  6
CONTINUOUS
 62
     7
 10
593.99999999999966
 20
1116.5
 30
0.0
 11
593.99999999999966
 21
1124.5
 31
0.0
  0
LINE
  5
39F
  8
L-ZISSEN
  6
CONTINUOUS
 62
     7
 10
593.99999999999966
 20
1124.5
 30
0.0
 11
605.99999999999966
 21
1124.5
 31
0.0
  0
LINE
  5
3A0
  8
L-ZISSEN
  6
CONTINUOUS
 62
     7
 10
605.99999999999966
 20
1124.5
 30
0.0
 11
605.99999999999966
 21
1116.5
 31
0.0
  0
LINE
  5
3A1
  8
L-ZISSEN
  6
CONTINUOUS
 62
     7
 10
595.00000000000489
 20
1124.5
 30
0.0
 11
595.00000000000489
 21
1130.0
 31
0.0
  0
LINE
  5
3A2
  8
L-ZISSEN
  6
CONTINUOUS
 62
     7
 10
604.99999999999466
 20
1124.5
 30
0.0
 11
604.99999999999466
 21
1130.0
 31
0.0
  0
LINE
  5
3A3
  8
L-TYUSIN
 10
570.00000000000011
 20
796.29381685119154
 30
0.0
 11
570.00000000000011
 21
771.00000000000011
 31
0.0
  0
LINE
  5
3A4
  8
L-SOUZOU
 10
562.99999999999875
 20
778.00000000000011
 30
0.0
 11
573.16718427000353
 21
778.00000000000011
 31
0.0
  0
LINE
  5
3A5
  8
L-SOUZOU
 10
546.49999999999955
 20
784.00000000000011
 30
0.0
 11
574.54415587728545
 21
784.00000000000011
 31
0.0
  0
LINE
  5
3A6
  8
L-SOUZOU
 10
563.42150000000379
 20
778.00000000000011
 30
0.0
 11
563.42150000000379
 21
775.0
 31
0.0
  0
LINE
  5
3A7
  8
L-SOUZOU
 10
562.99999999999875
 20
784.00000000000011
 30
0.0
 11
562.99999999999875
 21
778.00000000000011
 31
0.0
  0
LINE
  5
3A8
  8
L-TYUSIN
 10
562.50000000000023
 20
835.70000000000005
 30
0.0
 11
562.5
 21
780.00000000000011
 31
0.0
  0
LINE
  5
3A9
  8
L-SOUZOU
 10
546.49999999999955
 20
796.00000000000011
 30
0.0
 11
578.50000000000159
 21
796.00000000000011
 31
0.0
  0
LINE
  5
3AA
  8
L-SOUZOU
 10
546.49999999999955
 20
796.00000000000011
 30
0.0
 11
546.49999999999955
 21
784.00000000000011
 31
0.0
  0
LINE
  5
3AB
  8
L-SOUZOU
 10
578.49999999999955
 20
796.00000000000011
 30
0.0
 11
578.49999999999955
 21
791.33248297105945
 31
0.0
  0
LINE
  5
3AC
  8
L-SOUZOU
 10
548.75000000000068
 20
797.50000000000023
 30
0.0
 11
576.24999999999955
 21
797.50000000000011
 31
0.0
  0
LINE
  5
3AD
  8
L-SOUZOU
 10
548.74999999999864
 20
1147.2499999999991
 30
0.0
 11
548.74999999999864
 21
1170.7499999999991
 31
0.0
  0
LINE
  5
3AE
  8
L-SOUZOU
 10
551.50000000000045
 20
1122.2499999999991
 30
0.0
 11
551.50000000000023
 21
1145.2499999999991
 31
0.0
  0
LINE
  5
3AF
  8
L-SOUZOU
 10
551.50000000000023
 20
1122.2499999999991
 30
0.0
 11
573.50000000000045
 21
1122.2499999999991
 31
0.0
  0
LINE
  5
3B0
  8
L-SOUZOU
 10
573.50000000000045
 20
1122.2499999999991
 30
0.0
 11
573.50000000000045
 21
1145.2499999999991
 31
0.0
  0
LINE
  5
3B1
  8
L-SOUZOU
 10
573.50000000000045
 20
1114.2499999999991
 30
0.0
 11
573.50000000000045
 21
1119.2499999999991
 31
0.0
  0
LINE
  5
3B2
  8
L-SOUZOU
 10
571.50000000000023
 20
1122.2499999999991
 30
0.0
 11
571.50000000000023
 21
1119.2499999999991
 31
0.0
  0
LINE
  5
3B3
  8
L-SOUZOU
 10
551.50000000000023
 20
1119.2499999999991
 30
0.0
 11
573.50000000000045
 21
1119.2499999999991
 31
0.0
  0
LINE
  5
3B4
  8
L-SOUZOU
 10
551.50000000000023
 20
1114.2499999999991
 30
0.0
 11
573.50000000000045
 21
1114.2499999999991
 31
0.0
  0
LINE
  5
3B5
  8
L-SOUZOU
 10
553.50000000000023
 20
1122.2499999999991
 30
0.0
 11
553.50000000000023
 21
1119.2499999999991
 31
0.0
  0
LINE
  5
3B6
  8
L-SOUZOU
 10
551.50000000000023
 20
1114.2499999999991
 30
0.0
 11
551.50000000000023
 21
1119.2499999999991
 31
0.0
  0
LINE
  5
3B7
  8
L-SOUZOU
 10
574.25000000000182
 20
1172.7499999999991
 30
0.0
 11
550.74999999999864
 21
1172.7499999999991
 31
0.0
  0
LINE
  5
3B8
  8
L-SOUZOU
 10
576.25000000000171
 20
1147.2499999999991
 30
0.0
 11
576.25000000000171
 21
1170.7499999999991
 31
0.0
  0
LINE
  5
3B9
  8
L-SOUZOU
 10
574.25000000000182
 20
1145.2499999999991
 30
0.0
 11
550.74999999999864
 21
1145.2499999999991
 31
0.0
  0
ARC
  5
3BA
  8
L-SOUZOU
 10
574.25000000000171
 20
1170.7499999999991
 30
0.0
 40
2.0
 50
359.99999999999972
 51
89.999999999999886
  0
ARC
  5
3BB
  8
L-SOUZOU
 10
574.25000000000171
 20
1147.2499999999991
 30
0.0
 40
2.0
 50
269.99999999999977
 51
359.99999999999972
  0
ARC
  5
3BC
  8
L-SOUZOU
 10
550.74999999999852
 20
1147.2499999999991
 30
0.0
 40
2.0
 50
180.0
 51
269.99999999999977
  0
ARC
  5
3BD
  8
L-SOUZOU
 10
550.74999999999852
 20
1170.7499999999991
 30
0.0
 40
2.0
 50
89.999999999999986
 51
180.0
  0
LINE
  5
3BE
  8
L-SOUZOU
 10
578.50000000000023
 20
1142.9999999999991
 30
0.0
 11
573.50000000000045
 21
1142.9999999999991
 31
0.0
  0
LINE
  5
3BF
  8
L-SOUZOU
 10
578.50000000000023
 20
1174.9999999999991
 30
0.0
 11
546.50000000000023
 21
1174.9999999999991
 31
0.0
  0
LINE
  5
3C0
  8
L-TYUSIN
 10
582.50000000000114
 20
1159.0
 30
0.0
 11
542.49999999999932
 21
1159.0
 31
0.0
  0
LINE
  5
3C1
  8
L-SOUZOU
 10
578.50000000000023
 20
1143.0
 30
0.0
 11
578.50000000000023
 21
1175.0
 31
0.0
  0
LINE
  5
3C2
  8
L-SOUZOU
 10
546.50000000000023
 20
1143.0
 30
0.0
 11
546.50000000000023
 21
1175.0
 31
0.0
  0
LINE
  5
3C3
  8
L-SOUZOU
 10
551.50000000000045
 20
1142.9999999999991
 30
0.0
 11
546.50000000000023
 21
1142.9999999999991
 31
0.0
  0
LINE
  5
3C4
  8
L-TYUSIN
  6
CENTER
 62
     1
 10
1089.0
 20
835.70000000000005
 30
0.0
 11
1089.0
 21
771.00000000000023
 31
0.0
  0
LINE
  5
3C5
  8
L-SOUZOU
 10
550.75000000000102
 20
831.70000000000118
 30
0.0
 11
574.24999999999966
 21
831.70000000000118
 31
0.0
  0
LINE
  5
3C6
  8
L-SOUZOU
 10
548.75000000000102
 20
796.00000000000114
 30
0.0
 11
548.75000000000102
 21
829.70000000000107
 31
0.0
  0
LINE
  5
3C7
  8
L-SOUZOU
 10
576.24999999999955
 20
796.00000000000114
 30
0.0
 11
576.24999999999955
 21
829.70000000000107
 31
0.0
  0
LINE
  5
3C8
  8
L-TYUSIN
 10
542.49999999999898
 20
820.70000000000107
 30
0.0
 11
582.50000000000148
 21
820.70000000000095
 31
0.0
  0
LINE
  5
3C9
  8
L-SOUZOU
 10
1075.2500000000009
 20
797.50000000000023
 30
0.0
 11
1102.7499999999991
 21
797.50000000000011
 31
0.0
  0
LINE
  5
3CA
  8
L-SOUZOU
 10
1072.9999999999991
 20
796.00000000000011
 30
0.0
 11
1105.0000000000009
 21
796.00000000000011
 31
0.0
  0
LINE
  5
3CB
  8
L-SOUZOU
 10
1072.9999999999991
 20
796.00000000000011
 30
0.0
 11
1072.9999999999991
 21
784.00000000000011
 31
0.0
  0
LINE
  5
3CC
  8
L-SOUZOU
 10
1104.9999999999991
 20
796.00000000000011
 30
0.0
 11
1104.9999999999991
 21
784.00000000000011
 31
0.0
  0
LINE
  5
3CD
  8
L-SOUZOU
 10
1072.9999999999991
 20
784.00000000000011
 30
0.0
 11
1105.0000000000009
 21
784.00000000000011
 31
0.0
  0
LINE
  5
3CE
  8
L-SOUZOU
 10
1096.0000000000009
 20
784.00000000000011
 30
0.0
 11
1096.0000000000009
 21
778.00000000000011
 31
0.0
  0
LINE
  5
3CF
  8
L-SOUZOU
 10
1081.999999999998
 20
784.00000000000011
 30
0.0
 11
1081.999999999998
 21
778.00000000000011
 31
0.0
  0
LINE
  5
3D0
  8
L-SOUZOU
 10
1095.578499999996
 20
778.00000000000011
 30
0.0
 11
1095.578499999996
 21
775.0
 31
0.0
  0
LINE
  5
3D1
  8
L-SOUZOU
 10
1082.4215000000031
 20
778.00000000000011
 30
0.0
 11
1082.4215000000031
 21
775.0
 31
0.0
  0
LINE
  5
3D2
  8
L-SOUZOU
 10
1081.999999999998
 20
778.00000000000011
 30
0.0
 11
1096.0000000000009
 21
778.00000000000011
 31
0.0
  0
ARC
  5
3D3
  8
L-SOUZOU
 10
550.75000000000102
 20
829.70000000000107
 30
0.0
 40
2.0
 50
89.999999999999758
 51
180.0
  0
ARC
  5
3D4
  8
L-SOUZOU
 10
574.24999999999966
 20
829.70000000000107
 30
0.0
 40
2.0
 50
0.0
 51
89.999999999999744
  0
LINE
  5
424
  8
L-ZISSEN
  6
CONTINUOUS
 62
     7
 10
605.99999999999977
 20
369.46585609973067
 30
0.0
 11
605.99999999999977
 21
372.49999999999977
 31
0.0
  0
LINE
  5
425
  8
L-ZISSEN
  6
CONTINUOUS
 62
     7
 10
593.99999999999977
 20
369.46585609973067
 30
0.0
 11
593.99999999999977
 21
372.49999999999977
 31
0.0
  0
LINE
  5
426
  8
L-ZISSEN
  6
CONTINUOUS
 62
     7
 10
605.99999999999977
 20
372.49999999999977
 30
0.0
 11
593.99999999999977
 21
372.49999999999977
 31
0.0
  0
LINE
  5
427
  8
L-ZISSEN
 10
605.00000000000011
 20
374.67799852014161
 30
0.0
 11
605.00000000000011
 21
372.49999999999977
 31
0.0
  0
LINE
  5
428
  8
L-ZISSEN
 10
594.99999999999989
 20
374.67799852014161
 30
0.0
 11
594.99999999999989
 21
372.49999999999977
 31
0.0
  0
LINE
  5
429
  8
L-ZISSEN
 62
     7
 10
595.08818751625824
 20
377.50000000000028
 30
0.0
 11
594.99999999999989
 21
374.67799852014161
 31
0.0
  0
LINE
  5
42A
  8
L-SAISEN
 62
     6
 10
595.66918751625803
 20
377.50000000000028
 30
0.0
 11
595.51293756938935
 21
372.49999999999972
 31
0.0
  0
LINE
  5
42B
  8
L-SAISEN
 62
     6
 10
604.33081248374174
 20
377.50000000000028
 30
0.0
 11
604.48706243061031
 21
372.49999999999977
 31
0.0
  0
LINE
  5
42C
  8
L-ZISSEN
 62
     7
 10
604.91181248374176
 20
377.50000000000028
 30
0.0
 11
604.99999999999977
 21
374.67799852014377
 31
0.0
  0
LINE
  5
42D
  8
L-ZISSEN
 10
595.74999999999977
 20
346.7446820544908
 30
0.0
 11
595.74999999999977
 21
336.49999999999977
 31
0.0
  0
LINE
  5
42E
  8
L-ZISSEN
 10
604.24999999999977
 20
346.7446820544908
 30
0.0
 11
604.24999999999977
 21
336.49999999999977
 31
0.0
  0
LINE
  5
42F
  8
L-ZISSEN
 10
604.24999999999977
 20
336.49999999999977
 30
0.0
 11
595.74999999999977
 21
336.49999999999977
 31
0.0
  0
POLYLINE
  5
430
  8
L-ZISSEN
 66
     1
 10
0.0
 20
0.0
 30
0.0
 70
     1
  0
VERTEX
  5
A50
  8
L-ZISSEN
 10
597.97927405783616
 20
361.99999999999977
 30
0.0
  0
VERTEX
  5
A51
  8
L-ZISSEN
 10
595.95854811567244
 20
358.49999999999989
 30
0.0
  0
VERTEX
  5
A52
  8
L-ZISSEN
 10
597.97927405783616
 20
354.99999999999977
 30
0.0
  0
VERTEX
  5
A53
  8
L-ZISSEN
 10
602.02072594216349
 20
354.99999999999977
 30
0.0
  0
VERTEX
  5
A54
  8
L-ZISSEN
 10
604.04145188432733
 20
358.49999999999989
 30
0.0
  0
VERTEX
  5
A55
  8
L-ZISSEN
 10
602.02072594216361
 20
361.99999999999977
 30
0.0
  0
SEQEND
  5
A56
  8
L-ZISSEN
  0
CIRCLE
  5
438
  8
L-ZISSEN
 10
599.99999999999989
 20
358.49999999999989
 30
0.0
 40
12.5
  0
LINE
  5
439
  8
L-TYUSIN
 10
615.99999999999909
 20
358.49999999999977
 30
0.0
 11
584.00000000000057
 21
358.49999999999977
 31
0.0
  0
LINE
  5
43A
  8
L-ZISSEN
 10
517.39999999999975
 20
650.0
 30
0.0
 11
517.39999999999975
 21
404.49999999999989
 31
0.0
  0
LINE
  5
43B
  8
L-ZISSEN
 10
509.99999999999972
 20
404.49999999999989
 30
0.0
 11
690.00000000000011
 21
404.5
 31
0.0
  0
LINE
  5
43C
  8
L-ZISSEN
 10
682.59999999999991
 20
650.0
 30
0.0
 11
682.59999999999991
 21
404.49999999999989
 31
0.0
  0
LINE
  5
43D
  8
L-ZISSEN
 10
538.0
 20
404.49999999999989
 30
0.0
 11
538.00000000000023
 21
650.0
 31
0.0
  0
LINE
  5
43E
  8
L-ZISSEN
 10
526.0
 20
404.49999999999989
 30
0.0
 11
525.99999999999977
 21
650.0
 31
0.0
  0
LINE
  5
43F
  8
L-ZISSEN
 10
673.99999999999989
 20
404.49999999999989
 30
0.0
 11
674.0
 21
650.0
 31
0.0
  0
LINE
  5
440
  8
L-ZISSEN
 10
662.0
 20
404.49999999999989
 30
0.0
 11
661.99999999999966
 21
650.0
 31
0.0
  0
LINE
  5
441
  8
L-ZISSEN
 62
     7
 10
682.60000000000014
 20
409.57256252156822
 30
0.0
 11
684.92200147985807
 21
409.49999999999687
 31
0.0
  0
LINE
  5
442
  8
L-ZISSEN
 62
     7
 10
682.60000000000014
 20
419.4274374784257
 30
0.0
 11
684.92200147985591
 21
419.49999999999699
 31
0.0
  0
LINE
  5
443
  8
L-ZISSEN
 10
692.10000000000014
 20
436.49999999999699
 30
0.0
 11
705.10000000000014
 21
436.49999999999699
 31
0.0
  0
LINE
  5
444
  8
L-ZISSEN
 10
703.60000000000014
 20
423.49999999999699
 30
0.0
 11
703.60000000000014
 21
410.49999999999699
 31
0.0
  0
LINE
  5
445
  8
L-ZISSEN
 10
693.60000000000014
 20
423.49999999999699
 30
0.0
 11
693.60000000000014
 21
420.49999999999687
 31
0.0
  0
LINE
  5
446
  8
L-ZISSEN
 10
684.92200147985591
 20
419.49999999999699
 30
0.0
 11
692.60000000000014
 21
419.49999999999699
 31
0.0
  0
LINE
  5
447
  8
L-ZISSEN
 10
684.92200147985773
 20
409.49999999999687
 30
0.0
 11
702.60000000000014
 21
409.49999999999687
 31
0.0
  0
LINE
  5
448
  8
L-ZISSEN
 10
691.67179676972432
 20
427.49999999999699
 30
0.0
 11
705.52820323027549
 21
427.49999999999699
 31
0.0
  0
LINE
  5
449
  8
L-ZISSEN
 10
691.67179676972432
 20
434.99999999999699
 30
0.0
 11
705.52820323027549
 21
434.99999999999699
 31
0.0
  0
ARC
  5
44A
  8
L-ZISSEN
 10
702.60000000000014
 20
410.49999999999699
 30
0.0
 40
1.0
 50
270.0
 51
0.0000000000001781
  0
ARC
  5
44B
  8
L-ZISSEN
 10
692.60000000000014
 20
420.49999999999687
 30
0.0
 40
1.0
 50
270.0
 51
0.0
  0
LINE
  5
44C
  8
L-ZISSEN
 10
705.10000000000014
 20
436.49999999999699
 30
0.0
 11
705.10000000000014
 21
434.99999999999699
 31
0.0
  0
LINE
  5
44D
  8
L-ZISSEN
 10
705.52820323027549
 20
434.99999999999699
 30
0.0
 11
705.52820323027549
 21
427.49999999999699
 31
0.0
  0
LINE
  5
44E
  8
L-ZISSEN
 10
702.06410161513782
 20
434.99999999999699
 30
0.0
 11
702.06410161513782
 21
427.49999999999699
 31
0.0
  0
LINE
  5
44F
  8
L-ZISSEN
 10
695.13589838486234
 20
434.99999999999699
 30
0.0
 11
695.13589838486234
 21
427.49999999999699
 31
0.0
  0
LINE
  5
450
  8
L-ZISSEN
 10
691.67179676972432
 20
434.99999999999699
 30
0.0
 11
691.67179676972432
 21
427.49999999999699
 31
0.0
  0
LINE
  5
451
  8
L-ZISSEN
 10
692.10000000000014
 20
436.49999999999699
 30
0.0
 11
692.10000000000014
 21
434.99999999999699
 31
0.0
  0
LINE
  5
452
  8
L-ZISSEN
 10
693.10000000000014
 20
423.49999999999699
 30
0.0
 11
704.10000000000014
 21
423.49999999999699
 31
0.0
  0
LINE
  5
453
  8
L-ZISSEN
 10
704.10000000000014
 20
423.49999999999699
 30
0.0
 11
704.10000000000014
 21
427.49999999999699
 31
0.0
  0
LINE
  5
454
  8
L-ZISSEN
 10
693.10000000000014
 20
423.49999999999699
 30
0.0
 11
693.10000000000014
 21
427.49999999999699
 31
0.0
  0
LINE
  5
455
  8
L-SAISEN
 62
     6
 10
682.60000000000014
 20
410.15356252156829
 30
0.0
 11
687.10000000000014
 21
410.01293756938662
 31
0.0
  0
LINE
  5
456
  8
L-SAISEN
 62
     6
 10
682.60000000000014
 20
418.84643747842563
 30
0.0
 11
687.10000000000014
 21
418.98706243060752
 31
0.0
  0
LINE
  5
457
  8
L-ZISSEN
 10
687.10000000000014
 20
419.49999999999699
 30
0.0
 11
687.10000000000014
 21
409.49999999999687
 31
0.0
  0
LINE
  5
458
  8
L-SAISEN
 10
687.10000000000014
 20
418.98706243060752
 30
0.0
 11
687.98843393129368
 21
419.49999999999699
 31
0.0
  0
LINE
  5
459
  8
L-SAISEN
 10
687.10000000000014
 20
410.01293756938639
 30
0.0
 11
687.98843393129368
 21
409.49999999999687
 31
0.0
  0
LINE
  5
45A
  8
L-ZISSEN
 10
694.60000000000014
 20
616.49999999999704
 30
0.0
 11
694.60000000000014
 21
436.49999999999699
 31
0.0
  0
LINE
  5
45B
  8
L-ZISSEN
 10
702.60000000000014
 20
616.49999999999704
 30
0.0
 11
702.60000000000014
 21
436.49999999999699
 31
0.0
  0
LINE
  5
45C
  8
L-TYUSIN
 10
698.60000000000014
 20
414.50000000000028
 30
0.0
 11
698.5999999999998
 21
638.50000000000034
 31
0.0
  0
LINE
  5
45D
  8
L-ZISSEN
 10
693.10000000000014
 20
629.49999999999704
 30
0.0
 11
693.10000000000014
 21
625.49999999999704
 31
0.0
  0
LINE
  5
45E
  8
L-ZISSEN
 10
704.10000000000014
 20
629.49999999999704
 30
0.0
 11
704.10000000000014
 21
625.49999999999704
 31
0.0
  0
LINE
  5
45F
  8
L-ZISSEN
 10
693.10000000000014
 20
629.49999999999704
 30
0.0
 11
704.10000000000014
 21
629.49999999999704
 31
0.0
  0
LINE
  5
460
  8
L-ZISSEN
 10
692.10000000000014
 20
616.49999999999704
 30
0.0
 11
692.10000000000014
 21
617.99999999999704
 31
0.0
  0
LINE
  5
461
  8
L-ZISSEN
 10
691.67179676972432
 20
617.99999999999704
 30
0.0
 11
691.67179676972432
 21
625.49999999999704
 31
0.0
  0
LINE
  5
462
  8
L-ZISSEN
 10
695.13589838486234
 20
617.99999999999704
 30
0.0
 11
695.13589838486234
 21
625.49999999999704
 31
0.0
  0
LINE
  5
463
  8
L-ZISSEN
 10
702.06410161513782
 20
617.99999999999704
 30
0.0
 11
702.06410161513782
 21
625.49999999999704
 31
0.0
  0
LINE
  5
464
  8
L-ZISSEN
 10
705.52820323027549
 20
617.99999999999704
 30
0.0
 11
705.52820323027549
 21
625.49999999999704
 31
0.0
  0
LINE
  5
465
  8
L-ZISSEN
 10
705.10000000000014
 20
616.49999999999704
 30
0.0
 11
705.10000000000014
 21
617.99999999999704
 31
0.0
  0
LINE
  5
466
  8
L-ZISSEN
 10
691.67179676972432
 20
617.99999999999704
 30
0.0
 11
705.52820323027549
 21
617.99999999999704
 31
0.0
  0
LINE
  5
467
  8
L-ZISSEN
 10
691.67179676972432
 20
625.49999999999704
 30
0.0
 11
705.52820323027549
 21
625.49999999999704
 31
0.0
  0
LINE
  5
468
  8
L-ZISSEN
 10
693.60000000000014
 20
629.49999999999704
 30
0.0
 11
693.60000000000014
 21
632.49999999999704
 31
0.0
  0
LINE
  5
469
  8
L-ZISSEN
 10
692.10000000000014
 20
616.49999999999704
 30
0.0
 11
705.10000000000014
 21
616.49999999999704
 31
0.0
  0
LINE
  5
46A
  8
L-ZISSEN
 10
703.60000000000014
 20
629.49999999999704
 30
0.0
 11
703.60000000000014
 21
642.49999999999704
 31
0.0
  0
LINE
  5
46B
  8
L-ZISSEN
 62
     7
 10
682.60000000000014
 20
633.57256252156844
 30
0.0
 11
684.92200147985591
 21
633.49999999999704
 31
0.0
  0
LINE
  5
46C
  8
L-ZISSEN
 62
     7
 10
682.60000000000014
 20
643.42743747842587
 30
0.0
 11
684.92200147985807
 21
643.49999999999704
 31
0.0
  0
LINE
  5
46D
  8
L-SAISEN
 10
687.10000000000014
 20
642.98706243060769
 30
0.0
 11
687.98843393129368
 21
643.49999999999716
 31
0.0
  0
LINE
  5
46E
  8
L-SAISEN
 10
687.10000000000014
 20
634.01293756938662
 30
0.0
 11
687.98843393129368
 21
633.49999999999704
 31
0.0
  0
LINE
  5
46F
  8
L-ZISSEN
 10
687.10000000000014
 20
633.49999999999704
 30
0.0
 11
687.10000000000014
 21
643.49999999999716
 31
0.0
  0
ARC
  5
470
  8
L-ZISSEN
 10
692.60000000000014
 20
632.49999999999704
 30
0.0
 40
1.0
 50
0.0
 51
90.000000000000014
  0
ARC
  5
471
  8
L-ZISSEN
 10
702.60000000000014
 20
642.49999999999704
 30
0.0
 40
1.0
 50
359.99999999999977
 51
90.000000000000014
  0
LINE
  5
472
  8
L-ZISSEN
 10
684.92200147985591
 20
633.49999999999704
 30
0.0
 11
692.60000000000014
 21
633.49999999999704
 31
0.0
  0
LINE
  5
473
  8
L-ZISSEN
 10
684.92200147985773
 20
643.49999999999716
 30
0.0
 11
702.60000000000014
 21
643.49999999999716
 31
0.0
  0
LINE
  5
474
  8
L-SAISEN
 62
     6
 10
682.60000000000014
 20
642.84643747842574
 30
0.0
 11
687.10000000000014
 21
642.98706243060758
 31
0.0
  0
LINE
  5
475
  8
L-SAISEN
 62
     6
 10
682.60000000000014
 20
634.15356252156846
 30
0.0
 11
687.10000000000014
 21
634.01293756938662
 31
0.0
  0
LINE
  5
476
  8
L-TYUSIN
 10
672.59999999999991
 20
638.50000000000045
 30
0.0
 11
698.60000000000014
 21
638.50000000000045
 31
0.0
  0
LINE
  5
477
  8
L-TYUSIN
 10
672.59999999999991
 20
414.50000000000028
 30
0.0
 11
698.60000000000014
 21
414.50000000000028
 31
0.0
  0
LINE
  5
478
  8
L-ZISSEN
 10
519.99999999999955
 20
377.50000000000028
 30
0.0
 11
521.0303448853972
 21
377.50000000000028
 31
0.0
  0
LINE
  5
479
  8
L-ZISSEN
 10
519.99999999999932
 20
377.50000000000028
 30
0.0
 11
514.99999999999898
 21
382.50000000000028
 31
0.0
  0
LINE
  5
47A
  8
L-ZISSEN
 10
509.99999999999972
 20
404.50000000000023
 30
0.0
 11
509.99999999999972
 21
382.50000000000028
 31
0.0
  0
LINE
  5
47B
  8
L-ZISSEN
 10
680.00000000000057
 20
377.50000000000028
 30
0.0
 11
685.00000000000091
 21
382.50000000000028
 31
0.0
  0
LINE
  5
47C
  8
L-ZISSEN
 10
690.00000000000045
 20
382.50000000000028
 30
0.0
 11
509.9999999999996
 21
382.49999999999932
 31
0.0
  0
LINE
  5
47D
  8
L-ZISSEN
 10
690.00000000000023
 20
404.50000000000028
 30
0.0
 11
690.00000000000023
 21
382.50000000000028
 31
0.0
  0
LINE
  5
47E
  8
L-ZISSEN
 62
     7
 10
1154.911812483741
 20
377.50000000000023
 30
0.0
 11
1155.0
 21
374.67799852014173
 31
0.0
  0
LINE
  5
47F
  8
L-ZISSEN
 10
1060.0
 20
404.49999999999989
 30
0.0
 11
1240.0
 21
404.49999999999989
 31
0.0
  0
LINE
  5
480
  8
L-ZISSEN
 10
1076.0
 20
404.49999999999989
 30
0.0
 11
1076.0
 21
649.99999999999989
 31
0.0
  0
LINE
  5
481
  8
L-ZISSEN
 10
1088.0
 20
404.49999999999989
 30
0.0
 11
1088.0
 21
649.99999999999989
 31
0.0
  0
LINE
  5
482
  8
L-TYUSIN
  6
CENTER
 62
     1
 10
1082.0
 20
657.99999999999989
 30
0.0
 11
1082.0
 21
337.99999999999989
 31
0.0
  0
LINE
  5
483
  8
L-ZISSEN
 10
1212.0
 20
404.49999999999989
 30
0.0
 11
1212.0
 21
649.99999999999989
 31
0.0
  0
LINE
  5
484
  8
L-TYUSIN
  6
CENTER
 62
     1
 10
1218.0
 20
657.99999999999977
 30
0.0
 11
1218.0
 21
338.0
 31
0.0
  0
LINE
  5
485
  8
L-ZISSEN
 10
1224.0
 20
404.49999999999989
 30
0.0
 11
1224.0
 21
649.99999999999989
 31
0.0
  0
LINE
  5
486
  8
L-ZISSEN
 10
1232.599999999999
 20
649.99999999999989
 30
0.0
 11
1232.599999999999
 21
404.49999999999989
 31
0.0
  0
LINE
  5
487
  8
L-ZISSEN
 10
1067.4000000000001
 20
649.99999999999989
 30
0.0
 11
1067.4000000000001
 21
404.49999999999989
 31
0.0
  0
LINE
  5
488
  8
L-ZISSEN
 10
1060.0
 20
404.50000000000023
 30
0.0
 11
1060.0
 21
382.50000000000023
 31
0.0
  0
LINE
  5
489
  8
L-ZISSEN
 10
1069.9999999999991
 20
377.50000000000023
 30
0.0
 11
1064.9999999999991
 21
382.50000000000023
 31
0.0
  0
LINE
  5
48A
  8
L-ZISSEN
 10
1069.9999999999991
 20
377.50000000000023
 30
0.0
 11
1072.5
 21
377.50000000000023
 31
0.0
  0
LINE
  5
48B
  8
L-ZISSEN
 10
1230.0000000000009
 20
377.50000000000023
 30
0.0
 11
1235.0
 21
382.50000000000023
 31
0.0
  0
LINE
  5
48C
  8
L-ZISSEN
 10
1240.0
 20
404.50000000000023
 30
0.0
 11
1240.0
 21
382.50000000000023
 31
0.0
  0
LINE
  5
48D
  8
L-ZISSEN
 10
1240.0
 20
382.50000000000023
 30
0.0
 11
1060.0
 21
382.4999999999992
 31
0.0
  0
LINE
  5
48E
  8
L-ZISSEN
 10
538.0
 20
343.0
 30
0.0
 11
526.0
 21
343.0
 31
0.0
  0
LINE
  5
48F
  8
L-ZISSEN
 10
526.0
 20
343.0
 30
0.0
 11
526.0
 21
369.49999999999949
 31
0.0
  0
LINE
  5
490
  8
L-ZISSEN
 10
538.0
 20
343.0
 30
0.0
 11
538.0
 21
369.49999999999949
 31
0.0
  0
LINE
  5
491
  8
L-ZISSEN
 10
542.96965511460303
 20
379.49999999999949
 30
0.0
 11
521.0303448853972
 21
379.49999999999937
 31
0.0
  0
LINE
  5
492
  8
L-ZISSEN
 10
521.24999999999898
 20
382.49999999999937
 30
0.0
 11
521.24999999999898
 21
379.49999999999937
 31
0.0
  0
LINE
  5
493
  8
L-ZISSEN
 10
521.0303448853972
 20
379.49999999999949
 30
0.0
 11
521.0303448853972
 21
369.49999999999949
 31
0.0
  0
LINE
  5
494
  8
L-ZISSEN
 10
509.9999999999996
 20
369.49999999999949
 30
0.0
 11
593.99999999999966
 21
369.49999999999937
 31
0.0
  0
LINE
  5
495
  8
L-ZISSEN
 10
542.96965511460303
 20
379.49999999999949
 30
0.0
 11
542.96965511460303
 21
369.49999999999949
 31
0.0
  0
LINE
  5
496
  8
L-ZISSEN
 10
526.51517244269871
 20
379.49999999999937
 30
0.0
 11
526.5151724426986
 21
369.49999999999949
 31
0.0
  0
LINE
  5
497
  8
L-ZISSEN
 10
542.96965511460292
 20
377.50000000000028
 30
0.0
 11
657.03034488539674
 21
377.50000000000028
 31
0.0
  0
LINE
  5
498
  8
L-ZISSEN
 10
542.75000000000091
 20
382.49999999999937
 30
0.0
 11
542.75000000000091
 21
379.49999999999937
 31
0.0
  0
LINE
  5
499
  8
L-ZISSEN
 10
537.48482755730129
 20
379.49999999999937
 30
0.0
 11
537.4848275573014
 21
369.49999999999949
 31
0.0
  0
LINE
  5
49A
  8
L-ZISSEN
 10
509.9999999999996
 20
366.29999999999939
 30
0.0
 11
526.0
 21
366.29999999999939
 31
0.0
  0
LINE
  5
49B
  8
L-ZISSEN
 10
609.76780425684456
 20
366.29999999999939
 30
0.0
 11
661.99999999999966
 21
366.29999999999939
 31
0.0
  0
LINE
  5
49C
  8
L-ZISSEN
 10
538.0
 20
366.29999999999939
 30
0.0
 11
590.2321957431551
 21
366.29999999999939
 31
0.0
  0
LINE
  5
49D
  8
L-ZISSEN
 10
678.96965511460246
 20
379.49999999999949
 30
0.0
 11
678.96965511460246
 21
369.49999999999949
 31
0.0
  0
LINE
  5
49E
  8
L-ZISSEN
 10
673.48482755730106
 20
379.49999999999937
 30
0.0
 11
673.48482755730106
 21
369.49999999999949
 31
0.0
  0
LINE
  5
49F
  8
L-ZISSEN
 10
662.51517244269826
 20
379.49999999999937
 30
0.0
 11
662.51517244269826
 21
369.49999999999949
 31
0.0
  0
LINE
  5
4A0
  8
L-ZISSEN
 10
657.03034488539674
 20
379.49999999999949
 30
0.0
 11
657.03034488539674
 21
369.49999999999949
 31
0.0
  0
LINE
  5
4A1
  8
L-ZISSEN
 10
657.03034488539674
 20
379.49999999999949
 30
0.0
 11
678.96965511460235
 21
379.49999999999937
 31
0.0
  0
LINE
  5
4A2
  8
L-ZISSEN
 10
657.24999999999875
 20
382.49999999999937
 30
0.0
 11
657.24999999999875
 21
379.49999999999937
 31
0.0
  0
LINE
  5
4A3
  8
L-ZISSEN
 10
678.75000000000045
 20
382.49999999999937
 30
0.0
 11
678.75000000000045
 21
379.49999999999937
 31
0.0
  0
LINE
  5
4A4
  8
L-ZISSEN
 10
673.99999999999955
 20
343.0
 30
0.0
 11
673.99999999999955
 21
369.49999999999949
 31
0.0
  0
LINE
  5
4A5
  8
L-ZISSEN
 10
661.99999999999955
 20
343.0
 30
0.0
 11
661.99999999999966
 21
369.49999999999949
 31
0.0
  0
LINE
  5
4A6
  8
L-ZISSEN
 10
661.99999999999955
 20
343.0
 30
0.0
 11
673.99999999999955
 21
343.0
 31
0.0
  0
LINE
  5
4A7
  8
L-ZISSEN
 10
678.96965511460246
 20
377.50000000000028
 30
0.0
 11
680.00000000000057
 21
377.50000000000028
 31
0.0
  0
LINE
  5
4A8
  8
L-ZISSEN
 10
509.9999999999996
 20
369.49999999999949
 30
0.0
 11
509.99999999999989
 21
283.49999999999949
 31
0.0
  0
LINE
  5
4A9
  8
L-ZISSEN
 10
673.99999999999955
 20
366.29999999999939
 30
0.0
 11
690.00000000000023
 21
366.29999999999939
 31
0.0
  0
LINE
  5
4AA
  8
L-ZISSEN
 10
690.0
 20
369.49999999999949
 30
0.0
 11
689.99999999999955
 21
283.49999999999932
 31
0.0
  0
LINE
  5
4AB
  8
L-ZISSEN
 10
514.0
 20
279.49999999999949
 30
0.0
 11
685.99999999999955
 21
279.49999999999932
 31
0.0
  0
LINE
  5
4AC
  8
L-ZISSEN
 10
605.99999999999966
 20
369.49999999999937
 30
0.0
 11
690.0
 21
369.49999999999932
 31
0.0
  0
ARC
  5
4AD
  8
L-ZISSEN
 10
514.0
 20
283.49999999999949
 30
0.0
 40
4.0
 50
180.00000000000011
 51
269.99999999999989
  0
ARC
  5
4AE
  8
L-ZISSEN
 10
685.99999999999955
 20
283.49999999999932
 30
0.0
 40
4.0
 50
269.99999999999989
 51
359.99999999999972
  0
LINE
  5
4AF
  8
L-TYUSIN
 10
675.00000000000125
 20
301.49999999999932
 30
0.0
 11
645.00000000000023
 21
301.49999999999932
 31
0.0
  0
LINE
  5
4B0
  8
L-TYUSIN
 10
659.99999999999966
 20
313.50000000000142
 30
0.0
 11
659.99999999999966
 21
289.5000000000004
 31
0.0
  0
ARC
  5
4B1
  8
L-ZISSEN
 10
662.99999999999977
 20
301.49999999999932
 30
0.0
 40
7.0
 50
270.0
 51
90.0
  0
ARC
  5
4B2
  8
L-ZISSEN
 10
656.99999999999966
 20
301.49999999999932
 30
0.0
 40
7.0
 50
90.0
 51
270.0
  0
LINE
  5
4B3
  8
L-ZISSEN
 10
656.99999999999966
 20
308.49999999999989
 30
0.0
 11
662.99999999999977
 21
308.49999999999989
 31
0.0
  0
LINE
  5
4B4
  8
L-ZISSEN
 10
656.99999999999966
 20
294.49999999999858
 30
0.0
 11
662.99999999999977
 21
294.49999999999858
 31
0.0
  0
LINE
  5
4B5
  8
L-ZISSEN
 10
543.0
 20
294.49999999999858
 30
0.0
 11
537.0
 21
294.49999999999858
 31
0.0
  0
LINE
  5
4B6
  8
L-ZISSEN
 10
543.0
 20
308.49999999999989
 30
0.0
 11
537.0
 21
308.49999999999989
 31
0.0
  0
ARC
  5
4B7
  8
L-ZISSEN
 10
543.0
 20
301.49999999999932
 30
0.0
 40
7.0
 50
270.0
 51
90.0
  0
ARC
  5
4B8
  8
L-ZISSEN
 10
537.0
 20
301.49999999999932
 30
0.0
 40
7.0
 50
90.0
 51
270.0
  0
LINE
  5
4B9
  8
L-TYUSIN
 10
540.0
 20
313.50000000000142
 30
0.0
 11
540.0
 21
289.5000000000004
 31
0.0
  0
LINE
  5
4BA
  8
L-TYUSIN
 10
524.99999999999841
 20
301.49999999999932
 30
0.0
 11
554.99999999999955
 21
301.49999999999932
 31
0.0
  0
LINE
  5
4BB
  8
L-ZISSEN
 10
542.96965511460303
 20
366.2999999999995
 30
0.0
 11
542.96965511460303
 21
356.2999999999995
 31
0.0
  0
LINE
  5
4BC
  8
L-ZISSEN
 10
521.0303448853972
 20
366.2999999999995
 30
0.0
 11
521.0303448853972
 21
356.2999999999995
 31
0.0
  0
LINE
  5
4BD
  8
L-ZISSEN
 10
521.0303448853972
 20
356.29999999999961
 30
0.0
 11
526.0
 21
356.2999999999995
 31
0.0
  0
LINE
  5
4BE
  8
L-ZISSEN
 10
537.99999999999989
 20
356.2999999999995
 30
0.0
 11
542.96965511460292
 21
356.2999999999995
 31
0.0
  0
LINE
  5
4BF
  8
L-ZISSEN
 10
661.99999999999966
 20
356.2999999999995
 30
0.0
 11
657.03034488539674
 21
356.2999999999995
 31
0.0
  0
LINE
  5
4C0
  8
L-ZISSEN
 10
657.03034488539663
 20
366.2999999999995
 30
0.0
 11
657.03034488539663
 21
356.2999999999995
 31
0.0
  0
LINE
  5
4C1
  8
L-ZISSEN
 10
678.96965511460235
 20
366.2999999999995
 30
0.0
 11
678.96965511460235
 21
356.2999999999995
 31
0.0
  0
LINE
  5
4C2
  8
L-ZISSEN
 10
678.96965511460235
 20
356.29999999999961
 30
0.0
 11
673.99999999999955
 21
356.2999999999995
 31
0.0
  0
LINE
  5
4C3
  8
L-ZISSEN
 10
1197.0
 20
369.49999999999937
 30
0.0
 11
1257.0
 21
369.49999999999932
 31
0.0
  0
LINE
  5
4C4
  8
L-ZISSEN
 10
1253.8
 20
279.49999999999932
 30
0.0
 11
1257.0
 21
279.49999999999932
 31
0.0
  0
LINE
  5
4C5
  8
L-ZISSEN
 10
1257.0
 20
369.49999999999937
 30
0.0
 11
1257.0
 21
279.49999999999932
 31
0.0
  0
LINE
  5
4C6
  8
L-ZISSEN
 10
1253.8
 20
366.29999999999939
 30
0.0
 11
1253.8
 21
279.49999999999932
 31
0.0
  0
LINE
  5
4C7
  8
L-ZISSEN
 10
1197.0
 20
366.29999999999939
 30
0.0
 11
1253.8
 21
366.29999999999939
 31
0.0
  0
LINE
  5
4C8
  8
L-ZISSEN
 10
1197.0
 20
369.49999999999937
 30
0.0
 11
1197.0
 21
366.29999999999939
 31
0.0
  0
LINE
  5
4C9
  8
L-TYUSIN
 10
1262.0
 20
303.49999999999932
 30
0.0
 11
1248.8
 21
303.49999999999932
 31
0.0
  0
LINE
  5
4CA
  8
L-ZISSEN
 10
1071.2499999999991
 20
382.49999999999932
 30
0.0
 11
1071.2499999999991
 21
379.49999999999932
 31
0.0
  0
LINE
  5
4CB
  8
L-ZISSEN
 10
1071.2499999999991
 20
379.49999999999937
 30
0.0
 11
1092.75
 21
379.49999999999932
 31
0.0
  0
LINE
  5
4CC
  8
L-ZISSEN
 10
1092.75
 20
382.49999999999932
 30
0.0
 11
1092.75
 21
379.49999999999932
 31
0.0
  0
LINE
  5
4CD
  8
L-ZISSEN
 10
1072.5
 20
369.49999999999937
 30
0.0
 11
1091.5
 21
369.49999999999932
 31
0.0
  0
LINE
  5
4CE
  8
L-ZISSEN
 10
1072.5
 20
369.49999999999937
 30
0.0
 11
1072.5
 21
379.49999999999937
 31
0.0
  0
LINE
  5
4CF
  8
L-ZISSEN
 10
1091.5
 20
369.49999999999932
 30
0.0
 11
1091.5
 21
379.49999999999932
 31
0.0
  0
LINE
  5
4D0
  8
L-ZISSEN
 10
1091.5
 20
377.50000000000023
 30
0.0
 11
1208.4999999999991
 21
377.50000000000023
 31
0.0
  0
LINE
  5
4D1
  8
L-ZISSEN
 10
1082.0
 20
379.49999999999932
 30
0.0
 11
1082.0
 21
369.49999999999932
 31
0.0
  0
LINE
  5
4D2
  8
L-ZISSEN
 10
1228.75
 20
382.49999999999932
 30
0.0
 11
1228.75
 21
379.49999999999932
 31
0.0
  0
LINE
  5
4D3
  8
L-ZISSEN
 10
1207.2499999999991
 20
379.49999999999937
 30
0.0
 11
1228.75
 21
379.49999999999932
 31
0.0
  0
LINE
  5
4D4
  8
L-ZISSEN
 10
1207.2499999999991
 20
382.49999999999932
 30
0.0
 11
1207.2499999999991
 21
379.49999999999932
 31
0.0
  0
LINE
  5
4D5
  8
L-ZISSEN
 10
1218.0
 20
379.49999999999932
 30
0.0
 11
1218.0
 21
369.49999999999932
 31
0.0
  0
LINE
  5
4D6
  8
L-ZISSEN
 10
1227.5
 20
369.49999999999932
 30
0.0
 11
1227.5
 21
379.49999999999932
 31
0.0
  0
LINE
  5
4D7
  8
L-ZISSEN
 10
1208.5
 20
369.49999999999937
 30
0.0
 11
1208.5
 21
379.49999999999937
 31
0.0
  0
LINE
  5
4D8
  8
L-ZISSEN
 10
1208.5
 20
356.2999999999995
 30
0.0
 11
1208.5
 21
366.29999999999939
 31
0.0
  0
LINE
  5
4D9
  8
L-ZISSEN
 10
1208.5
 20
356.2999999999995
 30
0.0
 11
1227.5
 21
356.29999999999927
 31
0.0
  0
LINE
  5
4DA
  8
L-ZISSEN
 10
1227.5
 20
356.29999999999927
 30
0.0
 11
1227.5
 21
366.29999999999939
 31
0.0
  0
LINE
  5
4DB
  8
L-ZISSEN
 10
1218.0
 20
366.29999999999939
 30
0.0
 11
1218.0
 21
356.2999999999995
 31
0.0
  0
LINE
  5
4DC
  8
L-ZISSEN
 10
1227.5
 20
377.50000000000023
 30
0.0
 11
1230.0000000000009
 21
377.50000000000023
 31
0.0
  0
LINE
  5
4DD
  8
L-ZISSEN
 10
1212.0
 20
343.0
 30
0.0
 11
1212.0
 21
356.2999999999995
 31
0.0
  0
LINE
  5
4DE
  8
L-ZISSEN
 10
1224.0
 20
343.0
 30
0.0
 11
1223.9999999999991
 21
356.29999999999927
 31
0.0
  0
LINE
  5
4DF
  8
L-ZISSEN
 10
1212.0
 20
343.0
 30
0.0
 11
1224.0
 21
343.0
 31
0.0
  0
LINE
  5
4E0
  8
L-ZISSEN
 10
1088.0
 20
342.99999999999977
 30
0.0
 11
1088.0
 21
369.49999999999937
 31
0.0
  0
LINE
  5
4E1
  8
L-ZISSEN
 10
1076.0
 20
342.99999999999977
 30
0.0
 11
1076.0
 21
369.49999999999937
 31
0.0
  0
LINE
  5
4E2
  8
L-ZISSEN
 10
1076.0
 20
342.99999999999977
 30
0.0
 11
1088.0
 21
342.99999999999977
 31
0.0
  0
LINE
  5
4E3
  8
L-ZISSEN
 10
509.99999999999977
 20
1327.0
 30
0.0
 11
689.99999999999955
 21
1326.9999999999991
 31
0.0
  0
LINE
  5
4E4
  8
L-ZISSEN
 10
510.0000000000004
 20
1314.4931585181671
 30
0.0
 11
510.0000000000004
 21
1327.0
 31
0.0
  0
LINE
  5
4E5
  8
L-ZISSEN
 10
689.99999999999955
 20
1314.4931585181671
 30
0.0
 11
689.99999999999955
 21
1326.9999999999991
 31
0.0
  0
TEXT
  5
4E9
  8
L-ZISSEN
 10
80.003628277044299
 20
962.15518925175138
 30
0.0
 40
12.5
  1
TLB-*00-50**
  0
TEXT
  5
4EA
  8
L-ZISSEN
  6
CONTINUOUS
 10
405.0
 20
1025.0
 30
0.0
 40
15.0
  1
接続口
  7
KANJI
  0
TEXT
  5
4EC
  8
L-ZISSEN
  6
CONTINUOUS
 10
370.0
 20
1025.0
 30
0.0
 40
15.0
  1
電線
  7
KANJI
  0
TEXT
  5
4EF
  8
L-ZISSEN
  6
CONTINUOUS
 10
820.0
 20
640.0
 30
0.0
 40
15.0
  1
ポート
  7
KANJI
  0
TEXT
  5
4F0
  8
L-ZISSEN
  6
CONTINUOUS
 10
840.0
 20
890.0
 30
0.0
 40
15.0
  1
側
  7
KANJI
  0
TEXT
  5
4F2
  8
L-ZISSEN
  6
CONTINUOUS
 10
860.0
 20
890.0
 30
0.0
 40
15.0
  1
圧力
  7
KANJI
  0
LINE
  5
4F5
  8
L-ZISSEN
 10
612.3693168768483
 20
799.0
 30
0.0
 11
655.9999999999992
 21
799.0
 31
0.0
  0
LINE
  5
4F6
  8
L-ZISSEN
 10
610.19803902718274
 20
750.0
 30
0.0
 11
721.0
 21
750.0
 31
0.0
  0
CIRCLE
  5
4F7
  8
L-ZISSEN
 10
600.0
 20
700.0
 30
0.0
 40
2.0
  0
LINE
  5
4F8
  8
L-ZISSEN
 10
583.14702225138217
 20
714.14132741310402
 30
0.0
 11
607.66044443118733
 21
693.57212390313634
 31
0.0
  0
LINE
  5
4F9
  8
L-ZISSEN
 10
584.44365081389583
 20
790.55634918610451
 30
0.0
 11
607.07106781186314
 21
767.92893218813674
 31
0.0
  0
CIRCLE
  5
4FA
  8
L-ZISSEN
 10
600.0
 20
775.0
 30
0.0
 40
2.0
  0
CIRCLE
  5
4FB
  8
L-SOUZOU
 10
562.50000000000034
 20
820.70000000000107
 30
0.0
 40
11.00000000000011
  0
SOLID
  5
515
  8
L-ZISSEN
 10
727.94550245980588
 20
691.15015349297903
 30
0.0
 11
730.54839849128257
 21
693.23247031816027
 31
0.0
 12
723.0
 22
700.0
 32
0.0
 13
723.0
 23
700.0
 33
0.0
  0
LINE
  5
516
  8
L-ZISSEN
 10
729.24695047554428
 20
692.19131190556959
 30
0.0
 11
775.0
 21
635.0
 31
0.0
  0
LINE
  5
517
  8
L-ZISSEN
 10
775.0
 20
635.0
 30
0.0
 11
875.0
 21
635.0
 31
0.0
  0
LINE
  5
51C
  8
L-SOUZOU
 10
648.49999999999955
 20
1142.9999999999991
 30
0.0
 11
653.49999999999989
 21
1142.9999999999991
 31
0.0
  0
LINE
  5
51D
  8
L-SOUZOU
 10
648.49999999999989
 20
1114.2499999999991
 30
0.0
 11
648.49999999999989
 21
1119.2499999999991
 31
0.0
  0
LINE
  5
51E
  8
L-SOUZOU
 10
646.49999999999977
 20
1122.2499999999991
 30
0.0
 11
646.49999999999977
 21
1119.2499999999991
 31
0.0
  0
LINE
  5
51F
  8
L-SOUZOU
 10
648.49999999999989
 20
1114.2499999999991
 30
0.0
 11
626.49999999999966
 21
1114.2499999999991
 31
0.0
  0
LINE
  5
520
  8
L-SOUZOU
 10
648.49999999999989
 20
1119.2499999999991
 30
0.0
 11
626.49999999999966
 21
1119.2499999999991
 31
0.0
  0
LINE
  5
521
  8
L-SOUZOU
 10
628.49999999999989
 20
1122.2499999999991
 30
0.0
 11
628.49999999999989
 21
1119.2499999999991
 31
0.0
  0
LINE
  5
522
  8
L-SOUZOU
 10
626.49999999999966
 20
1114.2499999999991
 30
0.0
 11
626.49999999999966
 21
1119.2499999999991
 31
0.0
  0
LINE
  5
523
  8
L-SOUZOU
 10
626.49999999999966
 20
1122.2499999999991
 30
0.0
 11
626.49999999999966
 21
1145.2499999999991
 31
0.0
  0
LINE
  5
524
  8
L-SOUZOU
 10
648.49999999999989
 20
1122.2499999999991
 30
0.0
 11
626.49999999999966
 21
1122.2499999999991
 31
0.0
  0
LINE
  5
525
  8
L-SOUZOU
 10
648.49999999999955
 20
1122.2499999999991
 30
0.0
 11
648.49999999999989
 21
1145.2499999999991
 31
0.0
  0
LINE
  5
526
  8
L-SOUZOU
 10
621.49999999999977
 20
1142.9999999999991
 30
0.0
 11
626.49999999999966
 21
1142.9999999999991
 31
0.0
  0
LINE
  5
527
  8
L-SOUZOU
 10
625.74999999999829
 20
1145.2499999999991
 30
0.0
 11
649.25000000000136
 21
1145.2499999999991
 31
0.0
  0
LINE
  5
528
  8
L-TYUSIN
 10
637.49999999999989
 20
1179.0000000000009
 30
0.0
 11
637.49999999999989
 21
1110.2499999999991
 31
0.0
  0
LINE
  5
529
  8
L-TYUSIN
 10
617.49999999999898
 20
1159.0
 30
0.0
 11
657.5000000000008
 21
1159.0
 31
0.0
  0
LINE
  5
52A
  8
L-SOUZOU
 10
651.25000000000148
 20
1147.2499999999991
 30
0.0
 11
651.25000000000148
 21
1170.7499999999991
 31
0.0
  0
ARC
  5
52B
  8
L-SOUZOU
 10
649.25000000000148
 20
1147.2499999999991
 30
0.0
 40
2.0
 50
270.00000000000011
 51
359.99999999999989
  0
LINE
  5
52C
  8
L-SOUZOU
 10
653.49999999999989
 20
1143.0
 30
0.0
 11
653.49999999999989
 21
1175.0
 31
0.0
  0
LINE
  5
52D
  8
L-SOUZOU
 10
621.49999999999977
 20
1174.9999999999991
 30
0.0
 11
653.49999999999989
 21
1174.9999999999991
 31
0.0
  0
ARC
  5
52E
  8
L-SOUZOU
 10
649.25000000000148
 20
1170.7499999999991
 30
0.0
 40
2.0
 50
359.99999999999989
 51
90.000000000000014
  0
LINE
  5
52F
  8
L-SOUZOU
 10
625.74999999999829
 20
1172.7499999999991
 30
0.0
 11
649.25000000000136
 21
1172.7499999999991
 31
0.0
  0
ARC
  5
530
  8
L-SOUZOU
 10
625.74999999999841
 20
1170.7499999999991
 30
0.0
 40
2.0
 50
90.000000000000114
 51
180.0000000000002
  0
LINE
  5
531
  8
L-SOUZOU
 10
623.74999999999818
 20
1147.2499999999991
 30
0.0
 11
623.74999999999818
 21
1170.7499999999991
 31
0.0
  0
LINE
  5
532
  8
L-SOUZOU
 10
621.49999999999977
 20
1143.0
 30
0.0
 11
621.49999999999977
 21
1175.0
 31
0.0
  0
ARC
  5
533
  8
L-SOUZOU
 10
625.74999999999841
 20
1147.2499999999991
 30
0.0
 40
2.0
 50
180.00000000000031
 51
270.00000000000011
  0
LINE
  5
534
  8
L-TYUSIN
 10
1047.7499999999991
 20
820.70000000000005
 30
0.0
 11
1106.7499999999991
 21
820.69999999999982
 31
0.0
  0
LINE
  5
535
  8
L-SOUZOU
 10
1059.7499999999991
 20
811.70000000000005
 30
0.0
 11
1056.7499999999991
 21
811.70000000000005
 31
0.0
  0
LINE
  5
536
  8
L-SOUZOU
 10
1059.7499999999991
 20
829.70000000000005
 30
0.0
 11
1056.7499999999991
 21
829.70000000000005
 31
0.0
  0
LINE
  5
537
  8
L-SOUZOU
 10
1051.7499999999991
 20
809.70000000000005
 30
0.0
 11
1056.7499999999991
 21
809.70000000000005
 31
0.0
  0
LINE
  5
538
  8
L-SOUZOU
 10
1051.7499999999991
 20
831.70000000000005
 30
0.0
 11
1056.7499999999991
 21
831.70000000000005
 31
0.0
  0
LINE
  5
539
  8
L-SOUZOU
 10
1056.7499999999991
 20
809.70000000000005
 30
0.0
 11
1056.7499999999991
 21
831.70000000000005
 31
0.0
  0
LINE
  5
53A
  8
L-SOUZOU
 10
1051.7499999999991
 20
809.70000000000005
 30
0.0
 11
1051.7499999999991
 21
831.70000000000005
 31
0.0
  0
LINE
  5
53B
  8
L-SOUZOU
 10
1059.7499999999991
 20
809.70000000000005
 30
0.0
 11
1075.25
 21
809.70000000000005
 31
0.0
  0
LINE
  5
53C
  8
L-SOUZOU
 10
1059.7499999999991
 20
809.70000000000005
 30
0.0
 11
1059.7499999999991
 21
831.70000000000005
 31
0.0
  0
LINE
  5
53D
  8
L-SOUZOU
 10
1102.7499999999991
 20
796.00000000000011
 30
0.0
 11
1102.7499999999991
 21
831.70000000000005
 31
0.0
  0
LINE
  5
53E
  8
L-SOUZOU
 10
1059.7499999999991
 20
831.70000000000005
 30
0.0
 11
1102.7499999999991
 21
831.70000000000005
 31
0.0
  0
LINE
  5
53F
  8
L-SOUZOU
 10
1075.25
 20
796.00000000000011
 30
0.0
 11
1075.25
 21
831.70000000000005
 31
0.0
  0
TEXT
  5
540
  8
L-ZISSEN
  6
CONTINUOUS
 10
340.0
 20
1045.0
 30
0.0
 40
15.0
  1
レベルスイッチ
  7
KANJI
  0
TEXT
  5
541
  8
L-ZISSEN
  6
CONTINUOUS
 10
465.0
 20
1045.0
 30
0.0
 40
15.0
  1
用
  7
KANJI
  0
TEXT
  5
542
  8
L-ZISSEN
 10
390.0
 20
1000.0
 30
0.0
 40
12.5
  1
PG11
  0
LINE
  5
543
  8
L-ZISSEN
 10
485.0
 20
1020.0
 30
0.0
 11
335.0
 21
1020.0
 31
0.0
  0
TEXT
  5
544
  8
L-ZISSEN
  6
CONTINUOUS
 10
322.5
 20
1095.0
 30
0.0
 40
15.0
  1
の
  7
KANJI
  0
TEXT
  5
545
  8
L-ZISSEN
  6
CONTINUOUS
 10
850.0
 20
1110.0
 30
0.0
 40
15.0
  1
桁目
  7
KANJI
  0
TEXT
  5
546
  8
L-ZISSEN
  6
CONTINUOUS
 10
750.0
 20
1110.0
 30
0.0
 40
15.0
  1
形式番号
  7
KANJI
  0
TEXT
  5
547
  8
L-ZISSEN
 10
825.0
 20
1110.0
 30
0.0
 40
12.5
  1
10
  0
TEXT
  5
548
  8
L-ZISSEN
  6
CONTINUOUS
 10
320.0
 20
1120.0
 30
0.0
 40
15.0
  1
レベルスイッチ
  7
KANJI
  0
TEXT
  5
549
  8
L-ZISSEN
  6
CONTINUOUS
 10
340.0
 20
1095.0
 30
0.0
 40
15.0
  1
場合
  7
KANJI
  0
TEXT
  5
54A
  8
L-ZISSEN
  6
CONTINUOUS
 10
1030.0
 20
1110.0
 30
0.0
 40
15.0
  1
の
  7
KANJI
  0
TEXT
  5
54B
  8
L-ZISSEN
  6
CONTINUOUS
 10
1045.0
 20
1110.0
 30
0.0
 40
15.0
  1
場合
  7
KANJI
  0
TEXT
  5
54C
  8
L-ZISSEN
  6
CONTINUOUS
 10
750.0
 20
1085.0
 30
0.0
 40
15.0
  1
のみ
  7
KANJI
  0
TEXT
  5
54D
  8
L-ZISSEN
  6
CONTINUOUS
 10
785.0
 20
1085.0
 30
0.0
 40
15.0
  1
付いています.
  7
KANJI
  0
TEXT
  5
54E
  8
L-ZISSEN
  6
CONTINUOUS
 10
445.0
 20
1120.0
 30
0.0
 40
15.0
  1
付
  7
KANJI
  0
TEXT
  5
54F
  8
L-ZISSEN
 10
890.0
 20
1110.0
 30
0.0
 40
12.5
  1
"6","E","F","G"
  0
TEXT
  5
550
  8
L-ZISSEN
  6
CONTINUOUS
 10
375.0
 20
1095.0
 30
0.0
 40
15.0
  1
付いています.
  7
KANJI
  0
LINE
  5
551
  8
L-ZISSEN
 10
484.99999999999989
 20
1090.0
 30
0.0
 11
320.0
 21
1090.0
 31
0.0
  0
LINE
  5
552
  8
L-ZISSEN
 10
745.0
 20
1080.0
 30
0.0
 11
1085.0
 21
1080.0
 31
0.0
  0
TEXT
  5
581
  8
L-ZISSEN
 10
780.0
 20
640.0
 30
0.0
 40
12.5
  1
OUT
  0
TEXT
  5
582
  8
L-ZISSEN
 10
790.0
 20
615.0
 30
0.0
 40
12.5
  1
Rc 1  
  0
TEXT
  5
583
  8
L-ZISSEN
 10
790.0
 20
595.0
 30
0.0
 40
12.5
  1
Rc 1  
  0
TEXT
  5
584
  8
L-ZISSEN
 10
790.0
 20
575.0
 30
0.0
 40
12.5
  1
Rc 2
  0
TEXT
  5
585
  8
L-ZISSEN
 10
835.0
 20
620.0
 30
0.0
 40
10.0
  1
1
  0
TEXT
  5
586
  8
L-ZISSEN
 10
850.0
 20
615.0
 30
0.0
 40
10.0
  1
4
  0
LINE
  5
587
  8
L-ZISSEN
 10
837.5
 20
615.0
 30
0.0
 11
851.64213562373095
 21
629.14213562373095
 31
0.0
  0
TEXT
  5
588
  8
L-ZISSEN
 10
850.0
 20
595.0
 30
0.0
 40
10.0
  1
2
  0
LINE
  5
589
  8
L-ZISSEN
 10
837.5
 20
595.0
 30
0.0
 11
851.64213562373095
 21
609.14213562373095
 31
0.0
  0
TEXT
  5
58A
  8
L-ZISSEN
 10
835.0
 20
600.0
 30
0.0
 40
10.0
  1
1
  0
TEXT
  5
58B
  8
L-ZISSEN
 10
255.0
 20
600.0
 30
0.0
 40
10.0
  1
1
  0
LINE
  5
58C
  8
L-ZISSEN
 10
257.5
 20
595.0
 30
0.0
 11
271.64213562373089
 21
609.14213562373095
 31
0.0
  0
TEXT
  5
58D
  8
L-ZISSEN
 10
270.0
 20
595.0
 30
0.0
 40
10.0
  1
2
  0
LINE
  5
58E
  8
L-ZISSEN
 10
257.5
 20
615.0
 30
0.0
 11
271.64213562373089
 21
629.14213562373095
 31
0.0
  0
TEXT
  5
58F
  8
L-ZISSEN
 10
270.0
 20
615.0
 30
0.0
 40
10.0
  1
4
  0
TEXT
  5
590
  8
L-ZISSEN
 10
255.0
 20
620.0
 30
0.0
 40
10.0
  1
1
  0
TEXT
  5
591
  8
L-ZISSEN
 10
210.0
 20
575.0
 30
0.0
 40
12.5
  1
Rc 2
  0
TEXT
  5
592
  8
L-ZISSEN
 10
210.0
 20
595.0
 30
0.0
 40
12.5
  1
Rc 1  
  0
TEXT
  5
593
  8
L-ZISSEN
 10
210.0
 20
615.0
 30
0.0
 40
12.5
  1
Rc 1  
  0
TEXT
  5
594
  8
L-ZISSEN
  6
CONTINUOUS
 10
230.0
 20
640.0
 30
0.0
 40
15.0
  1
ポート
  7
KANJI
  0
SOLID
  5
595
  8
L-ZISSEN
 10
466.993630358448
 20
698.37201217006793
 30
0.0
 11
468.06251125688829
 21
695.2147024392907
 31
0.0
 12
476.99999999999989
 22
700.0
 32
0.0
 13
476.99999999999989
 23
700.0
 33
0.0
  0
LINE
  5
596
  8
L-ZISSEN
 10
467.52807080766809
 20
696.79335730467915
 30
0.0
 11
285.0
 21
634.99999999999977
 31
0.0
  0
TEXT
  5
597
  8
L-ZISSEN
 10
210.0
 20
640.0
 30
0.0
 40
12.5
  1
IN
  0
LINE
  5
598
  8
L-ZISSEN
 10
205.0
 20
635.0
 30
0.0
 11
285.0
 21
635.0
 31
0.0
  0
LINE
  5
59D
  8
L-ZISSEN
 10
800.0
 20
910.0
 30
0.0
 11
900.0
 21
910.0
 31
0.0
  0
SOLID
  5
59E
  8
L-ZISSEN
 10
631.59985569913317
 20
794.31908117824594
 30
0.0
 11
629.73494618246298
 21
797.08191009183145
 31
0.0
 12
622.37891420004155
 22
790.10576708502799
 32
0.0
 13
622.37891420004155
 23
790.10576708502799
 33
0.0
  0
LINE
  5
59F
  8
L-ZISSEN
 10
630.66740094079807
 20
795.70049563503881
 30
0.0
 11
800.0
 21
910.0
 31
0.0
  0
TEXT
  5
5A3
  8
L-ZISSEN
  6
CONTINUOUS
 10
825.0
 20
915.0
 30
0.0
 40
15.0
  1
圧力計
  7
KANJI
  0
ARC
  5
5A4
  8
L-SOUZOU
 10
649.24999999999886
 20
829.70000000000107
 30
0.0
 40
2.0
 50
0.000000000000007
 51
90.000000000000242
  0
LINE
  5
5A5
  8
L-SOUZOU
 10
651.24999999999886
 20
796.00000000000114
 30
0.0
 11
651.24999999999886
 21
829.70000000000107
 31
0.0
  0
LINE
  5
5A6
  8
L-SOUZOU
 10
653.50000000000045
 20
796.00000000000011
 30
0.0
 11
653.50000000000045
 21
784.00000000000011
 31
0.0
  0
LINE
  5
5A7
  8
L-SOUZOU
 10
649.24999999999886
 20
831.70000000000118
 30
0.0
 11
625.75000000000034
 21
831.70000000000118
 31
0.0
  0
CIRCLE
  5
5A8
  8
L-SOUZOU
 10
637.49999999999955
 20
820.70000000000107
 30
0.0
 40
11.00000000000011
  0
LINE
  5
5A9
  8
L-TYUSIN
 10
657.50000000000091
 20
820.70000000000107
 30
0.0
 11
617.49999999999852
 21
820.70000000000095
 31
0.0
  0
LINE
  5
5AA
  8
L-TYUSIN
 10
637.49999999999977
 20
835.70000000000005
 30
0.0
 11
637.49999999999989
 21
780.00000000000011
 31
0.0
  0
ARC
  5
5AB
  8
L-SOUZOU
 10
625.75000000000034
 20
829.70000000000107
 30
0.0
 40
2.0
 50
90.000000000000256
 51
180.0
  0
LINE
  5
5AC
  8
L-SOUZOU
 10
623.75000000000034
 20
796.00000000000114
 30
0.0
 11
623.75000000000034
 21
829.70000000000107
 31
0.0
  0
LINE
  5
5AD
  8
L-SOUZOU
 10
651.2499999999992
 20
797.50000000000023
 30
0.0
 11
623.75000000000045
 21
797.50000000000011
 31
0.0
  0
LINE
  5
5AE
  8
L-SOUZOU
 10
653.50000000000045
 20
796.00000000000011
 30
0.0
 11
621.49999999999829
 21
796.00000000000011
 31
0.0
  0
LINE
  5
5AF
  8
L-SOUZOU
 10
621.50000000000045
 20
796.00000000000011
 30
0.0
 11
621.50000000000045
 21
791.33248297105945
 31
0.0
  0
LINE
  5
5B0
  8
L-SOUZOU
 10
653.50000000000045
 20
784.00000000000011
 30
0.0
 11
625.45584412271455
 21
784.00000000000011
 31
0.0
  0
LINE
  5
5B1
  8
L-SOUZOU
 10
637.00000000000125
 20
784.00000000000011
 30
0.0
 11
637.00000000000125
 21
778.00000000000011
 31
0.0
  0
LINE
  5
5B2
  8
L-SOUZOU
 10
636.57849999999621
 20
778.00000000000011
 30
0.0
 11
636.57849999999621
 21
775.0
 31
0.0
  0
LINE
  5
5B3
  8
L-SOUZOU
 10
637.00000000000114
 20
778.00000000000011
 30
0.0
 11
626.83281572999636
 21
778.00000000000011
 31
0.0
  0
LINE
  5
5B4
  8
L-TYUSIN
 10
629.99999999999977
 20
796.29381685119154
 30
0.0
 11
629.99999999999977
 21
771.00000000000011
 31
0.0
  0
TEXT
  5
5B5
  8
L-ZISSEN
 10
804.99999377162612
 20
889.99995121107258
 30
0.0
 40
15.0
  1
一次
  7
KANJI
  0
CIRCLE
  5
5B8
  8
L-ZISSEN
 10
525.0
 20
1295.0
 30
0.0
 40
9.0
  0
CIRCLE
  5
5B9
  8
L-ZISSEN
 10
674.99999999999989
 20
1290.0
 30
0.0
 40
9.0
  0
LINE
  5
5BA
  8
L-TYUSIN
 10
660.000000000005
 20
1290.0
 30
0.0
 11
689.99999999999466
 21
1290.0
 31
0.0
  0
LINE
  5
5BB
  8
L-TYUSIN
 10
674.99999999999989
 20
1304.999999999992
 30
0.0
 11
674.99999999999989
 21
1275.000000000007
 31
0.0
  0
CIRCLE
  5
5BC
  8
L-ZISSEN
 10
674.99999999999989
 20
1150.0
 30
0.0
 40
9.0
  0
CIRCLE
  5
5BD
  8
L-ZISSEN
 10
525.0
 20
1145.0
 30
0.0
 40
9.0
  0
LINE
  5
5BE
  8
L-ZISSEN
 10
549.81495457622373
 20
1322.6999999999989
 30
0.0
 11
530.18504542377616
 21
1322.6999999999989
 31
0.0
  0
LINE
  5
5BF
  8
L-ZISSEN
 10
530.18504542377616
 20
1322.6999999999989
 30
0.0
 11
530.18504542377616
 21
1315.6999999999989
 31
0.0
  0
LINE
  5
5C0
  8
L-ZISSEN
 10
535.09252271188802
 20
1315.6999999999989
 30
0.0
 11
535.09252271188802
 21
1322.6999999999989
 31
0.0
  0
LINE
  5
5C1
  8
L-ZISSEN
 10
544.90747728811209
 20
1315.6999999999989
 30
0.0
 11
544.90747728811209
 21
1322.6999999999989
 31
0.0
  0
LINE
  5
5C2
  8
L-ZISSEN
 10
549.81495457622384
 20
1322.6999999999989
 30
0.0
 11
549.81495457622384
 21
1315.6999999999989
 31
0.0
  0
LINE
  5
5C3
  8
L-ZISSEN
 10
650.18504542377627
 20
1322.6999999999989
 30
0.0
 11
650.18504542377627
 21
1315.6999999999989
 31
0.0
  0
LINE
  5
5C4
  8
L-ZISSEN
 10
655.09252271188802
 20
1315.6999999999989
 30
0.0
 11
655.09252271188802
 21
1322.6999999999989
 31
0.0
  0
LINE
  5
5C5
  8
L-ZISSEN
 10
664.90747728811209
 20
1315.6999999999989
 30
0.0
 11
664.90747728811209
 21
1322.6999999999989
 31
0.0
  0
LINE
  5
5C6
  8
L-ZISSEN
 10
669.81495457622384
 20
1322.6999999999989
 30
0.0
 11
669.81495457622384
 21
1315.6999999999989
 31
0.0
  0
LINE
  5
5C7
  8
L-ZISSEN
 10
650.18504542377627
 20
1322.6999999999989
 30
0.0
 11
669.81495457622384
 21
1322.6999999999989
 31
0.0
  0
LINE
  5
5C8
  8
L-ZISSEN
 10
650.18504542377627
 20
1315.6999999999989
 30
0.0
 11
669.81495457622384
 21
1315.6999999999989
 31
0.0
  0
LINE
  5
5C9
  8
L-TYUSIN
 10
525.0
 20
760.0
 30
0.0
 11
525.0
 21
785.0
 31
0.0
  0
LINE
  5
5CA
  8
L-ZISSEN
 10
514.25
 20
768.0
 30
0.0
 11
535.74999999999989
 21
768.0
 31
0.0
  0
LINE
  5
5CB
  8
L-ZISSEN
 10
514.25
 20
768.0
 30
0.0
 11
514.25
 21
765.0
 31
0.0
  0
LINE
  5
5CC
  8
L-ZISSEN
 10
516.0
 20
780.0
 30
0.0
 11
534.0
 21
780.0
 31
0.0
  0
LINE
  5
5CD
  8
L-ZISSEN
 10
516.0
 20
780.0
 30
0.0
 11
516.0
 21
768.0
 31
0.0
  0
LINE
  5
5CE
  8
L-ZISSEN
 10
534.0
 20
780.0
 30
0.0
 11
534.0
 21
768.0
 31
0.0
  0
LINE
  5
5CF
  8
L-ZISSEN
 10
535.74999999999989
 20
768.0
 30
0.0
 11
535.74999999999989
 21
765.0
 31
0.0
  0
LINE
  5
5D0
  8
L-ZISSEN
 10
664.24999999999989
 20
768.0
 30
0.0
 11
664.24999999999989
 21
765.0
 31
0.0
  0
LINE
  5
5D1
  8
L-ZISSEN
 10
665.99999999999989
 20
780.0
 30
0.0
 11
665.99999999999989
 21
768.0
 31
0.0
  0
LINE
  5
5D2
  8
L-ZISSEN
 10
683.99999999999977
 20
780.0
 30
0.0
 11
665.99999999999989
 21
780.0
 31
0.0
  0
LINE
  5
5D3
  8
L-TYUSIN
 10
674.99999999999989
 20
760.0
 30
0.0
 11
674.99999999999989
 21
785.0
 31
0.0
  0
LINE
  5
5D4
  8
L-ZISSEN
 10
683.99999999999977
 20
780.0
 30
0.0
 11
683.99999999999977
 21
768.0
 31
0.0
  0
LINE
  5
5D5
  8
L-ZISSEN
 10
685.74999999999989
 20
768.0
 30
0.0
 11
664.24999999999989
 21
768.0
 31
0.0
  0
LINE
  5
5D6
  8
L-ZISSEN
 10
685.74999999999989
 20
768.0
 30
0.0
 11
685.74999999999989
 21
765.0
 31
0.0
  0
LINE
  5
5D7
  8
L-ZISSEN
 10
1230.75
 20
768.0
 30
0.0
 11
1230.75
 21
765.0
 31
0.0
  0
LINE
  5
5D8
  8
L-ZISSEN
 10
1230.75
 20
768.0
 30
0.0
 11
1209.25
 21
768.0
 31
0.0
  0
LINE
  5
5D9
  8
L-ZISSEN
 10
1229.0
 20
780.0
 30
0.0
 11
1229.0
 21
768.0
 31
0.0
  0
LINE
  5
5DA
  8
L-ZISSEN
 10
1229.0
 20
780.0
 30
0.0
 11
1211.0
 21
780.0
 31
0.0
  0
LINE
  5
5DB
  8
L-ZISSEN
 10
1211.0
 20
780.0
 30
0.0
 11
1211.0
 21
768.0
 31
0.0
  0
LINE
  5
5DC
  8
L-ZISSEN
 10
1209.25
 20
768.0
 30
0.0
 11
1209.25
 21
765.0
 31
0.0
  0
LINE
  5
5DD
  8
L-TYUSIN
 10
1220.0
 20
760.0
 30
0.0
 11
1220.0
 21
785.0
 31
0.0
  0
LINE
  5
5DE
  8
L-ZISSEN
 10
1071.0
 20
780.0
 30
0.0
 11
1089.0
 21
780.0
 31
0.0
  0
LINE
  5
5DF
  8
L-ZISSEN
 10
1089.0
 20
780.0
 30
0.0
 11
1089.0
 21
768.0
 31
0.0
  0
LINE
  5
5E0
  8
L-TYUSIN
 10
1080.0
 20
760.0
 30
0.0
 11
1080.0
 21
785.0
 31
0.0
  0
LINE
  5
5E1
  8
L-ZISSEN
 10
1071.0
 20
780.0
 30
0.0
 11
1071.0
 21
768.0
 31
0.0
  0
LINE
  5
5E2
  8
L-ZISSEN
 10
1069.25
 20
768.0
 30
0.0
 11
1090.75
 21
768.0
 31
0.0
  0
LINE
  5
5E3
  8
L-ZISSEN
 10
1069.25
 20
768.0
 30
0.0
 11
1069.25
 21
765.0
 31
0.0
  0
LINE
  5
5E4
  8
L-ZISSEN
 10
1090.75
 20
768.0
 30
0.0
 11
1090.75
 21
765.0
 31
0.0
  0
CIRCLE
  5
5E5
  8
L-ZISSEN
 10
525.0
 20
1295.0
 30
0.0
 40
10.749999999999989
  0
POLYLINE
  5
5E6
  8
L-ZISSEN
 66
     1
 10
0.0
 20
0.0
 30
0.0
 70
     1
  0
VERTEX
  5
A57
  8
L-ZISSEN
 10
522.11324865405174
 20
1300.0
 30
0.0
  0
VERTEX
  5
A58
  8
L-ZISSEN
 10
519.2264973081036
 20
1295.0
 30
0.0
  0
VERTEX
  5
A59
  8
L-ZISSEN
 10
522.11324865405174
 20
1290.0
 30
0.0
  0
VERTEX
  5
A5A
  8
L-ZISSEN
 10
527.88675134594814
 20
1290.0
 30
0.0
  0
VERTEX
  5
A5B
  8
L-ZISSEN
 10
530.77350269189628
 20
1295.0
 30
0.0
  0
VERTEX
  5
A5C
  8
L-ZISSEN
 10
527.88675134594814
 20
1300.0
 30
0.0
  0
SEQEND
  5
A5D
  8
L-ZISSEN
  0
POLYLINE
  5
5EE
  8
L-ZISSEN
 66
     1
 10
0.0
 20
0.0
 30
0.0
 70
     1
  0
VERTEX
  5
A5E
  8
L-ZISSEN
 10
522.11324865405174
 20
1150.0
 30
0.0
  0
VERTEX
  5
A5F
  8
L-ZISSEN
 10
519.2264973081036
 20
1145.0
 30
0.0
  0
VERTEX
  5
A60
  8
L-ZISSEN
 10
522.11324865405174
 20
1140.0
 30
0.0
  0
VERTEX
  5
A61
  8
L-ZISSEN
 10
527.88675134594814
 20
1140.0
 30
0.0
  0
VERTEX
  5
A62
  8
L-ZISSEN
 10
530.77350269189628
 20
1145.0
 30
0.0
  0
VERTEX
  5
A63
  8
L-ZISSEN
 10
527.88675134594814
 20
1150.0
 30
0.0
  0
SEQEND
  5
A64
  8
L-ZISSEN
  0
CIRCLE
  5
5F6
  8
L-ZISSEN
 10
525.0
 20
1145.0
 30
0.0
 40
10.749999999999989
  0
POLYLINE
  5
5F7
  8
L-ZISSEN
 66
     1
 10
0.0
 20
0.0
 30
0.0
 70
     1
  0
VERTEX
  5
A65
  8
L-ZISSEN
 10
672.11324865405174
 20
1155.0
 30
0.0
  0
VERTEX
  5
A66
  8
L-ZISSEN
 10
669.22649730810349
 20
1150.0
 30
0.0
  0
VERTEX
  5
A67
  8
L-ZISSEN
 10
672.11324865405174
 20
1145.0
 30
0.0
  0
VERTEX
  5
A68
  8
L-ZISSEN
 10
677.88675134594803
 20
1145.0
 30
0.0
  0
VERTEX
  5
A69
  8
L-ZISSEN
 10
680.77350269189617
 20
1150.0
 30
0.0
  0
VERTEX
  5
A6A
  8
L-ZISSEN
 10
677.88675134594803
 20
1155.0
 30
0.0
  0
SEQEND
  5
A6B
  8
L-ZISSEN
  0
CIRCLE
  5
5FF
  8
L-ZISSEN
 10
674.99999999999989
 20
1150.0
 30
0.0
 40
10.749999999999989
  0
POLYLINE
  5
600
  8
L-ZISSEN
 66
     1
 10
0.0
 20
0.0
 30
0.0
 70
     1
  0
VERTEX
  5
A6C
  8
L-ZISSEN
 10
672.11324865405174
 20
1295.0
 30
0.0
  0
VERTEX
  5
A6D
  8
L-ZISSEN
 10
669.22649730810349
 20
1290.0
 30
0.0
  0
VERTEX
  5
A6E
  8
L-ZISSEN
 10
672.11324865405174
 20
1285.0
 30
0.0
  0
VERTEX
  5
A6F
  8
L-ZISSEN
 10
677.88675134594803
 20
1285.0
 30
0.0
  0
VERTEX
  5
A70
  8
L-ZISSEN
 10
680.77350269189617
 20
1290.0
 30
0.0
  0
VERTEX
  5
A71
  8
L-ZISSEN
 10
677.88675134594803
 20
1295.0
 30
0.0
  0
SEQEND
  5
A72
  8
L-ZISSEN
  0
CIRCLE
  5
608
  8
L-ZISSEN
 10
674.99999999999989
 20
1290.0
 30
0.0
 40
10.749999999999989
  0
LINE
  5
609
  8
L-TYUSIN
 10
510.00000000000512
 20
1295.0
 30
0.0
 11
539.99999999999477
 21
1295.0
 31
0.0
  0
LINE
  5
60A
  8
L-TYUSIN
 10
525.0
 20
1309.999999999992
 30
0.0
 11
525.0
 21
1280.000000000007
 31
0.0
  0
LINE
  5
60B
  8
L-TYUSIN
 10
674.99999999999989
 20
1164.999999999992
 30
0.0
 11
674.99999999999989
 21
1135.000000000007
 31
0.0
  0
LINE
  5
60C
  8
L-TYUSIN
 10
660.000000000005
 20
1150.0
 30
0.0
 11
689.99999999999466
 21
1150.0
 31
0.0
  0
LINE
  5
60D
  8
L-TYUSIN
 10
525.0
 20
1159.999999999992
 30
0.0
 11
525.0
 21
1130.000000000007
 31
0.0
  0
LINE
  5
60E
  8
L-TYUSIN
 10
510.00000000000512
 20
1145.0
 30
0.0
 11
539.99999999999477
 21
1145.0
 31
0.0
  0
SOLID
  5
60F
  8
L-ZISSEN
 10
660.79130799569293
 20
1135.956236411567
 30
0.0
 11
662.68164710568738
 21
1138.701728928464
 31
0.0
 12
653.49999999999966
 22
1142.9999999999991
 32
0.0
 13
653.49999999999966
 23
1142.9999999999991
 33
0.0
  0
LINE
  5
610
  8
L-ZISSEN
 10
661.73647755069021
 20
1137.328982670015
 30
0.0
 11
744.99999999999989
 21
1079.9999999999991
 31
0.0
  0
SOLID
  5
611
  8
L-ZISSEN
 10
537.83682059198952
 20
1137.7343471133761
 30
0.0
 11
540.01287987457033
 21
1135.2092971911361
 31
0.0
 12
546.50000000000023
 22
1142.9999999999991
 32
0.0
 13
546.50000000000023
 23
1142.9999999999991
 33
0.0
  0
LINE
  5
612
  8
L-ZISSEN
 10
538.92485023327993
 20
1136.471822152256
 30
0.0
 11
485.0
 21
1090.0
 31
0.0
  0
SOLID
  5
613
  8
L-ZISSEN
 10
554.86133577835051
 20
1107.584522771273
 30
0.0
 11
557.43601294559403
 21
1105.4674142252641
 31
0.0
 12
562.50000000000023
 22
1114.2499999999991
 32
0.0
 13
562.50000000000023
 23
1114.2499999999991
 33
0.0
  0
LINE
  5
614
  8
L-ZISSEN
 10
556.14867436197233
 20
1106.525968498268
 30
0.0
 11
484.99999999999989
 21
1020.0
 31
0.0
  0
TEXT
  5
8D1
  8
L-ZISSEN
 10
80.003628277044299
 20
981.95369838385466
 30
0.0
 40
12.5
  1
MODEL NO.
  0
ENDSEC
  0
EOF
