  0
SECTION
  2
HEADER
  9
$ACADVER
  1
AC1006
  9
$INSBASE
 10
0.0
 20
0.0
 30
0.0
  9
$EXTMIN
 10
0.000000
 20
0.000000
  9
$EXTMAX
 10
10.000000
 20
10.000000
  9
$LIMMIN
 10
0.0
 20
0.0
  9
$LIMMAX
 10
12.0
 20
9.0
  9
$ORTHOMODE
 70
     0
  9
$REGENMODE
 70
     1
  9
$FILLMODE
 70
     1
  9
$QTEXTMODE
 70
     0
  9
$MIRRTEXT
 70
     1
  9
$DRAGMODE
 70
     2
  9
$LTSCALE
 40
10.000000
  9
$OSMODE
 70
     0
  9
$ATTMODE
 70
     1
  9
$TEXTSIZE
 40
0.2
  9
$TRACEWID
 40
0.05
  9
$TEXTSTYLE
  7
STANDARD
  9
$CLAYER
  8
0
  9
$CELTYPE
  6
BYLAYER
  9
$CECOLOR
 62
   256
  9
$DIMSCALE
 40
1.0
  9
$DIMASZ
 40
0.18
  9
$DIMEXO
 40
0.0625
  9
$DIMDLI
 40
0.38
  9
$DIMRND
 40
0.0
  9
$DIMDLE
 40
0.0
  9
$DIMEXE
 40
0.18
  9
$DIMTP
 40
0.0
  9
$DIMTM
 40
0.0
  9
$DIMTXT
 40
0.18
  9
$DIMCEN
 40
0.09
  9
$DIMTSZ
 40
0.0
  9
$DIMTOL
 70
     0
  9
$DIMLIM
 70
     0
  9
$DIMTIH
 70
     1
  9
$DIMTOH
 70
     1
  9
$DIMSE1
 70
     0
  9
$DIMSE2
 70
     0
  9
$DIMTAD
 70
     0
  9
$DIMZIN
 70
     0
  9
$DIMBLK
  1

  9
$DIMASO
 70
     1
  9
$DIMSHO
 70
     0
  9
$DIMPOST
  1

  9
$DIMAPOST
  1

  9
$DIMALT
 70
     0
  9
$DIMALTD
 70
     2
  9
$DIMALTF
 40
25.4
  9
$DIMLFAC
 40
1.0
  9
$DIMTOFL
 70
     0
  9
$DIMTVP
 40
0.0
  9
$DIMTIX
 70
     0
  9
$DIMSOXD
 70
     0
  9
$DIMSAH
 70
     0
  9
$DIMBLK1
  1

  9
$DIMBLK2
  1

  9
$LUNITS
 70
     2
  9
$LUPREC
 70
     4
  9
$AXISMODE
 70
     0
  9
$AXISUNIT
 10
0.0
 20
0.0
  9
$SKETCHINC
 40
0.1
  9
$FILLETRAD
 40
0.0
  9
$AUNITS
 70
     0
  9
$AUPREC
 70
     0
  9
$MENU
  1
acad
  9
$ELEVATION
 40
0.0
  9
$THICKNESS
 40
0.0
  9
$LIMCHECK
 70
     0
  9
$BLIPMODE
 70
     1
  9
$CHAMFERA
 40
0.0
  9
$CHAMFERB
 40
0.0
  9
$SKPOLY
 70
     0
  9
$TDCREATE
 40
2448751.5905787037
  9
$TDUPDATE
 40
2448751.5905787037
  9
$TDINDWG
 40
0.0000000000
  9
$TDUSRTIMER
 40
0.0000000000
  9
$USRTIMER
 70
     1
  9
$ANGBASE
 50
0.0
  9
$ANGDIR
 70
     0
  9
$PDMODE
 70
     0
  9
$PDSIZE
 40
0.0
  9
$PLINEWID
 40
0.0
  9
$COORDS
 70
     0
  9
$SPLFRAME
 70
     0
  9
$SPLINETYPE
 70
     6
  9
$SPLINESEGS
 70
     8
  9
$ATTDIA
 70
     0
  9
$ATTREQ
 70
     1
  9
$HANDLING
 70
     0
  9
$HANDSEED
  5
0
  9
$SURFTAB1
 70
     6
  9
$SURFTAB2
 70
     6
  9
$SURFTYPE
 70
     6
  9
$SURFU
 70
     6
  9
$SURFV
 70
     6
  9
$FLATLAND
 70
     0
  9
$UCSNAME
  2

  9
$UCSORG
 10
0.0
 20
0.0
 30
0.0
  9
$UCSXDIR
 10
1.0
 20
0.0
 30
0.0
  9
$UCSYDIR
 10
0.0
 20
1.0
 30
0.0
  9
$USERI1
 70
     0
  9
$USERI2
 70
     0
  9
$USERI3
 70
     0
  9
$USERI4
 70
     0
  9
$USERI5
 70
     0
  9
$USERR1
 40
0.0
  9
$USERR2
 40
0.0
  9
$USERR3
 40
0.0
  9
$USERR4
 40
0.0
  9
$USERR5
 40
0.0
  9
$WORLDVIEW
 70
     1
  0
ENDSEC
  0
SECTION
  2
TABLES
  0
TABLE
  2
VPORT
 70
     2
  0
VPORT
  2
*ACTIVE
 70
     0
 10
0.0
 20
0.0
 11
1.0
 21
1.0
 12
7.914286
 22
4.5
 13
0.0
 23
0.0
 14
1.0
 24
1.0
 15
0.0
 25
0.0
 16
0.0
 26
0.0
 36
1.0
 17
0.0
 27
0.0
 37
0.0
 40
9.0
 41
1.75873
 42
50.0
 43
0.0
 44
0.0
 50
0.0
 51
0.0
 71
     0
 72
   100
 73
     1
 74
     1
 75
     0
 76
     0
 77
     0
 78
     0
  0
ENDTAB
  0
TABLE
  2
LTYPE
 70
     9
  0
LTYPE
  2
CONTINUOUS
 70
    64
  3
実線
 72
    65
 73
     0
 40
0.0
  0
LTYPE
  2
DASHED
 70
    64
  3
__ __ __ __ __ __ __ __ __ __ __ __ __ __ __
 72
    65
 73
     2
 40
0.75
 49
0.5
 49
-0.25
  0
LTYPE
  2
HIDDEN
 70
    64
  3
_ _ _ _ _ _ _ _ _ _ _ _ _ _ _ _ _ _ _ _ _ _ _
 72
    65
 73
     2
 40
0.375
 49
0.25
 49
-0.125
  0
LTYPE
  2
CENTER
 70
    64
  3
____ _ ____ _ ____ _ ____ _ ____ _ ____ _ ____
 72
    65
 73
     4
 40
2.0
 49
1.25
 49
-0.25
 49
0.25
 49
-0.25
  0
LTYPE
  2
PHANTOM
 70
    64
  3
_____ _ _ _____ _ _ _____ _ _ _____ _ _ ____
 72
    65
 73
     6
 40
2.5
 49
1.25
 49
-0.25
 49
0.25
 49
-0.25
 49
0.25
 49
-0.25
  0
LTYPE
  2
DOT
 70
    64
  3
...............................................
 72
    65
 73
     2
 40
0.25
 49
0.0
 49
-0.25
  0
LTYPE
  2
DASHDOT
 70
    64
  3
__ . __ . __ . __ . __ . __ . __ . __ . __ . __
 72
    65
 73
     4
 40
1.0
 49
0.5
 49
-0.25
 49
0.0
 49
-0.25
  0
LTYPE
  2
DIVIDE
 70
    64
  3
__ . . __ . . __ . . __ . . __ . . __ . . __
 72
    65
 73
     6
 40
1.25
 49
0.5
 49
-0.25
 49
0.0
 49
-0.25
 49
0.0
 49
-0.25
  0
LTYPE
  2
BORDER
 70
    64
  3
__ __ . __ __ . __ __ . __ __ . __ __ . __ __
 72
    65
 73
     6
 40
1.75
 49
0.5
 49
-0.25
 49
0.5
 49
-0.25
 49
0.0
 49
-0.25
  0
ENDTAB
  0
TABLE
  2
LAYER
 70
     2
  0
LAYER
  2
0
 70
     0
 62
     7
  6
CONTINUOUS
  0
LAYER
  2
PV
 70
     0
 62
     7
  6
CONTINUOUS
  0
ENDTAB
  0
TABLE
  2
STYLE
 70
     3
  0
STYLE
  2
STANDARD
 70
     0
 40
0.0
 41
1.0
 50
0.0
 71
     0
 42
0.2
  3
txt
  4

  0
STYLE
  2
FONT1
 70
     0
 40
0.0
 41
1.0
 50
0.0
 71
     0
 42
0.2
  3
MONOTXT
  4

  0
STYLE
  2
FONT2
 70
     0
 40
0.0
 41
1.0
 50
0.0
 71
     0
 42
0.2
  3
MONOTXT
  4
BIGFONT
  0
ENDTAB
  0
TABLE
  2
VIEW
 70
     0
  0
ENDTAB
  0
TABLE
  2
UCS
 70
     0
  0
ENDTAB
  0
TABLE
  2
DWGMGR
 70
     0
  0
ENDTAB
  0
ENDSEC
  0
SECTION
  2
BLOCKS
  0
BLOCK
  8
0
  2
01
 70
    64
 10
0.0
 20
0.0
 30
0.0
  0
ENDBLK
  8
0
  0
BLOCK
  8
0
  2
02
 70
    64
 10
0.0
 20
0.0
 30
0.0
  0
ENDBLK
  8
0
  0
ENDSEC
  0
SECTION
  2
ENTITIES
  0
LINE
  8
PV
  6
CENTER
 62
     1
 10
3.824070E+002
 20
1.532100E+003
 30
0.000000E+000
 11
6.004070E+002
 21
1.532100E+003
 31
0.000000E+000
  0
LINE
  8
PV
 62
     7
 10
5.959070E+002
 20
1.626400E+003
 30
0.000000E+000
 11
1.959070E+002
 21
1.626400E+003
 31
0.000000E+000
  0
LINE
  8
PV
 62
     7
 10
1.959070E+002
 20
1.584100E+003
 30
0.000000E+000
 11
5.959070E+002
 21
1.584100E+003
 31
0.000000E+000
  0
ARC
  8
PV
 62
     7
 10
2.419070E+002
 20
1.357400E+003
 30
0.000000E+000
 40
3.100000E+001
 50
1.800000E+002
 51
2.700000E+002
  0
LINE
  8
PV
  6
CENTER
 62
     1
 10
2.174070E+002
 20
1.606400E+003
 30
0.000000E+000
 11
2.744070E+002
 21
1.606400E+003
 31
0.000000E+000
  0
LINE
  8
PV
 62
     7
 10
2.484070E+002
 20
1.524100E+003
 30
0.000000E+000
 11
2.199070E+002
 21
1.524100E+003
 31
0.000000E+000
  0
LINE
  8
PV
 62
     7
 10
4.559070E+002
 20
1.579600E+003
 30
0.000000E+000
 11
2.159070E+002
 21
1.579600E+003
 31
0.000000E+000
  0
LINE
  8
PV
 62
     7
 10
4.559070E+002
 20
1.584100E+003
 30
0.000000E+000
 11
2.159070E+002
 21
1.584100E+003
 31
0.000000E+000
  0
TEXT
  8
PV
 62
     7
 10
3.324644E+001
 20
1.706560E+003
 30
0.000000E+000
 40
4.000000E+000
  1
MODEL NO. TA4-400-900*
 41
9.394250E-001
  7
FONT1
  0
LINE
  8
PV
 62
     7
 10
2.159070E+002
 20
1.528100E+003
 30
0.000000E+000
 11
2.159070E+002
 21
1.584100E+003
 31
0.000000E+000
  0
LINE
  8
PV
 62
     7
 10
2.109070E+002
 20
1.547100E+003
 30
0.000000E+000
 11
2.109070E+002
 21
1.357400E+003
 31
0.000000E+000
  0
ARC
  8
PV
 62
     7
 10
2.199070E+002
 20
1.528100E+003
 30
0.000000E+000
 40
4.000000E+000
 50
1.800000E+002
 51
2.700000E+002
  0
ARC
  8
PV
 62
     7
 10
2.419070E+002
 20
1.547100E+003
 30
0.000000E+000
 40
3.100000E+001
 50
1.470040E+002
 51
1.800000E+002
  0
LINE
  8
PV
 62
     7
 10
1.959070E+002
 20
1.584100E+003
 30
0.000000E+000
 11
1.959070E+002
 21
1.626400E+003
 31
0.000000E+000
  0
ARC
  8
PV
 62
     7
 10
4.299070E+002
 20
1.357400E+003
 30
0.000000E+000
 40
3.100000E+001
 50
2.700000E+002
 51
0.000000E+000
  0
LINE
  8
PV
 62
     7
 10
3.979070E+002
 20
1.507100E+003
 30
0.000000E+000
 11
4.159070E+002
 21
1.507100E+003
 31
0.000000E+000
  0
LINE
  8
PV
 62
     7
 10
3.979070E+002
 20
1.504100E+003
 30
0.000000E+000
 11
4.199070E+002
 21
1.504100E+003
 31
0.000000E+000
  0
LINE
  8
PV
 62
     7
 10
4.024070E+002
 20
1.498100E+003
 30
0.000000E+000
 11
4.134070E+002
 21
1.498100E+003
 31
0.000000E+000
  0
CIRCLE
  8
PV
 62
     7
 10
4.079070E+002
 20
1.532100E+003
 30
0.000000E+000
 40
1.600000E+001
  0
CIRCLE
  8
PV
 62
     7
 10
4.079070E+002
 20
1.532100E+003
 30
0.000000E+000
 40
9.315500E+000
  0
LINE
  8
PV
 62
     7
 10
2.419070E+002
 20
1.326400E+003
 30
0.000000E+000
 11
4.299070E+002
 21
1.326400E+003
 31
0.000000E+000
  0
CIRCLE
  8
PV
 62
     7
 10
4.028740E+002
 20
1.464910E+003
 30
0.000000E+000
 40
2.500000E+001
  0
LINE
  8
PV
  6
CENTER
 62
     1
 10
4.059070E+002
 20
1.378100E+003
 30
0.000000E+000
 11
3.359070E+002
 21
1.378100E+003
 31
0.000000E+000
  0
LINE
  8
PV
  6
CENTER
 62
     1
 10
3.359070E+002
 20
1.453100E+003
 30
0.000000E+000
 11
4.276810E+002
 21
1.469280E+003
 31
0.000000E+000
  0
LINE
  8
PV
 62
     7
 10
3.046070E+002
 20
1.487100E+003
 30
0.000000E+000
 11
3.779070E+002
 21
1.487100E+003
 31
0.000000E+000
  0
LINE
  8
PV
 62
     7
 10
3.046070E+002
 20
1.492100E+003
 30
0.000000E+000
 11
3.779070E+002
 21
1.492100E+003
 31
0.000000E+000
  0
LINE
  8
PV
 62
     7
 10
3.070860E+002
 20
1.487100E+003
 30
0.000000E+000
 11
3.142580E+002
 21
1.472400E+003
 31
0.000000E+000
  0
ARC
  8
PV
 62
     7
 10
3.359070E+002
 20
1.453100E+003
 30
0.000000E+000
 40
2.900000E+001
 50
2.001710E+002
 51
2.239870E+002
  0
LINE
  8
PV
 62
     7
 10
3.099790E+002
 20
1.424190E+003
 30
0.000000E+000
 11
3.150410E+002
 21
1.432960E+003
 31
0.000000E+000
  0
ARC
  8
PV
 62
     7
 10
3.359070E+002
 20
1.453100E+003
 30
0.000000E+000
 40
2.900000E+001
 50
2.560130E+002
 51
9.370900E+001
  0
ARC
  8
PV
 62
     7
 10
3.169070E+002
 20
1.420190E+003
 30
0.000000E+000
 40
8.000000E+000
 50
1.500000E+002
 51
3.300000E+002
  0
ARC
  8
PV
 62
     7
 10
3.359070E+002
 20
1.453100E+003
 30
0.000000E+000
 40
5.000000E+001
 50
8.707390E+001
 51
1.287390E+002
  0
ARC
  8
PV
 62
     7
 10
3.359070E+002
 20
1.453100E+003
 30
0.000000E+000
 40
5.000000E+001
 50
2.128600E+002
 51
2.735680E+002
  0
ARC
  8
PV
 62
     7
 10
3.359070E+002
 20
1.453100E+003
 30
0.000000E+000
 40
2.900000E+001
 50
1.382910E+002
 51
1.598290E+002
  0
ARC
  8
PV
 62
     7
 10
3.359070E+002
 20
1.453100E+003
 30
0.000000E+000
 40
2.800000E+001
 50
2.009250E+002
 51
1.590750E+002
  0
ARC
  8
PV
 62
     7
 10
3.359070E+002
 20
1.453100E+003
 30
0.000000E+000
 40
1.000000E+002
 50
5.566410E+001
 51
1.216680E+002
  0
LINE
  8
PV
  6
CENTER
 62
     1
 10
2.419070E+002
 20
1.453100E+003
 30
0.000000E+000
 11
3.977760E+002
 21
1.453100E+003
 31
0.000000E+000
  0
LINE
  8
PV
 62
     7
 10
3.109070E+002
 20
1.463100E+003
 30
0.000000E+000
 11
3.109070E+002
 21
1.443100E+003
 31
0.000000E+000
  0
LINE
  8
PV
 62
     7
 10
2.909070E+002
 20
1.463100E+003
 30
0.000000E+000
 11
2.909070E+002
 21
1.443100E+003
 31
0.000000E+000
  0
LINE
  8
PV
 62
     7
 10
3.079070E+002
 20
1.463100E+003
 30
0.000000E+000
 11
3.079070E+002
 21
1.443100E+003
 31
0.000000E+000
  0
LINE
  8
PV
 62
     7
 10
2.499070E+002
 20
1.419600E+003
 30
0.000000E+000
 11
2.499070E+002
 21
1.453100E+003
 31
0.000000E+000
  0
LINE
  8
PV
  6
CENTER
 62
     1
 10
2.659070E+002
 20
1.571600E+003
 30
0.000000E+000
 11
2.659070E+002
 21
1.371920E+003
 31
0.000000E+000
  0
LINE
  8
PV
 62
     7
 10
2.819070E+002
 20
1.419600E+003
 30
0.000000E+000
 11
2.819070E+002
 21
1.486600E+003
 31
0.000000E+000
  0
LINE
  8
PV
  6
CENTER
 62
     1
 10
2.459070E+002
 20
1.391400E+003
 30
0.000000E+000
 11
2.853920E+002
 21
1.391400E+003
 31
0.000000E+000
  0
CIRCLE
  8
PV
 62
     7
 10
2.659070E+002
 20
1.391400E+003
 30
0.000000E+000
 40
9.315500E+000
  0
CIRCLE
  8
PV
 62
     7
 10
2.659070E+002
 20
1.391400E+003
 30
0.000000E+000
 40
1.600000E+001
  0
LINE
  8
PV
 62
     7
 10
2.819070E+002
 20
1.419600E+003
 30
0.000000E+000
 11
2.499070E+002
 21
1.419600E+003
 31
0.000000E+000
  0
CIRCLE
  8
PV
 62
     7
 10
2.419070E+002
 20
1.359100E+003
 30
0.000000E+000
 40
9.000000E+000
  0
LINE
  8
PV
 62
     7
 10
2.497010E+002
 20
1.372600E+003
 30
0.000000E+000
 11
2.574960E+002
 21
1.359100E+003
 31
0.000000E+000
  0
LINE
  8
PV
 62
     7
 10
2.574960E+002
 20
1.359100E+003
 30
0.000000E+000
 11
2.497010E+002
 21
1.345600E+003
 31
0.000000E+000
  0
LINE
  8
PV
 62
     7
 10
2.497010E+002
 20
1.345600E+003
 30
0.000000E+000
 11
2.341130E+002
 21
1.345600E+003
 31
0.000000E+000
  0
LINE
  8
PV
 62
     7
 10
2.341130E+002
 20
1.345600E+003
 30
0.000000E+000
 11
2.263190E+002
 21
1.359100E+003
 31
0.000000E+000
  0
LINE
  8
PV
 62
     7
 10
2.263190E+002
 20
1.359100E+003
 30
0.000000E+000
 11
2.341130E+002
 21
1.372600E+003
 31
0.000000E+000
  0
LINE
  8
PV
 62
     7
 10
2.341130E+002
 20
1.372600E+003
 30
0.000000E+000
 11
2.497010E+002
 21
1.372600E+003
 31
0.000000E+000
  0
LINE
  8
PV
 62
     7
 10
2.499070E+002
 20
1.391400E+003
 30
0.000000E+000
 11
2.549070E+002
 21
1.419600E+003
 31
0.000000E+000
  0
LINE
  8
PV
 62
     7
 10
2.909070E+002
 20
1.445100E+003
 30
0.000000E+000
 11
2.819070E+002
 21
1.445100E+003
 31
0.000000E+000
  0
LINE
  8
PV
 62
     7
 10
2.819070E+002
 20
1.391400E+003
 30
0.000000E+000
 11
2.769070E+002
 21
1.419600E+003
 31
0.000000E+000
  0
LINE
  8
PV
 62
     7
 10
2.909070E+002
 20
1.443100E+003
 30
0.000000E+000
 11
3.109070E+002
 21
1.443100E+003
 31
0.000000E+000
  0
LINE
  8
PV
 62
     7
 10
2.939070E+002
 20
1.425970E+003
 30
0.000000E+000
 11
2.939070E+002
 21
1.443100E+003
 31
0.000000E+000
  0
LINE
  8
PV
 62
     7
 10
2.484070E+002
 20
1.494600E+003
 30
0.000000E+000
 11
2.834070E+002
 21
1.494600E+003
 31
0.000000E+000
  0
LINE
  8
PV
 62
     7
 10
2.834070E+002
 20
1.559600E+003
 30
0.000000E+000
 11
2.484070E+002
 21
1.559600E+003
 31
0.000000E+000
  0
LINE
  8
PV
 62
     7
 10
2.819070E+002
 20
1.486600E+003
 30
0.000000E+000
 11
2.499070E+002
 21
1.486600E+003
 31
0.000000E+000
  0
LINE
  8
PV
 62
     7
 10
2.484070E+002
 20
1.559600E+003
 30
0.000000E+000
 11
2.484070E+002
 21
1.494600E+003
 31
0.000000E+000
  0
LINE
  8
PV
 62
     7
 10
2.499070E+002
 20
1.486600E+003
 30
0.000000E+000
 11
2.499070E+002
 21
1.453100E+003
 31
0.000000E+000
  0
LINE
  8
PV
 62
     7
 10
2.549070E+002
 20
1.486600E+003
 30
0.000000E+000
 11
2.549070E+002
 21
1.494600E+003
 31
0.000000E+000
  0
LINE
  8
PV
 62
     7
 10
2.502790E+002
 20
1.559600E+003
 30
0.000000E+000
 11
2.497010E+002
 21
1.560600E+003
 31
0.000000E+000
  0
LINE
  8
PV
 62
     7
 10
2.497010E+002
 20
1.560600E+003
 30
0.000000E+000
 11
2.341130E+002
 21
1.560600E+003
 31
0.000000E+000
  0
LINE
  8
PV
 62
     7
 10
2.341130E+002
 20
1.560600E+003
 30
0.000000E+000
 11
2.263190E+002
 21
1.547100E+003
 31
0.000000E+000
  0
LINE
  8
PV
 62
     7
 10
2.263190E+002
 20
1.547100E+003
 30
0.000000E+000
 11
2.341130E+002
 21
1.533600E+003
 31
0.000000E+000
  0
LINE
  8
PV
 62
     7
 10
2.341130E+002
 20
1.533600E+003
 30
0.000000E+000
 11
2.484070E+002
 21
1.533600E+003
 31
0.000000E+000
  0
ARC
  8
PV
 62
     7
 10
2.419070E+002
 20
1.547100E+003
 30
0.000000E+000
 40
9.000000E+000
 50
4.376170E+001
 51
3.162380E+002
  0
LINE
  8
PV
 62
     7
 10
2.834070E+002
 20
1.559600E+003
 30
0.000000E+000
 11
2.834070E+002
 21
1.494600E+003
 31
0.000000E+000
  0
LINE
  8
PV
 62
     7
 10
2.909070E+002
 20
1.461100E+003
 30
0.000000E+000
 11
2.819070E+002
 21
1.461100E+003
 31
0.000000E+000
  0
LINE
  8
PV
 62
     7
 10
2.769070E+002
 20
1.486600E+003
 30
0.000000E+000
 11
2.769070E+002
 21
1.494600E+003
 31
0.000000E+000
  0
ARC
  8
PV
 62
     7
 10
3.359070E+002
 20
1.453100E+003
 30
0.000000E+000
 40
5.000000E+001
 50
1.287390E+002
 51
1.471400E+002
  0
LINE
  8
PV
 62
     7
 10
2.909070E+002
 20
1.463100E+003
 30
0.000000E+000
 11
3.109070E+002
 21
1.463100E+003
 31
0.000000E+000
  0
LINE
  8
PV
 62
     7
 10
2.939070E+002
 20
1.463100E+003
 30
0.000000E+000
 11
2.939070E+002
 21
1.480230E+003
 31
0.000000E+000
  0
LINE
  8
PV
 62
     7
 10
3.051390E+002
 20
1.492120E+003
 30
0.000000E+000
 11
3.051470E+002
 21
1.492100E+003
 31
0.000000E+000
  0
LINE
  8
PV
 62
     7
 10
3.046070E+002
 20
1.487100E+003
 30
0.000000E+000
 11
3.046070E+002
 21
1.492100E+003
 31
0.000000E+000
  0
LINE
  8
PV
 62
     7
 10
3.779070E+002
 20
1.455130E+003
 30
0.000000E+000
 11
3.779070E+002
 21
1.422410E+003
 31
0.000000E+000
  0
LINE
  8
PV
  6
CENTER
 62
     1
 10
3.359070E+002
 20
1.514970E+003
 30
0.000000E+000
 11
3.359070E+002
 21
1.391230E+003
 31
0.000000E+000
  0
CIRCLE
  8
PV
 62
     7
 10
3.709070E+002
 20
1.378100E+003
 30
0.000000E+000
 40
3.100000E+001
  0
LINE
  8
PV
 62
     7
 10
3.779070E+002
 20
1.422410E+003
 30
0.000000E+000
 11
3.390190E+002
 21
1.403440E+003
 31
0.000000E+000
  0
LINE
  8
PV
 62
     7
 10
3.238350E+002
 20
1.416190E+003
 30
0.000000E+000
 11
3.288980E+002
 21
1.424960E+003
 31
0.000000E+000
  0
LINE
  8
PV
  6
CENTER
 62
     1
 10
3.709070E+002
 20
1.413100E+003
 30
0.000000E+000
 11
3.709070E+002
 21
1.343100E+003
 31
0.000000E+000
  0
LINE
  8
PV
 62
     7
 10
3.608790E+002
 20
1.492100E+003
 30
0.000000E+000
 11
3.384590E+002
 21
1.503040E+003
 31
0.000000E+000
  0
LINE
  8
PV
 62
     7
 10
3.244120E+002
 20
1.501760E+003
 30
0.000000E+000
 11
3.291240E+002
 21
1.492100E+003
 31
0.000000E+000
  0
LINE
  8
PV
 62
     7
 10
3.315630E+002
 20
1.487100E+003
 30
0.000000E+000
 11
3.340310E+002
 21
1.482040E+003
 31
0.000000E+000
  0
LINE
  8
PV
 62
     7
 10
3.999070E+002
 20
1.507100E+003
 30
0.000000E+000
 11
3.999070E+002
 21
1.518250E+003
 31
0.000000E+000
  0
LINE
  8
PV
 62
     7
 10
3.979070E+002
 20
1.504100E+003
 30
0.000000E+000
 11
3.779070E+002
 21
1.487100E+003
 31
0.000000E+000
  0
LINE
  8
PV
 62
     7
 10
3.979070E+002
 20
1.507100E+003
 30
0.000000E+000
 11
3.779070E+002
 21
1.492100E+003
 31
0.000000E+000
  0
LINE
  8
PV
 62
     7
 10
3.779070E+002
 20
1.483800E+003
 30
0.000000E+000
 11
3.779070E+002
 21
1.466200E+003
 31
0.000000E+000
  0
LINE
  8
PV
 62
     7
 10
3.653170E+002
 20
1.453320E+003
 30
0.000000E+000
 11
3.797540E+002
 21
1.455400E+003
 31
0.000000E+000
  0
LINE
  8
PV
 62
     7
 10
3.636160E+002
 20
1.462960E+003
 30
0.000000E+000
 11
3.778950E+002
 21
1.465940E+003
 31
0.000000E+000
  0
LINE
  8
PV
 62
     7
 10
3.779070E+002
 20
1.483800E+003
 30
0.000000E+000
 11
3.711310E+002
 21
1.487100E+003
 31
0.000000E+000
  0
LINE
  8
PV
 62
     7
 10
4.049070E+002
 20
1.507100E+003
 30
0.000000E+000
 11
4.049070E+002
 21
1.504100E+003
 31
0.000000E+000
  0
LINE
  8
PV
 62
     7
 10
4.024070E+002
 20
1.498100E+003
 30
0.000000E+000
 11
4.024070E+002
 21
1.504100E+003
 31
0.000000E+000
  0
ARC
  8
PV
 62
     7
 10
2.459070E+002
 20
1.606400E+003
 30
0.000000E+000
 40
1.000000E+001
 50
2.357820E+001
 51
1.564220E+002
  0
LINE
  8
PV
 62
     7
 10
2.294070E+002
 20
1.610400E+003
 30
0.000000E+000
 11
2.624070E+002
 21
1.610400E+003
 31
0.000000E+000
  0
LINE
  8
PV
 62
     7
 10
2.294070E+002
 20
1.602400E+003
 30
0.000000E+000
 11
2.624070E+002
 21
1.602400E+003
 31
0.000000E+000
  0
ARC
  8
PV
 62
     7
 10
2.459070E+002
 20
1.606400E+003
 30
0.000000E+000
 40
1.000000E+001
 50
2.035780E+002
 51
3.364220E+002
  0
ARC
  8
PV
 62
     7
 10
2.294070E+002
 20
1.606400E+003
 30
0.000000E+000
 40
4.000000E+000
 50
9.000000E+001
 51
2.700000E+002
  0
ARC
  8
PV
 62
     7
 10
2.624070E+002
 20
1.606400E+003
 30
0.000000E+000
 40
4.000000E+000
 50
2.700000E+002
 51
9.000000E+001
  0
LINE
  8
PV
  6
CENTER
 62
     1
 10
2.459070E+002
 20
1.624400E+003
 30
0.000000E+000
 11
2.459070E+002
 21
1.588400E+003
 31
0.000000E+000
  0
LINE
  8
PV
 62
     7
 10
5.236290E+002
 20
1.505720E+003
 30
0.000000E+000
 11
5.236290E+002
 21
1.582470E+003
 31
0.000000E+000
  0
LINE
  8
PV
 62
     7
 10
4.579200E+002
 20
1.505720E+003
 30
0.000000E+000
 11
4.579200E+002
 21
1.582470E+003
 31
0.000000E+000
  0
LINE
  8
PV
 62
     7
 10
4.562840E+002
 20
1.504080E+003
 30
0.000000E+000
 11
4.562840E+002
 21
1.584100E+003
 31
0.000000E+000
  0
LINE
  8
PV
 62
     7
 10
5.252650E+002
 20
1.504080E+003
 30
0.000000E+000
 11
5.252650E+002
 21
1.584100E+003
 31
0.000000E+000
  0
ARC
  8
PV
 62
     7
 10
4.907740E+002
 20
1.529540E+003
 30
0.000000E+000
 40
3.962040E+001
 50
4.262500E+001
 51
8.875000E+001
  0
LINE
  8
PV
 62
     7
 10
5.091370E+002
 20
1.496330E+003
 30
0.000000E+000
 11
4.899200E+002
 21
1.496330E+003
 31
0.000000E+000
  0
LINE
  8
PV
 62
     7
 10
4.609070E+002
 20
1.357400E+003
 30
0.000000E+000
 11
4.609070E+002
 21
1.504080E+003
 31
0.000000E+000
  0
LINE
  8
PV
 62
     7
 10
4.221130E+002
 20
1.372600E+003
 30
0.000000E+000
 11
4.143190E+002
 21
1.359100E+003
 31
0.000000E+000
  0
LINE
  8
PV
 62
     7
 10
4.143190E+002
 20
1.359100E+003
 30
0.000000E+000
 11
4.221130E+002
 21
1.345600E+003
 31
0.000000E+000
  0
LINE
  8
PV
 62
     7
 10
4.221130E+002
 20
1.345600E+003
 30
0.000000E+000
 11
4.377010E+002
 21
1.345600E+003
 31
0.000000E+000
  0
LINE
  8
PV
 62
     7
 10
4.377010E+002
 20
1.345600E+003
 30
0.000000E+000
 11
4.454960E+002
 21
1.359100E+003
 31
0.000000E+000
  0
LINE
  8
PV
 62
     7
 10
4.454960E+002
 20
1.359100E+003
 30
0.000000E+000
 11
4.377010E+002
 21
1.372600E+003
 31
0.000000E+000
  0
LINE
  8
PV
 62
     7
 10
4.377010E+002
 20
1.372600E+003
 30
0.000000E+000
 11
4.221130E+002
 21
1.372600E+003
 31
0.000000E+000
  0
CIRCLE
  8
PV
 62
     7
 10
4.299070E+002
 20
1.359100E+003
 30
0.000000E+000
 40
9.000000E+000
  0
LINE
  8
PV
 62
     7
 10
4.507740E+002
 20
1.515310E+003
 30
0.000000E+000
 11
4.527670E+002
 21
1.515310E+003
 31
0.000000E+000
  0
LINE
  8
PV
 62
     7
 10
4.527670E+002
 20
1.550800E+003
 30
0.000000E+000
 11
4.507740E+002
 21
1.550800E+003
 31
0.000000E+000
  0
LINE
  8
PV
  6
CENTER
 62
     1
 10
4.259070E+002
 20
1.464910E+003
 30
0.000000E+000
 11
4.759070E+002
 21
1.464910E+003
 31
0.000000E+000
  0
LINE
  8
PV
 62
     7
 10
4.583740E+002
 20
1.474910E+003
 30
0.000000E+000
 11
4.453740E+002
 21
1.474910E+003
 31
0.000000E+000
  0
LINE
  8
PV
 62
     7
 10
4.583740E+002
 20
1.454910E+003
 30
0.000000E+000
 11
4.453740E+002
 21
1.454910E+003
 31
0.000000E+000
  0
LINE
  8
PV
 62
     7
 10
4.199070E+002
 20
1.504100E+003
 30
0.000000E+000
 11
4.199070E+002
 21
1.521520E+003
 31
0.000000E+000
  0
LINE
  8
PV
 62
     7
 10
4.159070E+002
 20
1.507100E+003
 30
0.000000E+000
 11
4.159070E+002
 21
1.518250E+003
 31
0.000000E+000
  0
LINE
  8
PV
  6
CENTER
 62
     1
 10
4.079070E+002
 20
1.489400E+003
 30
0.000000E+000
 11
4.079070E+002
 21
1.553400E+003
 31
0.000000E+000
  0
LINE
  8
PV
 62
     7
 10
4.278740E+002
 20
1.469910E+003
 30
0.000000E+000
 11
4.453740E+002
 21
1.469910E+003
 31
0.000000E+000
  0
LINE
  8
PV
 62
     7
 10
4.278740E+002
 20
1.459910E+003
 30
0.000000E+000
 11
4.453740E+002
 21
1.459910E+003
 31
0.000000E+000
  0
LINE
  8
PV
 62
     7
 10
4.151010E+002
 20
1.504100E+003
 30
0.000000E+000
 11
4.151010E+002
 21
1.507100E+003
 31
0.000000E+000
  0
LINE
  8
PV
 62
     7
 10
4.134070E+002
 20
1.498100E+003
 30
0.000000E+000
 11
4.134070E+002
 21
1.504100E+003
 31
0.000000E+000
  0
LINE
  8
PV
 62
     7
 10
4.453740E+002
 20
1.474910E+003
 30
0.000000E+000
 11
4.453740E+002
 21
1.454910E+003
 31
0.000000E+000
  0
LINE
  8
PV
 62
     7
 10
4.507740E+002
 20
1.524100E+003
 30
0.000000E+000
 11
4.212630E+002
 21
1.524100E+003
 31
0.000000E+000
  0
LINE
  8
PV
 62
     7
 10
4.507740E+002
 20
1.515310E+003
 30
0.000000E+000
 11
4.507740E+002
 21
1.550800E+003
 31
0.000000E+000
  0
ARC
  8
PV
 62
     7
 10
4.907740E+002
 20
1.536570E+003
 30
0.000000E+000
 40
3.962040E+001
 50
2.226250E+002
 51
2.687500E+002
  0
LINE
  8
PV
 62
     7
 10
4.583740E+002
 20
1.454910E+003
 30
0.000000E+000
 11
4.583740E+002
 21
1.474910E+003
 31
0.000000E+000
  0
LINE
  8
PV
 62
     7
 10
4.579200E+002
 20
1.505720E+003
 30
0.000000E+000
 11
4.641380E+002
 21
1.505720E+003
 31
0.000000E+000
  0
LINE
  8
PV
 62
     7
 10
4.562840E+002
 20
1.504080E+003
 30
0.000000E+000
 11
4.641380E+002
 21
1.504080E+003
 31
0.000000E+000
  0
LINE
  8
PV
 62
     7
 10
4.615930E+002
 20
1.509710E+003
 30
0.000000E+000
 11
4.579870E+002
 21
1.509710E+003
 31
0.000000E+000
  0
LINE
  8
PV
 62
     7
 10
4.641380E+002
 20
1.504080E+003
 30
0.000000E+000
 11
4.641380E+002
 21
1.505720E+003
 31
0.000000E+000
  0
LINE
  8
PV
 62
     7
 10
4.899200E+002
 20
1.496330E+003
 30
0.000000E+000
 11
4.899200E+002
 21
1.496940E+003
 31
0.000000E+000
  0
LINE
  8
PV
 62
     7
 10
4.724110E+002
 20
1.569830E+003
 30
0.000000E+000
 11
4.916760E+002
 21
1.569830E+003
 31
0.000000E+000
  0
LINE
  8
PV
 62
     7
 10
4.543330E+002
 20
1.517970E+003
 30
0.000000E+000
 11
4.562840E+002
 21
1.517970E+003
 31
0.000000E+000
  0
LINE
  8
PV
 62
     7
 10
4.543330E+002
 20
1.517970E+003
 30
0.000000E+000
 11
4.527670E+002
 21
1.515310E+003
 31
0.000000E+000
  0
LINE
  8
PV
 62
     7
 10
4.616880E+002
 20
1.556400E+003
 30
0.000000E+000
 11
4.704180E+002
 21
1.563940E+003
 31
0.000000E+000
  0
LINE
  8
PV
 62
     7
 10
4.543330E+002
 20
1.548140E+003
 30
0.000000E+000
 11
4.562840E+002
 21
1.548140E+003
 31
0.000000E+000
  0
ARC
  8
PV
 62
     7
 10
4.579870E+002
 20
1.554930E+003
 30
0.000000E+000
 40
1.470940E+000
 50
9.000000E+001
 51
9.263020E+001
  0
LINE
  8
PV
 62
     7
 10
4.579870E+002
 20
1.556400E+003
 30
0.000000E+000
 11
4.616880E+002
 21
1.556400E+003
 31
0.000000E+000
  0
LINE
  8
PV
 62
     7
 10
4.543330E+002
 20
1.548140E+003
 30
0.000000E+000
 11
4.527670E+002
 21
1.550800E+003
 31
0.000000E+000
  0
LINE
  8
PV
 62
     7
 10
4.562840E+002
 20
1.548370E+003
 30
0.000000E+000
 11
4.579200E+002
 21
1.548370E+003
 31
0.000000E+000
  0
LINE
  8
PV
 62
     7
 10
4.718890E+002
 20
1.569730E+003
 30
0.000000E+000
 11
4.724110E+002
 21
1.569830E+003
 31
0.000000E+000
  0
LINE
  8
PV
 62
     7
 10
4.704180E+002
 20
1.563940E+003
 30
0.000000E+000
 11
4.704180E+002
 21
1.567790E+003
 31
0.000000E+000
  0
LINE
  8
PV
 62
     7
 10
4.714150E+002
 20
1.569540E+003
 30
0.000000E+000
 11
4.718890E+002
 21
1.569730E+003
 31
0.000000E+000
  0
LINE
  8
PV
 62
     7
 10
4.709880E+002
 20
1.569210E+003
 30
0.000000E+000
 11
4.714150E+002
 21
1.569540E+003
 31
0.000000E+000
  0
LINE
  8
PV
 62
     7
 10
4.707030E+002
 20
1.568780E+003
 30
0.000000E+000
 11
4.709880E+002
 21
1.569210E+003
 31
0.000000E+000
  0
LINE
  8
PV
 62
     7
 10
4.704180E+002
 20
1.567790E+003
 30
0.000000E+000
 11
4.704660E+002
 21
1.568310E+003
 31
0.000000E+000
  0
LINE
  8
PV
 62
     7
 10
4.704660E+002
 20
1.568310E+003
 30
0.000000E+000
 11
4.707030E+002
 21
1.568780E+003
 31
0.000000E+000
  0
LINE
  8
PV
 62
     7
 10
4.916760E+002
 20
1.569830E+003
 30
0.000000E+000
 11
4.916760E+002
 21
1.569210E+003
 31
0.000000E+000
  0
LINE
  8
PV
 62
     7
 10
5.307740E+002
 20
1.542050E+003
 30
0.000000E+000
 11
5.537740E+002
 21
1.542050E+003
 31
0.000000E+000
  0
LINE
  8
PV
 62
     7
 10
5.307740E+002
 20
1.524050E+003
 30
0.000000E+000
 11
5.537740E+002
 21
1.524050E+003
 31
0.000000E+000
  0
LINE
  8
PV
 62
     7
 10
5.235620E+002
 20
1.509710E+003
 30
0.000000E+000
 11
5.199080E+002
 21
1.509710E+003
 31
0.000000E+000
  0
LINE
  8
PV
 62
     7
 10
5.173460E+002
 20
1.504080E+003
 30
0.000000E+000
 11
5.252650E+002
 21
1.504080E+003
 31
0.000000E+000
  0
LINE
  8
PV
 62
     7
 10
5.173460E+002
 20
1.505720E+003
 30
0.000000E+000
 11
5.236290E+002
 21
1.505720E+003
 31
0.000000E+000
  0
LINE
  8
PV
 62
     7
 10
5.086800E+002
 20
1.502540E+003
 30
0.000000E+000
 11
5.023560E+002
 21
1.501480E+003
 31
0.000000E+000
  0
CIRCLE
  8
PV
 62
     7
 10
5.054300E+002
 20
1.502540E+003
 30
0.000000E+000
 40
3.250000E+000
  0
ARC
  8
PV
 62
     7
 10
5.018230E+002
 20
1.502060E+003
 30
0.000000E+000
 40
8.249870E-001
 50
3.210280E+002
 51
3.414740E+002
  0
ARC
  8
PV
 62
     7
 10
5.023560E+002
 20
1.501620E+003
 30
0.000000E+000
 40
1.400760E-001
 50
2.700000E+002
 51
3.210280E+002
  0
LINE
  8
PV
 62
     7
 10
5.086800E+002
 20
1.502540E+003
 30
0.000000E+000
 11
5.023560E+002
 21
1.503590E+003
 31
0.000000E+000
  0
ARC
  8
PV
 62
     7
 10
5.023560E+002
 20
1.503450E+003
 30
0.000000E+000
 40
1.400750E-001
 50
3.897240E+001
 51
7.107560E+001
  0
ARC
  8
PV
 62
     7
 10
5.018230E+002
 20
1.503020E+003
 30
0.000000E+000
 40
8.249870E-001
 50
1.852570E+001
 51
3.897240E+001
  0
ARC
  8
PV
 62
     7
 10
5.009560E+002
 20
1.502730E+003
 30
0.000000E+000
 40
1.739770E+000
 50
7.901990E+000
 51
1.852550E+001
  0
ARC
  8
PV
 62
     7
 10
4.995690E+002
 20
1.502540E+003
 30
0.000000E+000
 40
3.140370E+000
 50
6.700000E-005
 51
7.902150E+000
  0
ARC
  8
PV
 62
     7
 10
4.995690E+002
 20
1.502540E+003
 30
0.000000E+000
 40
3.140370E+000
 50
3.520980E+002
 51
0.000000E+000
  0
ARC
  8
PV
 62
     7
 10
5.009560E+002
 20
1.502350E+003
 30
0.000000E+000
 40
1.739770E+000
 50
3.414750E+002
 51
3.520980E+002
  0
LINE
  8
PV
 62
     7
 10
5.105610E+002
 20
1.496900E+003
 30
0.000000E+000
 11
5.101340E+002
 21
1.496570E+003
 31
0.000000E+000
  0
LINE
  8
PV
 62
     7
 10
5.101340E+002
 20
1.496570E+003
 30
0.000000E+000
 11
5.096590E+002
 21
1.496380E+003
 31
0.000000E+000
  0
LINE
  8
PV
 62
     7
 10
5.110830E+002
 20
1.497800E+003
 30
0.000000E+000
 11
5.108930E+002
 21
1.497320E+003
 31
0.000000E+000
  0
LINE
  8
PV
 62
     7
 10
5.108930E+002
 20
1.497320E+003
 30
0.000000E+000
 11
5.105610E+002
 21
1.496900E+003
 31
0.000000E+000
  0
LINE
  8
PV
 62
     7
 10
5.111780E+002
 20
1.498320E+003
 30
0.000000E+000
 11
5.110830E+002
 21
1.497800E+003
 31
0.000000E+000
  0
LINE
  8
PV
 62
     7
 10
5.111780E+002
 20
1.502160E+003
 30
0.000000E+000
 11
5.111780E+002
 21
1.498320E+003
 31
0.000000E+000
  0
LINE
  8
PV
 62
     7
 10
5.199080E+002
 20
1.509710E+003
 30
0.000000E+000
 11
5.111780E+002
 21
1.502160E+003
 31
0.000000E+000
  0
LINE
  8
PV
 62
     7
 10
5.173460E+002
 20
1.504080E+003
 30
0.000000E+000
 11
5.173460E+002
 21
1.505720E+003
 31
0.000000E+000
  0
LINE
  8
PV
 62
     7
 10
5.096590E+002
 20
1.496380E+003
 30
0.000000E+000
 11
5.091370E+002
 21
1.496330E+003
 31
0.000000E+000
  0
LINE
  8
PV
 62
     7
 10
5.199560E+002
 20
1.556400E+003
 30
0.000000E+000
 11
5.235620E+002
 21
1.556400E+003
 31
0.000000E+000
  0
LINE
  8
PV
 62
     7
 10
5.307740E+002
 20
1.515310E+003
 30
0.000000E+000
 11
5.307740E+002
 21
1.550800E+003
 31
0.000000E+000
  0
LINE
  8
PV
 62
     7
 10
5.272630E+002
 20
1.517970E+003
 30
0.000000E+000
 11
5.252650E+002
 21
1.517970E+003
 31
0.000000E+000
  0
LINE
  8
PV
 62
     7
 10
5.287810E+002
 20
1.515310E+003
 30
0.000000E+000
 11
5.307740E+002
 21
1.515310E+003
 31
0.000000E+000
  0
LINE
  8
PV
 62
     7
 10
5.272630E+002
 20
1.517970E+003
 30
0.000000E+000
 11
5.287810E+002
 21
1.515310E+003
 31
0.000000E+000
  0
LINE
  8
PV
 62
     7
 10
5.272630E+002
 20
1.548140E+003
 30
0.000000E+000
 11
5.252650E+002
 21
1.548140E+003
 31
0.000000E+000
  0
LINE
  8
PV
 62
     7
 10
5.307740E+002
 20
1.550800E+003
 30
0.000000E+000
 11
5.287810E+002
 21
1.550800E+003
 31
0.000000E+000
  0
LINE
  8
PV
 62
     7
 10
5.272630E+002
 20
1.548140E+003
 30
0.000000E+000
 11
5.287810E+002
 21
1.550800E+003
 31
0.000000E+000
  0
LINE
  8
PV
  6
CENTER
 62
     1
 10
5.537740E+002
 20
1.512100E+003
 30
0.000000E+000
 11
5.537740E+002
 21
1.552100E+003
 31
0.000000E+000
  0
LINE
  8
PV
 62
     7
 10
5.462690E+002
 20
1.524050E+003
 30
0.000000E+000
 11
5.474230E+002
 21
1.522050E+003
 31
0.000000E+000
  0
LINE
  8
PV
 62
     7
 10
5.474230E+002
 20
1.522050E+003
 30
0.000000E+000
 11
5.601250E+002
 21
1.522050E+003
 31
0.000000E+000
  0
LINE
  8
PV
 62
     7
 10
5.601250E+002
 20
1.522050E+003
 30
0.000000E+000
 11
5.664760E+002
 21
1.533050E+003
 31
0.000000E+000
  0
LINE
  8
PV
 62
     7
 10
5.664760E+002
 20
1.533050E+003
 30
0.000000E+000
 11
5.601250E+002
 21
1.544050E+003
 31
0.000000E+000
  0
LINE
  8
PV
 62
     7
 10
5.601250E+002
 20
1.544050E+003
 30
0.000000E+000
 11
5.474230E+002
 21
1.544050E+003
 31
0.000000E+000
  0
LINE
  8
PV
 62
     7
 10
5.474230E+002
 20
1.544050E+003
 30
0.000000E+000
 11
5.462690E+002
 21
1.542050E+003
 31
0.000000E+000
  0
ARC
  8
PV
 62
     7
 10
5.537740E+002
 20
1.533050E+003
 30
0.000000E+000
 40
9.000000E+000
 50
2.700000E+002
 51
9.000000E+001
  0
LINE
  8
PV
 62
     7
 10
4.579200E+002
 20
1.582470E+003
 30
0.000000E+000
 11
5.236290E+002
 21
1.582470E+003
 31
0.000000E+000
  0
LINE
  8
PV
 62
     7
 10
4.562840E+002
 20
1.584100E+003
 30
0.000000E+000
 11
5.252650E+002
 21
1.584100E+003
 31
0.000000E+000
  0
LINE
  8
PV
  6
CENTER
 62
     1
 10
5.174070E+002
 20
1.606400E+003
 30
0.000000E+000
 11
5.744070E+002
 21
1.606400E+003
 31
0.000000E+000
  0
ARC
  8
PV
 62
     7
 10
5.459070E+002
 20
1.606400E+003
 30
0.000000E+000
 40
1.000000E+001
 50
2.357820E+001
 51
1.564220E+002
  0
LINE
  8
PV
 62
     7
 10
5.294070E+002
 20
1.610400E+003
 30
0.000000E+000
 11
5.624070E+002
 21
1.610400E+003
 31
0.000000E+000
  0
LINE
  8
PV
 62
     7
 10
5.294070E+002
 20
1.602400E+003
 30
0.000000E+000
 11
5.624070E+002
 21
1.602400E+003
 31
0.000000E+000
  0
ARC
  8
PV
 62
     7
 10
5.459070E+002
 20
1.606400E+003
 30
0.000000E+000
 40
1.000000E+001
 50
2.035780E+002
 51
3.364220E+002
  0
ARC
  8
PV
 62
     7
 10
5.294070E+002
 20
1.606400E+003
 30
0.000000E+000
 40
4.000000E+000
 50
9.000000E+001
 51
2.700000E+002
  0
ARC
  8
PV
 62
     7
 10
5.624070E+002
 20
1.606400E+003
 30
0.000000E+000
 40
4.000000E+000
 50
2.700000E+002
 51
9.000000E+001
  0
LINE
  8
PV
  6
CENTER
 62
     1
 10
5.459070E+002
 20
1.624400E+003
 30
0.000000E+000
 11
5.459070E+002
 21
1.588400E+003
 31
0.000000E+000
  0
LINE
  8
PV
 62
     7
 10
5.959070E+002
 20
1.584100E+003
 30
0.000000E+000
 11
5.959070E+002
 21
1.626400E+003
 31
0.000000E+000
  0
LINE
  8
PV
  6
CENTER
 62
     1
 10
5.898930E+002
 20
6.549070E+002
 30
0.000000E+000
 11
5.619220E+002
 21
6.549070E+002
 31
0.000000E+000
  0
LINE
  8
PV
  6
CENTER
 62
     1
 10
5.898930E+002
 20
1.084910E+003
 30
0.000000E+000
 11
5.619220E+002
 21
1.084910E+003
 31
0.000000E+000
  0
LINE
  8
PV
  6
CENTER
 62
     1
 10
5.898930E+002
 20
2.249070E+002
 30
0.000000E+000
 11
5.619220E+002
 21
2.249070E+002
 31
0.000000E+000
  0
LINE
  8
PV
 62
     7
 10
5.959070E+002
 20
1.104910E+003
 30
0.000000E+000
 11
1.959070E+002
 21
1.104910E+003
 31
0.000000E+000
  0
LINE
  8
PV
 62
     7
 10
1.959070E+002
 20
2.049070E+002
 30
0.000000E+000
 11
5.959070E+002
 21
2.049070E+002
 31
0.000000E+000
  0
LINE
  8
PV
  6
CENTER
 62
     1
 10
5.537510E+002
 20
9.982070E+002
 30
0.000000E+000
 11
5.537510E+002
 21
4.394070E+002
 31
0.000000E+000
  0
LINE
  8
PV
 62
     7
 10
5.459070E+002
 20
7.224570E+002
 30
0.000000E+000
 11
5.459070E+002
 21
9.589060E+002
 31
0.000000E+000
  0
LINE
  8
PV
 62
     7
 10
1.959070E+002
 20
2.049070E+002
 30
0.000000E+000
 11
1.959070E+002
 21
1.104910E+003
 31
0.000000E+000
  0
LINE
  8
PV
 62
     7
 10
4.642070E+002
 20
8.254070E+002
 30
0.000000E+000
 11
4.642070E+002
 21
8.094070E+002
 31
0.000000E+000
  0
LINE
  8
PV
 62
     7
 10
4.542070E+002
 20
8.154070E+002
 30
0.000000E+000
 11
4.542070E+002
 21
8.094070E+002
 31
0.000000E+000
  0
LINE
  8
PV
 62
     7
 10
4.432070E+002
 20
5.605070E+002
 30
0.000000E+000
 11
4.432070E+002
 21
8.303070E+002
 31
0.000000E+000
  0
LINE
  8
PV
 62
     7
 10
4.389070E+002
 20
5.605070E+002
 30
0.000000E+000
 11
4.389070E+002
 21
8.303070E+002
 31
0.000000E+000
  0
LINE
  8
PV
 62
     7
 10
4.209070E+002
 20
5.605070E+002
 30
0.000000E+000
 11
4.209070E+002
 21
8.303070E+002
 31
0.000000E+000
  0
LINE
  8
PV
 62
     7
 10
2.329070E+002
 20
5.605070E+002
 30
0.000000E+000
 11
2.329070E+002
 21
8.303070E+002
 31
0.000000E+000
  0
LINE
  8
PV
 62
     7
 10
2.509070E+002
 20
5.605070E+002
 30
0.000000E+000
 11
2.509070E+002
 21
8.303070E+002
 31
0.000000E+000
  0
LINE
  8
PV
 62
     7
 10
2.286070E+002
 20
5.605070E+002
 30
0.000000E+000
 11
2.286070E+002
 21
8.303070E+002
 31
0.000000E+000
  0
LINE
  8
PV
  6
CENTER
 62
     1
 10
3.359070E+002
 20
9.799070E+002
 30
0.000000E+000
 11
3.359070E+002
 21
4.732610E+002
 31
0.000000E+000
  0
LINE
  8
PV
 62
     7
 10
3.573800E+002
 20
4.159070E+002
 30
0.000000E+000
 11
2.199070E+002
 21
4.159070E+002
 31
0.000000E+000
  0
CIRCLE
  8
PV
 62
     7
 10
2.159070E+002
 20
6.549070E+002
 30
0.000000E+000
 40
6.500000E+000
  0
LINE
  8
PV
  6
CENTER
 62
     1
 10
2.019220E+002
 20
6.549070E+002
 30
0.000000E+000
 11
2.298930E+002
 21
6.549070E+002
 31
0.000000E+000
  0
LINE
  8
PV
  6
CENTER
 62
     1
 10
2.019220E+002
 20
2.249070E+002
 30
0.000000E+000
 11
2.298930E+002
 21
2.249070E+002
 31
0.000000E+000
  0
CIRCLE
  8
PV
 62
     7
 10
2.159070E+002
 20
2.249070E+002
 30
0.000000E+000
 40
6.500000E+000
  0
LINE
  8
PV
 62
     7
 10
2.438800E+002
 20
2.909070E+002
 30
0.000000E+000
 11
2.138800E+002
 21
2.909070E+002
 31
0.000000E+000
  0
LINE
  8
PV
 62
     7
 10
2.438800E+002
 20
3.909070E+002
 30
0.000000E+000
 11
2.138800E+002
 21
3.909070E+002
 31
0.000000E+000
  0
LINE
  8
PV
 62
     7
 10
3.242070E+002
 20
5.059070E+002
 30
0.000000E+000
 11
2.159070E+002
 21
5.059070E+002
 31
0.000000E+000
  0
LINE
  8
PV
 62
     7
 10
4.609070E+002
 20
5.605070E+002
 30
0.000000E+000
 11
2.109070E+002
 21
5.605070E+002
 31
0.000000E+000
  0
LINE
  8
PV
 62
     7
 10
2.329070E+002
 20
5.014070E+002
 30
0.000000E+000
 11
2.159070E+002
 21
5.014070E+002
 31
0.000000E+000
  0
LINE
  8
PV
 62
     7
 10
4.609070E+002
 20
5.255070E+002
 30
0.000000E+000
 11
2.109070E+002
 21
5.255070E+002
 31
0.000000E+000
  0
LINE
  8
PV
 62
     7
 10
2.038800E+002
 20
3.809070E+002
 30
0.000000E+000
 11
2.038800E+002
 21
3.009070E+002
 31
0.000000E+000
  0
LINE
  8
PV
  6
CENTER
 62
     1
 10
2.159070E+002
 20
2.109220E+002
 30
0.000000E+000
 11
2.159070E+002
 21
2.388930E+002
 31
0.000000E+000
  0
LINE
  8
PV
 62
     7
 10
2.138800E+002
 20
2.909070E+002
 30
0.000000E+000
 11
2.038800E+002
 21
3.009070E+002
 31
0.000000E+000
  0
LINE
  8
PV
 62
     7
 10
2.109070E+002
 20
5.605070E+002
 30
0.000000E+000
 11
2.109070E+002
 21
5.255070E+002
 31
0.000000E+000
  0
LINE
  8
PV
 62
     7
 10
2.159070E+002
 20
4.199070E+002
 30
0.000000E+000
 11
2.159070E+002
 21
5.059070E+002
 31
0.000000E+000
  0
LINE
  8
PV
 62
     7
 10
2.138800E+002
 20
3.909070E+002
 30
0.000000E+000
 11
2.038800E+002
 21
3.809070E+002
 31
0.000000E+000
  0
ARC
  8
PV
 62
     7
 10
2.199070E+002
 20
4.199070E+002
 30
0.000000E+000
 40
4.000000E+000
 50
1.800000E+002
 51
2.700000E+002
  0
LINE
  8
PV
  6
CENTER
 62
     1
 10
2.159070E+002
 20
6.409220E+002
 30
0.000000E+000
 11
2.159070E+002
 21
6.688930E+002
 31
0.000000E+000
  0
LINE
  8
PV
 62
     7
 10
5.459070E+002
 20
2.049070E+002
 30
0.000000E+000
 11
5.459070E+002
 21
6.573570E+002
 31
0.000000E+000
  0
LINE
  8
PV
 62
     7
 10
4.933800E+002
 20
3.909070E+002
 30
0.000000E+000
 11
4.933800E+002
 21
2.909070E+002
 31
0.000000E+000
  0
LINE
  8
PV
 62
     7
 10
2.393800E+002
 20
3.909070E+002
 30
0.000000E+000
 11
2.393800E+002
 21
2.909070E+002
 31
0.000000E+000
  0
LINE
  8
PV
 62
     7
 10
5.288800E+002
 20
3.809070E+002
 30
0.000000E+000
 11
5.288800E+002
 21
3.009070E+002
 31
0.000000E+000
  0
LINE
  8
PV
 62
     7
 10
4.888800E+002
 20
4.159070E+002
 30
0.000000E+000
 11
4.888800E+002
 21
2.509070E+002
 31
0.000000E+000
  0
CIRCLE
  8
PV
 62
     7
 10
3.663800E+002
 20
3.259070E+002
 30
0.000000E+000
 40
2.200000E+001
  0
CIRCLE
  8
PV
 62
     7
 10
3.663800E+002
 20
3.259070E+002
 30
0.000000E+000
 40
3.100000E+001
  0
LINE
  8
PV
  6
CENTER
 62
     1
 10
3.663800E+002
 20
2.135400E+002
 30
0.000000E+000
 11
3.663800E+002
 21
4.219070E+002
 31
0.000000E+000
  0
LINE
  8
PV
 62
     7
 10
4.638800E+002
 20
4.159070E+002
 30
0.000000E+000
 11
4.638800E+002
 21
2.509070E+002
 31
0.000000E+000
  0
LINE
  8
PV
 62
     7
 10
2.688800E+002
 20
4.159070E+002
 30
0.000000E+000
 11
2.688800E+002
 21
2.509070E+002
 31
0.000000E+000
  0
LINE
  8
PV
 62
     7
 10
2.438800E+002
 20
4.159070E+002
 30
0.000000E+000
 11
2.438800E+002
 21
2.509070E+002
 31
0.000000E+000
  0
LINE
  8
PV
  6
CENTER
 62
     1
 10
4.865580E+002
 20
2.189910E+002
 30
0.000000E+000
 11
3.777000E+002
 21
2.697530E+002
 31
0.000000E+000
  0
ARC
  8
PV
 62
     7
 10
3.923800E+002
 20
2.629070E+002
 30
0.000000E+000
 40
1.300000E+001
 50
6.500000E+001
 51
2.450000E+002
  0
LINE
  8
PV
 62
     7
 10
4.223450E+002
 20
2.632780E+002
 30
0.000000E+000
 11
3.978740E+002
 21
2.746890E+002
 31
0.000000E+000
  0
LINE
  8
PV
 62
     7
 10
4.113570E+002
 20
2.397140E+002
 30
0.000000E+000
 11
3.868860E+002
 21
2.511250E+002
 31
0.000000E+000
  0
LINE
  8
PV
 62
     7
 10
3.888800E+002
 20
2.874070E+002
 30
0.000000E+000
 11
4.638800E+002
 21
2.874070E+002
 31
0.000000E+000
  0
LINE
  8
PV
 62
     7
 10
3.033800E+002
 20
2.824070E+002
 30
0.000000E+000
 11
4.293800E+002
 21
2.824070E+002
 31
0.000000E+000
  0
LINE
  8
PV
  6
CENTER
 62
     1
 10
2.219950E+002
 20
2.699070E+002
 30
0.000000E+000
 11
5.107660E+002
 21
2.699070E+002
 31
0.000000E+000
  0
LINE
  8
PV
 62
     7
 10
2.571450E+002
 20
2.047850E+002
 30
0.000000E+000
 11
3.160550E+002
 21
2.322550E+002
 31
0.000000E+000
  0
LINE
  8
PV
 62
     7
 10
3.160550E+002
 20
2.322550E+002
 30
0.000000E+000
 11
3.012640E+002
 21
2.639760E+002
 31
0.000000E+000
  0
LINE
  8
PV
 62
     7
 10
3.104160E+002
 20
2.632780E+002
 30
0.000000E+000
 11
3.214040E+002
 21
2.397140E+002
 31
0.000000E+000
  0
LINE
  8
PV
  6
CENTER
 62
     1
 10
2.462030E+002
 20
2.189910E+002
 30
0.000000E+000
 11
3.550610E+002
 21
2.697530E+002
 31
0.000000E+000
  0
LINE
  8
PV
 62
     7
 10
3.104160E+002
 20
2.632780E+002
 30
0.000000E+000
 11
3.348860E+002
 21
2.746890E+002
 31
0.000000E+000
  0
LINE
  8
PV
 62
     7
 10
3.438800E+002
 20
2.874070E+002
 30
0.000000E+000
 11
2.688800E+002
 21
2.874070E+002
 31
0.000000E+000
  0
LINE
  8
PV
 62
     7
 10
2.423540E+002
 20
2.365060E+002
 30
0.000000E+000
 11
3.012640E+002
 21
2.639760E+002
 31
0.000000E+000
  0
LINE
  8
PV
 62
     7
 10
2.438800E+002
 20
2.509070E+002
 30
0.000000E+000
 11
2.688800E+002
 21
2.509070E+002
 31
0.000000E+000
  0
LINE
  8
PV
 62
     7
 10
2.459070E+002
 20
2.381630E+002
 30
0.000000E+000
 11
2.459070E+002
 21
2.509070E+002
 31
0.000000E+000
  0
LINE
  8
PV
 62
     7
 10
2.571450E+002
 20
2.047850E+002
 30
0.000000E+000
 11
2.423540E+002
 21
2.365060E+002
 31
0.000000E+000
  0
LINE
  8
PV
 62
     7
 10
2.459070E+002
 20
2.049070E+002
 30
0.000000E+000
 11
2.459070E+002
 21
2.288860E+002
 31
0.000000E+000
  0
LINE
  8
PV
 62
     7
 10
2.338800E+002
 20
2.809070E+002
 30
0.000000E+000
 11
2.338800E+002
 21
2.589070E+002
 31
0.000000E+000
  0
LINE
  8
PV
 62
     7
 10
2.438800E+002
 20
2.589070E+002
 30
0.000000E+000
 11
2.338800E+002
 21
2.589070E+002
 31
0.000000E+000
  0
LINE
  8
PV
 62
     7
 10
2.438800E+002
 20
2.809070E+002
 30
0.000000E+000
 11
2.338800E+002
 21
2.809070E+002
 31
0.000000E+000
  0
LINE
  8
PV
 62
     7
 10
2.688800E+002
 20
2.809070E+002
 30
0.000000E+000
 11
3.033800E+002
 21
2.809070E+002
 31
0.000000E+000
  0
LINE
  8
PV
 62
     7
 10
2.688800E+002
 20
2.589070E+002
 30
0.000000E+000
 11
2.903940E+002
 21
2.589070E+002
 31
0.000000E+000
  0
LINE
  8
PV
 62
     7
 10
3.033800E+002
 20
2.594370E+002
 30
0.000000E+000
 11
3.033800E+002
 21
2.824070E+002
 31
0.000000E+000
  0
LINE
  8
PV
 62
     7
 10
3.112610E+002
 20
2.614660E+002
 30
0.000000E+000
 11
3.040110E+002
 21
2.580850E+002
 31
0.000000E+000
  0
LINE
  8
PV
 62
     7
 10
4.002210E+002
 20
2.449070E+002
 30
0.000000E+000
 11
3.325400E+002
 21
2.449070E+002
 31
0.000000E+000
  0
LINE
  8
PV
 62
     7
 10
3.205590E+002
 20
2.415270E+002
 30
0.000000E+000
 11
3.133080E+002
 21
2.381460E+002
 31
0.000000E+000
  0
LINE
  8
PV
 62
     7
 10
3.214040E+002
 20
2.397140E+002
 30
0.000000E+000
 11
3.458740E+002
 21
2.511250E+002
 31
0.000000E+000
  0
LINE
  8
PV
  6
CENTER
 62
     1
 10
3.462850E+002
 20
2.502440E+002
 30
0.000000E+000
 11
3.344750E+002
 21
2.755710E+002
 31
0.000000E+000
  0
ARC
  8
PV
 62
     7
 10
3.403800E+002
 20
2.629070E+002
 30
0.000000E+000
 40
1.300000E+001
 50
2.950000E+002
 51
1.150000E+002
  0
LINE
  8
PV
 62
     7
 10
3.438800E+002
 20
3.045820E+002
 30
0.000000E+000
 11
3.438800E+002
 21
2.824070E+002
 31
0.000000E+000
  0
LINE
  8
PV
  6
CENTER
 62
     1
 10
3.864750E+002
 20
2.502440E+002
 30
0.000000E+000
 11
3.982850E+002
 21
2.755710E+002
 31
0.000000E+000
  0
LINE
  8
PV
 62
     7
 10
3.888800E+002
 20
3.045820E+002
 30
0.000000E+000
 11
3.888800E+002
 21
2.824070E+002
 31
0.000000E+000
  0
LINE
  8
PV
 62
     7
 10
4.888800E+002
 20
2.909070E+002
 30
0.000000E+000
 11
5.188800E+002
 21
2.909070E+002
 31
0.000000E+000
  0
LINE
  8
PV
 62
     7
 10
4.888800E+002
 20
2.809070E+002
 30
0.000000E+000
 11
4.988800E+002
 21
2.809070E+002
 31
0.000000E+000
  0
LINE
  8
PV
 62
     7
 10
4.888800E+002
 20
2.589070E+002
 30
0.000000E+000
 11
4.988800E+002
 21
2.589070E+002
 31
0.000000E+000
  0
LINE
  8
PV
 62
     7
 10
4.756150E+002
 20
2.047850E+002
 30
0.000000E+000
 11
4.167050E+002
 21
2.322550E+002
 31
0.000000E+000
  0
LINE
  8
PV
 62
     7
 10
4.904070E+002
 20
2.365060E+002
 30
0.000000E+000
 11
4.314970E+002
 21
2.639760E+002
 31
0.000000E+000
  0
LINE
  8
PV
 62
     7
 10
4.638800E+002
 20
2.589070E+002
 30
0.000000E+000
 11
4.423670E+002
 21
2.589070E+002
 31
0.000000E+000
  0
LINE
  8
PV
 62
     7
 10
4.638800E+002
 20
2.809070E+002
 30
0.000000E+000
 11
4.293800E+002
 21
2.809070E+002
 31
0.000000E+000
  0
LINE
  8
PV
 62
     7
 10
4.122020E+002
 20
2.415270E+002
 30
0.000000E+000
 11
4.194520E+002
 21
2.381460E+002
 31
0.000000E+000
  0
LINE
  8
PV
 62
     7
 10
4.167050E+002
 20
2.322550E+002
 30
0.000000E+000
 11
4.314970E+002
 21
2.639760E+002
 31
0.000000E+000
  0
LINE
  8
PV
 62
     7
 10
4.223450E+002
 20
2.632780E+002
 30
0.000000E+000
 11
4.113570E+002
 21
2.397140E+002
 31
0.000000E+000
  0
LINE
  8
PV
 62
     7
 10
4.214990E+002
 20
2.614660E+002
 30
0.000000E+000
 11
4.287500E+002
 21
2.580850E+002
 31
0.000000E+000
  0
LINE
  8
PV
 62
     7
 10
4.293800E+002
 20
2.594370E+002
 30
0.000000E+000
 11
4.293800E+002
 21
2.824070E+002
 31
0.000000E+000
  0
LINE
  8
PV
 62
     7
 10
4.756150E+002
 20
2.047850E+002
 30
0.000000E+000
 11
4.904070E+002
 21
2.365060E+002
 31
0.000000E+000
  0
LINE
  8
PV
 62
     7
 10
4.888800E+002
 20
2.509070E+002
 30
0.000000E+000
 11
4.638800E+002
 21
2.509070E+002
 31
0.000000E+000
  0
LINE
  8
PV
 62
     7
 10
5.188800E+002
 20
2.909070E+002
 30
0.000000E+000
 11
5.288800E+002
 21
3.009070E+002
 31
0.000000E+000
  0
LINE
  8
PV
 62
     7
 10
4.988800E+002
 20
2.809070E+002
 30
0.000000E+000
 11
4.988800E+002
 21
2.589070E+002
 31
0.000000E+000
  0
CIRCLE
  8
PV
 62
     7
 10
5.759070E+002
 20
2.249070E+002
 30
0.000000E+000
 40
6.500000E+000
  0
LINE
  8
PV
  6
CENTER
 62
     1
 10
5.759070E+002
 20
2.109220E+002
 30
0.000000E+000
 11
5.759070E+002
 21
2.388930E+002
 31
0.000000E+000
  0
LINE
  8
PV
  6
CENTER
 62
     1
 10
3.663800E+002
 20
4.219070E+002
 30
0.000000E+000
 11
5.362510E+002
 21
4.219070E+002
 31
0.000000E+000
  0
LINE
  8
PV
 62
     7
 10
3.753800E+002
 20
3.979070E+002
 30
0.000000E+000
 11
4.638800E+002
 21
3.979070E+002
 31
0.000000E+000
  0
LINE
  8
PV
 62
     7
 10
3.753800E+002
 20
4.099070E+002
 30
0.000000E+000
 11
4.638800E+002
 21
4.099070E+002
 31
0.000000E+000
  0
LINE
  8
PV
 62
     7
 10
4.638800E+002
 20
3.944070E+002
 30
0.000000E+000
 11
3.888800E+002
 21
3.944070E+002
 31
0.000000E+000
  0
LINE
  8
PV
  6
CENTER
 62
     1
 10
2.219950E+002
 20
4.039070E+002
 30
0.000000E+000
 11
5.107660E+002
 21
4.039070E+002
 31
0.000000E+000
  0
LINE
  8
PV
  6
CENTER
 62
     1
 10
5.107660E+002
 20
3.409070E+002
 30
0.000000E+000
 11
2.718780E+002
 21
3.409070E+002
 31
0.000000E+000
  0
LINE
  8
PV
 62
     7
 10
4.209070E+002
 20
5.014070E+002
 30
0.000000E+000
 11
3.484070E+002
 21
5.014070E+002
 31
0.000000E+000
  0
LINE
  8
PV
 62
     7
 10
4.559070E+002
 20
5.059070E+002
 30
0.000000E+000
 11
3.476070E+002
 21
5.059070E+002
 31
0.000000E+000
  0
LINE
  8
PV
 62
     7
 10
4.519070E+002
 20
4.159070E+002
 30
0.000000E+000
 11
4.023800E+002
 21
4.159070E+002
 31
0.000000E+000
  0
LINE
  8
PV
  6
CENTER
 62
     1
 10
3.999070E+002
 20
4.399070E+002
 30
0.000000E+000
 11
4.319070E+002
 21
4.399070E+002
 31
0.000000E+000
  0
LINE
  8
PV
 62
     7
 10
2.688800E+002
 20
3.979070E+002
 30
0.000000E+000
 11
3.573800E+002
 21
3.979070E+002
 31
0.000000E+000
  0
LINE
  8
PV
 62
     7
 10
2.688800E+002
 20
4.099070E+002
 30
0.000000E+000
 11
3.573800E+002
 21
4.099070E+002
 31
0.000000E+000
  0
LINE
  8
PV
 62
     7
 10
2.688800E+002
 20
3.944070E+002
 30
0.000000E+000
 11
3.438800E+002
 21
3.944070E+002
 31
0.000000E+000
  0
LINE
  8
PV
 62
     7
 10
3.234070E+002
 20
5.014070E+002
 30
0.000000E+000
 11
2.509070E+002
 21
5.014070E+002
 31
0.000000E+000
  0
LINE
  8
PV
 62
     7
 10
2.914070E+002
 20
5.255070E+002
 30
0.000000E+000
 11
3.209070E+002
 21
5.205070E+002
 31
0.000000E+000
  0
LINE
  8
PV
  6
CENTER
 62
     1
 10
2.559070E+002
 20
4.519070E+002
 30
0.000000E+000
 11
2.559070E+002
 21
4.279070E+002
 31
0.000000E+000
  0
LINE
  8
PV
  6
CENTER
 62
     1
 10
2.811640E+002
 20
3.409070E+002
 30
0.000000E+000
 11
2.219950E+002
 21
3.409070E+002
 31
0.000000E+000
  0
LINE
  8
PV
 62
     7
 10
2.688800E+002
 20
4.159070E+002
 30
0.000000E+000
 11
2.438800E+002
 21
4.159070E+002
 31
0.000000E+000
  0
LINE
  8
PV
 62
     7
 10
2.338800E+002
 20
4.149070E+002
 30
0.000000E+000
 11
2.338800E+002
 21
3.929070E+002
 31
0.000000E+000
  0
LINE
  8
PV
 62
     7
 10
2.438800E+002
 20
3.929070E+002
 30
0.000000E+000
 11
2.338800E+002
 21
3.929070E+002
 31
0.000000E+000
  0
LINE
  8
PV
 62
     7
 10
2.438800E+002
 20
4.149070E+002
 30
0.000000E+000
 11
2.338800E+002
 21
4.149070E+002
 31
0.000000E+000
  0
LINE
  8
PV
  6
CENTER
 62
     1
 10
2.719070E+002
 20
4.399070E+002
 30
0.000000E+000
 11
2.399070E+002
 21
4.399070E+002
 31
0.000000E+000
  0
LINE
  8
PV
 62
     7
 10
2.509070E+002
 20
4.874070E+002
 30
0.000000E+000
 11
2.509070E+002
 21
5.059070E+002
 31
0.000000E+000
  0
LINE
  8
PV
 62
     7
 10
2.329070E+002
 20
4.874070E+002
 30
0.000000E+000
 11
2.329070E+002
 21
5.059070E+002
 31
0.000000E+000
  0
LINE
  8
PV
 62
     7
 10
2.574960E+002
 20
4.864070E+002
 30
0.000000E+000
 11
2.574960E+002
 21
5.014070E+002
 31
0.000000E+000
  0
LINE
  8
PV
 62
     7
 10
2.263190E+002
 20
4.864070E+002
 30
0.000000E+000
 11
2.263190E+002
 21
5.014070E+002
 31
0.000000E+000
  0
LINE
  8
PV
 62
     7
 10
2.349070E+002
 20
4.854070E+002
 30
0.000000E+000
 11
2.489070E+002
 21
4.854070E+002
 31
0.000000E+000
  0
LINE
  8
PV
 62
     7
 10
2.263190E+002
 20
4.864070E+002
 30
0.000000E+000
 11
2.339070E+002
 21
4.864070E+002
 31
0.000000E+000
  0
LINE
  8
PV
 62
     7
 10
2.349070E+002
 20
4.854070E+002
 30
0.000000E+000
 11
2.329070E+002
 21
4.874070E+002
 31
0.000000E+000
  0
LINE
  8
PV
 62
     7
 10
2.499070E+002
 20
4.864070E+002
 30
0.000000E+000
 11
2.574070E+002
 21
4.864070E+002
 31
0.000000E+000
  0
LINE
  8
PV
 62
     7
 10
2.489070E+002
 20
4.854070E+002
 30
0.000000E+000
 11
2.509070E+002
 21
4.874070E+002
 31
0.000000E+000
  0
LINE
  8
PV
 62
     7
 10
2.263190E+002
 20
5.209070E+002
 30
0.000000E+000
 11
2.574070E+002
 21
5.209070E+002
 31
0.000000E+000
  0
LINE
  8
PV
 62
     7
 10
2.263190E+002
 20
5.059070E+002
 30
0.000000E+000
 11
2.263190E+002
 21
5.209070E+002
 31
0.000000E+000
  0
LINE
  8
PV
 62
     7
 10
2.264070E+002
 20
5.209070E+002
 30
0.000000E+000
 11
2.264070E+002
 21
5.255070E+002
 31
0.000000E+000
  0
LINE
  8
PV
 62
     7
 10
2.341130E+002
 20
5.059070E+002
 30
0.000000E+000
 11
2.341130E+002
 21
5.209070E+002
 31
0.000000E+000
  0
LINE
  8
PV
 62
     7
 10
2.497010E+002
 20
5.059070E+002
 30
0.000000E+000
 11
2.497010E+002
 21
5.209070E+002
 31
0.000000E+000
  0
LINE
  8
PV
 62
     7
 10
2.574960E+002
 20
5.059070E+002
 30
0.000000E+000
 11
2.574960E+002
 21
5.209070E+002
 31
0.000000E+000
  0
LINE
  8
PV
 62
     7
 10
2.574070E+002
 20
5.209070E+002
 30
0.000000E+000
 11
2.574070E+002
 21
5.255070E+002
 31
0.000000E+000
  0
LINE
  8
PV
 62
     7
 10
4.023800E+002
 20
4.094070E+002
 30
0.000000E+000
 11
4.023800E+002
 21
4.344070E+002
 31
0.000000E+000
  0
LINE
  8
PV
 62
     7
 10
3.873800E+002
 20
4.344070E+002
 30
0.000000E+000
 11
3.873800E+002
 21
4.094070E+002
 31
0.000000E+000
  0
CIRCLE
  8
PV
 62
     7
 10
3.513800E+002
 20
3.779070E+002
 30
0.000000E+000
 40
1.350000E+001
  0
LINE
  8
PV
 62
     7
 10
3.873800E+002
 20
4.309070E+002
 30
0.000000E+000
 11
3.573800E+002
 21
4.309070E+002
 31
0.000000E+000
  0
CIRCLE
  8
PV
 62
     7
 10
3.663800E+002
 20
3.259070E+002
 30
0.000000E+000
 40
2.036260E+001
  0
LINE
  8
PV
  6
CENTER
 62
     1
 10
3.300690E+002
 20
3.259070E+002
 30
0.000000E+000
 11
4.026920E+002
 21
3.259070E+002
 31
0.000000E+000
  0
LINE
  8
PV
 62
     7
 10
3.438800E+002
 20
3.969070E+002
 30
0.000000E+000
 11
3.888800E+002
 21
3.969070E+002
 31
0.000000E+000
  0
LINE
  8
PV
 62
     7
 10
3.438800E+002
 20
3.666820E+002
 30
0.000000E+000
 11
3.438800E+002
 21
3.472320E+002
 31
0.000000E+000
  0
LINE
  8
PV
 62
     7
 10
3.573800E+002
 20
3.969070E+002
 30
0.000000E+000
 11
3.573800E+002
 21
4.309070E+002
 31
0.000000E+000
  0
LINE
  8
PV
 62
     7
 10
3.568870E+002
 20
3.724010E+002
 30
0.000000E+000
 11
3.438930E+002
 21
3.853950E+002
 31
0.000000E+000
  0
LINE
  8
PV
 62
     7
 10
3.438800E+002
 20
3.969070E+002
 30
0.000000E+000
 11
3.438800E+002
 21
3.891320E+002
 31
0.000000E+000
  0
CIRCLE
  8
PV
 62
     7
 10
3.813800E+002
 20
3.779070E+002
 30
0.000000E+000
 40
1.350000E+001
  0
LINE
  8
PV
 62
     7
 10
3.888800E+002
 20
3.666820E+002
 30
0.000000E+000
 11
3.888800E+002
 21
3.472320E+002
 31
0.000000E+000
  0
LINE
  8
PV
 62
     7
 10
3.868870E+002
 20
3.724010E+002
 30
0.000000E+000
 11
3.738930E+002
 21
3.853950E+002
 31
0.000000E+000
  0
LINE
  8
PV
 62
     7
 10
3.873800E+002
 20
4.129070E+002
 30
0.000000E+000
 11
3.753800E+002
 21
4.129070E+002
 31
0.000000E+000
  0
LINE
  8
PV
 62
     7
 10
3.753800E+002
 20
3.969070E+002
 30
0.000000E+000
 11
3.753800E+002
 21
4.129070E+002
 31
0.000000E+000
  0
LINE
  8
PV
 62
     7
 10
3.888800E+002
 20
3.969070E+002
 30
0.000000E+000
 11
3.888800E+002
 21
3.891320E+002
 31
0.000000E+000
  0
LINE
  8
PV
 62
     7
 10
4.023800E+002
 20
4.094070E+002
 30
0.000000E+000
 11
3.873800E+002
 21
4.094070E+002
 31
0.000000E+000
  0
LINE
  8
PV
 62
     7
 10
3.804070E+002
 20
5.255070E+002
 30
0.000000E+000
 11
3.509070E+002
 21
5.205070E+002
 31
0.000000E+000
  0
CIRCLE
  8
PV
 62
     7
 10
3.359070E+002
 20
5.015070E+002
 30
0.000000E+000
 40
1.250000E+001
  0
LINE
  8
PV
 62
     7
 10
3.399070E+002
 20
4.805070E+002
 30
0.000000E+000
 11
3.319070E+002
 21
4.805070E+002
 31
0.000000E+000
  0
LINE
  8
PV
 62
     7
 10
3.319070E+002
 20
4.805070E+002
 30
0.000000E+000
 11
3.319070E+002
 21
4.896640E+002
 31
0.000000E+000
  0
LINE
  8
PV
 62
     7
 10
3.399070E+002
 20
4.805070E+002
 30
0.000000E+000
 11
3.399070E+002
 21
4.896640E+002
 31
0.000000E+000
  0
LINE
  8
PV
 62
     7
 10
3.419070E+002
 20
5.155070E+002
 30
0.000000E+000
 11
3.299070E+002
 21
5.155070E+002
 31
0.000000E+000
  0
LINE
  8
PV
 62
     7
 10
3.343190E+002
 20
5.042570E+002
 30
0.000000E+000
 11
3.327320E+002
 21
5.015070E+002
 31
0.000000E+000
  0
LINE
  8
PV
 62
     7
 10
3.327320E+002
 20
5.015070E+002
 30
0.000000E+000
 11
3.343190E+002
 21
4.987570E+002
 31
0.000000E+000
  0
LINE
  8
PV
 62
     7
 10
3.343190E+002
 20
4.987570E+002
 30
0.000000E+000
 11
3.374950E+002
 21
4.987570E+002
 31
0.000000E+000
  0
LINE
  8
PV
 62
     7
 10
3.374950E+002
 20
4.987570E+002
 30
0.000000E+000
 11
3.390820E+002
 21
5.015070E+002
 31
0.000000E+000
  0
LINE
  8
PV
 62
     7
 10
3.390820E+002
 20
5.015070E+002
 30
0.000000E+000
 11
3.374950E+002
 21
5.042570E+002
 31
0.000000E+000
  0
LINE
  8
PV
 62
     7
 10
3.374950E+002
 20
5.042570E+002
 30
0.000000E+000
 11
3.343190E+002
 21
5.042570E+002
 31
0.000000E+000
  0
LINE
  8
PV
 62
     7
 10
3.509070E+002
 20
5.205070E+002
 30
0.000000E+000
 11
3.209070E+002
 21
5.205070E+002
 31
0.000000E+000
  0
LINE
  8
PV
 62
     7
 10
3.299070E+002
 20
5.124730E+002
 30
0.000000E+000
 11
3.299070E+002
 21
5.155070E+002
 31
0.000000E+000
  0
LINE
  8
PV
 62
     7
 10
3.309070E+002
 20
5.155070E+002
 30
0.000000E+000
 11
3.309070E+002
 21
5.205070E+002
 31
0.000000E+000
  0
LINE
  8
PV
 62
     7
 10
3.419070E+002
 20
5.124730E+002
 30
0.000000E+000
 11
3.419070E+002
 21
5.155070E+002
 31
0.000000E+000
  0
LINE
  8
PV
 62
     7
 10
3.409070E+002
 20
5.155070E+002
 30
0.000000E+000
 11
3.409070E+002
 21
5.205070E+002
 31
0.000000E+000
  0
LINE
  8
PV
 62
     7
 10
4.023800E+002
 20
4.344070E+002
 30
0.000000E+000
 11
3.873800E+002
 21
4.344070E+002
 31
0.000000E+000
  0
LINE
  8
PV
 62
     7
 10
4.609070E+002
 20
5.605070E+002
 30
0.000000E+000
 11
4.609070E+002
 21
5.255070E+002
 31
0.000000E+000
  0
LINE
  8
PV
 62
     7
 10
4.888800E+002
 20
3.909070E+002
 30
0.000000E+000
 11
5.188800E+002
 21
3.909070E+002
 31
0.000000E+000
  0
LINE
  8
PV
 62
     7
 10
4.888800E+002
 20
3.929070E+002
 30
0.000000E+000
 11
4.988800E+002
 21
3.929070E+002
 31
0.000000E+000
  0
LINE
  8
PV
 62
     7
 10
4.888800E+002
 20
4.149070E+002
 30
0.000000E+000
 11
4.988800E+002
 21
4.149070E+002
 31
0.000000E+000
  0
LINE
  8
PV
 62
     7
 10
4.559070E+002
 20
4.199070E+002
 30
0.000000E+000
 11
4.559070E+002
 21
5.059070E+002
 31
0.000000E+000
  0
LINE
  8
PV
  6
CENTER
 62
     1
 10
4.159070E+002
 20
4.519070E+002
 30
0.000000E+000
 11
4.159070E+002
 21
4.279070E+002
 31
0.000000E+000
  0
LINE
  8
PV
 62
     7
 10
4.638800E+002
 20
4.159070E+002
 30
0.000000E+000
 11
4.888800E+002
 21
4.159070E+002
 31
0.000000E+000
  0
ARC
  8
PV
 62
     7
 10
4.519070E+002
 20
4.199070E+002
 30
0.000000E+000
 40
4.000000E+000
 50
2.700000E+002
 51
0.000000E+000
  0
LINE
  8
PV
 62
     7
 10
4.559070E+002
 20
5.014070E+002
 30
0.000000E+000
 11
4.389070E+002
 21
5.014070E+002
 31
0.000000E+000
  0
LINE
  8
PV
 62
     7
 10
4.454960E+002
 20
4.864070E+002
 30
0.000000E+000
 11
4.454960E+002
 21
5.014070E+002
 31
0.000000E+000
  0
LINE
  8
PV
 62
     7
 10
4.143190E+002
 20
4.864070E+002
 30
0.000000E+000
 11
4.143190E+002
 21
5.014070E+002
 31
0.000000E+000
  0
LINE
  8
PV
 62
     7
 10
4.389070E+002
 20
4.874070E+002
 30
0.000000E+000
 11
4.389070E+002
 21
5.059070E+002
 31
0.000000E+000
  0
LINE
  8
PV
 62
     7
 10
4.209070E+002
 20
4.874070E+002
 30
0.000000E+000
 11
4.209070E+002
 21
5.059070E+002
 31
0.000000E+000
  0
LINE
  8
PV
 62
     7
 10
4.369070E+002
 20
4.854070E+002
 30
0.000000E+000
 11
4.229070E+002
 21
4.854070E+002
 31
0.000000E+000
  0
LINE
  8
PV
 62
     7
 10
4.219070E+002
 20
4.864070E+002
 30
0.000000E+000
 11
4.144070E+002
 21
4.864070E+002
 31
0.000000E+000
  0
LINE
  8
PV
 62
     7
 10
4.229070E+002
 20
4.854070E+002
 30
0.000000E+000
 11
4.209070E+002
 21
4.874070E+002
 31
0.000000E+000
  0
LINE
  8
PV
 62
     7
 10
4.454960E+002
 20
4.864070E+002
 30
0.000000E+000
 11
4.379070E+002
 21
4.864070E+002
 31
0.000000E+000
  0
LINE
  8
PV
 62
     7
 10
4.369070E+002
 20
4.854070E+002
 30
0.000000E+000
 11
4.389070E+002
 21
4.874070E+002
 31
0.000000E+000
  0
LINE
  8
PV
 62
     7
 10
4.454960E+002
 20
5.209070E+002
 30
0.000000E+000
 11
4.144070E+002
 21
5.209070E+002
 31
0.000000E+000
  0
LINE
  8
PV
 62
     7
 10
4.144070E+002
 20
5.209070E+002
 30
0.000000E+000
 11
4.144070E+002
 21
5.255070E+002
 31
0.000000E+000
  0
LINE
  8
PV
 62
     7
 10
4.143190E+002
 20
5.059070E+002
 30
0.000000E+000
 11
4.143190E+002
 21
5.209070E+002
 31
0.000000E+000
  0
LINE
  8
PV
 62
     7
 10
4.221130E+002
 20
5.059070E+002
 30
0.000000E+000
 11
4.221130E+002
 21
5.209070E+002
 31
0.000000E+000
  0
LINE
  8
PV
 62
     7
 10
4.377010E+002
 20
5.059070E+002
 30
0.000000E+000
 11
4.377010E+002
 21
5.209070E+002
 31
0.000000E+000
  0
LINE
  8
PV
 62
     7
 10
4.454070E+002
 20
5.209070E+002
 30
0.000000E+000
 11
4.454070E+002
 21
5.255070E+002
 31
0.000000E+000
  0
LINE
  8
PV
 62
     7
 10
4.454960E+002
 20
5.059070E+002
 30
0.000000E+000
 11
4.454960E+002
 21
5.209070E+002
 31
0.000000E+000
  0
ARC
  8
PV
  6
CENTER
 62
     1
 10
5.362510E+002
 20
4.394070E+002
 30
0.000000E+000
 40
1.750000E+001
 50
2.700000E+002
 51
0.000000E+000
  0
LINE
  8
PV
 62
     7
 10
5.188800E+002
 20
3.909070E+002
 30
0.000000E+000
 11
5.288800E+002
 21
3.809070E+002
 31
0.000000E+000
  0
LINE
  8
PV
 62
     7
 10
4.988800E+002
 20
4.149070E+002
 30
0.000000E+000
 11
4.988800E+002
 21
3.929070E+002
 31
0.000000E+000
  0
LINE
  8
PV
 62
     7
 10
4.552070E+002
 20
5.894070E+002
 30
0.000000E+000
 11
4.552070E+002
 21
8.014070E+002
 31
0.000000E+000
  0
LINE
  8
PV
 62
     7
 10
4.632070E+002
 20
5.894070E+002
 30
0.000000E+000
 11
4.632070E+002
 21
8.014070E+002
 31
0.000000E+000
  0
LINE
  8
PV
 62
     7
 10
4.432070E+002
 20
5.754070E+002
 30
0.000000E+000
 11
4.542070E+002
 21
5.754070E+002
 31
0.000000E+000
  0
LINE
  8
PV
 62
     7
 10
4.432070E+002
 20
5.654070E+002
 30
0.000000E+000
 11
4.642070E+002
 21
5.654070E+002
 31
0.000000E+000
  0
LINE
  8
PV
 62
     7
 10
4.511240E+002
 20
5.894070E+002
 30
0.000000E+000
 11
4.672900E+002
 21
5.894070E+002
 31
0.000000E+000
  0
LINE
  8
PV
 62
     7
 10
4.672900E+002
 20
5.814070E+002
 30
0.000000E+000
 11
4.511240E+002
 21
5.814070E+002
 31
0.000000E+000
  0
LINE
  8
PV
 62
     7
 10
4.511240E+002
 20
5.814070E+002
 30
0.000000E+000
 11
4.511240E+002
 21
5.894070E+002
 31
0.000000E+000
  0
LINE
  8
PV
 62
     7
 10
4.551660E+002
 20
5.894070E+002
 30
0.000000E+000
 11
4.551660E+002
 21
5.814070E+002
 31
0.000000E+000
  0
LINE
  8
PV
 62
     7
 10
4.542070E+002
 20
5.754070E+002
 30
0.000000E+000
 11
4.542070E+002
 21
5.814070E+002
 31
0.000000E+000
  0
LINE
  8
PV
 62
     7
 10
4.632490E+002
 20
5.894070E+002
 30
0.000000E+000
 11
4.632490E+002
 21
5.814070E+002
 31
0.000000E+000
  0
LINE
  8
PV
 62
     7
 10
4.672900E+002
 20
5.814070E+002
 30
0.000000E+000
 11
4.672900E+002
 21
5.894070E+002
 31
0.000000E+000
  0
LINE
  8
PV
 62
     7
 10
4.642070E+002
 20
5.654070E+002
 30
0.000000E+000
 11
4.642070E+002
 21
5.814070E+002
 31
0.000000E+000
  0
LINE
  8
PV
 62
     7
 10
4.672900E+002
 20
8.094070E+002
 30
0.000000E+000
 11
4.511240E+002
 21
8.094070E+002
 31
0.000000E+000
  0
LINE
  8
PV
 62
     7
 10
4.511240E+002
 20
8.014070E+002
 30
0.000000E+000
 11
4.672900E+002
 21
8.014070E+002
 31
0.000000E+000
  0
LINE
  8
PV
 62
     7
 10
4.511240E+002
 20
8.094070E+002
 30
0.000000E+000
 11
4.511240E+002
 21
8.014070E+002
 31
0.000000E+000
  0
LINE
  8
PV
 62
     7
 10
4.551660E+002
 20
8.014070E+002
 30
0.000000E+000
 11
4.551660E+002
 21
8.094070E+002
 31
0.000000E+000
  0
LINE
  8
PV
 62
     7
 10
4.672900E+002
 20
8.094070E+002
 30
0.000000E+000
 11
4.672900E+002
 21
8.014070E+002
 31
0.000000E+000
  0
LINE
  8
PV
 62
     7
 10
4.632490E+002
 20
8.014070E+002
 30
0.000000E+000
 11
4.632490E+002
 21
8.094070E+002
 31
0.000000E+000
  0
LINE
  8
PV
 62
     7
 10
4.998570E+002
 20
7.224570E+002
 30
0.000000E+000
 11
4.998570E+002
 21
6.573570E+002
 31
0.000000E+000
  0
LINE
  8
PV
 62
     7
 10
5.519570E+002
 20
7.224570E+002
 30
0.000000E+000
 11
5.519570E+002
 21
6.573570E+002
 31
0.000000E+000
  0
LINE
  8
PV
 62
     7
 10
5.519570E+002
 20
6.573570E+002
 30
0.000000E+000
 11
4.998570E+002
 21
6.573570E+002
 31
0.000000E+000
  0
LINE
  8
PV
 62
     7
 10
5.384070E+002
 20
6.411070E+002
 30
0.000000E+000
 11
5.134070E+002
 21
6.411070E+002
 31
0.000000E+000
  0
LINE
  8
PV
 62
     7
 10
5.119070E+002
 20
6.239070E+002
 30
0.000000E+000
 11
5.399070E+002
 21
6.239070E+002
 31
0.000000E+000
  0
LINE
  8
PV
 62
     7
 10
5.119070E+002
 20
6.289070E+002
 30
0.000000E+000
 11
5.399070E+002
 21
6.289070E+002
 31
0.000000E+000
  0
LINE
  8
PV
 62
     7
 10
5.134070E+002
 20
6.411070E+002
 30
0.000000E+000
 11
5.134070E+002
 21
6.573570E+002
 31
0.000000E+000
  0
LINE
  8
PV
 62
     7
 10
5.119070E+002
 20
6.239070E+002
 30
0.000000E+000
 11
5.119070E+002
 21
6.289070E+002
 31
0.000000E+000
  0
LINE
  8
PV
 62
     7
 10
5.154070E+002
 20
6.289070E+002
 30
0.000000E+000
 11
5.154070E+002
 21
6.411070E+002
 31
0.000000E+000
  0
LINE
  8
PV
 62
     7
 10
5.384070E+002
 20
6.573570E+002
 30
0.000000E+000
 11
5.384070E+002
 21
6.411070E+002
 31
0.000000E+000
  0
LINE
  8
PV
 62
     7
 10
5.399070E+002
 20
6.239070E+002
 30
0.000000E+000
 11
5.399070E+002
 21
6.289070E+002
 31
0.000000E+000
  0
LINE
  8
PV
 62
     7
 10
5.364070E+002
 20
6.289070E+002
 30
0.000000E+000
 11
5.364070E+002
 21
6.411070E+002
 31
0.000000E+000
  0
CIRCLE
  8
PV
 62
     7
 10
5.759070E+002
 20
6.549070E+002
 30
0.000000E+000
 40
6.500000E+000
  0
LINE
  8
PV
  6
CENTER
 62
     1
 10
5.759070E+002
 20
6.409220E+002
 30
0.000000E+000
 11
5.759070E+002
 21
6.688930E+002
 31
0.000000E+000
  0
LINE
  8
PV
 62
     7
 10
5.519570E+002
 20
7.224570E+002
 30
0.000000E+000
 11
4.998570E+002
 21
7.224570E+002
 31
0.000000E+000
  0
LINE
  8
PV
  6
CENTER
 62
     1
 10
2.174070E+002
 20
1.125910E+003
 30
0.000000E+000
 11
2.744070E+002
 21
1.125910E+003
 31
0.000000E+000
  0
CIRCLE
  8
PV
 62
     7
 10
2.159070E+002
 20
1.084910E+003
 30
0.000000E+000
 40
6.500000E+000
  0
LINE
  8
PV
  6
CENTER
 62
     1
 10
2.019220E+002
 20
1.084910E+003
 30
0.000000E+000
 11
2.298930E+002
 21
1.084910E+003
 31
0.000000E+000
  0
LINE
  8
PV
 62
     7
 10
3.069070E+002
 20
8.849070E+002
 30
0.000000E+000
 11
2.159070E+002
 21
8.849070E+002
 31
0.000000E+000
  0
LINE
  8
PV
 62
     7
 10
2.329070E+002
 20
8.894070E+002
 30
0.000000E+000
 11
2.159070E+002
 21
8.894070E+002
 31
0.000000E+000
  0
LINE
  8
PV
 62
     7
 10
4.519070E+002
 20
9.749070E+002
 30
0.000000E+000
 11
2.199070E+002
 21
9.749070E+002
 31
0.000000E+000
  0
LINE
  8
PV
 62
     7
 10
4.609070E+002
 20
8.303070E+002
 30
0.000000E+000
 11
2.109070E+002
 21
8.303070E+002
 31
0.000000E+000
  0
LINE
  8
PV
 62
     7
 10
4.609070E+002
 20
8.653070E+002
 30
0.000000E+000
 11
2.109070E+002
 21
8.653070E+002
 31
0.000000E+000
  0
LINE
  8
PV
 62
     7
 10
2.159070E+002
 20
9.709070E+002
 30
0.000000E+000
 11
2.159070E+002
 21
8.849070E+002
 31
0.000000E+000
  0
LINE
  8
PV
 62
     7
 10
2.109070E+002
 20
8.653070E+002
 30
0.000000E+000
 11
2.109070E+002
 21
8.303070E+002
 31
0.000000E+000
  0
ARC
  8
PV
 62
     7
 10
2.199070E+002
 20
9.709070E+002
 30
0.000000E+000
 40
4.000000E+000
 50
9.000000E+001
 51
1.800000E+002
  0
LINE
  8
PV
  6
CENTER
 62
     1
 10
2.159070E+002
 20
1.070920E+003
 30
0.000000E+000
 11
2.159070E+002
 21
1.098890E+003
 31
0.000000E+000
  0
LINE
  8
PV
  6
CENTER
 62
     1
 10
5.362510E+002
 20
9.409070E+002
 30
0.000000E+000
 11
3.820370E+002
 21
9.409070E+002
 31
0.000000E+000
  0
LINE
  8
PV
 62
     7
 10
3.079070E+002
 20
1.082410E+003
 30
0.000000E+000
 11
4.199070E+002
 21
1.082410E+003
 31
0.000000E+000
  0
LINE
  8
PV
  6
CENTER
 62
     1
 10
4.319070E+002
 20
1.072410E+003
 30
0.000000E+000
 11
3.029070E+002
 21
1.072410E+003
 31
0.000000E+000
  0
LINE
  8
PV
 62
     7
 10
3.919070E+002
 20
1.039910E+003
 30
0.000000E+000
 11
4.239070E+002
 21
1.039910E+003
 31
0.000000E+000
  0
ARC
  8
PV
 62
     7
 10
4.079070E+002
 20
1.072410E+003
 30
0.000000E+000
 40
8.000000E+000
 50
2.479760E+002
 51
2.594450E+001
  0
LINE
  8
PV
 62
     7
 10
4.019070E+002
 20
9.080660E+002
 30
0.000000E+000
 11
4.108740E+002
 21
9.080660E+002
 31
0.000000E+000
  0
LINE
  8
PV
 62
     7
 10
3.884070E+002
 20
8.789070E+002
 30
0.000000E+000
 11
4.198740E+002
 21
8.789070E+002
 31
0.000000E+000
  0
LINE
  8
PV
 62
     7
 10
4.019070E+002
 20
9.239070E+002
 30
0.000000E+000
 11
4.278740E+002
 21
9.239070E+002
 31
0.000000E+000
  0
LINE
  8
PV
 62
     7
 10
4.278740E+002
 20
9.589070E+002
 30
0.000000E+000
 11
3.778740E+002
 21
9.589070E+002
 31
0.000000E+000
  0
LINE
  8
PV
 62
     7
 10
3.579070E+002
 20
1.082410E+003
 30
0.000000E+000
 11
3.579070E+002
 21
1.062410E+003
 31
0.000000E+000
  0
LINE
  8
PV
 62
     7
 10
3.079070E+002
 20
1.082410E+003
 30
0.000000E+000
 11
3.079070E+002
 21
1.062410E+003
 31
0.000000E+000
  0
LINE
  8
PV
 62
     7
 10
3.979070E+002
 20
1.082410E+003
 30
0.000000E+000
 11
3.979070E+002
 21
1.062410E+003
 31
0.000000E+000
  0
LINE
  8
PV
 62
     7
 10
2.459070E+002
 20
9.749070E+002
 30
0.000000E+000
 11
2.459070E+002
 21
1.104910E+003
 31
0.000000E+000
  0
LINE
  8
PV
 62
     7
 10
2.939070E+002
 20
1.087910E+003
 30
0.000000E+000
 11
2.939070E+002
 21
1.065910E+003
 31
0.000000E+000
  0
LINE
  8
PV
 62
     7
 10
2.909070E+002
 20
1.087910E+003
 30
0.000000E+000
 11
2.909070E+002
 21
1.065910E+003
 31
0.000000E+000
  0
ARC
  8
PV
 62
     7
 10
2.659070E+002
 20
1.077910E+003
 30
0.000000E+000
 40
1.600000E+001
 50
1.800000E+002
 51
0.000000E+000
  0
LINE
  8
PV
 62
     7
 10
2.819070E+002
 20
1.104910E+003
 30
0.000000E+000
 11
2.819070E+002
 21
1.044410E+003
 31
0.000000E+000
  0
LINE
  8
PV
  6
CENTER
 62
     1
 10
2.659070E+002
 20
1.112910E+003
 30
0.000000E+000
 11
2.659070E+002
 21
8.573070E+002
 31
0.000000E+000
  0
LINE
  8
PV
 62
     7
 10
2.499070E+002
 20
1.044410E+003
 30
0.000000E+000
 11
2.499070E+002
 21
1.104910E+003
 31
0.000000E+000
  0
LINE
  8
PV
 62
     7
 10
3.079070E+002
 20
1.062410E+003
 30
0.000000E+000
 11
4.049070E+002
 21
1.062410E+003
 31
0.000000E+000
  0
LINE
  8
PV
 62
     7
 10
3.079070E+002
 20
9.739070E+002
 30
0.000000E+000
 11
3.639070E+002
 21
9.739070E+002
 31
0.000000E+000
  0
LINE
  8
PV
 62
     7
 10
2.939070E+002
 20
8.749070E+002
 30
0.000000E+000
 11
3.544070E+002
 21
8.749070E+002
 31
0.000000E+000
  0
LINE
  8
PV
 62
     7
 10
3.399070E+002
 20
9.049070E+002
 30
0.000000E+000
 11
3.069070E+002
 21
9.049070E+002
 31
0.000000E+000
  0
LINE
  8
PV
 62
     7
 10
3.079070E+002
 20
9.739070E+002
 30
0.000000E+000
 11
3.079070E+002
 21
9.049070E+002
 31
0.000000E+000
  0
LINE
  8
PV
  6
CENTER
 62
     1
 10
2.559070E+002
 20
9.389070E+002
 30
0.000000E+000
 11
2.559070E+002
 21
9.629070E+002
 31
0.000000E+000
  0
LINE
  8
PV
 62
     7
 10
3.069070E+002
 20
8.894070E+002
 30
0.000000E+000
 11
2.509070E+002
 21
8.894070E+002
 31
0.000000E+000
  0
LINE
  8
PV
 62
     7
 10
2.574960E+002
 20
8.849070E+002
 30
0.000000E+000
 11
2.574960E+002
 21
8.699070E+002
 31
0.000000E+000
  0
LINE
  8
PV
 62
     7
 10
2.497010E+002
 20
8.849070E+002
 30
0.000000E+000
 11
2.497010E+002
 21
8.699070E+002
 31
0.000000E+000
  0
LINE
  8
PV
 62
     7
 10
2.341130E+002
 20
8.849070E+002
 30
0.000000E+000
 11
2.341130E+002
 21
8.699070E+002
 31
0.000000E+000
  0
LINE
  8
PV
 62
     7
 10
2.263190E+002
 20
8.849070E+002
 30
0.000000E+000
 11
2.263190E+002
 21
8.699070E+002
 31
0.000000E+000
  0
LINE
  8
PV
 62
     7
 10
2.263190E+002
 20
8.699070E+002
 30
0.000000E+000
 11
2.574070E+002
 21
8.699070E+002
 31
0.000000E+000
  0
LINE
  8
PV
 62
     7
 10
2.264070E+002
 20
8.699070E+002
 30
0.000000E+000
 11
2.264070E+002
 21
8.653070E+002
 31
0.000000E+000
  0
LINE
  8
PV
 62
     7
 10
2.574070E+002
 20
8.699070E+002
 30
0.000000E+000
 11
2.574070E+002
 21
8.653070E+002
 31
0.000000E+000
  0
LINE
  8
PV
 62
     7
 10
2.349070E+002
 20
9.054070E+002
 30
0.000000E+000
 11
2.489070E+002
 21
9.054070E+002
 31
0.000000E+000
  0
LINE
  8
PV
 62
     7
 10
2.263190E+002
 20
9.044070E+002
 30
0.000000E+000
 11
2.339070E+002
 21
9.044070E+002
 31
0.000000E+000
  0
LINE
  8
PV
 62
     7
 10
2.263190E+002
 20
9.044070E+002
 30
0.000000E+000
 11
2.263190E+002
 21
8.894070E+002
 31
0.000000E+000
  0
LINE
  8
PV
 62
     7
 10
2.329070E+002
 20
9.034070E+002
 30
0.000000E+000
 11
2.329070E+002
 21
8.849070E+002
 31
0.000000E+000
  0
LINE
  8
PV
 62
     7
 10
2.349070E+002
 20
9.054070E+002
 30
0.000000E+000
 11
2.329070E+002
 21
9.034070E+002
 31
0.000000E+000
  0
LINE
  8
PV
 62
     7
 10
2.499070E+002
 20
9.044070E+002
 30
0.000000E+000
 11
2.574070E+002
 21
9.044070E+002
 31
0.000000E+000
  0
LINE
  8
PV
 62
     7
 10
2.509070E+002
 20
9.034070E+002
 30
0.000000E+000
 11
2.509070E+002
 21
8.849070E+002
 31
0.000000E+000
  0
LINE
  8
PV
 62
     7
 10
2.489070E+002
 20
9.054070E+002
 30
0.000000E+000
 11
2.509070E+002
 21
9.034070E+002
 31
0.000000E+000
  0
LINE
  8
PV
 62
     7
 10
2.574960E+002
 20
9.044070E+002
 30
0.000000E+000
 11
2.574960E+002
 21
8.894070E+002
 31
0.000000E+000
  0
LINE
  8
PV
 62
     7
 10
3.069070E+002
 20
9.049070E+002
 30
0.000000E+000
 11
3.069070E+002
 21
8.749070E+002
 31
0.000000E+000
  0
LINE
  8
PV
 62
     7
 10
2.939070E+002
 20
8.749070E+002
 30
0.000000E+000
 11
2.939070E+002
 21
8.653070E+002
 31
0.000000E+000
  0
LINE
  8
PV
 62
     7
 10
2.819070E+002
 20
1.044410E+003
 30
0.000000E+000
 11
2.499070E+002
 21
1.044410E+003
 31
0.000000E+000
  0
LINE
  8
PV
  6
CENTER
 62
     1
 10
2.719070E+002
 20
9.509070E+002
 30
0.000000E+000
 11
2.399070E+002
 21
9.509070E+002
 31
0.000000E+000
  0
ARC
  8
PV
 62
     7
 10
2.599070E+002
 20
9.509070E+002
 30
0.000000E+000
 40
9.000000E+000
 50
2.700000E+002
 51
9.000000E+001
  0
ARC
  8
PV
 62
     7
 10
2.519070E+002
 20
9.509070E+002
 30
0.000000E+000
 40
9.000000E+000
 50
9.000000E+001
 51
2.700000E+002
  0
LINE
  8
PV
 62
     7
 10
2.519070E+002
 20
9.599070E+002
 30
0.000000E+000
 11
2.599070E+002
 21
9.599070E+002
 31
0.000000E+000
  0
LINE
  8
PV
 62
     7
 10
2.519070E+002
 20
9.419070E+002
 30
0.000000E+000
 11
2.599070E+002
 21
9.419070E+002
 31
0.000000E+000
  0
LINE
  8
PV
 62
     7
 10
2.939070E+002
 20
1.065910E+003
 30
0.000000E+000
 11
2.909070E+002
 21
1.065910E+003
 31
0.000000E+000
  0
LINE
  8
PV
 62
     7
 10
4.019070E+002
 20
8.893070E+002
 30
0.000000E+000
 11
4.019070E+002
 21
9.423070E+002
 31
0.000000E+000
  0
LINE
  8
PV
 62
     7
 10
3.399070E+002
 20
9.423070E+002
 30
0.000000E+000
 11
3.399070E+002
 21
8.893070E+002
 31
0.000000E+000
  0
LINE
  8
PV
  6
CENTER
 62
     1
 10
3.709070E+002
 20
9.473070E+002
 30
0.000000E+000
 11
3.709070E+002
 21
8.523070E+002
 31
0.000000E+000
  0
LINE
  8
PV
 62
     7
 10
3.884070E+002
 20
8.753070E+002
 30
0.000000E+000
 11
3.534070E+002
 21
8.753070E+002
 31
0.000000E+000
  0
LINE
  8
PV
 62
     7
 10
3.409070E+002
 20
8.883070E+002
 30
0.000000E+000
 11
4.009070E+002
 21
8.883070E+002
 31
0.000000E+000
  0
LINE
  8
PV
 62
     7
 10
3.399070E+002
 20
9.323070E+002
 30
0.000000E+000
 11
4.019070E+002
 21
9.323070E+002
 31
0.000000E+000
  0
LINE
  8
PV
 62
     7
 10
3.534070E+002
 20
8.753070E+002
 30
0.000000E+000
 11
3.534070E+002
 21
8.883070E+002
 31
0.000000E+000
  0
LINE
  8
PV
 62
     7
 10
3.544070E+002
 20
8.753070E+002
 30
0.000000E+000
 11
3.544070E+002
 21
8.653070E+002
 31
0.000000E+000
  0
LINE
  8
PV
 62
     7
 10
3.399070E+002
 20
8.893070E+002
 30
0.000000E+000
 11
3.409070E+002
 21
8.883070E+002
 31
0.000000E+000
  0
LINE
  8
PV
 62
     7
 10
3.884070E+002
 20
8.883070E+002
 30
0.000000E+000
 11
3.884070E+002
 21
8.753070E+002
 31
0.000000E+000
  0
LINE
  8
PV
 62
     7
 10
3.874070E+002
 20
8.753070E+002
 30
0.000000E+000
 11
3.874070E+002
 21
8.653070E+002
 31
0.000000E+000
  0
LINE
  8
PV
 62
     7
 10
4.019070E+002
 20
8.893070E+002
 30
0.000000E+000
 11
4.009070E+002
 21
8.883070E+002
 31
0.000000E+000
  0
LINE
  8
PV
 62
     7
 10
3.399070E+002
 20
9.423070E+002
 30
0.000000E+000
 11
4.019070E+002
 21
9.423070E+002
 31
0.000000E+000
  0
LINE
  8
PV
 62
     7
 10
3.639070E+002
 20
9.739070E+002
 30
0.000000E+000
 11
3.639070E+002
 21
9.423070E+002
 31
0.000000E+000
  0
LINE
  8
PV
 62
     7
 10
3.778740E+002
 20
9.589070E+002
 30
0.000000E+000
 11
3.778740E+002
 21
9.423070E+002
 31
0.000000E+000
  0
LINE
  8
PV
 62
     7
 10
3.919070E+002
 20
1.061410E+003
 30
0.000000E+000
 11
3.919070E+002
 21
1.039910E+003
 31
0.000000E+000
  0
LINE
  8
PV
 62
     7
 10
4.049070E+002
 20
1.062410E+003
 30
0.000000E+000
 11
4.049070E+002
 21
1.064990E+003
 31
0.000000E+000
  0
LINE
  8
PV
  6
CENTER
 62
     1
 10
3.044070E+002
 20
1.077910E+003
 30
0.000000E+000
 11
2.429980E+002
 21
1.077910E+003
 31
0.000000E+000
  0
CIRCLE
  8
PV
 62
     7
 10
2.459070E+002
 20
1.125910E+003
 30
0.000000E+000
 40
1.250000E+001
  0
LINE
  8
PV
  6
CENTER
 62
     1
 10
2.459070E+002
 20
1.154410E+003
 30
0.000000E+000
 11
2.459070E+002
 21
1.096910E+003
 31
0.000000E+000
  0
ARC
  8
PV
 62
     7
 10
2.459070E+002
 20
1.125910E+003
 30
0.000000E+000
 40
2.050000E+001
 50
2.991960E+002
 51
2.408040E+002
  0
LINE
  8
PV
 62
     7
 10
2.359070E+002
 20
1.111910E+003
 30
0.000000E+000
 11
2.559070E+002
 21
1.111910E+003
 31
0.000000E+000
  0
LINE
  8
PV
 62
     7
 10
2.359070E+002
 20
1.111910E+003
 30
0.000000E+000
 11
2.459070E+002
 21
1.113410E+003
 31
0.000000E+000
  0
LINE
  8
PV
 62
     7
 10
2.359070E+002
 20
1.111910E+003
 30
0.000000E+000
 11
2.359070E+002
 21
1.104910E+003
 31
0.000000E+000
  0
LINE
  8
PV
 62
     7
 10
2.459070E+002
 20
1.113410E+003
 30
0.000000E+000
 11
2.559070E+002
 21
1.111910E+003
 31
0.000000E+000
  0
LINE
  8
PV
 62
     7
 10
2.559070E+002
 20
1.111910E+003
 30
0.000000E+000
 11
2.559070E+002
 21
1.104910E+003
 31
0.000000E+000
  0
LINE
  8
PV
 62
     7
 10
3.109070E+002
 20
1.177910E+003
 30
0.000000E+000
 11
3.109070E+002
 21
1.107910E+003
 31
0.000000E+000
  0
LINE
  8
PV
 62
     7
 10
3.059070E+002
 20
1.177910E+003
 30
0.000000E+000
 11
3.059070E+002
 21
1.107910E+003
 31
0.000000E+000
  0
LINE
  8
PV
 62
     7
 10
2.909070E+002
 20
1.069910E+003
 30
0.000000E+000
 11
2.819070E+002
 21
1.069910E+003
 31
0.000000E+000
  0
LINE
  8
PV
 62
     7
 10
2.909070E+002
 20
1.085910E+003
 30
0.000000E+000
 11
2.819070E+002
 21
1.085910E+003
 31
0.000000E+000
  0
LINE
  8
PV
 62
     7
 10
2.939070E+002
 20
1.087910E+003
 30
0.000000E+000
 11
3.109070E+002
 21
1.107910E+003
 31
0.000000E+000
  0
LINE
  8
PV
 62
     7
 10
2.909070E+002
 20
1.087910E+003
 30
0.000000E+000
 11
3.059070E+002
 21
1.107910E+003
 31
0.000000E+000
  0
LINE
  8
PV
 62
     7
 10
2.999070E+002
 20
1.072410E+003
 30
0.000000E+000
 11
2.939070E+002
 21
1.072410E+003
 31
0.000000E+000
  0
LINE
  8
PV
 62
     7
 10
2.999070E+002
 20
1.083410E+003
 30
0.000000E+000
 11
2.939070E+002
 21
1.083410E+003
 31
0.000000E+000
  0
LINE
  8
PV
 62
     7
 10
2.999070E+002
 20
1.083410E+003
 30
0.000000E+000
 11
2.999070E+002
 21
1.072410E+003
 31
0.000000E+000
  0
LINE
  8
PV
 62
     7
 10
3.109070E+002
 20
1.177910E+003
 30
0.000000E+000
 11
3.059070E+002
 21
1.177910E+003
 31
0.000000E+000
  0
LINE
  8
PV
 62
     7
 10
3.919070E+002
 20
1.082410E+003
 30
0.000000E+000
 11
3.919070E+002
 21
1.104910E+003
 31
0.000000E+000
  0
LINE
  8
PV
 62
     7
 10
5.459070E+002
 20
1.003910E+003
 30
0.000000E+000
 11
5.459070E+002
 21
1.104910E+003
 31
0.000000E+000
  0
LINE
  8
PV
  6
CENTER
 62
     1
 10
4.079070E+002
 20
1.111410E+003
 30
0.000000E+000
 11
4.079070E+002
 21
9.982070E+002
 31
0.000000E+000
  0
LINE
  8
PV
 62
     7
 10
4.239070E+002
 20
1.039910E+003
 30
0.000000E+000
 11
4.239070E+002
 21
1.104910E+003
 31
0.000000E+000
  0
LINE
  8
PV
  6
CENTER
 62
     1
 10
4.079070E+002
 20
9.982070E+002
 30
0.000000E+000
 11
5.537510E+002
 21
9.982070E+002
 31
0.000000E+000
  0
ARC
  8
PV
 62
     7
 10
4.994490E+002
 20
1.024910E+003
 30
0.000000E+000
 40
2.486970E+000
 50
9.000000E+001
 51
2.700000E+002
  0
LINE
  8
PV
 62
     7
 10
4.921270E+002
 20
9.499710E+002
 30
0.000000E+000
 11
5.085920E+002
 21
9.499710E+002
 31
0.000000E+000
  0
CIRCLE
  8
PV
 62
     7
 10
5.003830E+002
 20
9.428060E+002
 30
0.000000E+000
 40
3.890870E+000
  0
ARC
  8
PV
 62
     7
 10
4.982000E+002
 20
9.351670E+002
 30
0.000000E+000
 40
3.179120E+000
 50
9.000000E+001
 51
1.800000E+002
  0
LINE
  8
PV
 62
     7
 10
4.614740E+002
 20
9.521060E+002
 30
0.000000E+000
 11
5.199800E+002
 21
9.521060E+002
 31
0.000000E+000
  0
LINE
  8
PV
 62
     7
 10
4.631820E+002
 20
1.020290E+003
 30
0.000000E+000
 11
5.025660E+002
 21
1.020290E+003
 31
0.000000E+000
  0
LINE
  8
PV
 62
     7
 10
4.582950E+002
 20
1.020290E+003
 30
0.000000E+000
 11
5.232540E+002
 21
1.020290E+003
 31
0.000000E+000
  0
LINE
  8
PV
 62
     7
 10
4.567770E+002
 20
1.017680E+003
 30
0.000000E+000
 11
5.247720E+002
 21
1.017680E+003
 31
0.000000E+000
  0
LINE
  8
PV
 62
     7
 10
4.588060E+002
 20
1.030400E+003
 30
0.000000E+000
 11
5.230090E+002
 21
1.030400E+003
 31
0.000000E+000
  0
LINE
  8
PV
 62
     7
 10
4.921270E+002
 20
8.539800E+002
 30
0.000000E+000
 11
5.085920E+002
 21
8.539800E+002
 31
0.000000E+000
  0
CIRCLE
  8
PV
 62
     7
 10
5.003830E+002
 20
8.612400E+002
 30
0.000000E+000
 40
3.890870E+000
  0
LINE
  8
PV
 62
     7
 10
4.803120E+002
 20
8.400780E+002
 30
0.000000E+000
 11
5.009040E+002
 21
8.400780E+002
 31
0.000000E+000
  0
LINE
  8
PV
 62
     7
 10
4.827320E+002
 20
8.390340E+002
 30
0.000000E+000
 11
4.984840E+002
 21
8.390340E+002
 31
0.000000E+000
  0
LINE
  8
PV
 62
     7
 10
4.803120E+002
 20
8.432570E+002
 30
0.000000E+000
 11
5.009050E+002
 21
8.432570E+002
 31
0.000000E+000
  0
ARC
  8
PV
 62
     7
 10
4.982000E+002
 20
8.687370E+002
 30
0.000000E+000
 40
3.179120E+000
 50
1.800160E+002
 51
2.700000E+002
  0
LINE
  8
PV
 62
     7
 10
4.655240E+002
 20
8.514490E+002
 30
0.000000E+000
 11
5.156930E+002
 21
8.514490E+002
 31
0.000000E+000
  0
LINE
  8
PV
 62
     7
 10
4.642260E+002
 20
9.494010E+002
 30
0.000000E+000
 11
4.642260E+002
 21
8.548340E+002
 31
0.000000E+000
  0
LINE
  8
PV
 62
     7
 10
4.906080E+002
 20
9.484520E+002
 30
0.000000E+000
 11
4.906080E+002
 21
8.554510E+002
 31
0.000000E+000
  0
LINE
  8
PV
 62
     7
 10
4.453740E+002
 20
9.509070E+002
 30
0.000000E+000
 11
4.453740E+002
 21
9.309070E+002
 31
0.000000E+000
  0
LINE
  8
PV
 62
     7
 10
4.583740E+002
 20
9.309070E+002
 30
0.000000E+000
 11
4.583740E+002
 21
9.409070E+002
 31
0.000000E+000
  0
LINE
  8
PV
 62
     7
 10
4.278740E+002
 20
9.589070E+002
 30
0.000000E+000
 11
4.278740E+002
 21
9.239070E+002
 31
0.000000E+000
  0
LINE
  8
PV
 62
     7
 10
4.583740E+002
 20
9.309070E+002
 30
0.000000E+000
 11
4.453740E+002
 21
9.309070E+002
 31
0.000000E+000
  0
LINE
  8
PV
 62
     7
 10
4.432070E+002
 20
8.254070E+002
 30
0.000000E+000
 11
4.642070E+002
 21
8.254070E+002
 31
0.000000E+000
  0
LINE
  8
PV
 62
     7
 10
4.432070E+002
 20
8.154070E+002
 30
0.000000E+000
 11
4.542070E+002
 21
8.154070E+002
 31
0.000000E+000
  0
LINE
  8
PV
 62
     7
 10
4.559070E+002
 20
8.894070E+002
 30
0.000000E+000
 11
4.389070E+002
 21
8.894070E+002
 31
0.000000E+000
  0
LINE
  8
PV
 62
     7
 10
4.559070E+002
 20
8.849070E+002
 30
0.000000E+000
 11
4.209070E+002
 21
8.849070E+002
 31
0.000000E+000
  0
LINE
  8
PV
 62
     7
 10
4.454960E+002
 20
8.849070E+002
 30
0.000000E+000
 11
4.454960E+002
 21
8.699070E+002
 31
0.000000E+000
  0
LINE
  8
PV
 62
     7
 10
4.377010E+002
 20
8.849070E+002
 30
0.000000E+000
 11
4.377010E+002
 21
8.699070E+002
 31
0.000000E+000
  0
LINE
  8
PV
 62
     7
 10
4.221130E+002
 20
8.849070E+002
 30
0.000000E+000
 11
4.221130E+002
 21
8.699070E+002
 31
0.000000E+000
  0
LINE
  8
PV
 62
     7
 10
4.143190E+002
 20
8.789070E+002
 30
0.000000E+000
 11
4.143190E+002
 21
8.699070E+002
 31
0.000000E+000
  0
LINE
  8
PV
 62
     7
 10
4.454960E+002
 20
8.699070E+002
 30
0.000000E+000
 11
4.144070E+002
 21
8.699070E+002
 31
0.000000E+000
  0
LINE
  8
PV
 62
     7
 10
4.144070E+002
 20
8.699070E+002
 30
0.000000E+000
 11
4.144070E+002
 21
8.653070E+002
 31
0.000000E+000
  0
LINE
  8
PV
 62
     7
 10
4.454070E+002
 20
8.699070E+002
 30
0.000000E+000
 11
4.454070E+002
 21
8.653070E+002
 31
0.000000E+000
  0
LINE
  8
PV
 62
     7
 10
4.278740E+002
 20
9.359070E+002
 30
0.000000E+000
 11
4.453740E+002
 21
9.359070E+002
 31
0.000000E+000
  0
LINE
  8
PV
 62
     7
 10
4.454960E+002
 20
9.044070E+002
 30
0.000000E+000
 11
4.143190E+002
 21
9.044070E+002
 31
0.000000E+000
  0
LINE
  8
PV
 62
     7
 10
4.078740E+002
 20
9.239070E+002
 30
0.000000E+000
 11
4.078740E+002
 21
9.080660E+002
 31
0.000000E+000
  0
LINE
  8
PV
 62
     7
 10
4.108740E+002
 20
8.949070E+002
 30
0.000000E+000
 11
4.198740E+002
 21
8.949070E+002
 31
0.000000E+000
  0
LINE
  8
PV
 62
     7
 10
4.108740E+002
 20
9.080660E+002
 30
0.000000E+000
 11
4.108740E+002
 21
8.949070E+002
 31
0.000000E+000
  0
LINE
  8
PV
 62
     7
 10
4.143190E+002
 20
9.044070E+002
 30
0.000000E+000
 11
4.143190E+002
 21
8.949070E+002
 31
0.000000E+000
  0
LINE
  8
PV
 62
     7
 10
4.209070E+002
 20
8.849070E+002
 30
0.000000E+000
 11
4.209070E+002
 21
9.044070E+002
 31
0.000000E+000
  0
LINE
  8
PV
 62
     7
 10
4.198740E+002
 20
8.949070E+002
 30
0.000000E+000
 11
4.198740E+002
 21
8.789070E+002
 31
0.000000E+000
  0
LINE
  8
PV
 62
     7
 10
4.389070E+002
 20
8.849070E+002
 30
0.000000E+000
 11
4.389070E+002
 21
9.044070E+002
 31
0.000000E+000
  0
LINE
  8
PV
 62
     7
 10
4.454960E+002
 20
9.044070E+002
 30
0.000000E+000
 11
4.454960E+002
 21
8.894070E+002
 31
0.000000E+000
  0
LINE
  8
PV
 62
     7
 10
4.950210E+002
 20
8.687370E+002
 30
0.000000E+000
 11
4.950210E+002
 21
9.351670E+002
 31
0.000000E+000
  0
LINE
  8
PV
 62
     7
 10
4.803120E+002
 20
8.441110E+002
 30
0.000000E+000
 11
4.671210E+002
 21
8.502790E+002
 31
0.000000E+000
  0
LINE
  8
PV
 62
     7
 10
4.609070E+002
 20
8.303070E+002
 30
0.000000E+000
 11
4.609070E+002
 21
8.653070E+002
 31
0.000000E+000
  0
LINE
  8
PV
 62
     7
 10
4.643690E+002
 20
8.536960E+002
 30
0.000000E+000
 11
4.642260E+002
 21
8.547870E+002
 31
0.000000E+000
  0
LINE
  8
PV
 62
     7
 10
4.647480E+002
 20
8.526040E+002
 30
0.000000E+000
 11
4.643690E+002
 21
8.536960E+002
 31
0.000000E+000
  0
LINE
  8
PV
 62
     7
 10
4.653180E+002
 20
8.516550E+002
 30
0.000000E+000
 11
4.647480E+002
 21
8.526040E+002
 31
0.000000E+000
  0
LINE
  8
PV
 62
     7
 10
4.661240E+002
 20
8.508490E+002
 30
0.000000E+000
 11
4.653180E+002
 21
8.516550E+002
 31
0.000000E+000
  0
LINE
  8
PV
 62
     7
 10
4.671210E+002
 20
8.502790E+002
 30
0.000000E+000
 11
4.661240E+002
 21
8.508490E+002
 31
0.000000E+000
  0
LINE
  8
PV
 62
     7
 10
4.843450E+002
 20
8.336240E+002
 30
0.000000E+000
 11
4.968710E+002
 21
8.336240E+002
 31
0.000000E+000
  0
LINE
  8
PV
 62
     7
 10
4.826370E+002
 20
8.432570E+002
 30
0.000000E+000
 11
4.803120E+002
 21
8.432570E+002
 31
0.000000E+000
  0
LINE
  8
PV
 62
     7
 10
4.803120E+002
 20
8.441110E+002
 30
0.000000E+000
 11
4.803120E+002
 21
8.432570E+002
 31
0.000000E+000
  0
LINE
  8
PV
 62
     7
 10
4.803120E+002
 20
8.400780E+002
 30
0.000000E+000
 11
4.803120E+002
 21
8.432570E+002
 31
0.000000E+000
  0
LINE
  8
PV
 62
     7
 10
4.827320E+002
 20
8.390340E+002
 30
0.000000E+000
 11
4.827320E+002
 21
8.400780E+002
 31
0.000000E+000
  0
LINE
  8
PV
 62
     7
 10
4.843450E+002
 20
8.336240E+002
 30
0.000000E+000
 11
4.843450E+002
 21
8.390340E+002
 31
0.000000E+000
  0
LINE
  8
PV
 62
     7
 10
4.968710E+002
 20
8.336230E+002
 30
0.000000E+000
 11
4.968710E+002
 21
8.390340E+002
 31
0.000000E+000
  0
ARC
  8
PV
 62
     7
 10
4.921270E+002
 20
8.554510E+002
 30
0.000000E+000
 40
1.470940E+000
 50
1.800000E+002
 51
2.700000E+002
  0
LINE
  8
PV
 62
     7
 10
4.559070E+002
 20
9.309070E+002
 30
0.000000E+000
 11
4.559070E+002
 21
8.849070E+002
 31
0.000000E+000
  0
LINE
  8
PV
 62
     7
 10
4.507510E+002
 20
1.012650E+003
 30
0.000000E+000
 11
4.527910E+002
 21
1.012650E+003
 31
0.000000E+000
  0
LINE
  8
PV
 62
     7
 10
4.507510E+002
 20
9.771590E+002
 30
0.000000E+000
 11
4.527910E+002
 21
9.771590E+002
 31
0.000000E+000
  0
LINE
  8
PV
 62
     7
 10
4.583740E+002
 20
9.509070E+002
 30
0.000000E+000
 11
4.453740E+002
 21
9.509070E+002
 31
0.000000E+000
  0
LINE
  8
PV
 62
     7
 10
4.507510E+002
 20
9.771590E+002
 30
0.000000E+000
 11
4.507510E+002
 21
1.012650E+003
 31
0.000000E+000
  0
LINE
  8
PV
 62
     7
 10
4.278740E+002
 20
9.459070E+002
 30
0.000000E+000
 11
4.453740E+002
 21
9.459070E+002
 31
0.000000E+000
  0
ARC
  8
PV
 62
     7
 10
4.618170E+002
 20
1.002390E+003
 30
0.000000E+000
 40
2.486970E+000
 50
0.000000E+000
 51
9.000000E+001
  0
LINE
  8
PV
 62
     7
 10
4.543560E+002
 20
1.004880E+003
 30
0.000000E+000
 11
4.543560E+002
 21
9.694080E+002
 31
0.000000E+000
  0
LINE
  8
PV
 62
     7
 10
4.728150E+002
 20
9.490690E+002
 30
0.000000E+000
 11
4.907510E+002
 21
9.490690E+002
 31
0.000000E+000
  0
LINE
  8
PV
 62
     7
 10
4.643040E+002
 20
1.002390E+003
 30
0.000000E+000
 11
4.643040E+002
 21
9.718950E+002
 31
0.000000E+000
  0
ARC
  8
PV
 62
     7
 10
4.618170E+002
 20
9.718950E+002
 30
0.000000E+000
 40
2.486970E+000
 50
2.700000E+002
 51
0.000000E+000
  0
LINE
  8
PV
 62
     7
 10
4.614740E+002
 20
9.521060E+002
 30
0.000000E+000
 11
4.642260E+002
 21
9.494010E+002
 31
0.000000E+000
  0
LINE
  8
PV
 62
     7
 10
4.559070E+002
 20
9.694080E+002
 30
0.000000E+000
 11
4.559070E+002
 21
9.509070E+002
 31
0.000000E+000
  0
LINE
  8
PV
 62
     7
 10
4.543560E+002
 20
9.694080E+002
 30
0.000000E+000
 11
4.618170E+002
 21
9.694080E+002
 31
0.000000E+000
  0
ARC
  8
PV
 62
     7
 10
4.585800E+002
 20
9.536240E+002
 30
0.000000E+000
 40
1.470940E+000
 50
1.810000E+002
 51
2.700000E+002
  0
LINE
  8
PV
 62
     7
 10
4.585800E+002
 20
9.521060E+002
 30
0.000000E+000
 11
4.614740E+002
 21
9.521060E+002
 31
0.000000E+000
  0
LINE
  8
PV
 62
     7
 10
4.614740E+002
 20
9.521060E+002
 30
0.000000E+000
 11
4.613640E+002
 21
9.694080E+002
 31
0.000000E+000
  0
LINE
  8
PV
 62
     7
 10
4.571090E+002
 20
9.535770E+002
 30
0.000000E+000
 11
4.568220E+002
 21
9.694080E+002
 31
0.000000E+000
  0
LINE
  8
PV
 62
     7
 10
4.583740E+002
 20
9.409070E+002
 30
0.000000E+000
 11
4.583740E+002
 21
9.509070E+002
 31
0.000000E+000
  0
LINE
  8
PV
 62
     7
 10
4.728150E+002
 20
9.490690E+002
 30
0.000000E+000
 11
4.708220E+002
 21
9.492120E+002
 31
0.000000E+000
  0
LINE
  8
PV
 62
     7
 10
4.642740E+002
 20
9.494960E+002
 30
0.000000E+000
 11
4.642260E+002
 21
9.494010E+002
 31
0.000000E+000
  0
LINE
  8
PV
 62
     7
 10
4.643690E+002
 20
9.498280E+002
 30
0.000000E+000
 11
4.642740E+002
 21
9.494960E+002
 31
0.000000E+000
  0
LINE
  8
PV
 62
     7
 10
4.644640E+002
 20
9.505400E+002
 30
0.000000E+000
 11
4.643690E+002
 21
9.498280E+002
 31
0.000000E+000
  0
LINE
  8
PV
 62
     7
 10
4.645110E+002
 20
9.514890E+002
 30
0.000000E+000
 11
4.644640E+002
 21
9.505400E+002
 31
0.000000E+000
  0
LINE
  8
PV
 62
     7
 10
4.666460E+002
 20
9.503980E+002
 30
0.000000E+000
 11
4.645110E+002
 21
9.514890E+002
 31
0.000000E+000
  0
LINE
  8
PV
 62
     7
 10
4.687820E+002
 20
9.496860E+002
 30
0.000000E+000
 11
4.666460E+002
 21
9.503980E+002
 31
0.000000E+000
  0
LINE
  8
PV
 62
     7
 10
4.708220E+002
 20
9.492120E+002
 30
0.000000E+000
 11
4.687820E+002
 21
9.496860E+002
 31
0.000000E+000
  0
LINE
  8
PV
 62
     7
 10
4.543090E+002
 20
9.798170E+002
 30
0.000000E+000
 11
4.527910E+002
 21
9.771590E+002
 31
0.000000E+000
  0
LINE
  8
PV
 62
     7
 10
4.543560E+002
 20
9.798170E+002
 30
0.000000E+000
 11
4.543090E+002
 21
9.798170E+002
 31
0.000000E+000
  0
CIRCLE
  8
PV
 62
     7
 10
4.598540E+002
 20
9.989240E+002
 30
0.000000E+000
 40
2.225180E+000
  0
ARC
  8
PV
 62
     7
 10
4.921270E+002
 20
9.484520E+002
 30
0.000000E+000
 40
1.470940E+000
 50
9.000000E+001
 51
1.800000E+002
  0
LINE
  8
PV
 62
     7
 10
4.624060E+002
 20
1.027390E+003
 30
0.000000E+000
 11
4.824330E+002
 21
1.027390E+003
 31
0.000000E+000
  0
LINE
  8
PV
 62
     7
 10
4.624060E+002
 20
1.022420E+003
 30
0.000000E+000
 11
4.824330E+002
 21
1.022420E+003
 31
0.000000E+000
  0
LINE
  8
PV
 62
     7
 10
4.625180E+002
 20
1.020100E+003
 30
0.000000E+000
 11
4.628500E+002
 21
1.020240E+003
 31
0.000000E+000
  0
LINE
  8
PV
 62
     7
 10
4.624230E+002
 20
1.020290E+003
 30
0.000000E+000
 11
4.631820E+002
 21
1.020290E+003
 31
0.000000E+000
  0
LINE
  8
PV
 62
     7
 10
4.565530E+002
 20
1.004880E+003
 30
0.000000E+000
 11
4.566340E+002
 21
1.009990E+003
 31
0.000000E+000
  0
LINE
  8
PV
 62
     7
 10
4.543090E+002
 20
1.009990E+003
 30
0.000000E+000
 11
4.566340E+002
 21
1.009990E+003
 31
0.000000E+000
  0
LINE
  8
PV
 62
     7
 10
4.527910E+002
 20
1.012650E+003
 30
0.000000E+000
 11
4.543090E+002
 21
1.009990E+003
 31
0.000000E+000
  0
LINE
  8
PV
 62
     7
 10
4.566340E+002
 20
1.009990E+003
 30
0.000000E+000
 11
4.567770E+002
 21
1.018820E+003
 31
0.000000E+000
  0
LINE
  8
PV
 62
     7
 10
4.613790E+002
 20
1.018060E+003
 30
0.000000E+000
 11
4.613320E+002
 21
1.017680E+003
 31
0.000000E+000
  0
LINE
  8
PV
 62
     7
 10
4.615220E+002
 20
1.018390E+003
 30
0.000000E+000
 11
4.613790E+002
 21
1.018060E+003
 31
0.000000E+000
  0
LINE
  8
PV
 62
     7
 10
4.617120E+002
 20
1.018730E+003
 30
0.000000E+000
 11
4.615220E+002
 21
1.018390E+003
 31
0.000000E+000
  0
LINE
  8
PV
 62
     7
 10
4.620910E+002
 20
1.019480E+003
 30
0.000000E+000
 11
4.617120E+002
 21
1.018730E+003
 31
0.000000E+000
  0
LINE
  8
PV
 62
     7
 10
4.622330E+002
 20
1.019860E+003
 30
0.000000E+000
 11
4.620910E+002
 21
1.019480E+003
 31
0.000000E+000
  0
ARC
  8
PV
 62
     7
 10
4.582950E+002
 20
1.018820E+003
 30
0.000000E+000
 40
1.470940E+000
 50
9.000000E+001
 51
1.790000E+002
  0
LINE
  8
PV
 62
     7
 10
4.622330E+002
 20
1.019860E+003
 30
0.000000E+000
 11
4.625180E+002
 21
1.020100E+003
 31
0.000000E+000
  0
LINE
  8
PV
 62
     7
 10
4.543560E+002
 20
1.004880E+003
 30
0.000000E+000
 11
4.618170E+002
 21
1.004880E+003
 31
0.000000E+000
  0
ARC
  8
PV
 62
     7
 10
4.624060E+002
 20
1.024910E+003
 30
0.000000E+000
 40
2.486970E+000
 50
9.000000E+001
 51
2.700000E+002
  0
LINE
  8
PV
 62
     7
 10
4.564500E+002
 20
1.027920E+003
 30
0.000000E+000
 11
4.564500E+002
 21
1.004880E+003
 31
0.000000E+000
  0
LINE
  8
PV
 62
     7
 10
4.612440E+002
 20
1.004880E+003
 30
0.000000E+000
 11
4.613320E+002
 21
1.017680E+003
 31
0.000000E+000
  0
ARC
  8
PV
 62
     7
 10
4.589370E+002
 20
1.027920E+003
 30
0.000000E+000
 40
2.486970E+000
 50
9.000000E+001
 51
1.800000E+002
  0
LINE
  8
PV
 62
     7
 10
4.628500E+002
 20
1.020240E+003
 30
0.000000E+000
 11
4.631820E+002
 21
1.020290E+003
 31
0.000000E+000
  0
LINE
  8
PV
 62
     7
 10
4.630880E+002
 20
1.020290E+003
 30
0.000000E+000
 11
4.631820E+002
 21
1.020390E+003
 31
0.000000E+000
  0
ARC
  8
PV
 62
     7
 10
4.824330E+002
 20
1.024910E+003
 30
0.000000E+000
 40
2.486970E+000
 50
2.700000E+002
 51
9.000000E+001
  0
ARC
  8
PV
  6
CENTER
 62
     1
 10
5.362510E+002
 20
9.234070E+002
 30
0.000000E+000
 40
1.750000E+001
 50
0.000000E+000
 51
9.000000E+001
  0
LINE
  8
PV
 62
     7
 10
5.101100E+002
 20
9.484520E+002
 30
0.000000E+000
 11
5.101100E+002
 21
8.554510E+002
 31
0.000000E+000
  0
LINE
  8
PV
 62
     7
 10
5.169900E+002
 20
9.494010E+002
 30
0.000000E+000
 11
5.169900E+002
 21
8.548340E+002
 31
0.000000E+000
  0
LINE
  8
PV
  6
CENTER
 62
     1
 10
5.079070E+002
 20
1.025910E+003
 30
0.000000E+000
 11
5.079070E+002
 21
8.302070E+002
 31
0.000000E+000
  0
LINE
  8
PV
 62
     7
 10
5.022330E+002
 20
9.309430E+002
 30
0.000000E+000
 11
5.022330E+002
 21
8.729600E+002
 31
0.000000E+000
  0
LINE
  8
PV
 62
     7
 10
4.984850E+002
 20
9.309430E+002
 30
0.000000E+000
 11
4.984850E+002
 21
8.729600E+002
 31
0.000000E+000
  0
LINE
  8
PV
 62
     7
 10
5.026130E+002
 20
9.306590E+002
 30
0.000000E+000
 11
5.026130E+002
 21
8.732450E+002
 31
0.000000E+000
  0
LINE
  8
PV
 62
     7
 10
4.981050E+002
 20
9.306590E+002
 30
0.000000E+000
 11
4.981050E+002
 21
8.732450E+002
 31
0.000000E+000
  0
LINE
  8
PV
 62
     7
 10
5.056970E+002
 20
9.351670E+002
 30
0.000000E+000
 11
5.056970E+002
 21
8.687370E+002
 31
0.000000E+000
  0
LINE
  8
PV
 62
     7
 10
5.140960E+002
 20
8.502790E+002
 30
0.000000E+000
 11
5.009050E+002
 21
8.441110E+002
 31
0.000000E+000
  0
LINE
  8
PV
 62
     7
 10
5.009050E+002
 20
8.441110E+002
 30
0.000000E+000
 11
5.009050E+002
 21
8.432570E+002
 31
0.000000E+000
  0
LINE
  8
PV
 62
     7
 10
5.009040E+002
 20
8.400780E+002
 30
0.000000E+000
 11
5.009050E+002
 21
8.432560E+002
 31
0.000000E+000
  0
LINE
  8
PV
 62
     7
 10
4.984840E+002
 20
8.400770E+002
 30
0.000000E+000
 11
4.984840E+002
 21
8.390340E+002
 31
0.000000E+000
  0
ARC
  8
PV
 62
     7
 10
5.085920E+002
 20
8.554510E+002
 30
0.000000E+000
 40
1.470940E+000
 50
2.700000E+002
 51
0.000000E+000
  0
ARC
  8
PV
 62
     7
 10
5.018060E+002
 20
8.732450E+002
 30
0.000000E+000
 40
7.591930E-001
 50
2.700000E+002
 51
0.000000E+000
  0
ARC
  8
PV
 62
     7
 10
4.989120E+002
 20
8.732450E+002
 30
0.000000E+000
 40
7.591930E-001
 50
1.800000E+002
 51
2.700000E+002
  0
LINE
  8
PV
 62
     7
 10
5.018060E+002
 20
8.724380E+002
 30
0.000000E+000
 11
4.989120E+002
 21
8.724380E+002
 31
0.000000E+000
  0
LINE
  8
PV
 62
     7
 10
4.981530E+002
 20
8.729600E+002
 30
0.000000E+000
 11
5.025660E+002
 21
8.729600E+002
 31
0.000000E+000
  0
ARC
  8
PV
 62
     7
 10
5.025180E+002
 20
8.687370E+002
 30
0.000000E+000
 40
3.179120E+000
 50
2.700000E+002
 51
0.000000E+000
  0
LINE
  8
PV
 62
     7
 10
5.025180E+002
 20
8.655580E+002
 30
0.000000E+000
 11
4.982000E+002
 21
8.655580E+002
 31
0.000000E+000
  0
LINE
  8
PV
 62
     7
 10
5.150920E+002
 20
8.508490E+002
 30
0.000000E+000
 11
5.140960E+002
 21
8.502790E+002
 31
0.000000E+000
  0
LINE
  8
PV
 62
     7
 10
5.158990E+002
 20
8.516550E+002
 30
0.000000E+000
 11
5.150920E+002
 21
8.508490E+002
 31
0.000000E+000
  0
LINE
  8
PV
 62
     7
 10
5.165160E+002
 20
8.526040E+002
 30
0.000000E+000
 11
5.158990E+002
 21
8.516550E+002
 31
0.000000E+000
  0
LINE
  8
PV
 62
     7
 10
5.168950E+002
 20
8.536960E+002
 30
0.000000E+000
 11
5.165160E+002
 21
8.526040E+002
 31
0.000000E+000
  0
LINE
  8
PV
 62
     7
 10
5.169900E+002
 20
8.547870E+002
 30
0.000000E+000
 11
5.168950E+002
 21
8.536960E+002
 31
0.000000E+000
  0
ARC
  8
PV
 62
     7
 10
5.025180E+002
 20
9.351670E+002
 30
0.000000E+000
 40
3.179120E+000
 50
0.000000E+000
 51
9.000000E+001
  0
LINE
  8
PV
 62
     7
 10
4.982000E+002
 20
9.383460E+002
 30
0.000000E+000
 11
5.025180E+002
 21
9.383460E+002
 31
0.000000E+000
  0
ARC
  8
PV
 62
     7
 10
5.018060E+002
 20
9.306590E+002
 30
0.000000E+000
 40
7.591930E-001
 50
0.000000E+000
 51
9.000000E+001
  0
ARC
  8
PV
 62
     7
 10
4.989120E+002
 20
9.306590E+002
 30
0.000000E+000
 40
7.591930E-001
 50
9.000000E+001
 51
1.800000E+002
  0
LINE
  8
PV
 62
     7
 10
5.018060E+002
 20
9.314650E+002
 30
0.000000E+000
 11
4.989120E+002
 21
9.314650E+002
 31
0.000000E+000
  0
LINE
  8
PV
 62
     7
 10
4.981530E+002
 20
9.309430E+002
 30
0.000000E+000
 11
5.025660E+002
 21
9.309430E+002
 31
0.000000E+000
  0
LINE
  8
PV
 62
     7
 10
5.307510E+002
 20
9.859060E+002
 30
0.000000E+000
 11
5.447510E+002
 21
9.859060E+002
 31
0.000000E+000
  0
LINE
  8
PV
 62
     7
 10
5.412510E+002
 20
9.589060E+002
 30
0.000000E+000
 11
5.662510E+002
 21
9.589060E+002
 31
0.000000E+000
  0
LINE
  8
PV
 62
     7
 10
5.662510E+002
 20
9.739060E+002
 30
0.000000E+000
 11
5.412510E+002
 21
9.739060E+002
 31
0.000000E+000
  0
LINE
  8
PV
 62
     7
 10
5.307510E+002
 20
1.003910E+003
 30
0.000000E+000
 11
5.627510E+002
 21
1.003910E+003
 31
0.000000E+000
  0
LINE
  8
PV
 62
     7
 10
5.307510E+002
 20
9.771590E+002
 30
0.000000E+000
 11
5.307510E+002
 21
1.012650E+003
 31
0.000000E+000
  0
LINE
  8
PV
 62
     7
 10
5.275250E+002
 20
1.004880E+003
 30
0.000000E+000
 11
5.275250E+002
 21
9.694080E+002
 31
0.000000E+000
  0
ARC
  8
PV
 62
     7
 10
5.199990E+002
 20
1.002390E+003
 30
0.000000E+000
 40
2.486970E+000
 50
9.000000E+001
 51
1.800000E+002
  0
LINE
  8
PV
 62
     7
 10
5.200710E+002
 20
9.694080E+002
 30
0.000000E+000
 11
5.275250E+002
 21
9.694080E+002
 31
0.000000E+000
  0
LINE
  8
PV
 62
     7
 10
5.199800E+002
 20
9.521060E+002
 30
0.000000E+000
 11
5.229220E+002
 21
9.521060E+002
 31
0.000000E+000
  0
CIRCLE
  8
PV
 62
     7
 10
5.220280E+002
 20
9.989240E+002
 30
0.000000E+000
 40
2.225180E+000
  0
LINE
  8
PV
 62
     7
 10
5.175120E+002
 20
1.002390E+003
 30
0.000000E+000
 11
5.175120E+002
 21
9.718950E+002
 31
0.000000E+000
  0
ARC
  8
PV
 62
     7
 10
5.085920E+002
 20
9.484520E+002
 30
0.000000E+000
 40
1.470940E+000
 50
0.000000E+000
 51
9.000000E+001
  0
ARC
  8
PV
 62
     7
 10
5.199990E+002
 20
9.718950E+002
 30
0.000000E+000
 40
2.486970E+000
 50
1.800000E+002
 51
2.700000E+002
  0
LINE
  8
PV
 62
     7
 10
5.145700E+002
 20
9.503980E+002
 30
0.000000E+000
 11
5.124830E+002
 21
9.496860E+002
 31
0.000000E+000
  0
LINE
  8
PV
 62
     7
 10
5.103950E+002
 20
9.492120E+002
 30
0.000000E+000
 11
5.099200E+002
 21
9.491640E+002
 31
0.000000E+000
  0
LINE
  8
PV
 62
     7
 10
5.124830E+002
 20
9.496860E+002
 30
0.000000E+000
 11
5.103950E+002
 21
9.492120E+002
 31
0.000000E+000
  0
LINE
  8
PV
 62
     7
 10
5.167060E+002
 20
9.514890E+002
 30
0.000000E+000
 11
5.145700E+002
 21
9.503980E+002
 31
0.000000E+000
  0
LINE
  8
PV
 62
     7
 10
5.168010E+002
 20
9.505400E+002
 30
0.000000E+000
 11
5.167060E+002
 21
9.514890E+002
 31
0.000000E+000
  0
LINE
  8
PV
 62
     7
 10
5.168480E+002
 20
9.498280E+002
 30
0.000000E+000
 11
5.168010E+002
 21
9.505400E+002
 31
0.000000E+000
  0
LINE
  8
PV
 62
     7
 10
5.169430E+002
 20
9.494960E+002
 30
0.000000E+000
 11
5.168480E+002
 21
9.498280E+002
 31
0.000000E+000
  0
LINE
  8
PV
 62
     7
 10
5.169900E+002
 20
9.494010E+002
 30
0.000000E+000
 11
5.169430E+002
 21
9.494960E+002
 31
0.000000E+000
  0
LINE
  8
PV
 62
     7
 10
5.199800E+002
 20
9.521060E+002
 30
0.000000E+000
 11
5.169900E+002
 21
9.494010E+002
 31
0.000000E+000
  0
LINE
  8
PV
 62
     7
 10
5.199800E+002
 20
9.521060E+002
 30
0.000000E+000
 11
5.200710E+002
 21
9.694080E+002
 31
0.000000E+000
  0
LINE
  8
PV
 62
     7
 10
5.412510E+002
 20
9.589060E+002
 30
0.000000E+000
 11
5.412510E+002
 21
9.739060E+002
 31
0.000000E+000
  0
ARC
  8
PV
 62
     7
 10
5.229220E+002
 20
9.536240E+002
 30
0.000000E+000
 40
1.470940E+000
 50
2.700000E+002
 51
3.590000E+002
  0
LINE
  8
PV
 62
     7
 10
5.244400E+002
 20
9.535770E+002
 30
0.000000E+000
 11
5.247260E+002
 21
9.694080E+002
 31
0.000000E+000
  0
LINE
  8
PV
 62
     7
 10
5.275250E+002
 20
9.793170E+002
 30
0.000000E+000
 11
5.287580E+002
 21
9.771590E+002
 31
0.000000E+000
  0
LINE
  8
PV
 62
     7
 10
5.307510E+002
 20
9.771590E+002
 30
0.000000E+000
 11
5.287580E+002
 21
9.771590E+002
 31
0.000000E+000
  0
ARC
  8
PV
 62
     7
 10
5.250380E+002
 20
9.749060E+002
 30
0.000000E+000
 40
3.665010E+000
 50
3.116090E+002
 51
4.840630E+001
  0
LINE
  8
PV
 62
     7
 10
5.199990E+002
 20
1.004880E+003
 30
0.000000E+000
 11
5.275250E+002
 21
1.004880E+003
 31
0.000000E+000
  0
ARC
  8
PV
 62
     7
 10
5.194100E+002
 20
1.024910E+003
 30
0.000000E+000
 40
2.486970E+000
 50
2.700000E+002
 51
9.000000E+001
  0
LINE
  8
PV
 62
     7
 10
4.994490E+002
 20
1.027390E+003
 30
0.000000E+000
 11
5.194100E+002
 21
1.027390E+003
 31
0.000000E+000
  0
LINE
  8
PV
 62
     7
 10
4.994490E+002
 20
1.022420E+003
 30
0.000000E+000
 11
5.194100E+002
 21
1.022420E+003
 31
0.000000E+000
  0
LINE
  8
PV
 62
     7
 10
5.200750E+002
 20
1.018060E+003
 30
0.000000E+000
 11
5.201220E+002
 21
1.017680E+003
 31
0.000000E+000
  0
LINE
  8
PV
 62
     7
 10
5.199320E+002
 20
1.018390E+003
 30
0.000000E+000
 11
5.200750E+002
 21
1.018060E+003
 31
0.000000E+000
  0
LINE
  8
PV
 62
     7
 10
5.188410E+002
 20
1.020240E+003
 30
0.000000E+000
 11
5.185560E+002
 21
1.020290E+003
 31
0.000000E+000
  0
LINE
  8
PV
 62
     7
 10
5.186040E+002
 20
1.020240E+003
 30
0.000000E+000
 11
5.185560E+002
 21
1.020290E+003
 31
0.000000E+000
  0
LINE
  8
PV
 62
     7
 10
5.191260E+002
 20
1.020100E+003
 30
0.000000E+000
 11
5.188410E+002
 21
1.020240E+003
 31
0.000000E+000
  0
LINE
  8
PV
 62
     7
 10
5.193150E+002
 20
1.019860E+003
 30
0.000000E+000
 11
5.191260E+002
 21
1.020100E+003
 31
0.000000E+000
  0
LINE
  8
PV
 62
     7
 10
5.193150E+002
 20
1.019860E+003
 30
0.000000E+000
 11
5.197900E+002
 21
1.018730E+003
 31
0.000000E+000
  0
LINE
  8
PV
 62
     7
 10
5.197900E+002
 20
1.018730E+003
 30
0.000000E+000
 11
5.199320E+002
 21
1.018390E+003
 31
0.000000E+000
  0
LINE
  8
PV
 62
     7
 10
5.201800E+002
 20
1.004880E+003
 30
0.000000E+000
 11
5.201220E+002
 21
1.017680E+003
 31
0.000000E+000
  0
LINE
  8
PV
 62
     7
 10
5.249940E+002
 20
1.004880E+003
 30
0.000000E+000
 11
5.249140E+002
 21
1.009990E+003
 31
0.000000E+000
  0
LINE
  8
PV
 62
     7
 10
5.249140E+002
 20
1.009990E+003
 30
0.000000E+000
 11
5.247250E+002
 21
1.018820E+003
 31
0.000000E+000
  0
LINE
  8
PV
 62
     7
 10
5.272390E+002
 20
1.009990E+003
 30
0.000000E+000
 11
5.287580E+002
 21
1.012650E+003
 31
0.000000E+000
  0
LINE
  8
PV
 62
     7
 10
5.249140E+002
 20
1.009990E+003
 30
0.000000E+000
 11
5.272390E+002
 21
1.009990E+003
 31
0.000000E+000
  0
LINE
  8
PV
 62
     7
 10
5.307510E+002
 20
1.012650E+003
 30
0.000000E+000
 11
5.287580E+002
 21
1.012650E+003
 31
0.000000E+000
  0
ARC
  8
PV
 62
     7
 10
5.232540E+002
 20
1.018820E+003
 30
0.000000E+000
 40
1.470940E+000
 50
1.000000E+000
 51
9.000000E+001
  0
LINE
  8
PV
 62
     7
 10
5.254310E+002
 20
1.027920E+003
 30
0.000000E+000
 11
5.254310E+002
 21
1.004880E+003
 31
0.000000E+000
  0
ARC
  8
PV
 62
     7
 10
5.228790E+002
 20
1.027920E+003
 30
0.000000E+000
 40
2.486970E+000
 50
0.000000E+000
 51
9.000000E+001
  0
LINE
  8
PV
 62
     7
 10
5.627510E+002
 20
9.739060E+002
 30
0.000000E+000
 11
5.627510E+002
 21
1.003910E+003
 31
0.000000E+000
  0
LINE
  8
PV
 62
     7
 10
5.662510E+002
 20
9.589060E+002
 30
0.000000E+000
 11
5.662510E+002
 21
9.739060E+002
 31
0.000000E+000
  0
LINE
  8
PV
 62
     7
 10
5.447510E+002
 20
9.739060E+002
 30
0.000000E+000
 11
5.447510E+002
 21
9.859060E+002
 31
0.000000E+000
  0
LINE
  8
PV
 62
     7
 10
4.199070E+002
 20
1.075910E+003
 30
0.000000E+000
 11
4.151010E+002
 21
1.075910E+003
 31
0.000000E+000
  0
LINE
  8
PV
 62
     7
 10
4.199070E+002
 20
1.068910E+003
 30
0.000000E+000
 11
4.151010E+002
 21
1.068910E+003
 31
0.000000E+000
  0
LINE
  8
PV
 62
     7
 10
4.199070E+002
 20
1.082410E+003
 30
0.000000E+000
 11
4.199070E+002
 21
1.068910E+003
 31
0.000000E+000
  0
LINE
  8
PV
 62
     7
 10
5.359070E+002
 20
1.111910E+003
 30
0.000000E+000
 11
5.459070E+002
 21
1.113410E+003
 31
0.000000E+000
  0
CIRCLE
  8
PV
 62
     7
 10
5.459070E+002
 20
1.125910E+003
 30
0.000000E+000
 40
1.250000E+001
  0
ARC
  8
PV
 62
     7
 10
5.459070E+002
 20
1.125910E+003
 30
0.000000E+000
 40
2.050000E+001
 50
2.991960E+002
 51
2.408040E+002
  0
LINE
  8
PV
 62
     7
 10
5.359070E+002
 20
1.111910E+003
 30
0.000000E+000
 11
5.559070E+002
 21
1.111910E+003
 31
0.000000E+000
  0
LINE
  8
PV
  6
CENTER
 62
     1
 10
5.174070E+002
 20
1.125910E+003
 30
0.000000E+000
 11
5.744070E+002
 21
1.125910E+003
 31
0.000000E+000
  0
LINE
  8
PV
 62
     7
 10
5.359070E+002
 20
1.111910E+003
 30
0.000000E+000
 11
5.359070E+002
 21
1.104910E+003
 31
0.000000E+000
  0
LINE
  8
PV
  6
CENTER
 62
     1
 10
5.459070E+002
 20
1.154410E+003
 30
0.000000E+000
 11
5.459070E+002
 21
1.096910E+003
 31
0.000000E+000
  0
LINE
  8
PV
 62
     7
 10
5.459070E+002
 20
1.113410E+003
 30
0.000000E+000
 11
5.559070E+002
 21
1.111910E+003
 31
0.000000E+000
  0
LINE
  8
PV
 62
     7
 10
5.559070E+002
 20
1.111910E+003
 30
0.000000E+000
 11
5.559070E+002
 21
1.104910E+003
 31
0.000000E+000
  0
CIRCLE
  8
PV
 62
     7
 10
5.759070E+002
 20
1.084910E+003
 30
0.000000E+000
 40
6.500000E+000
  0
LINE
  8
PV
  6
CENTER
 62
     1
 10
5.759070E+002
 20
1.070920E+003
 30
0.000000E+000
 11
5.759070E+002
 21
1.098890E+003
 31
0.000000E+000
  0
LINE
  8
PV
 62
     7
 10
1.091340E+003
 20
7.207070E+002
 30
0.000000E+000
 11
1.091340E+003
 21
8.303070E+002
 31
0.000000E+000
  0
LINE
  8
PV
 62
     7
 10
1.095640E+003
 20
7.207070E+002
 30
0.000000E+000
 11
1.095640E+003
 21
8.303070E+002
 31
0.000000E+000
  0
LINE
  8
PV
  6
CENTER
 62
     1
 10
1.067340E+003
 20
1.112910E+003
 30
0.000000E+000
 11
1.067340E+003
 21
4.799070E+002
 31
0.000000E+000
  0
LINE
  8
PV
  6
CENTER
 62
     1
 10
9.956330E+002
 20
8.809150E+002
 30
0.000000E+000
 11
1.059340E+003
 21
8.063480E+002
 31
0.000000E+000
  0
LINE
  8
PV
 62
     7
 10
1.161640E+003
 20
1.104910E+003
 30
0.000000E+000
 11
1.161640E+003
 21
2.049070E+002
 31
0.000000E+000
  0
LINE
  8
PV
 62
     7
 10
1.119340E+003
 20
1.104910E+003
 30
0.000000E+000
 11
1.119340E+003
 21
2.049070E+002
 31
0.000000E+000
  0
LINE
  8
PV
 62
     7
 10
5.959070E+002
 20
1.104910E+003
 30
0.000000E+000
 11
5.959070E+002
 21
2.049070E+002
 31
0.000000E+000
  0
LINE
  8
PV
 62
     7
 10
9.833360E+002
 20
8.254070E+002
 30
0.000000E+000
 11
9.833360E+002
 21
8.094070E+002
 31
0.000000E+000
  0
LINE
  8
PV
 62
     7
 10
9.933360E+002
 20
8.254070E+002
 30
0.000000E+000
 11
9.933360E+002
 21
8.094070E+002
 31
0.000000E+000
  0
LINE
  8
PV
  6
CENTER
 62
     1
 10
9.883360E+002
 20
1.185910E+003
 30
0.000000E+000
 11
9.883360E+002
 21
4.905070E+002
 31
0.000000E+000
  0
LINE
  8
PV
 62
     7
 10
8.810360E+002
 20
5.605070E+002
 30
0.000000E+000
 11
8.810360E+002
 21
8.303070E+002
 31
0.000000E+000
  0
LINE
  8
PV
 62
     7
 10
9.033360E+002
 20
5.605070E+002
 30
0.000000E+000
 11
9.033360E+002
 21
8.303070E+002
 31
0.000000E+000
  0
LINE
  8
PV
 62
     7
 10
8.853360E+002
 20
5.605070E+002
 30
0.000000E+000
 11
8.853360E+002
 21
8.303070E+002
 31
0.000000E+000
  0
LINE
  8
PV
 62
     7
 10
1.073340E+003
 20
5.605070E+002
 30
0.000000E+000
 11
1.073340E+003
 21
8.303070E+002
 31
0.000000E+000
  0
LINE
  8
PV
 62
     7
 10
9.453360E+002
 20
3.644070E+002
 30
0.000000E+000
 11
9.663360E+002
 21
3.644070E+002
 31
0.000000E+000
  0
LINE
  8
PV
 62
     7
 10
9.453360E+002
 20
3.914070E+002
 30
0.000000E+000
 11
9.663360E+002
 21
3.914070E+002
 31
0.000000E+000
  0
LINE
  8
PV
  6
CENTER
 62
     1
 10
8.999180E+002
 20
2.629070E+002
 30
0.000000E+000
 11
9.775590E+002
 21
2.629070E+002
 31
0.000000E+000
  0
LINE
  8
PV
 62
     7
 10
1.017700E+003
 20
2.849070E+002
 30
0.000000E+000
 11
9.573360E+002
 21
2.849070E+002
 31
0.000000E+000
  0
LINE
  8
PV
 62
     7
 10
9.573360E+002
 20
3.032930E+002
 30
0.000000E+000
 11
9.753360E+002
 21
3.032930E+002
 31
0.000000E+000
  0
LINE
  8
PV
 62
     7
 10
9.444140E+002
 20
3.569070E+002
 30
0.000000E+000
 11
9.753360E+002
 21
3.569070E+002
 31
0.000000E+000
  0
LINE
  8
PV
 62
     7
 10
1.020340E+003
 20
2.449070E+002
 30
0.000000E+000
 11
9.573360E+002
 21
2.449070E+002
 31
0.000000E+000
  0
LINE
  8
PV
  6
CENTER
 62
     1
 10
1.126450E+003
 20
3.409070E+002
 30
0.000000E+000
 11
9.064810E+002
 21
3.409070E+002
 31
0.000000E+000
  0
LINE
  8
PV
 62
     7
 10
1.113340E+003
 20
5.255070E+002
 30
0.000000E+000
 11
8.633360E+002
 21
5.255070E+002
 31
0.000000E+000
  0
LINE
  8
PV
 62
     7
 10
1.113340E+003
 20
5.605070E+002
 30
0.000000E+000
 11
8.633360E+002
 21
5.605070E+002
 31
0.000000E+000
  0
LINE
  8
PV
 62
     7
 10
9.438360E+002
 20
5.255070E+002
 30
0.000000E+000
 11
9.733360E+002
 21
5.205070E+002
 31
0.000000E+000
  0
LINE
  8
PV
 62
     7
 10
9.484360E+002
 20
3.569070E+002
 30
0.000000E+000
 11
9.484360E+002
 21
2.949070E+002
 31
0.000000E+000
  0
LINE
  8
PV
 62
     7
 10
9.389360E+002
 20
2.949070E+002
 30
0.000000E+000
 11
9.389360E+002
 21
3.569070E+002
 31
0.000000E+000
  0
LINE
  8
PV
 62
     7
 10
9.314360E+002
 20
3.479070E+002
 30
0.000000E+000
 11
9.314360E+002
 21
3.039070E+002
 31
0.000000E+000
  0
LINE
  8
PV
 62
     7
 10
9.168360E+002
 20
3.049070E+002
 30
0.000000E+000
 11
9.168360E+002
 21
3.469070E+002
 31
0.000000E+000
  0
LINE
  8
PV
 62
     7
 10
9.168360E+002
 20
3.049070E+002
 30
0.000000E+000
 11
8.803360E+002
 21
3.055450E+002
 31
0.000000E+000
  0
LINE
  8
PV
 62
     7
 10
9.444140E+002
 20
3.569070E+002
 30
0.000000E+000
 11
9.444140E+002
 21
2.949070E+002
 31
0.000000E+000
  0
LINE
  8
PV
 62
     7
 10
9.573360E+002
 20
2.449070E+002
 30
0.000000E+000
 11
9.573360E+002
 21
3.574070E+002
 31
0.000000E+000
  0
ARC
  8
PV
 62
     7
 10
9.163360E+002
 20
2.447000E+002
 30
0.000000E+000
 40
1.927540E+001
 50
9.000000E+001
 51
1.105760E+002
  0
ARC
  8
PV
 62
     7
 10
9.157100E+002
 20
2.463670E+002
 30
0.000000E+000
 40
1.749520E+001
 50
1.105760E+002
 51
1.321860E+002
  0
ARC
  8
PV
 62
     7
 10
9.147450E+002
 20
2.474320E+002
 30
0.000000E+000
 40
1.605830E+001
 50
1.321860E+002
 51
1.554380E+002
  0
ARC
  8
PV
 62
     7
 10
9.132490E+002
 20
2.481150E+002
 30
0.000000E+000
 40
1.441370E+001
 50
1.554380E+002
 51
1.800000E+002
  0
ARC
  8
PV
 62
     7
 10
9.163360E+002
 20
2.172300E+002
 30
0.000000E+000
 40
1.927540E+001
 50
9.000000E+001
 51
1.105760E+002
  0
ARC
  8
PV
 62
     7
 10
9.157100E+002
 20
2.188970E+002
 30
0.000000E+000
 40
1.749520E+001
 50
1.105760E+002
 51
1.321860E+002
  0
ARC
  8
PV
 62
     7
 10
9.147450E+002
 20
2.199620E+002
 30
0.000000E+000
 40
1.605830E+001
 50
1.321860E+002
 51
1.554380E+002
  0
ARC
  8
PV
 62
     7
 10
9.132490E+002
 20
2.206450E+002
 30
0.000000E+000
 40
1.441370E+001
 50
1.554380E+002
 51
1.800000E+002
  0
ARC
  8
PV
 62
     7
 10
9.132490E+002
 20
2.206450E+002
 30
0.000000E+000
 40
1.441370E+001
 50
1.800000E+002
 51
2.045620E+002
  0
ARC
  8
PV
 62
     7
 10
9.147450E+002
 20
2.213290E+002
 30
0.000000E+000
 40
1.605830E+001
 50
2.045620E+002
 51
2.278140E+002
  0
ARC
  8
PV
 62
     7
 10
9.157100E+002
 20
2.223940E+002
 30
0.000000E+000
 40
1.749520E+001
 50
2.278140E+002
 51
2.494240E+002
  0
ARC
  8
PV
 62
     7
 10
9.163360E+002
 20
2.240600E+002
 30
0.000000E+000
 40
1.927540E+001
 50
2.494240E+002
 51
2.700000E+002
  0
ARC
  8
PV
 62
     7
 10
9.163360E+002
 20
2.240600E+002
 30
0.000000E+000
 40
1.927540E+001
 50
2.700000E+002
 51
2.905760E+002
  0
ARC
  8
PV
 62
     7
 10
9.169610E+002
 20
2.223940E+002
 30
0.000000E+000
 40
1.749520E+001
 50
2.905760E+002
 51
3.121860E+002
  0
ARC
  8
PV
 62
     7
 10
9.179260E+002
 20
2.213290E+002
 30
0.000000E+000
 40
1.605830E+001
 50
3.121860E+002
 51
3.354380E+002
  0
ARC
  8
PV
 62
     7
 10
9.194220E+002
 20
2.206450E+002
 30
0.000000E+000
 40
1.441370E+001
 50
3.354380E+002
 51
3.600000E+002
  0
ARC
  8
PV
 62
     7
 10
9.194220E+002
 20
2.206450E+002
 30
0.000000E+000
 40
1.441370E+001
 50
2.803900E-005
 51
2.456200E+001
  0
ARC
  8
PV
 62
     7
 10
9.179260E+002
 20
2.199620E+002
 30
0.000000E+000
 40
1.605830E+001
 50
2.456200E+001
 51
4.781370E+001
  0
ARC
  8
PV
 62
     7
 10
9.169610E+002
 20
2.188970E+002
 30
0.000000E+000
 40
1.749520E+001
 50
4.781380E+001
 51
6.942360E+001
  0
ARC
  8
PV
 62
     7
 10
9.163360E+002
 20
2.172300E+002
 30
0.000000E+000
 40
1.927540E+001
 50
6.942370E+001
 51
9.000000E+001
  0
ARC
  8
PV
 62
     7
 10
9.163360E+002
 20
2.629070E+002
 30
0.000000E+000
 40
1.300000E+001
 50
9.000000E+001
 51
1.800000E+002
  0
LINE
  8
PV
 62
     7
 10
8.988360E+002
 20
2.213290E+002
 30
0.000000E+000
 11
8.988360E+002
 21
2.481150E+002
 31
0.000000E+000
  0
LINE
  8
PV
 62
     7
 10
9.033360E+002
 20
2.587320E+002
 30
0.000000E+000
 11
9.033360E+002
 21
2.629070E+002
 31
0.000000E+000
  0
LINE
  8
PV
  6
CENTER
 62
     1
 10
9.163360E+002
 20
2.002480E+002
 30
0.000000E+000
 11
9.163360E+002
 21
2.791050E+002
 31
0.000000E+000
  0
LINE
  8
PV
 62
     7
 10
9.338360E+002
 20
2.213290E+002
 30
0.000000E+000
 11
9.338360E+002
 21
2.481150E+002
 31
0.000000E+000
  0
LINE
  8
PV
 62
     7
 10
9.337240E+002
 20
2.499070E+002
 30
0.000000E+000
 11
9.433360E+002
 21
2.499070E+002
 31
0.000000E+000
  0
LINE
  8
PV
 62
     7
 10
9.163360E+002
 20
2.759070E+002
 30
0.000000E+000
 11
9.433360E+002
 21
2.759070E+002
 31
0.000000E+000
  0
LINE
  8
PV
 62
     7
 10
9.389360E+002
 20
3.036450E+002
 30
0.000000E+000
 11
9.314360E+002
 21
3.039070E+002
 31
0.000000E+000
  0
ARC
  8
PV
 62
     7
 10
9.194220E+002
 20
2.481150E+002
 30
0.000000E+000
 40
1.441370E+001
 50
2.803900E-005
 51
2.456200E+001
  0
ARC
  8
PV
 62
     7
 10
9.179260E+002
 20
2.474320E+002
 30
0.000000E+000
 40
1.605830E+001
 50
2.456200E+001
 51
4.781370E+001
  0
ARC
  8
PV
 62
     7
 10
9.169610E+002
 20
2.463670E+002
 30
0.000000E+000
 40
1.749520E+001
 50
4.781380E+001
 51
6.942360E+001
  0
ARC
  8
PV
 62
     7
 10
9.163360E+002
 20
2.447000E+002
 30
0.000000E+000
 40
1.927540E+001
 50
6.942370E+001
 51
9.000000E+001
  0
LINE
  8
PV
 62
     7
 10
9.433360E+002
 20
2.759070E+002
 30
0.000000E+000
 11
9.433360E+002
 21
2.499070E+002
 31
0.000000E+000
  0
LINE
  8
PV
 62
     7
 10
9.573360E+002
 20
2.519070E+002
 30
0.000000E+000
 11
9.433360E+002
 21
2.519070E+002
 31
0.000000E+000
  0
LINE
  8
PV
 62
     7
 10
9.573360E+002
 20
2.739070E+002
 30
0.000000E+000
 11
9.433360E+002
 21
2.739070E+002
 31
0.000000E+000
  0
LINE
  8
PV
 62
     7
 10
9.444140E+002
 20
2.949070E+002
 30
0.000000E+000
 11
9.573360E+002
 21
2.949070E+002
 31
0.000000E+000
  0
LINE
  8
PV
 62
     7
 10
9.389360E+002
 20
2.949070E+002
 30
0.000000E+000
 11
9.444140E+002
 21
2.949070E+002
 31
0.000000E+000
  0
LINE
  8
PV
 62
     7
 10
8.633360E+002
 20
5.605070E+002
 30
0.000000E+000
 11
8.633360E+002
 21
5.255070E+002
 31
0.000000E+000
  0
LINE
  8
PV
  6
CENTER
 62
     1
 10
8.647320E+002
 20
3.259070E+002
 30
0.000000E+000
 11
9.373560E+002
 21
3.259070E+002
 31
0.000000E+000
  0
LINE
  8
PV
 62
     7
 10
9.168360E+002
 20
3.469070E+002
 30
0.000000E+000
 11
8.803360E+002
 21
3.462700E+002
 31
0.000000E+000
  0
LINE
  8
PV
 62
     7
 10
8.803360E+002
 20
3.055450E+002
 30
0.000000E+000
 11
8.803360E+002
 21
3.462700E+002
 31
0.000000E+000
  0
LINE
  8
PV
 62
     7
 10
9.453360E+002
 20
3.914070E+002
 30
0.000000E+000
 11
9.453360E+002
 21
3.644070E+002
 31
0.000000E+000
  0
LINE
  8
PV
 62
     7
 10
9.389360E+002
 20
3.481690E+002
 30
0.000000E+000
 11
9.314360E+002
 21
3.479070E+002
 31
0.000000E+000
  0
LINE
  8
PV
 62
     7
 10
9.314360E+002
 20
3.079070E+002
 30
0.000000E+000
 11
9.168360E+002
 21
3.079070E+002
 31
0.000000E+000
  0
LINE
  8
PV
 62
     7
 10
9.314360E+002
 20
3.439070E+002
 30
0.000000E+000
 11
9.168360E+002
 21
3.439070E+002
 31
0.000000E+000
  0
LINE
  8
PV
 62
     7
 10
9.573360E+002
 20
3.116520E+002
 30
0.000000E+000
 11
9.484360E+002
 21
3.116520E+002
 31
0.000000E+000
  0
LINE
  8
PV
 62
     7
 10
9.389360E+002
 20
3.569070E+002
 30
0.000000E+000
 11
9.444140E+002
 21
3.569070E+002
 31
0.000000E+000
  0
LINE
  8
PV
 62
     7
 10
9.573360E+002
 20
3.401620E+002
 30
0.000000E+000
 11
9.484360E+002
 21
3.401620E+002
 31
0.000000E+000
  0
LINE
  8
PV
 62
     7
 10
8.853360E+002
 20
4.874070E+002
 30
0.000000E+000
 11
8.853360E+002
 21
5.059070E+002
 31
0.000000E+000
  0
LINE
  8
PV
 62
     7
 10
9.033360E+002
 20
4.874070E+002
 30
0.000000E+000
 11
9.033360E+002
 21
5.059070E+002
 31
0.000000E+000
  0
LINE
  8
PV
 62
     7
 10
8.873360E+002
 20
4.854070E+002
 30
0.000000E+000
 11
9.013360E+002
 21
4.854070E+002
 31
0.000000E+000
  0
LINE
  8
PV
 62
     7
 10
8.873360E+002
 20
4.854070E+002
 30
0.000000E+000
 11
8.853360E+002
 21
4.874070E+002
 31
0.000000E+000
  0
LINE
  8
PV
 62
     7
 10
9.013360E+002
 20
4.854070E+002
 30
0.000000E+000
 11
9.033360E+002
 21
4.874070E+002
 31
0.000000E+000
  0
LINE
  8
PV
 62
     7
 10
8.787470E+002
 20
5.209070E+002
 30
0.000000E+000
 11
9.098360E+002
 21
5.209070E+002
 31
0.000000E+000
  0
LINE
  8
PV
 62
     7
 10
9.099240E+002
 20
5.059070E+002
 30
0.000000E+000
 11
8.787470E+002
 21
5.059070E+002
 31
0.000000E+000
  0
LINE
  8
PV
 62
     7
 10
8.788360E+002
 20
5.209070E+002
 30
0.000000E+000
 11
8.788360E+002
 21
5.255070E+002
 31
0.000000E+000
  0
LINE
  8
PV
 62
     7
 10
8.865410E+002
 20
5.059070E+002
 30
0.000000E+000
 11
8.865410E+002
 21
5.209070E+002
 31
0.000000E+000
  0
LINE
  8
PV
 62
     7
 10
8.787470E+002
 20
5.059070E+002
 30
0.000000E+000
 11
8.787470E+002
 21
5.209070E+002
 31
0.000000E+000
  0
LINE
  8
PV
 62
     7
 10
9.098360E+002
 20
5.209070E+002
 30
0.000000E+000
 11
9.098360E+002
 21
5.255070E+002
 31
0.000000E+000
  0
LINE
  8
PV
 62
     7
 10
9.099240E+002
 20
5.059070E+002
 30
0.000000E+000
 11
9.099240E+002
 21
5.209070E+002
 31
0.000000E+000
  0
LINE
  8
PV
 62
     7
 10
9.021300E+002
 20
5.059070E+002
 30
0.000000E+000
 11
9.021300E+002
 21
5.209070E+002
 31
0.000000E+000
  0
LINE
  8
PV
 62
     7
 10
1.114840E+003
 20
3.909070E+002
 30
0.000000E+000
 11
1.114840E+003
 21
2.909070E+002
 31
0.000000E+000
  0
LINE
  8
PV
 62
     7
 10
1.024340E+003
 20
3.109070E+002
 30
0.000000E+000
 11
1.044340E+003
 21
2.909070E+002
 31
0.000000E+000
  0
LINE
  8
PV
 62
     7
 10
1.119340E+003
 20
3.909070E+002
 30
0.000000E+000
 11
1.119340E+003
 21
2.909070E+002
 31
0.000000E+000
  0
LINE
  8
PV
 62
     7
 10
9.753360E+002
 20
3.969070E+002
 30
0.000000E+000
 11
9.753360E+002
 21
3.032930E+002
 31
0.000000E+000
  0
LINE
  8
PV
 62
     7
 10
1.009340E+003
 20
3.409070E+002
 30
0.000000E+000
 11
1.022790E+003
 21
2.509070E+002
 31
0.000000E+000
  0
ARC
  8
PV
 62
     7
 10
1.034340E+003
 20
3.409070E+002
 30
0.000000E+000
 40
5.350000E+001
 50
1.073990E+002
 51
2.509740E+002
  0
LINE
  8
PV
  6
CENTER
 62
     1
 10
1.034340E+003
 20
2.435320E+002
 30
0.000000E+000
 11
1.034340E+003
 21
4.382820E+002
 31
0.000000E+000
  0
LINE
  8
PV
  6
CENTER
 62
     1
 10
1.178520E+003
 20
2.249070E+002
 30
0.000000E+000
 11
1.100730E+003
 21
2.249070E+002
 31
0.000000E+000
  0
LINE
  8
PV
 62
     7
 10
1.119340E+003
 20
2.049070E+002
 30
0.000000E+000
 11
1.161640E+003
 21
2.049070E+002
 31
0.000000E+000
  0
LINE
  8
PV
 62
     7
 10
1.044340E+003
 20
2.909070E+002
 30
0.000000E+000
 11
1.119340E+003
 21
2.909070E+002
 31
0.000000E+000
  0
LINE
  8
PV
 62
     7
 10
1.051860E+003
 20
2.909070E+002
 30
0.000000E+000
 11
1.045890E+003
 21
2.509070E+002
 31
0.000000E+000
  0
LINE
  8
PV
 62
     7
 10
1.045890E+003
 20
2.509070E+002
 30
0.000000E+000
 11
1.022790E+003
 21
2.509070E+002
 31
0.000000E+000
  0
CIRCLE
  8
PV
 62
     7
 10
1.034340E+003
 20
2.699070E+002
 30
0.000000E+000
 40
9.800000E+000
  0
LINE
  8
PV
 62
     7
 10
1.020340E+003
 20
2.449070E+002
 30
0.000000E+000
 11
1.020340E+003
 21
2.623860E+002
 31
0.000000E+000
  0
LINE
  8
PV
 62
     7
 10
1.090340E+003
 20
2.849070E+002
 30
0.000000E+000
 11
1.050970E+003
 21
2.849070E+002
 31
0.000000E+000
  0
ARC
  8
PV
 62
     7
 10
1.034340E+003
 20
3.409070E+002
 30
0.000000E+000
 40
5.350000E+001
 50
2.890260E+002
 51
2.908400E+002
  0
LINE
  8
PV
 62
     7
 10
1.090340E+003
 20
2.849070E+002
 30
0.000000E+000
 11
1.090340E+003
 21
2.909070E+002
 31
0.000000E+000
  0
LINE
  8
PV
  6
CENTER
 62
     1
 10
1.178520E+003
 20
6.549070E+002
 30
0.000000E+000
 11
1.107590E+003
 21
6.549070E+002
 31
0.000000E+000
  0
LINE
  8
PV
  6
CENTER
 62
     1
 10
1.059340E+003
 20
8.063480E+002
 30
0.000000E+000
 11
1.059340E+003
 21
4.132530E+002
 31
0.000000E+000
  0
LINE
  8
PV
 62
     7
 10
1.113340E+003
 20
5.605070E+002
 30
0.000000E+000
 11
1.113340E+003
 21
5.255070E+002
 31
0.000000E+000
  0
LINE
  8
PV
  6
CENTER
 62
     1
 10
1.009340E+003
 20
4.219070E+002
 30
0.000000E+000
 11
1.067340E+003
 21
4.799070E+002
 31
0.000000E+000
  0
LINE
  8
PV
 62
     7
 10
1.049520E+003
 20
4.259070E+002
 30
0.000000E+000
 11
1.054430E+003
 21
4.174070E+002
 31
0.000000E+000
  0
LINE
  8
PV
 62
     7
 10
1.054430E+003
 20
4.344070E+002
 30
0.000000E+000
 11
1.049520E+003
 21
4.259070E+002
 31
0.000000E+000
  0
LINE
  8
PV
  6
CENTER
 62
     1
 10
1.046680E+003
 20
4.259070E+002
 30
0.000000E+000
 11
1.071990E+003
 21
4.259070E+002
 31
0.000000E+000
  0
LINE
  8
PV
 62
     7
 10
1.072340E+003
 20
4.079070E+002
 30
0.000000E+000
 11
1.046340E+003
 21
4.079070E+002
 31
0.000000E+000
  0
LINE
  8
PV
 62
     7
 10
1.044340E+003
 20
3.909070E+002
 30
0.000000E+000
 11
1.119340E+003
 21
3.909070E+002
 31
0.000000E+000
  0
LINE
  8
PV
 62
     7
 10
1.090340E+003
 20
3.969070E+002
 30
0.000000E+000
 11
1.049460E+003
 21
3.969070E+002
 31
0.000000E+000
  0
LINE
  8
PV
 62
     7
 10
1.050520E+003
 20
3.909070E+002
 30
0.000000E+000
 11
1.046110E+003
 21
4.159070E+002
 31
0.000000E+000
  0
LINE
  8
PV
 62
     7
 10
1.009340E+003
 20
4.346090E+002
 30
0.000000E+000
 11
9.983360E+002
 21
4.282580E+002
 31
0.000000E+000
  0
LINE
  8
PV
 62
     7
 10
1.020340E+003
 20
4.282580E+002
 30
0.000000E+000
 11
1.009340E+003
 21
4.346090E+002
 31
0.000000E+000
  0
LINE
  8
PV
  6
CENTER
 62
     1
 10
1.009340E+003
 20
3.709330E+002
 30
0.000000E+000
 11
1.009340E+003
 21
4.382320E+002
 31
0.000000E+000
  0
LINE
  8
PV
 62
     7
 10
9.983360E+002
 20
4.155560E+002
 30
0.000000E+000
 11
1.009340E+003
 21
4.092050E+002
 31
0.000000E+000
  0
LINE
  8
PV
  6
CENTER
 62
     1
 10
1.025660E+003
 20
4.219070E+002
 30
0.000000E+000
 11
9.930110E+002
 21
4.219070E+002
 31
0.000000E+000
  0
LINE
  8
PV
 62
     7
 10
1.019210E+003
 20
3.969070E+002
 30
0.000000E+000
 11
9.753360E+002
 21
3.969070E+002
 31
0.000000E+000
  0
LINE
  8
PV
 62
     7
 10
9.663360E+002
 20
3.914070E+002
 30
0.000000E+000
 11
9.663360E+002
 21
3.644070E+002
 31
0.000000E+000
  0
LINE
  8
PV
  6
CENTER
 62
     1
 10
9.658600E+002
 20
3.779070E+002
 30
0.000000E+000
 11
9.806200E+002
 21
3.779070E+002
 31
0.000000E+000
  0
LINE
  8
PV
 62
     7
 10
9.753360E+002
 20
3.729070E+002
 30
0.000000E+000
 11
9.663360E+002
 21
3.729070E+002
 31
0.000000E+000
  0
LINE
  8
PV
 62
     7
 10
9.753360E+002
 20
3.829070E+002
 30
0.000000E+000
 11
9.663360E+002
 21
3.829070E+002
 31
0.000000E+000
  0
LINE
  8
PV
 62
     7
 10
1.000340E+003
 20
3.969070E+002
 30
0.000000E+000
 11
1.000340E+003
 21
4.144020E+002
 31
0.000000E+000
  0
LINE
  8
PV
 62
     7
 10
9.983360E+002
 20
4.282580E+002
 30
0.000000E+000
 11
9.983360E+002
 21
4.155560E+002
 31
0.000000E+000
  0
LINE
  8
PV
 62
     7
 10
1.024340E+003
 20
3.709070E+002
 30
0.000000E+000
 11
1.024340E+003
 21
3.109070E+002
 31
0.000000E+000
  0
LINE
  8
PV
 62
     7
 10
1.009340E+003
 20
3.409070E+002
 30
0.000000E+000
 11
1.022560E+003
 21
4.159070E+002
 31
0.000000E+000
  0
LINE
  8
PV
 62
     7
 10
1.024340E+003
 20
3.709070E+002
 30
0.000000E+000
 11
1.044340E+003
 21
3.909070E+002
 31
0.000000E+000
  0
CIRCLE
  8
PV
 62
     7
 10
1.034340E+003
 20
4.039070E+002
 30
0.000000E+000
 40
9.800000E+000
  0
LINE
  8
PV
 62
     7
 10
1.046110E+003
 20
4.159070E+002
 30
0.000000E+000
 11
1.022560E+003
 21
4.159070E+002
 31
0.000000E+000
  0
LINE
  8
PV
 62
     7
 10
1.018340E+003
 20
3.969070E+002
 30
0.000000E+000
 11
1.018340E+003
 21
4.144020E+002
 31
0.000000E+000
  0
LINE
  8
PV
 62
     7
 10
1.009340E+003
 20
4.092050E+002
 30
0.000000E+000
 11
1.020340E+003
 21
4.155560E+002
 31
0.000000E+000
  0
LINE
  8
PV
 62
     7
 10
1.020340E+003
 20
4.155560E+002
 30
0.000000E+000
 11
1.020340E+003
 21
4.282580E+002
 31
0.000000E+000
  0
LINE
  8
PV
 62
     7
 10
1.032840E+003
 20
5.255070E+002
 30
0.000000E+000
 11
1.003340E+003
 21
5.205070E+002
 31
0.000000E+000
  0
LINE
  8
PV
 62
     7
 10
9.943360E+002
 20
4.955070E+002
 30
0.000000E+000
 11
9.943360E+002
 21
5.155070E+002
 31
0.000000E+000
  0
LINE
  8
PV
 62
     7
 10
9.603360E+002
 20
5.140070E+002
 30
0.000000E+000
 11
9.603360E+002
 21
4.890070E+002
 31
0.000000E+000
  0
LINE
  8
PV
 62
     7
 10
9.643360E+002
 20
5.140070E+002
 30
0.000000E+000
 11
9.643360E+002
 21
4.890070E+002
 31
0.000000E+000
  0
LINE
  8
PV
 62
     7
 10
9.703360E+002
 20
4.945070E+002
 30
0.000000E+000
 11
9.703360E+002
 21
5.085070E+002
 31
0.000000E+000
  0
LINE
  8
PV
 62
     7
 10
9.763360E+002
 20
4.945070E+002
 30
0.000000E+000
 11
9.763360E+002
 21
5.085070E+002
 31
0.000000E+000
  0
LINE
  8
PV
 62
     7
 10
9.873360E+002
 20
4.805070E+002
 30
0.000000E+000
 11
9.793360E+002
 21
4.805070E+002
 31
0.000000E+000
  0
LINE
  8
PV
 62
     7
 10
9.943360E+002
 20
4.955070E+002
 30
0.000000E+000
 11
9.763360E+002
 21
4.955070E+002
 31
0.000000E+000
  0
LINE
  8
PV
 62
     7
 10
9.643360E+002
 20
4.890070E+002
 30
0.000000E+000
 11
9.603360E+002
 21
4.890070E+002
 31
0.000000E+000
  0
LINE
  8
PV
 62
     7
 10
9.793360E+002
 20
4.805070E+002
 30
0.000000E+000
 11
9.793360E+002
 21
4.955070E+002
 31
0.000000E+000
  0
LINE
  8
PV
 62
     7
 10
9.703360E+002
 20
4.945070E+002
 30
0.000000E+000
 11
9.763360E+002
 21
4.945070E+002
 31
0.000000E+000
  0
LINE
  8
PV
 62
     7
 10
9.873360E+002
 20
4.805070E+002
 30
0.000000E+000
 11
9.873360E+002
 21
4.955070E+002
 31
0.000000E+000
  0
LINE
  8
PV
 62
     7
 10
9.763360E+002
 20
5.075070E+002
 30
0.000000E+000
 11
9.823360E+002
 21
5.075070E+002
 31
0.000000E+000
  0
LINE
  8
PV
 62
     7
 10
1.003340E+003
 20
5.205070E+002
 30
0.000000E+000
 11
9.733360E+002
 21
5.205070E+002
 31
0.000000E+000
  0
LINE
  8
PV
 62
     7
 10
9.643360E+002
 20
5.040070E+002
 30
0.000000E+000
 11
9.703360E+002
 21
5.040070E+002
 31
0.000000E+000
  0
LINE
  8
PV
 62
     7
 10
9.643360E+002
 20
4.990070E+002
 30
0.000000E+000
 11
9.703360E+002
 21
4.990070E+002
 31
0.000000E+000
  0
LINE
  8
PV
 62
     7
 10
9.643360E+002
 20
5.140070E+002
 30
0.000000E+000
 11
9.603360E+002
 21
5.140070E+002
 31
0.000000E+000
  0
LINE
  8
PV
 62
     7
 10
9.603360E+002
 20
5.042570E+002
 30
0.000000E+000
 11
9.585360E+002
 21
5.042570E+002
 31
0.000000E+000
  0
LINE
  8
PV
 62
     7
 10
9.585360E+002
 20
5.042570E+002
 30
0.000000E+000
 11
9.585360E+002
 21
4.987570E+002
 31
0.000000E+000
  0
LINE
  8
PV
 62
     7
 10
9.585360E+002
 20
4.987570E+002
 30
0.000000E+000
 11
9.603360E+002
 21
4.987570E+002
 31
0.000000E+000
  0
LINE
  8
PV
 62
     7
 10
9.703360E+002
 20
5.085070E+002
 30
0.000000E+000
 11
9.763360E+002
 21
5.085070E+002
 31
0.000000E+000
  0
LINE
  8
PV
 62
     7
 10
9.943360E+002
 20
5.155070E+002
 30
0.000000E+000
 11
9.823360E+002
 21
5.155070E+002
 31
0.000000E+000
  0
LINE
  8
PV
 62
     7
 10
9.823360E+002
 20
5.075070E+002
 30
0.000000E+000
 11
9.823360E+002
 21
5.155070E+002
 31
0.000000E+000
  0
LINE
  8
PV
 62
     7
 10
9.833360E+002
 20
5.155070E+002
 30
0.000000E+000
 11
9.833360E+002
 21
5.205070E+002
 31
0.000000E+000
  0
LINE
  8
PV
 62
     7
 10
9.933360E+002
 20
5.155070E+002
 30
0.000000E+000
 11
9.933360E+002
 21
5.205070E+002
 31
0.000000E+000
  0
LINE
  8
PV
 62
     7
 10
1.069150E+003
 20
4.259070E+002
 30
0.000000E+000
 11
1.064240E+003
 21
4.344070E+002
 31
0.000000E+000
  0
LINE
  8
PV
 62
     7
 10
1.114840E+003
 20
4.964070E+002
 30
0.000000E+000
 11
1.114840E+003
 21
4.159070E+002
 31
0.000000E+000
  0
LINE
  8
PV
 62
     7
 10
1.119340E+003
 20
4.964070E+002
 30
0.000000E+000
 11
1.119340E+003
 21
4.159070E+002
 31
0.000000E+000
  0
LINE
  8
PV
 62
     7
 10
1.072340E+003
 20
3.969070E+002
 30
0.000000E+000
 11
1.072340E+003
 21
4.079070E+002
 31
0.000000E+000
  0
ARC
  8
PV
 62
     7
 10
1.034340E+003
 20
3.409070E+002
 30
0.000000E+000
 40
5.350000E+001
 50
6.916030E+001
 51
7.260060E+001
  0
LINE
  8
PV
 62
     7
 10
1.054430E+003
 20
4.174070E+002
 30
0.000000E+000
 11
1.064240E+003
 21
4.174070E+002
 31
0.000000E+000
  0
LINE
  8
PV
 62
     7
 10
1.052840E+003
 20
4.079070E+002
 30
0.000000E+000
 11
1.052840E+003
 21
4.201650E+002
 31
0.000000E+000
  0
LINE
  8
PV
 62
     7
 10
1.064240E+003
 20
4.174070E+002
 30
0.000000E+000
 11
1.069150E+003
 21
4.259070E+002
 31
0.000000E+000
  0
LINE
  8
PV
 62
     7
 10
1.065840E+003
 20
4.079070E+002
 30
0.000000E+000
 11
1.065840E+003
 21
4.201650E+002
 31
0.000000E+000
  0
LINE
  8
PV
 62
     7
 10
1.090340E+003
 20
3.909070E+002
 30
0.000000E+000
 11
1.090340E+003
 21
3.969070E+002
 31
0.000000E+000
  0
LINE
  8
PV
 62
     7
 10
1.119340E+003
 20
4.159070E+002
 30
0.000000E+000
 11
1.114840E+003
 21
4.159070E+002
 31
0.000000E+000
  0
LINE
  8
PV
 62
     7
 10
1.097920E+003
 20
4.864070E+002
 30
0.000000E+000
 11
1.066840E+003
 21
4.864070E+002
 31
0.000000E+000
  0
LINE
  8
PV
 62
     7
 10
1.109840E+003
 20
5.014070E+002
 30
0.000000E+000
 11
1.059340E+003
 21
5.014070E+002
 31
0.000000E+000
  0
LINE
  8
PV
 62
     7
 10
1.109840E+003
 20
5.059070E+002
 30
0.000000E+000
 11
1.059340E+003
 21
5.059070E+002
 31
0.000000E+000
  0
LINE
  8
PV
 62
     7
 10
1.097920E+003
 20
5.209070E+002
 30
0.000000E+000
 11
1.066840E+003
 21
5.209070E+002
 31
0.000000E+000
  0
LINE
  8
PV
 62
     7
 10
1.066750E+003
 20
4.864070E+002
 30
0.000000E+000
 11
1.066750E+003
 21
5.014070E+002
 31
0.000000E+000
  0
LINE
  8
PV
 62
     7
 10
1.090130E+003
 20
4.864070E+002
 30
0.000000E+000
 11
1.090130E+003
 21
5.014070E+002
 31
0.000000E+000
  0
LINE
  8
PV
 62
     7
 10
1.074540E+003
 20
4.864070E+002
 30
0.000000E+000
 11
1.074540E+003
 21
5.014070E+002
 31
0.000000E+000
  0
LINE
  8
PV
 62
     7
 10
1.064240E+003
 20
4.344070E+002
 30
0.000000E+000
 11
1.054430E+003
 21
4.344070E+002
 31
0.000000E+000
  0
LINE
  8
PV
 62
     7
 10
1.089340E+003
 20
4.854070E+002
 30
0.000000E+000
 11
1.075340E+003
 21
4.854070E+002
 31
0.000000E+000
  0
LINE
  8
PV
 62
     7
 10
1.075340E+003
 20
4.854070E+002
 30
0.000000E+000
 11
1.074340E+003
 21
4.864070E+002
 31
0.000000E+000
  0
LINE
  8
PV
 62
     7
 10
1.089340E+003
 20
4.854070E+002
 30
0.000000E+000
 11
1.090340E+003
 21
4.864070E+002
 31
0.000000E+000
  0
LINE
  8
PV
 62
     7
 10
1.059340E+003
 20
5.059070E+002
 30
0.000000E+000
 11
1.059340E+003
 21
5.014070E+002
 31
0.000000E+000
  0
LINE
  8
PV
 62
     7
 10
1.066750E+003
 20
5.059070E+002
 30
0.000000E+000
 11
1.066750E+003
 21
5.209070E+002
 31
0.000000E+000
  0
LINE
  8
PV
 62
     7
 10
1.066840E+003
 20
5.209070E+002
 30
0.000000E+000
 11
1.066840E+003
 21
5.255070E+002
 31
0.000000E+000
  0
LINE
  8
PV
 62
     7
 10
1.074540E+003
 20
5.059070E+002
 30
0.000000E+000
 11
1.074540E+003
 21
5.209070E+002
 31
0.000000E+000
  0
LINE
  8
PV
 62
     7
 10
1.090130E+003
 20
5.059070E+002
 30
0.000000E+000
 11
1.090130E+003
 21
5.209070E+002
 31
0.000000E+000
  0
LINE
  8
PV
 62
     7
 10
1.097920E+003
 20
4.864070E+002
 30
0.000000E+000
 11
1.097920E+003
 21
5.014070E+002
 31
0.000000E+000
  0
LINE
  8
PV
  6
CENTER
 62
     1
 10
1.109840E+003
 20
4.399070E+002
 30
0.000000E+000
 11
1.124340E+003
 21
4.399070E+002
 31
0.000000E+000
  0
ARC
  8
PV
 62
     7
 10
1.109840E+003
 20
4.964070E+002
 30
0.000000E+000
 40
9.500000E+000
 50
0.000000E+000
 51
9.000000E+001
  0
LINE
  8
PV
 62
     7
 10
1.097920E+003
 20
5.059070E+002
 30
0.000000E+000
 11
1.097920E+003
 21
5.209070E+002
 31
0.000000E+000
  0
LINE
  8
PV
 62
     7
 10
1.097840E+003
 20
5.209070E+002
 30
0.000000E+000
 11
1.097840E+003
 21
5.255070E+002
 31
0.000000E+000
  0
ARC
  8
PV
 62
     7
 10
1.109840E+003
 20
4.964070E+002
 30
0.000000E+000
 40
5.000000E+000
 50
0.000000E+000
 51
9.000000E+001
  0
LINE
  8
PV
 62
     7
 10
9.923360E+002
 20
5.894070E+002
 30
0.000000E+000
 11
9.923360E+002
 21
8.014070E+002
 31
0.000000E+000
  0
LINE
  8
PV
 62
     7
 10
9.843360E+002
 20
5.894070E+002
 30
0.000000E+000
 11
9.843360E+002
 21
8.014070E+002
 31
0.000000E+000
  0
LINE
  8
PV
  6
CENTER
 62
     1
 10
9.783360E+002
 20
5.704070E+002
 30
0.000000E+000
 11
9.983360E+002
 21
5.704070E+002
 31
0.000000E+000
  0
LINE
  8
PV
 62
     7
 10
9.953360E+002
 20
5.814070E+002
 30
0.000000E+000
 11
9.813360E+002
 21
5.814070E+002
 31
0.000000E+000
  0
LINE
  8
PV
 62
     7
 10
9.813360E+002
 20
5.894070E+002
 30
0.000000E+000
 11
9.953360E+002
 21
5.894070E+002
 31
0.000000E+000
  0
LINE
  8
PV
 62
     7
 10
9.833360E+002
 20
5.654070E+002
 30
0.000000E+000
 11
9.933360E+002
 21
5.654070E+002
 31
0.000000E+000
  0
LINE
  8
PV
 62
     7
 10
9.813360E+002
 20
5.894070E+002
 30
0.000000E+000
 11
9.813360E+002
 21
5.814070E+002
 31
0.000000E+000
  0
LINE
  8
PV
 62
     7
 10
9.833360E+002
 20
5.654070E+002
 30
0.000000E+000
 11
9.833360E+002
 21
5.814070E+002
 31
0.000000E+000
  0
LINE
  8
PV
 62
     7
 10
9.953360E+002
 20
5.894070E+002
 30
0.000000E+000
 11
9.953360E+002
 21
5.814070E+002
 31
0.000000E+000
  0
LINE
  8
PV
 62
     7
 10
9.933360E+002
 20
5.654070E+002
 30
0.000000E+000
 11
9.933360E+002
 21
5.814070E+002
 31
0.000000E+000
  0
LINE
  8
PV
 62
     7
 10
9.813360E+002
 20
8.014070E+002
 30
0.000000E+000
 11
9.953360E+002
 21
8.014070E+002
 31
0.000000E+000
  0
LINE
  8
PV
 62
     7
 10
9.953360E+002
 20
8.094070E+002
 30
0.000000E+000
 11
9.813360E+002
 21
8.094070E+002
 31
0.000000E+000
  0
LINE
  8
PV
 62
     7
 10
9.813360E+002
 20
8.094070E+002
 30
0.000000E+000
 11
9.813360E+002
 21
8.014070E+002
 31
0.000000E+000
  0
LINE
  8
PV
 62
     7
 10
9.953360E+002
 20
8.094070E+002
 30
0.000000E+000
 11
9.953360E+002
 21
8.014070E+002
 31
0.000000E+000
  0
LINE
  8
PV
 62
     7
 10
1.081740E+003
 20
6.573570E+002
 30
0.000000E+000
 11
1.081740E+003
 21
7.224570E+002
 31
0.000000E+000
  0
LINE
  8
PV
 62
     7
 10
1.086540E+003
 20
7.224570E+002
 30
0.000000E+000
 11
1.086540E+003
 21
6.573570E+002
 31
0.000000E+000
  0
LINE
  8
PV
 62
     7
 10
1.119340E+003
 20
6.591070E+002
 30
0.000000E+000
 11
1.086540E+003
 21
6.591070E+002
 31
0.000000E+000
  0
LINE
  8
PV
 62
     7
 10
1.111840E+003
 20
6.411070E+002
 30
0.000000E+000
 11
1.086840E+003
 21
6.411070E+002
 31
0.000000E+000
  0
LINE
  8
PV
 62
     7
 10
1.085340E+003
 20
6.289070E+002
 30
0.000000E+000
 11
1.113340E+003
 21
6.289070E+002
 31
0.000000E+000
  0
LINE
  8
PV
 62
     7
 10
1.085340E+003
 20
6.239070E+002
 30
0.000000E+000
 11
1.113340E+003
 21
6.239070E+002
 31
0.000000E+000
  0
LINE
  8
PV
 62
     7
 10
1.091340E+003
 20
5.605070E+002
 30
0.000000E+000
 11
1.091340E+003
 21
6.239070E+002
 31
0.000000E+000
  0
LINE
  8
PV
 62
     7
 10
1.095640E+003
 20
5.605070E+002
 30
0.000000E+000
 11
1.095640E+003
 21
6.239070E+002
 31
0.000000E+000
  0
LINE
  8
PV
 62
     7
 10
1.086840E+003
 20
6.411070E+002
 30
0.000000E+000
 11
1.086840E+003
 21
6.591070E+002
 31
0.000000E+000
  0
LINE
  8
PV
 62
     7
 10
1.085340E+003
 20
6.239070E+002
 30
0.000000E+000
 11
1.085340E+003
 21
6.289070E+002
 31
0.000000E+000
  0
LINE
  8
PV
 62
     7
 10
1.088840E+003
 20
6.289070E+002
 30
0.000000E+000
 11
1.088840E+003
 21
6.411070E+002
 31
0.000000E+000
  0
LINE
  8
PV
 62
     7
 10
1.086540E+003
 20
6.573570E+002
 30
0.000000E+000
 11
1.081740E+003
 21
6.573570E+002
 31
0.000000E+000
  0
LINE
  8
PV
 62
     7
 10
1.111840E+003
 20
6.591070E+002
 30
0.000000E+000
 11
1.111840E+003
 21
6.411070E+002
 31
0.000000E+000
  0
LINE
  8
PV
 62
     7
 10
1.113340E+003
 20
6.239070E+002
 30
0.000000E+000
 11
1.113340E+003
 21
6.289070E+002
 31
0.000000E+000
  0
LINE
  8
PV
 62
     7
 10
1.109840E+003
 20
6.289070E+002
 30
0.000000E+000
 11
1.109840E+003
 21
6.411070E+002
 31
0.000000E+000
  0
LINE
  8
PV
 62
     7
 10
1.086540E+003
 20
7.207070E+002
 30
0.000000E+000
 11
1.119340E+003
 21
7.207070E+002
 31
0.000000E+000
  0
LINE
  8
PV
 62
     7
 10
1.086540E+003
 20
7.224570E+002
 30
0.000000E+000
 11
1.081740E+003
 21
7.224570E+002
 31
0.000000E+000
  0
LINE
  8
PV
 62
     7
 10
9.463360E+002
 20
8.749070E+002
 30
0.000000E+000
 11
1.030340E+003
 21
8.749070E+002
 31
0.000000E+000
  0
LINE
  8
PV
 62
     7
 10
1.044520E+003
 20
8.653070E+002
 30
0.000000E+000
 11
8.633360E+002
 21
8.653070E+002
 31
0.000000E+000
  0
LINE
  8
PV
  6
CENTER
 62
     1
 10
1.026840E+003
 20
1.077910E+003
 30
0.000000E+000
 11
9.079210E+002
 21
1.077910E+003
 31
0.000000E+000
  0
LINE
  8
PV
 62
     7
 10
9.548360E+002
 20
1.061910E+003
 30
0.000000E+000
 11
9.723360E+002
 21
1.061910E+003
 31
0.000000E+000
  0
LINE
  8
PV
 62
     7
 10
9.783360E+002
 20
1.093910E+003
 30
0.000000E+000
 11
9.548360E+002
 21
1.093910E+003
 31
0.000000E+000
  0
LINE
  8
PV
 62
     7
 10
1.113340E+003
 20
8.303070E+002
 30
0.000000E+000
 11
8.633360E+002
 21
8.303070E+002
 31
0.000000E+000
  0
LINE
  8
PV
  6
CENTER
 62
     1
 10
9.266360E+002
 20
1.103450E+003
 30
0.000000E+000
 11
9.266360E+002
 21
1.059570E+003
 31
0.000000E+000
  0
ARC
  8
PV
 62
     7
 10
9.226360E+002
 20
1.073910E+003
 30
0.000000E+000
 40
1.000000E+001
 50
1.800000E+002
 51
2.700000E+002
  0
LINE
  8
PV
 62
     7
 10
9.548360E+002
 20
1.093910E+003
 30
0.000000E+000
 11
9.548360E+002
 21
1.061910E+003
 31
0.000000E+000
  0
LINE
  8
PV
 62
     7
 10
8.633360E+002
 20
8.653070E+002
 30
0.000000E+000
 11
8.633360E+002
 21
8.303070E+002
 31
0.000000E+000
  0
LINE
  8
PV
 62
     7
 10
8.823360E+002
 20
9.423070E+002
 30
0.000000E+000
 11
8.823360E+002
 21
8.893070E+002
 31
0.000000E+000
  0
LINE
  8
PV
 62
     7
 10
9.443360E+002
 20
8.893070E+002
 30
0.000000E+000
 11
9.443360E+002
 21
9.423070E+002
 31
0.000000E+000
  0
LINE
  8
PV
 62
     7
 10
9.308360E+002
 20
8.753070E+002
 30
0.000000E+000
 11
9.099240E+002
 21
8.753070E+002
 31
0.000000E+000
  0
LINE
  8
PV
 62
     7
 10
9.033360E+002
 20
8.883070E+002
 30
0.000000E+000
 11
9.433360E+002
 21
8.883070E+002
 31
0.000000E+000
  0
LINE
  8
PV
 62
     7
 10
8.823360E+002
 20
9.323070E+002
 30
0.000000E+000
 11
9.443360E+002
 21
9.323070E+002
 31
0.000000E+000
  0
LINE
  8
PV
 62
     7
 10
8.787470E+002
 20
8.849070E+002
 30
0.000000E+000
 11
8.787470E+002
 21
8.699070E+002
 31
0.000000E+000
  0
LINE
  8
PV
 62
     7
 10
8.865410E+002
 20
8.849070E+002
 30
0.000000E+000
 11
8.865410E+002
 21
8.699070E+002
 31
0.000000E+000
  0
LINE
  8
PV
 62
     7
 10
9.021300E+002
 20
8.849070E+002
 30
0.000000E+000
 11
9.021300E+002
 21
8.699070E+002
 31
0.000000E+000
  0
LINE
  8
PV
 62
     7
 10
9.099240E+002
 20
8.849070E+002
 30
0.000000E+000
 11
9.099240E+002
 21
8.699070E+002
 31
0.000000E+000
  0
LINE
  8
PV
 62
     7
 10
8.787470E+002
 20
8.699070E+002
 30
0.000000E+000
 11
9.098360E+002
 21
8.699070E+002
 31
0.000000E+000
  0
LINE
  8
PV
 62
     7
 10
8.788360E+002
 20
8.699070E+002
 30
0.000000E+000
 11
8.788360E+002
 21
8.653070E+002
 31
0.000000E+000
  0
LINE
  8
PV
 62
     7
 10
9.098360E+002
 20
8.699070E+002
 30
0.000000E+000
 11
9.098360E+002
 21
8.653070E+002
 31
0.000000E+000
  0
LINE
  8
PV
 62
     7
 10
9.099240E+002
 20
8.849070E+002
 30
0.000000E+000
 11
8.787470E+002
 21
8.849070E+002
 31
0.000000E+000
  0
LINE
  8
PV
 62
     7
 10
8.873360E+002
 20
9.054070E+002
 30
0.000000E+000
 11
9.013360E+002
 21
9.054070E+002
 31
0.000000E+000
  0
LINE
  8
PV
 62
     7
 10
8.873360E+002
 20
9.054070E+002
 30
0.000000E+000
 11
8.853360E+002
 21
9.034070E+002
 31
0.000000E+000
  0
LINE
  8
PV
 62
     7
 10
8.853360E+002
 20
9.034070E+002
 30
0.000000E+000
 11
8.853360E+002
 21
8.849070E+002
 31
0.000000E+000
  0
LINE
  8
PV
 62
     7
 10
9.013360E+002
 20
9.054070E+002
 30
0.000000E+000
 11
9.033360E+002
 21
9.034070E+002
 31
0.000000E+000
  0
LINE
  8
PV
 62
     7
 10
9.033360E+002
 20
9.034070E+002
 30
0.000000E+000
 11
9.033360E+002
 21
8.849070E+002
 31
0.000000E+000
  0
LINE
  8
PV
 62
     7
 10
9.308360E+002
 20
8.883070E+002
 30
0.000000E+000
 11
9.308360E+002
 21
8.753070E+002
 31
0.000000E+000
  0
LINE
  8
PV
  6
CENTER
 62
     1
 10
9.133360E+002
 20
8.703070E+002
 30
0.000000E+000
 11
9.133360E+002
 21
8.603070E+002
 31
0.000000E+000
  0
LINE
  8
PV
 62
     7
 10
9.298360E+002
 20
8.753070E+002
 30
0.000000E+000
 11
9.298360E+002
 21
8.653070E+002
 31
0.000000E+000
  0
LINE
  8
PV
 62
     7
 10
9.463360E+002
 20
8.749070E+002
 30
0.000000E+000
 11
9.463360E+002
 21
8.653070E+002
 31
0.000000E+000
  0
LINE
  8
PV
 62
     7
 10
9.443360E+002
 20
8.893070E+002
 30
0.000000E+000
 11
9.433360E+002
 21
8.883070E+002
 31
0.000000E+000
  0
LINE
  8
PV
 62
     7
 10
8.823360E+002
 20
9.423070E+002
 30
0.000000E+000
 11
9.443360E+002
 21
9.423070E+002
 31
0.000000E+000
  0
LINE
  8
PV
 62
     7
 10
9.226360E+002
 20
1.063910E+003
 30
0.000000E+000
 11
9.406360E+002
 21
1.063910E+003
 31
0.000000E+000
  0
LINE
  8
PV
 62
     7
 10
9.548360E+002
 20
1.066910E+003
 30
0.000000E+000
 11
9.406360E+002
 21
1.063910E+003
 31
0.000000E+000
  0
LINE
  8
PV
 62
     7
 10
9.126360E+002
 20
1.098410E+003
 30
0.000000E+000
 11
9.406360E+002
 21
1.098410E+003
 31
0.000000E+000
  0
LINE
  8
PV
 62
     7
 10
9.126360E+002
 20
1.098410E+003
 30
0.000000E+000
 11
9.126360E+002
 21
1.073910E+003
 31
0.000000E+000
  0
LINE
  8
PV
 62
     7
 10
9.548360E+002
 20
1.088910E+003
 30
0.000000E+000
 11
9.406360E+002
 21
1.091910E+003
 31
0.000000E+000
  0
LINE
  8
PV
 62
     7
 10
9.406360E+002
 20
1.098410E+003
 30
0.000000E+000
 11
9.406360E+002
 21
1.091910E+003
 31
0.000000E+000
  0
LINE
  8
PV
 62
     7
 10
1.130490E+003
 20
1.111910E+003
 30
0.000000E+000
 11
1.150490E+003
 21
1.111910E+003
 31
0.000000E+000
  0
LINE
  8
PV
 62
     7
 10
1.122990E+003
 20
1.104910E+003
 30
0.000000E+000
 11
1.158560E+003
 21
1.104910E+003
 31
0.000000E+000
  0
LINE
  8
PV
  6
CENTER
 62
     1
 10
1.128490E+003
 20
1.125910E+003
 30
0.000000E+000
 11
1.152490E+003
 21
1.125910E+003
 31
0.000000E+000
  0
ARC
  8
PV
 62
     7
 10
1.140490E+003
 20
1.142410E+003
 30
0.000000E+000
 40
4.000000E+000
 50
0.000000E+000
 51
1.800000E+002
  0
LINE
  8
PV
  6
CENTER
 62
     1
 10
1.178520E+003
 20
1.084910E+003
 30
0.000000E+000
 11
1.107590E+003
 21
1.084910E+003
 31
0.000000E+000
  0
LINE
  8
PV
 62
     7
 10
1.119340E+003
 20
1.104910E+003
 30
0.000000E+000
 11
1.161640E+003
 21
1.104910E+003
 31
0.000000E+000
  0
LINE
  8
PV
 62
     7
 10
9.983360E+002
 20
1.177910E+003
 30
0.000000E+000
 11
9.983360E+002
 21
1.065910E+003
 31
0.000000E+000
  0
LINE
  8
PV
 62
     7
 10
1.021840E+003
 20
1.093910E+003
 30
0.000000E+000
 11
1.021840E+003
 21
1.061910E+003
 31
0.000000E+000
  0
ARC
  8
PV
 62
     7
 10
9.883360E+002
 20
1.077910E+003
 30
0.000000E+000
 40
8.000000E+000
 50
1.579760E+002
 51
2.959440E+002
  0
LINE
  8
PV
 62
     7
 10
9.848360E+002
 20
1.065910E+003
 30
0.000000E+000
 11
9.848360E+002
 21
1.070710E+003
 31
0.000000E+000
  0
LINE
  8
PV
 62
     7
 10
9.918360E+002
 20
1.065910E+003
 30
0.000000E+000
 11
9.918360E+002
 21
1.070710E+003
 31
0.000000E+000
  0
LINE
  8
PV
 62
     7
 10
1.039340E+003
 20
1.062410E+003
 30
0.000000E+000
 11
1.039340E+003
 21
1.082410E+003
 31
0.000000E+000
  0
LINE
  8
PV
 62
     7
 10
1.042340E+003
 20
1.062410E+003
 30
0.000000E+000
 11
1.042340E+003
 21
1.082410E+003
 31
0.000000E+000
  0
LINE
  8
PV
 62
     7
 10
1.022340E+003
 20
1.062410E+003
 30
0.000000E+000
 11
1.022340E+003
 21
1.082410E+003
 31
0.000000E+000
  0
LINE
  8
PV
 62
     7
 10
1.051340E+003
 20
1.039910E+003
 30
0.000000E+000
 11
1.051340E+003
 21
1.104910E+003
 31
0.000000E+000
  0
LINE
  8
PV
 62
     7
 10
1.083340E+003
 20
1.104910E+003
 30
0.000000E+000
 11
1.083340E+003
 21
1.039910E+003
 31
0.000000E+000
  0
LINE
  8
PV
 62
     7
 10
1.027340E+003
 20
1.062410E+003
 30
0.000000E+000
 11
1.027340E+003
 21
1.082410E+003
 31
0.000000E+000
  0
LINE
  8
PV
 62
     7
 10
1.046360E+003
 20
9.777200E+002
 30
0.000000E+000
 11
1.058340E+003
 21
9.777200E+002
 31
0.000000E+000
  0
LINE
  8
PV
 62
     7
 10
1.046360E+003
 20
9.721570E+002
 30
0.000000E+000
 11
1.054840E+003
 21
9.721570E+002
 31
0.000000E+000
  0
LINE
  8
PV
 62
     7
 10
1.040340E+003
 20
9.694080E+002
 30
0.000000E+000
 11
1.054840E+003
 21
9.694080E+002
 31
0.000000E+000
  0
ARC
  8
PV
 62
     7
 10
1.044520E+003
 20
1.036840E+003
 30
0.000000E+000
 40
8.743490E+001
 50
2.700000E+002
 51
2.741660E+002
  0
LINE
  8
PV
 62
     7
 10
1.099510E+003
 20
9.521070E+002
 30
0.000000E+000
 11
1.042290E+003
 21
9.521070E+002
 31
0.000000E+000
  0
LINE
  8
PV
 62
     7
 10
1.090070E+003
 20
9.521070E+002
 30
0.000000E+000
 11
1.046560E+003
 21
9.521070E+002
 31
0.000000E+000
  0
LINE
  8
PV
 62
     7
 10
1.046560E+003
 20
1.017680E+003
 30
0.000000E+000
 11
1.090070E+003
 21
1.017680E+003
 31
0.000000E+000
  0
LINE
  8
PV
 62
     7
 10
1.047360E+003
 20
8.502800E+002
 30
0.000000E+000
 11
1.060600E+003
 21
8.441120E+002
 31
0.000000E+000
  0
LINE
  8
PV
 62
     7
 10
1.045810E+003
 20
8.514500E+002
 30
0.000000E+000
 11
1.095980E+003
 21
8.514500E+002
 31
0.000000E+000
  0
LINE
  8
PV
 62
     7
 10
1.033220E+003
 20
1.017680E+003
 30
0.000000E+000
 11
1.105010E+003
 21
1.017680E+003
 31
0.000000E+000
  0
LINE
  8
PV
 62
     7
 10
1.033220E+003
 20
1.020290E+003
 30
0.000000E+000
 11
1.103500E+003
 21
1.020290E+003
 31
0.000000E+000
  0
LINE
  8
PV
 62
     7
 10
1.040340E+003
 20
1.004880E+003
 30
0.000000E+000
 11
1.050680E+003
 21
1.004880E+003
 31
0.000000E+000
  0
LINE
  8
PV
  6
CENTER
 62
     1
 10
1.027340E+003
 20
9.982070E+002
 30
0.000000E+000
 11
1.107340E+003
 21
9.982070E+002
 31
0.000000E+000
  0
LINE
  8
PV
 62
     7
 10
1.042340E+003
 20
1.064410E+003
 30
0.000000E+000
 11
1.051340E+003
 21
1.064410E+003
 31
0.000000E+000
  0
LINE
  8
PV
 62
     7
 10
1.044520E+003
 20
9.494020E+002
 30
0.000000E+000
 11
1.044520E+003
 21
8.548350E+002
 31
0.000000E+000
  0
LINE
  8
PV
 62
     7
 10
9.907260E+002
 20
9.494070E+002
 30
0.000000E+000
 11
9.858180E+002
 21
9.409070E+002
 31
0.000000E+000
  0
LINE
  8
PV
 62
     7
 10
9.858180E+002
 20
9.409070E+002
 30
0.000000E+000
 11
9.907260E+002
 21
9.324070E+002
 31
0.000000E+000
  0
LINE
  8
PV
 62
     7
 10
9.907260E+002
 20
9.324070E+002
 30
0.000000E+000
 11
1.000540E+003
 21
9.324070E+002
 31
0.000000E+000
  0
LINE
  8
PV
 62
     7
 10
1.000540E+003
 20
9.324070E+002
 30
0.000000E+000
 11
1.005450E+003
 21
9.409070E+002
 31
0.000000E+000
  0
LINE
  8
PV
 62
     7
 10
1.005450E+003
 20
9.409070E+002
 30
0.000000E+000
 11
1.000540E+003
 21
9.494070E+002
 31
0.000000E+000
  0
LINE
  8
PV
 62
     7
 10
1.000540E+003
 20
9.494070E+002
 30
0.000000E+000
 11
9.907260E+002
 21
9.494070E+002
 31
0.000000E+000
  0
LINE
  8
PV
  6
CENTER
 62
     1
 10
9.956330E+002
 20
9.539340E+002
 30
0.000000E+000
 11
9.956330E+002
 21
8.809150E+002
 31
0.000000E+000
  0
LINE
  8
PV
 62
     7
 10
9.706330E+002
 20
9.589070E+002
 30
0.000000E+000
 11
9.706330E+002
 21
9.239070E+002
 31
0.000000E+000
  0
LINE
  8
PV
 62
     7
 10
1.020630E+003
 20
9.589070E+002
 30
0.000000E+000
 11
1.020630E+003
 21
9.239070E+002
 31
0.000000E+000
  0
LINE
  8
PV
 62
     7
 10
9.603360E+002
 20
9.739070E+002
 30
0.000000E+000
 11
9.603360E+002
 21
9.049070E+002
 31
0.000000E+000
  0
ARC
  8
PV
 62
     7
 10
1.002870E+003
 20
8.929070E+002
 30
0.000000E+000
 40
7.613170E+000
 50
3.600000E+002
 51
2.219160E+001
  0
ARC
  8
PV
 62
     7
 10
1.002980E+003
 20
8.929520E+002
 30
0.000000E+000
 40
7.493830E+000
 50
2.219160E+001
 51
4.456140E+001
  0
ARC
  8
PV
 62
     7
 10
1.003050E+003
 20
8.930220E+002
 30
0.000000E+000
 40
7.394320E+000
 50
4.456140E+001
 51
6.718820E+001
  0
ARC
  8
PV
 62
     7
 10
1.003100E+003
 20
8.931310E+002
 30
0.000000E+000
 40
7.276440E+000
 50
6.718820E+001
 51
9.000000E+001
  0
ARC
  8
PV
 62
     7
 10
1.003100E+003
 20
8.931310E+002
 30
0.000000E+000
 40
7.276430E+000
 50
9.000000E+001
 51
1.128120E+002
  0
ARC
  8
PV
 62
     7
 10
1.003140E+003
 20
8.930220E+002
 30
0.000000E+000
 40
7.394320E+000
 50
1.128120E+002
 51
1.354390E+002
  0
ARC
  8
PV
 62
     7
 10
1.003210E+003
 20
8.929520E+002
 30
0.000000E+000
 40
7.493830E+000
 50
1.354390E+002
 51
1.578080E+002
  0
ARC
  8
PV
 62
     7
 10
1.003320E+003
 20
8.929070E+002
 30
0.000000E+000
 40
7.613170E+000
 50
1.578080E+002
 51
1.800000E+002
  0
ARC
  8
PV
 62
     7
 10
1.003320E+003
 20
8.929070E+002
 30
0.000000E+000
 40
7.613170E+000
 50
1.800000E+002
 51
2.021920E+002
  0
ARC
  8
PV
 62
     7
 10
1.003210E+003
 20
8.928620E+002
 30
0.000000E+000
 40
7.493830E+000
 50
2.021920E+002
 51
2.245610E+002
  0
ARC
  8
PV
 62
     7
 10
1.003140E+003
 20
8.927920E+002
 30
0.000000E+000
 40
7.394320E+000
 50
2.245610E+002
 51
2.471880E+002
  0
ARC
  8
PV
 62
     7
 10
1.003100E+003
 20
8.926840E+002
 30
0.000000E+000
 40
7.276430E+000
 50
2.471880E+002
 51
2.700000E+002
  0
ARC
  8
PV
 62
     7
 10
1.003100E+003
 20
8.926840E+002
 30
0.000000E+000
 40
7.276440E+000
 50
2.700000E+002
 51
2.928120E+002
  0
ARC
  8
PV
 62
     7
 10
1.003050E+003
 20
8.927920E+002
 30
0.000000E+000
 40
7.394320E+000
 50
2.928120E+002
 51
3.154390E+002
  0
ARC
  8
PV
 62
     7
 10
1.002980E+003
 20
8.928620E+002
 30
0.000000E+000
 40
7.493830E+000
 50
3.154390E+002
 51
3.378080E+002
  0
ARC
  8
PV
 62
     7
 10
1.002870E+003
 20
8.929070E+002
 30
0.000000E+000
 40
7.613170E+000
 50
3.378080E+002
 51
4.506160E-005
  0
LINE
  8
PV
 62
     7
 10
9.706330E+002
 20
9.239070E+002
 30
0.000000E+000
 11
1.020630E+003
 21
9.239070E+002
 31
0.000000E+000
  0
LINE
  8
PV
 62
     7
 10
1.017340E+003
 20
9.049070E+002
 30
0.000000E+000
 11
1.003020E+003
 21
9.049070E+002
 31
0.000000E+000
  0
LINE
  8
PV
 62
     7
 10
9.593360E+002
 20
9.049070E+002
 30
0.000000E+000
 11
9.593360E+002
 21
8.749070E+002
 31
0.000000E+000
  0
LINE
  8
PV
  6
CENTER
 62
     1
 10
9.783360E+002
 20
8.204070E+002
 30
0.000000E+000
 11
9.983360E+002
 21
8.204070E+002
 31
0.000000E+000
  0
LINE
  8
PV
 62
     7
 10
9.833360E+002
 20
8.254070E+002
 30
0.000000E+000
 11
9.933360E+002
 21
8.254070E+002
 31
0.000000E+000
  0
LINE
  8
PV
 62
     7
 10
9.882470E+002
 20
9.049070E+002
 30
0.000000E+000
 11
9.593360E+002
 21
9.049070E+002
 31
0.000000E+000
  0
LINE
  8
PV
 62
     7
 10
1.003020E+003
 20
9.099070E+002
 30
0.000000E+000
 11
1.003020E+003
 21
9.004070E+002
 31
0.000000E+000
  0
LINE
  8
PV
 62
     7
 10
9.882470E+002
 20
9.099070E+002
 30
0.000000E+000
 11
9.882470E+002
 21
9.004070E+002
 31
0.000000E+000
  0
LINE
  8
PV
 62
     7
 10
1.003100E+003
 20
8.854070E+002
 30
0.000000E+000
 11
9.883360E+002
 21
8.854070E+002
 31
0.000000E+000
  0
LINE
  8
PV
 62
     7
 10
1.003100E+003
 20
9.004070E+002
 30
0.000000E+000
 11
9.883360E+002
 21
9.004070E+002
 31
0.000000E+000
  0
ARC
  8
PV
 62
     7
 10
9.883360E+002
 20
8.931310E+002
 30
0.000000E+000
 40
7.276430E+000
 50
9.000000E+001
 51
1.128120E+002
  0
ARC
  8
PV
 62
     7
 10
9.883810E+002
 20
8.930220E+002
 30
0.000000E+000
 40
7.394320E+000
 50
1.128120E+002
 51
1.354390E+002
  0
ARC
  8
PV
 62
     7
 10
9.884520E+002
 20
8.929520E+002
 30
0.000000E+000
 40
7.493830E+000
 50
1.354390E+002
 51
1.578080E+002
  0
ARC
  8
PV
 62
     7
 10
9.885630E+002
 20
8.929070E+002
 30
0.000000E+000
 40
7.613170E+000
 50
1.578080E+002
 51
1.800000E+002
  0
ARC
  8
PV
 62
     7
 10
9.885630E+002
 20
8.929070E+002
 30
0.000000E+000
 40
7.613170E+000
 50
1.800000E+002
 51
2.021920E+002
  0
ARC
  8
PV
 62
     7
 10
9.884520E+002
 20
8.928620E+002
 30
0.000000E+000
 40
7.493830E+000
 50
2.021920E+002
 51
2.245610E+002
  0
ARC
  8
PV
 62
     7
 10
9.883810E+002
 20
8.927920E+002
 30
0.000000E+000
 40
7.394320E+000
 50
2.245610E+002
 51
2.471880E+002
  0
ARC
  8
PV
 62
     7
 10
9.883360E+002
 20
8.926840E+002
 30
0.000000E+000
 40
7.276430E+000
 50
2.471880E+002
 51
2.700000E+002
  0
LINE
  8
PV
 62
     7
 10
1.003020E+003
 20
9.099070E+002
 30
0.000000E+000
 11
9.882470E+002
 21
9.099070E+002
 31
0.000000E+000
  0
LINE
  8
PV
 62
     7
 10
9.906330E+002
 20
9.239070E+002
 30
0.000000E+000
 11
9.906330E+002
 21
9.099070E+002
 31
0.000000E+000
  0
LINE
  8
PV
 62
     7
 10
1.000630E+003
 20
9.239070E+002
 30
0.000000E+000
 11
1.000630E+003
 21
9.099070E+002
 31
0.000000E+000
  0
LINE
  8
PV
 62
     7
 10
1.017340E+003
 20
9.049070E+002
 30
0.000000E+000
 11
1.017340E+003
 21
8.749070E+002
 31
0.000000E+000
  0
LINE
  8
PV
 62
     7
 10
1.030340E+003
 20
8.749070E+002
 30
0.000000E+000
 11
1.030340E+003
 21
8.653070E+002
 31
0.000000E+000
  0
LINE
  8
PV
 62
     7
 10
1.046410E+003
 20
8.508500E+002
 30
0.000000E+000
 11
1.047360E+003
 21
8.502800E+002
 31
0.000000E+000
  0
LINE
  8
PV
 62
     7
 10
1.045610E+003
 20
8.516560E+002
 30
0.000000E+000
 11
1.046410E+003
 21
8.508500E+002
 31
0.000000E+000
  0
LINE
  8
PV
 62
     7
 10
1.044990E+003
 20
8.526050E+002
 30
0.000000E+000
 11
1.045610E+003
 21
8.516560E+002
 31
0.000000E+000
  0
LINE
  8
PV
 62
     7
 10
1.044610E+003
 20
8.536970E+002
 30
0.000000E+000
 11
1.044990E+003
 21
8.526050E+002
 31
0.000000E+000
  0
LINE
  8
PV
 62
     7
 10
1.044520E+003
 20
8.548350E+002
 30
0.000000E+000
 11
1.044610E+003
 21
8.536970E+002
 31
0.000000E+000
  0
LINE
  8
PV
 62
     7
 10
1.016340E+003
 20
9.239070E+002
 30
0.000000E+000
 11
1.016340E+003
 21
9.049070E+002
 31
0.000000E+000
  0
LINE
  8
PV
 62
     7
 10
9.723360E+002
 20
1.044410E+003
 30
0.000000E+000
 11
1.004340E+003
 21
1.044410E+003
 31
0.000000E+000
  0
LINE
  8
PV
  6
CENTER
 62
     1
 10
9.826060E+002
 20
9.409070E+002
 30
0.000000E+000
 11
1.008660E+003
 21
9.409070E+002
 31
0.000000E+000
  0
LINE
  8
PV
 62
     7
 10
1.020630E+003
 20
9.589070E+002
 30
0.000000E+000
 11
9.706330E+002
 21
9.589070E+002
 31
0.000000E+000
  0
LINE
  8
PV
 62
     7
 10
9.603360E+002
 20
9.739070E+002
 30
0.000000E+000
 11
1.016340E+003
 21
9.739070E+002
 31
0.000000E+000
  0
LINE
  8
PV
 62
     7
 10
9.723360E+002
 20
1.061910E+003
 30
0.000000E+000
 11
9.723360E+002
 21
1.044410E+003
 31
0.000000E+000
  0
LINE
  8
PV
 62
     7
 10
9.983360E+002
 20
1.065910E+003
 30
0.000000E+000
 11
9.848360E+002
 21
1.065910E+003
 31
0.000000E+000
  0
LINE
  8
PV
 62
     7
 10
1.031660E+003
 20
1.018730E+003
 30
0.000000E+000
 11
1.031660E+003
 21
9.537200E+002
 31
0.000000E+000
  0
LINE
  8
PV
 62
     7
 10
1.036640E+003
 20
9.949070E+002
 30
0.000000E+000
 11
1.037020E+003
 21
1.016120E+003
 31
0.000000E+000
  0
LINE
  8
PV
 62
     7
 10
1.040340E+003
 20
1.004880E+003
 30
0.000000E+000
 11
1.040340E+003
 21
9.694080E+002
 31
0.000000E+000
  0
LINE
  8
PV
 62
     7
 10
1.016340E+003
 20
9.739070E+002
 30
0.000000E+000
 11
1.016340E+003
 21
9.589070E+002
 31
0.000000E+000
  0
LINE
  8
PV
 62
     7
 10
1.037350E+003
 20
9.535780E+002
 30
0.000000E+000
 11
1.036640E+003
 21
9.949070E+002
 31
0.000000E+000
  0
ARC
  8
PV
 62
     7
 10
1.038870E+003
 20
9.536250E+002
 30
0.000000E+000
 40
1.470940E+000
 50
1.810000E+002
 51
2.700000E+002
  0
LINE
  8
PV
 62
     7
 10
1.042290E+003
 20
9.521070E+002
 30
0.000000E+000
 11
1.033220E+003
 21
9.521070E+002
 31
0.000000E+000
  0
LINE
  8
PV
 62
     7
 10
1.033220E+003
 20
9.521070E+002
 30
0.000000E+000
 11
1.041150E+003
 21
9.521070E+002
 31
0.000000E+000
  0
ARC
  8
PV
 62
     7
 10
1.033220E+003
 20
9.537200E+002
 30
0.000000E+000
 40
1.565840E+000
 50
1.800000E+002
 51
2.700000E+002
  0
ARC
  8
PV
 62
     7
 10
1.046560E+003
 20
9.537200E+002
 30
0.000000E+000
 40
1.565840E+000
 50
1.800000E+002
 51
2.700000E+002
  0
ARC
  8
PV
 62
     7
 10
1.041150E+003
 20
9.505410E+002
 30
0.000000E+000
 40
1.565840E+000
 50
4.500000E+001
 51
9.000000E+001
  0
LINE
  8
PV
 62
     7
 10
1.042290E+003
 20
9.516330E+002
 30
0.000000E+000
 11
1.044520E+003
 21
9.494020E+002
 31
0.000000E+000
  0
LINE
  8
PV
 62
     7
 10
1.044990E+003
 20
9.694080E+002
 30
0.000000E+000
 11
1.044990E+003
 21
9.537200E+002
 31
0.000000E+000
  0
ARC
  8
PV
 62
     7
 10
1.046360E+003
 20
9.749060E+002
 30
0.000000E+000
 40
2.748760E+000
 50
9.000000E+001
 51
2.700000E+002
  0
LINE
  8
PV
 62
     7
 10
1.042340E+003
 20
1.062410E+003
 30
0.000000E+000
 11
1.022340E+003
 21
1.062410E+003
 31
0.000000E+000
  0
LINE
  8
PV
 62
     7
 10
1.021840E+003
 20
1.061910E+003
 30
0.000000E+000
 11
1.004340E+003
 21
1.061910E+003
 31
0.000000E+000
  0
LINE
  8
PV
 62
     7
 10
1.004340E+003
 20
1.061910E+003
 30
0.000000E+000
 11
1.004340E+003
 21
1.044410E+003
 31
0.000000E+000
  0
ARC
  8
PV
 62
     7
 10
1.038590E+003
 20
1.016120E+003
 30
0.000000E+000
 40
1.565840E+000
 50
9.000000E+001
 51
1.790000E+002
  0
ARC
  8
PV
 62
     7
 10
1.033220E+003
 20
1.018730E+003
 30
0.000000E+000
 40
1.565840E+000
 50
9.000000E+001
 51
1.800000E+002
  0
ARC
  8
PV
 62
     7
 10
1.033220E+003
 20
1.016120E+003
 30
0.000000E+000
 40
1.565840E+000
 50
9.000000E+001
 51
1.800000E+002
  0
ARC
  8
PV
 62
     7
 10
1.033220E+003
 20
1.018730E+003
 30
0.000000E+000
 40
1.565840E+000
 50
9.000000E+001
 51
1.800000E+002
  0
ARC
  8
PV
 62
     7
 10
1.033220E+003
 20
1.016120E+003
 30
0.000000E+000
 40
1.565840E+000
 50
9.000000E+001
 51
1.800000E+002
  0
LINE
  8
PV
 62
     7
 10
1.044990E+003
 20
1.016120E+003
 30
0.000000E+000
 11
1.044990E+003
 21
1.004880E+003
 31
0.000000E+000
  0
ARC
  8
PV
 62
     7
 10
1.046560E+003
 20
1.016120E+003
 30
0.000000E+000
 40
1.565840E+000
 50
9.000000E+001
 51
1.800000E+002
  0
LINE
  8
PV
 62
     7
 10
1.114840E+003
 20
8.944070E+002
 30
0.000000E+000
 11
1.114840E+003
 21
9.694080E+002
 31
0.000000E+000
  0
LINE
  8
PV
 62
     7
 10
1.081900E+003
 20
9.521070E+002
 30
0.000000E+000
 11
1.078900E+003
 21
8.514500E+002
 31
0.000000E+000
  0
LINE
  8
PV
 62
     7
 10
1.059900E+003
 20
9.521070E+002
 30
0.000000E+000
 11
1.062900E+003
 21
8.514500E+002
 31
0.000000E+000
  0
LINE
  8
PV
 62
     7
 10
1.070900E+003
 20
8.514500E+002
 30
0.000000E+000
 11
1.070900E+003
 21
9.521070E+002
 31
0.000000E+000
  0
LINE
  8
PV
 62
     7
 10
1.104450E+003
 20
9.485010E+002
 30
0.000000E+000
 11
1.104450E+003
 21
8.555000E+002
 31
0.000000E+000
  0
LINE
  8
PV
 62
     7
 10
1.097280E+003
 20
9.494020E+002
 30
0.000000E+000
 11
1.097280E+003
 21
8.548350E+002
 31
0.000000E+000
  0
LINE
  8
PV
 62
     7
 10
1.119340E+003
 20
8.944070E+002
 30
0.000000E+000
 11
1.119340E+003
 21
9.749070E+002
 31
0.000000E+000
  0
LINE
  8
PV
 62
     7
 10
1.096190E+003
 20
8.516560E+002
 30
0.000000E+000
 11
1.095380E+003
 21
8.508500E+002
 31
0.000000E+000
  0
LINE
  8
PV
 62
     7
 10
1.064640E+003
 20
8.336250E+002
 30
0.000000E+000
 11
1.077160E+003
 21
8.336250E+002
 31
0.000000E+000
  0
LINE
  8
PV
 62
     7
 10
1.060600E+003
 20
8.441120E+002
 30
0.000000E+000
 11
1.081200E+003
 21
8.441120E+002
 31
0.000000E+000
  0
LINE
  8
PV
 62
     7
 10
1.063020E+003
 20
8.390350E+002
 30
0.000000E+000
 11
1.078780E+003
 21
8.390350E+002
 31
0.000000E+000
  0
LINE
  8
PV
 62
     7
 10
1.060600E+003
 20
8.400790E+002
 30
0.000000E+000
 11
1.081200E+003
 21
8.400790E+002
 31
0.000000E+000
  0
LINE
  8
PV
 62
     7
 10
1.081200E+003
 20
8.432580E+002
 30
0.000000E+000
 11
1.060600E+003
 21
8.432580E+002
 31
0.000000E+000
  0
LINE
  8
PV
 62
     7
 10
1.060600E+003
 20
8.432580E+002
 30
0.000000E+000
 11
1.081150E+003
 21
8.432580E+002
 31
0.000000E+000
  0
LINE
  8
PV
 62
     7
 10
1.060600E+003
 20
8.400790E+002
 30
0.000000E+000
 11
1.060600E+003
 21
8.441120E+002
 31
0.000000E+000
  0
LINE
  8
PV
 62
     7
 10
1.064640E+003
 20
8.336250E+002
 30
0.000000E+000
 11
1.064640E+003
 21
8.390350E+002
 31
0.000000E+000
  0
LINE
  8
PV
 62
     7
 10
1.063020E+003
 20
8.400790E+002
 30
0.000000E+000
 11
1.063020E+003
 21
8.390350E+002
 31
0.000000E+000
  0
LINE
  8
PV
 62
     7
 10
1.094390E+003
 20
8.502800E+002
 30
0.000000E+000
 11
1.081200E+003
 21
8.441120E+002
 31
0.000000E+000
  0
LINE
  8
PV
 62
     7
 10
1.078780E+003
 20
8.400790E+002
 30
0.000000E+000
 11
1.078780E+003
 21
8.390350E+002
 31
0.000000E+000
  0
LINE
  8
PV
 62
     7
 10
1.081200E+003
 20
8.400790E+002
 30
0.000000E+000
 11
1.081200E+003
 21
8.441120E+002
 31
0.000000E+000
  0
LINE
  8
PV
 62
     7
 10
1.077160E+003
 20
8.336250E+002
 30
0.000000E+000
 11
1.077160E+003
 21
8.390350E+002
 31
0.000000E+000
  0
LINE
  8
PV
 62
     7
 10
1.095380E+003
 20
8.508500E+002
 30
0.000000E+000
 11
1.094390E+003
 21
8.502800E+002
 31
0.000000E+000
  0
LINE
  8
PV
 62
     7
 10
1.113340E+003
 20
8.303070E+002
 30
0.000000E+000
 11
1.113340E+003
 21
8.653070E+002
 31
0.000000E+000
  0
LINE
  8
PV
 62
     7
 10
1.113340E+003
 20
8.653070E+002
 30
0.000000E+000
 11
1.104450E+003
 21
8.653070E+002
 31
0.000000E+000
  0
ARC
  8
PV
 62
     7
 10
1.102970E+003
 20
8.555000E+002
 30
0.000000E+000
 40
1.470940E+000
 50
2.700000E+002
 51
0.000000E+000
  0
LINE
  8
PV
 62
     7
 10
1.096760E+003
 20
8.526050E+002
 30
0.000000E+000
 11
1.096190E+003
 21
8.516560E+002
 31
0.000000E+000
  0
LINE
  8
PV
 62
     7
 10
1.097140E+003
 20
8.536970E+002
 30
0.000000E+000
 11
1.096760E+003
 21
8.526050E+002
 31
0.000000E+000
  0
LINE
  8
PV
 62
     7
 10
1.097280E+003
 20
8.548350E+002
 30
0.000000E+000
 11
1.097140E+003
 21
8.536970E+002
 31
0.000000E+000
  0
LINE
  8
PV
 62
     7
 10
1.097190E+003
 20
8.540290E+002
 30
0.000000E+000
 11
1.102970E+003
 21
8.540290E+002
 31
0.000000E+000
  0
ARC
  8
PV
 62
     7
 10
1.109840E+003
 20
8.944070E+002
 30
0.000000E+000
 40
9.500000E+000
 50
2.700000E+002
 51
0.000000E+000
  0
LINE
  8
PV
 62
     7
 10
1.109840E+003
 20
8.894070E+002
 30
0.000000E+000
 11
1.104450E+003
 21
8.894070E+002
 31
0.000000E+000
  0
LINE
  8
PV
 62
     7
 10
1.109840E+003
 20
8.849070E+002
 30
0.000000E+000
 11
1.104450E+003
 21
8.849070E+002
 31
0.000000E+000
  0
ARC
  8
PV
 62
     7
 10
1.109840E+003
 20
8.944070E+002
 30
0.000000E+000
 40
5.000000E+000
 50
2.700000E+002
 51
0.000000E+000
  0
LINE
  8
PV
 62
     7
 10
1.076340E+003
 20
9.777200E+002
 30
0.000000E+000
 11
1.107290E+003
 21
9.777200E+002
 31
0.000000E+000
  0
LINE
  8
PV
 62
     7
 10
1.079840E+003
 20
9.721570E+002
 30
0.000000E+000
 11
1.107290E+003
 21
9.721570E+002
 31
0.000000E+000
  0
LINE
  8
PV
 62
     7
 10
1.079840E+003
 20
9.694080E+002
 30
0.000000E+000
 11
1.119340E+003
 21
9.694080E+002
 31
0.000000E+000
  0
LINE
  8
PV
 62
     7
 10
1.086940E+003
 20
1.004880E+003
 30
0.000000E+000
 11
1.119340E+003
 21
1.004880E+003
 31
0.000000E+000
  0
ARC
  8
PV
 62
     7
 10
1.097280E+003
 20
1.036840E+003
 30
0.000000E+000
 40
8.743490E+001
 50
2.658340E+002
 51
2.700000E+002
  0
ARC
  8
PV
 62
     7
 10
1.068340E+003
 20
9.949070E+002
 30
0.000000E+000
 40
1.124560E+001
 50
3.153440E+002
 51
2.072170E+002
  0
ARC
  8
PV
 62
     7
 10
1.050680E+003
 20
1.002390E+003
 30
0.000000E+000
 40
2.486970E+000
 50
0.000000E+000
 51
9.000000E+001
  0
ARC
  8
PV
 62
     7
 10
1.086940E+003
 20
1.002390E+003
 30
0.000000E+000
 40
2.486970E+000
 50
9.000000E+001
 51
1.800000E+002
  0
ARC
  8
PV
 62
     7
 10
1.067340E+003
 20
9.982070E+002
 30
0.000000E+000
 40
9.000000E+000
 50
0.000000E+000
 51
1.800000E+002
  0
ARC
  8
PV
 62
     7
 10
1.070900E+003
 20
9.888680E+002
 30
0.000000E+000
 40
3.979740E+001
 50
2.700000E+002
 51
2.765240E+002
  0
LINE
  8
PV
 62
     7
 10
1.054840E+003
 20
9.622070E+002
 30
0.000000E+000
 11
1.079840E+003
 21
9.622070E+002
 31
0.000000E+000
  0
LINE
  8
PV
 62
     7
 10
1.079840E+003
 20
9.772070E+002
 30
0.000000E+000
 11
1.054840E+003
 21
9.772070E+002
 31
0.000000E+000
  0
LINE
  8
PV
 62
     7
 10
1.054840E+003
 20
9.622070E+002
 30
0.000000E+000
 11
1.054840E+003
 21
9.772070E+002
 31
0.000000E+000
  0
ARC
  8
PV
 62
     7
 10
1.065650E+003
 20
9.591270E+002
 30
0.000000E+000
 40
9.509950E+000
 50
2.363170E+002
 51
2.545670E+002
  0
ARC
  8
PV
 62
     7
 10
1.052190E+003
 20
9.684310E+002
 30
0.000000E+000
 40
1.851630E+001
 50
2.799720E+002
 51
2.930010E+002
  0
ARC
  8
PV
 62
     7
 10
1.060970E+003
 20
9.521070E+002
 30
0.000000E+000
 40
1.073990E+000
 50
1.800000E+002
 51
2.363170E+002
  0
ARC
  8
PV
 62
     7
 10
1.059120E+003
 20
9.521070E+002
 30
0.000000E+000
 40
7.823410E-001
 50
2.930010E+002
 51
7.100000E-005
  0
ARC
  8
PV
 62
     7
 10
1.047600E+003
 20
9.945270E+002
 30
0.000000E+000
 40
4.501260E+001
 50
2.741660E+002
 51
2.799720E+002
  0
ARC
  8
PV
 62
     7
 10
1.070900E+003
 20
9.888680E+002
 30
0.000000E+000
 40
3.979740E+001
 50
2.634760E+002
 51
2.700000E+002
  0
ARC
  8
PV
 62
     7
 10
1.068800E+003
 20
9.705450E+002
 30
0.000000E+000
 40
2.135540E+001
 50
2.545670E+002
 51
2.634760E+002
  0
LINE
  8
PV
 62
     7
 10
1.055720E+003
 20
9.794210E+002
 30
0.000000E+000
 11
1.058340E+003
 21
9.794210E+002
 31
0.000000E+000
  0
ARC
  8
PV
 62
     7
 10
1.055720E+003
 20
9.819080E+002
 30
0.000000E+000
 40
2.486970E+000
 50
1.800000E+002
 51
2.700000E+002
  0
LINE
  8
PV
 62
     7
 10
1.053170E+003
 20
1.002390E+003
 30
0.000000E+000
 11
1.053170E+003
 21
9.819080E+002
 31
0.000000E+000
  0
LINE
  8
PV
 62
     7
 10
1.058340E+003
 20
9.772070E+002
 30
0.000000E+000
 11
1.058340E+003
 21
9.982070E+002
 31
0.000000E+000
  0
LINE
  8
PV
 62
     7
 10
1.079840E+003
 20
9.622070E+002
 30
0.000000E+000
 11
1.079840E+003
 21
9.772070E+002
 31
0.000000E+000
  0
ARC
  8
PV
 62
     7
 10
1.089610E+003
 20
9.684310E+002
 30
0.000000E+000
 40
1.851630E+001
 50
2.469990E+002
 51
2.600280E+002
  0
ARC
  8
PV
 62
     7
 10
1.076150E+003
 20
9.591270E+002
 30
0.000000E+000
 40
9.509950E+000
 50
2.854330E+002
 51
3.036830E+002
  0
ARC
  8
PV
 62
     7
 10
1.072990E+003
 20
9.705450E+002
 30
0.000000E+000
 40
2.135540E+001
 50
2.765240E+002
 51
2.854330E+002
  0
ARC
  8
PV
 62
     7
 10
1.082680E+003
 20
9.521070E+002
 30
0.000000E+000
 40
7.823420E-001
 50
1.800000E+002
 51
2.469990E+002
  0
ARC
  8
PV
 62
     7
 10
1.080820E+003
 20
9.521070E+002
 30
0.000000E+000
 40
1.073990E+000
 50
3.036830E+002
 51
3.100000E-005
  0
ARC
  8
PV
 62
     7
 10
1.090070E+003
 20
9.537200E+002
 30
0.000000E+000
 40
1.565840E+000
 50
2.700000E+002
 51
0.000000E+000
  0
LINE
  8
PV
 62
     7
 10
1.091680E+003
 20
9.694080E+002
 30
0.000000E+000
 11
1.091680E+003
 21
9.537200E+002
 31
0.000000E+000
  0
ARC
  8
PV
 62
     7
 10
1.094200E+003
 20
9.945270E+002
 30
0.000000E+000
 40
4.501260E+001
 50
2.600280E+002
 51
2.658340E+002
  0
ARC
  8
PV
 62
     7
 10
1.081900E+003
 20
9.819080E+002
 30
0.000000E+000
 40
2.486970E+000
 50
2.700000E+002
 51
0.000000E+000
  0
LINE
  8
PV
 62
     7
 10
1.076340E+003
 20
9.794210E+002
 30
0.000000E+000
 11
1.081900E+003
 21
9.794210E+002
 31
0.000000E+000
  0
LINE
  8
PV
 62
     7
 10
1.076340E+003
 20
9.772070E+002
 30
0.000000E+000
 11
1.076340E+003
 21
9.982070E+002
 31
0.000000E+000
  0
LINE
  8
PV
 62
     7
 10
1.084450E+003
 20
1.002390E+003
 30
0.000000E+000
 11
1.084450E+003
 21
9.819080E+002
 31
0.000000E+000
  0
LINE
  8
PV
 62
     7
 10
1.079340E+003
 20
1.012650E+003
 30
0.000000E+000
 11
1.057340E+003
 21
1.012650E+003
 31
0.000000E+000
  0
LINE
  8
PV
 62
     7
 10
1.083340E+003
 20
1.039910E+003
 30
0.000000E+000
 11
1.051340E+003
 21
1.039910E+003
 31
0.000000E+000
  0
LINE
  8
PV
 62
     7
 10
1.050590E+003
 20
1.005910E+003
 30
0.000000E+000
 11
1.050590E+003
 21
1.004880E+003
 31
0.000000E+000
  0
LINE
  8
PV
 62
     7
 10
1.057340E+003
 20
1.012650E+003
 30
0.000000E+000
 11
1.050590E+003
 21
1.005910E+003
 31
0.000000E+000
  0
LINE
  8
PV
 62
     7
 10
1.086080E+003
 20
1.005910E+003
 30
0.000000E+000
 11
1.079340E+003
 21
1.012650E+003
 31
0.000000E+000
  0
LINE
  8
PV
 62
     7
 10
1.091680E+003
 20
1.016120E+003
 30
0.000000E+000
 11
1.091680E+003
 21
1.004880E+003
 31
0.000000E+000
  0
ARC
  8
PV
 62
     7
 10
1.090070E+003
 20
1.016120E+003
 30
0.000000E+000
 40
1.565840E+000
 50
0.000000E+000
 51
9.000000E+001
  0
LINE
  8
PV
 62
     7
 10
1.086080E+003
 20
1.004730E+003
 30
0.000000E+000
 11
1.086080E+003
 21
1.005910E+003
 31
0.000000E+000
  0
LINE
  8
PV
 62
     7
 10
1.119340E+003
 20
1.030400E+003
 30
0.000000E+000
 11
1.119340E+003
 21
9.694080E+002
 31
0.000000E+000
  0
LINE
  8
PV
  6
CENTER
 62
     1
 10
1.109840E+003
 20
9.509070E+002
 30
0.000000E+000
 11
1.124340E+003
 21
9.509070E+002
 31
0.000000E+000
  0
LINE
  8
PV
 62
     7
 10
1.103210E+003
 20
9.521070E+002
 30
0.000000E+000
 11
1.099510E+003
 21
9.521070E+002
 31
0.000000E+000
  0
ARC
  8
PV
 62
     7
 10
1.100650E+003
 20
9.505410E+002
 30
0.000000E+000
 40
1.565840E+000
 50
9.000000E+001
 51
1.350160E+002
  0
LINE
  8
PV
 62
     7
 10
1.103210E+003
 20
9.521070E+002
 30
0.000000E+000
 11
1.100650E+003
 21
9.521070E+002
 31
0.000000E+000
  0
ARC
  8
PV
 62
     7
 10
1.102970E+003
 20
9.485010E+002
 30
0.000000E+000
 40
1.470940E+000
 50
0.000000E+000
 51
9.000000E+001
  0
ARC
  8
PV
 62
     7
 10
1.103210E+003
 20
9.536250E+002
 30
0.000000E+000
 40
1.470940E+000
 50
2.700000E+002
 51
3.590000E+002
  0
LINE
  8
PV
 62
     7
 10
1.099510E+003
 20
9.516330E+002
 30
0.000000E+000
 11
1.097280E+003
 21
9.494020E+002
 31
0.000000E+000
  0
LINE
  8
PV
 62
     7
 10
1.097850E+003
 20
9.500190E+002
 30
0.000000E+000
 11
1.102970E+003
 21
9.500190E+002
 31
0.000000E+000
  0
LINE
  8
PV
 62
     7
 10
1.104730E+003
 20
9.535780E+002
 30
0.000000E+000
 11
1.105000E+003
 21
9.694080E+002
 31
0.000000E+000
  0
ARC
  8
PV
 62
     7
 10
1.107290E+003
 20
9.749060E+002
 30
0.000000E+000
 40
2.748760E+000
 50
2.700000E+002
 51
9.000000E+001
  0
LINE
  8
PV
 62
     7
 10
1.117700E+003
 20
1.030400E+003
 30
0.000000E+000
 11
1.119340E+003
 21
1.030400E+003
 31
0.000000E+000
  0
LINE
  8
PV
 62
     7
 10
1.105260E+003
 20
1.004880E+003
 30
0.000000E+000
 11
1.105010E+003
 21
1.018820E+003
 31
0.000000E+000
  0
ARC
  8
PV
 62
     7
 10
1.103500E+003
 20
1.018820E+003
 30
0.000000E+000
 40
1.470940E+000
 50
1.000000E+000
 51
9.000000E+001
  0
LINE
  8
PV
 62
     7
 10
1.117700E+003
 20
1.030400E+003
 30
0.000000E+000
 11
1.117700E+003
 21
1.004880E+003
 31
0.000000E+000
  0
LINE
  8
PV
 62
     7
 10
1.042340E+003
 20
1.080410E+003
 30
0.000000E+000
 11
1.051340E+003
 21
1.080410E+003
 31
0.000000E+000
  0
LINE
  8
PV
  6
CENTER
 62
     1
 10
1.017340E+003
 20
1.072410E+003
 30
0.000000E+000
 11
1.087340E+003
 21
1.072410E+003
 31
0.000000E+000
  0
LINE
  8
PV
 62
     7
 10
9.983360E+002
 20
1.093910E+003
 30
0.000000E+000
 11
1.021840E+003
 21
1.093910E+003
 31
0.000000E+000
  0
LINE
  8
PV
 62
     7
 10
9.783360E+002
 20
1.177910E+003
 30
0.000000E+000
 11
9.783360E+002
 21
1.080910E+003
 31
0.000000E+000
  0
LINE
  8
PV
 62
     7
 10
9.983360E+002
 20
1.127910E+003
 30
0.000000E+000
 11
9.783360E+002
 21
1.127910E+003
 31
0.000000E+000
  0
LINE
  8
PV
 62
     7
 10
9.783360E+002
 20
1.080910E+003
 30
0.000000E+000
 11
9.809190E+002
 21
1.080910E+003
 31
0.000000E+000
  0
LINE
  8
PV
 62
     7
 10
9.983360E+002
 20
1.087910E+003
 30
0.000000E+000
 11
9.783360E+002
 21
1.087910E+003
 31
0.000000E+000
  0
LINE
  8
PV
 62
     7
 10
9.983360E+002
 20
1.177910E+003
 30
0.000000E+000
 11
9.783360E+002
 21
1.177910E+003
 31
0.000000E+000
  0
LINE
  8
PV
 62
     7
 10
1.042340E+003
 20
1.082410E+003
 30
0.000000E+000
 11
1.022340E+003
 21
1.082410E+003
 31
0.000000E+000
  0
LINE
  8
PV
 62
     7
 10
1.051340E+003
 20
1.104910E+003
 30
0.000000E+000
 11
1.083340E+003
 21
1.104910E+003
 31
0.000000E+000
  0
LINE
  8
PV
 62
     7
 10
1.136490E+003
 20
1.142410E+003
 30
0.000000E+000
 11
1.136490E+003
 21
1.105410E+003
 31
0.000000E+000
  0
LINE
  8
PV
  6
CENTER
 62
     1
 10
1.140490E+003
 20
1.154410E+003
 30
0.000000E+000
 11
1.140490E+003
 21
1.096910E+003
 31
0.000000E+000
  0
LINE
  8
PV
 62
     7
 10
1.130490E+003
 20
1.111910E+003
 30
0.000000E+000
 11
1.130490E+003
 21
1.104910E+003
 31
0.000000E+000
  0
LINE
  8
PV
 62
     7
 10
1.144490E+003
 20
1.142410E+003
 30
0.000000E+000
 11
1.144490E+003
 21
1.105410E+003
 31
0.000000E+000
  0
LINE
  8
PV
 62
     7
 10
1.150490E+003
 20
1.111910E+003
 30
0.000000E+000
 11
1.150490E+003
 21
1.104910E+003
 31
0.000000E+000
  0
POLYLINE
  8
PV
 62
     7
 66
     1
 10
0.0
 20
0.0
 30
0.0
  0
VERTEX
  8
PV
 62
     7
 10
4.155300E+002
 20
1.522870E+003
 30
0.000000E+000
  0
VERTEX
  8
PV
 62
     7
 10
4.181930E+002
 20
1.525860E+003
 30
0.000000E+000
  0
VERTEX
  8
PV
 62
     7
 10
4.079070E+002
 20
1.532360E+003
 30
0.000000E+000
  0
VERTEX
  8
PV
 62
     7
 10
4.155300E+002
 20
1.522870E+003
 30
0.000000E+000
  0
SEQEND
  8
PV
 62
     7
  0
LINE
  8
PV
 62
     7
 10
4.168610E+002
 20
1.524370E+003
 30
0.000000E+000
 11
5.383360E+002
 21
1.415980E+003
 31
0.000000E+000
  0
LINE
  8
PV
 62
     7
 10
5.383360E+002
 20
1.415980E+003
 30
0.000000E+000
 11
5.972500E+002
 21
1.415980E+003
 31
0.000000E+000
  0
TEXT
  8
PV
 62
     7
 10
5.566624E+002
 20
1.420790E+003
 30
0.000000E+000
 40
2.000000E+001
  1
IN
 41
8.333350E-001
  7
FONT1
  0
POLYLINE
  8
PV
 62
     7
 66
     1
 10
0.0
 20
0.0
 30
0.0
  0
VERTEX
  8
PV
 62
     7
 10
2.563600E+002
 20
1.384570E+003
 30
0.000000E+000
  0
VERTEX
  8
PV
 62
     7
 10
2.591180E+002
 20
1.381680E+003
 30
0.000000E+000
  0
VERTEX
  8
PV
 62
     7
 10
2.664290E+002
 20
1.391400E+003
 30
0.000000E+000
  0
VERTEX
  8
PV
 62
     7
 10
2.563600E+002
 20
1.384570E+003
 30
0.000000E+000
  0
SEQEND
  8
PV
 62
     7
  0
LINE
  8
PV
 62
     7
 10
2.577390E+002
 20
1.383130E+003
 30
0.000000E+000
 11
1.595060E+002
 21
1.289580E+003
 31
0.000000E+000
  0
LINE
  8
PV
 62
     7
 10
1.595060E+002
 20
1.289580E+003
 30
0.000000E+000
 11
8.038260E+001
 21
1.289580E+003
 31
0.000000E+000
  0
TEXT
  8
PV
 62
     7
 10
9.311345E+001
 20
1.294920E+003
 30
0.000000E+000
 40
2.000000E+001
  1
OUT
  7
FONT1
  0
ENDSEC
  0
EOF
