  0
SECTION
  2
HEADER
  9
$ACADVER
  1
AC1006
  9
$INSBASE
 10
0.0
 20
0.0
 30
0.0
  9
$EXTMIN
 10
0.0
 20
0.0
  9
$EXTMAX
 10
1189.0
 20
841.0
  9
$LIMMIN
 10
0.0
 20
0.0
  9
$LIMMAX
 10
1189.0
 20
841.0
  9
$ORTHOMODE
 70
     0
  9
$REGENMODE
 70
     1
  9
$FILLMODE
 70
     1
  9
$QTEXTMODE
 70
     0
  9
$MIRRTEXT
 70
     1
  9
$DRAGMODE
 70
     2
  9
$LTSCALE
 40
1.0
  9
$OSMODE
 70
     0
  9
$ATTMODE
 70
     1
  9
$TEXTSIZE
 40
4.5
  9
$TRACEWID
 40
0.05
  9
$TEXTSTYLE
  7
STANDARD
  9
$CLAYER
  8
L-ZISSEN
  9
$CELTYPE
  6
BYLAYER
  9
$CECOLOR
 62
   256
  9
$DIMSCALE
 40
1.0
  9
$DIMASZ
 40
2.0
  9
$DIMEXO
 40
1.0
  9
$DIMDLI
 40
0.38
  9
$DIMRND
 40
0.0
  9
$DIMDLE
 40
1.0
  9
$DIMEXE
 40
1.0
  9
$DIMTP
 40
0.0
  9
$DIMTM
 40
0.0
  9
$DIMTXT
 40
4.5
  9
$DIMCEN
 40
0.09
  9
$DIMTSZ
 40
0.0
  9
$DIMTOL
 70
     0
  9
$DIMLIM
 70
     0
  9
$DIMTIH
 70
     0
  9
$DIMTOH
 70
     0
  9
$DIMSE1
 70
     0
  9
$DIMSE2
 70
     0
  9
$DIMTAD
 70
     1
  9
$DIMZIN
 70
     0
  9
$DIMBLK
  1

  9
$DIMASO
 70
     0
  9
$DIMSHO
 70
     0
  9
$DIMPOST
  1

  9
$DIMAPOST
  1

  9
$DIMALT
 70
     0
  9
$DIMALTD
 70
     2
  9
$DIMALTF
 40
25.4
  9
$DIMLFAC
 40
1.0
  9
$DIMTOFL
 70
     1
  9
$DIMTVP
 40
0.0
  9
$DIMTIX
 70
     1
  9
$DIMSOXD
 70
     0
  9
$DIMSAH
 70
     0
  9
$DIMBLK1
  1

  9
$DIMBLK2
  1

  9
$LUNITS
 70
     2
  9
$LUPREC
 70
     4
  9
$AXISMODE
 70
     0
  9
$AXISUNIT
 10
0.0
 20
0.0
  9
$SKETCHINC
 40
0.1
  9
$FILLETRAD
 40
14.0
  9
$AUNITS
 70
     0
  9
$AUPREC
 70
     0
  9
$MENU
  1
acad
  9
$ELEVATION
 40
0.0
  9
$THICKNESS
 40
0.0
  9
$LIMCHECK
 70
     0
  9
$BLIPMODE
 70
     1
  9
$CHAMFERA
 40
2.0
  9
$CHAMFERB
 40
2.0
  9
$SKPOLY
 70
     0
  9
$TDCREATE
 40
2449202.7518193289
  9
$TDUPDATE
 40
2449202.7518193289
  9
$TDINDWG
 40
0.0000000000
  9
$TDUSRTIMER
 40
0.0000000000
  9
$USRTIMER
 70
     1
  9
$ANGBASE
 50
0.0
  9
$ANGDIR
 70
     0
  9
$PDMODE
 70
     0
  9
$PDSIZE
 40
0.0
  9
$PLINEWID
 40
0.0
  9
$COORDS
 70
     2
  9
$SPLFRAME
 70
     0
  9
$SPLINETYPE
 70
     6
  9
$SPLINESEGS
 70
     8
  9
$ATTDIA
 70
     0
  9
$ATTREQ
 70
     1
  9
$HANDLING
 70
     0
  9
$HANDSEED
  5
0
  9
$SURFTAB1
 70
     6
  9
$SURFTAB2
 70
     6
  9
$SURFTYPE
 70
     6
  9
$SURFU
 70
     6
  9
$SURFV
 70
     6
  9
$FLATLAND
 70
     0
  9
$UCSNAME
  2

  9
$UCSORG
 10
0.0
 20
0.0
 30
0.0
  9
$UCSXDIR
 10
1.0
 20
0.0
 30
0.0
  9
$UCSYDIR
 10
0.0
 20
1.0
 30
0.0
  9
$USERI1
 70
     0
  9
$USERI2
 70
     0
  9
$USERI3
 70
     0
  9
$USERI4
 70
     0
  9
$USERI5
 70
     0
  9
$USERR1
 40
0.0
  9
$USERR2
 40
0.0
  9
$USERR3
 40
0.0
  9
$USERR4
 40
0.0
  9
$USERR5
 40
0.0
  9
$WORLDVIEW
 70
     1
  0
ENDSEC
  0
SECTION
  2
TABLES
  0
TABLE
  2
VPORT
 70
     2
  0
VPORT
  2
*ACTIVE
 70
     0
 10
0.0
 20
0.0
 11
1.0
 21
1.0
 12
674.578245
 22
435.577173
 13
0.0
 23
0.0
 14
5.0
 24
5.0
 15
0.0
 25
0.0
 16
0.0
 26
0.0
 36
1.0
 17
0.0
 27
0.0
 37
0.0
 40
871.154346
 41
1.5487
 42
50.0
 43
0.0
 44
0.0
 50
0.0
 51
0.0
 71
     0
 72
   100
 73
     1
 74
     0
 75
     0
 76
     0
 77
     0
 78
     0
  0
ENDTAB
  0
TABLE
  2
LTYPE
 70
     2
  0
LTYPE
  2
CONTINUOUS
 70
    64
  3
Solid line
 72
    65
 73
     0
 40
0.0
  0
LTYPE
  2
CENTER
 70
    64
  3
____ _ ____ _ ____ _ ____ _ 
 72
    65
 73
     4
 40
60.0
 49
45.0
 49
-5.0
 49
5.0
 49
-5.0
  0
ENDTAB
  0
TABLE
  2
LAYER
 70
     3
  0
LAYER
  2
0
 70
     0
 62
     7
  6
CONTINUOUS
  0
LAYER
  2
L-ZISSEN
 70
    64
 62
     7
  6
CONTINUOUS
  0
LAYER
  2
L-TYUSIN
 70
    64
 62
     1
  6
CENTER
  0
ENDTAB
  0
TABLE
  2
STYLE
 70
     1
  0
STYLE
  2
STANDARD
 70
    64
 40
0.0
 41
1.0
 50
0.0
 71
     0
 42
4.5
  3
TXT
  4

  0
ENDTAB
  0
TABLE
  2
VIEW
 70
     0
  0
ENDTAB
  0
TABLE
  2
UCS
 70
     0
  0
ENDTAB
  0
TABLE
  2
DWGMGR
 70
     0
  0
ENDTAB
  0
ENDSEC
  0
SECTION
  2
BLOCKS
  0
ENDSEC
  0
SECTION
  2
ENTITIES
  0
TEXT
  8
L-ZISSEN
  6
CONTINUOUS
 62
     7
 10
860.0
 20
720.0
 30
0.0
 40
4.5
  1
JUNCTION BOX
  0
LINE
  8
L-ZISSEN
 10
330.0
 20
244.0
 30
0.0
 11
327.992056
 21
244.0
 31
0.0
  0
LINE
  8
L-ZISSEN
 10
330.0
 20
264.0
 30
0.0
 11
330.0
 21
244.0
 31
0.0
  0
LINE
  8
L-ZISSEN
 10
330.0
 20
104.0
 30
0.0
 11
330.0
 21
84.0
 31
0.0
  0
LINE
  8
L-ZISSEN
 10
330.0
 20
84.0
 30
0.0
 11
306.382621
 21
84.0
 31
0.0
  0
LINE
  8
L-ZISSEN
 10
323.103148
 20
104.0
 30
0.0
 11
330.0
 21
104.0
 31
0.0
  0
LINE
  8
L-ZISSEN
 10
260.0
 20
65.0
 30
0.0
 11
240.0
 21
65.0
 31
0.0
  0
LINE
  8
L-ZISSEN
 10
260.0
 20
65.0
 30
0.0
 11
260.0
 21
73.333705
 31
0.0
  0
LINE
  8
L-ZISSEN
 10
240.0
 20
65.0
 30
0.0
 11
240.0
 21
73.333705
 31
0.0
  0
LINE
  8
L-ZISSEN
 10
127.0
 20
300.0
 30
0.0
 11
373.0
 21
300.0
 31
0.0
  0
LINE
  8
L-ZISSEN
 10
250.0
 20
272.0
 30
0.0
 11
309.0
 21
274.060325
 31
0.0
  0
LINE
  8
L-ZISSEN
 10
250.0
 20
272.0
 30
0.0
 11
191.0
 21
274.060325
 31
0.0
  0
LINE
  8
L-ZISSEN
 10
160.0
 20
449.0
 30
0.0
 11
160.0
 21
400.0
 31
0.0
  0
LINE
  8
L-ZISSEN
 10
329.066255
 20
274.761054
 30
0.0
 11
322.676491
 21
91.782137
 31
0.0
  0
ARC
  8
L-ZISSEN
 10
250.0
 20
223.0
 30
0.0
 40
150.0
 50
241.01963
 51
298.98037
  0
LINE
  8
L-ZISSEN
 10
170.933745
 20
274.761054
 30
0.0
 11
177.323509
 21
91.782137
 31
0.0
  0
LINE
  8
L-TYUSIN
  6
CENTER
 62
     1
 10
250.0
 20
469.0
 30
0.0
 11
250.0
 21
17.0
 31
0.0
  0
LINE
  8
L-TYUSIN
 10
250.0
 20
778.2
 30
0.0
 11
250.0
 21
549.0
 31
0.0
  0
LINE
  8
L-ZISSEN
 10
570.933745
 20
274.761054
 30
0.0
 11
577.323509
 21
91.782137
 31
0.0
  0
ARC
  8
L-ZISSEN
 10
650.0
 20
223.0
 30
0.0
 40
150.0
 50
241.01963
 51
298.98037
  0
LINE
  8
L-ZISSEN
 10
729.066255
 20
274.761054
 30
0.0
 11
722.676491
 21
91.782137
 31
0.0
  0
LINE
  8
L-ZISSEN
 10
560.0
 20
433.0
 30
0.0
 11
560.0
 21
275.142869
 31
0.0
  0
LINE
  8
L-ZISSEN
 10
740.0
 20
443.0
 30
0.0
 11
740.0
 21
275.142869
 31
0.0
  0
LINE
  8
L-TYUSIN
  6
CENTER
 62
     1
 10
650.0
 20
497.0
 30
0.0
 11
650.0
 21
19.0
 31
0.0
  0
LINE
  8
L-ZISSEN
 10
640.0
 20
65.0
 30
0.0
 11
640.0
 21
73.333705
 31
0.0
  0
LINE
  8
L-ZISSEN
 10
660.0
 20
65.0
 30
0.0
 11
660.0
 21
73.333705
 31
0.0
  0
LINE
  8
L-ZISSEN
 10
660.0
 20
65.0
 30
0.0
 11
640.0
 21
65.0
 31
0.0
  0
ARC
  8
L-ZISSEN
 10
650.0
 20
254.0
 30
0.0
 40
10.0
 50
306.869898
 51
233.130102
  0
ARC
  8
L-ZISSEN
 10
650.0
 20
94.0
 30
0.0
 40
10.0
 50
126.869898
 51
53.130102
  0
LINE
  8
L-ZISSEN
 10
175.0
 20
590.0
 30
0.0
 11
325.0
 21
590.0
 31
0.0
  0
LINE
  8
L-ZISSEN
 10
160.0
 20
770.0
 30
0.0
 11
340.0
 21
770.0
 31
0.0
  0
LINE
  8
L-ZISSEN
 10
194.0
 20
286.0
 30
0.0
 11
194.0
 21
273.955563
 31
0.0
  0
LINE
  8
L-ZISSEN
 10
194.0
 20
286.0
 30
0.0
 11
160.0
 21
286.0
 31
0.0
  0
LINE
  8
L-ZISSEN
 10
155.0
 20
300.0
 30
0.0
 11
155.0
 21
400.0
 31
0.0
  0
LINE
  8
L-ZISSEN
 10
127.0
 20
400.0
 30
0.0
 11
239.801961
 21
400.0
 31
0.0
  0
LINE
  8
L-ZISSEN
 10
345.0
 20
400.0
 30
0.0
 11
345.0
 21
300.0
 31
0.0
  0
LINE
  8
L-TYUSIN
 10
428.0
 20
350.0
 30
0.0
 11
72.0
 21
350.0
 31
0.0
  0
LINE
  8
L-ZISSEN
 10
160.0
 20
300.0
 30
0.0
 11
160.0
 21
275.142869
 31
0.0
  0
LINE
  8
L-ZISSEN
 10
340.0
 20
415.0
 30
0.0
 11
340.0
 21
400.0
 31
0.0
  0
LINE
  8
L-ZISSEN
 10
560.0
 20
400.0
 30
0.0
 11
740.0
 21
400.0
 31
0.0
  0
LINE
  8
L-TYUSIN
 10
762.0
 20
350.0
 30
0.0
 11
519.0
 21
350.0
 31
0.0
  0
LINE
  8
L-ZISSEN
 10
173.0
 20
271.0
 30
0.0
 11
173.0
 21
286.0
 31
0.0
  0
LINE
  8
L-ZISSEN
 10
191.0
 20
271.0
 30
0.0
 11
191.0
 21
286.0
 31
0.0
  0
LINE
  8
L-ZISSEN
 10
191.0
 20
271.0
 30
0.0
 11
173.0
 21
271.0
 31
0.0
  0
LINE
  8
L-ZISSEN
 10
173.0
 20
274.688899
 30
0.0
 11
160.0
 21
275.142869
 31
0.0
  0
LINE
  8
L-ZISSEN
 10
140.0
 20
300.0
 30
0.0
 11
140.0
 21
326.0
 31
0.0
  0
LINE
  8
L-ZISSEN
 10
127.0
 20
326.0
 30
0.0
 11
140.0
 21
326.0
 31
0.0
  0
LINE
  8
L-ZISSEN
 10
127.5
 20
305.0
 30
0.0
 11
127.5
 21
321.0
 31
0.0
  0
LINE
  8
L-ZISSEN
 10
127.5
 20
305.0
 30
0.0
 11
140.0
 21
305.0
 31
0.0
  0
LINE
  8
L-ZISSEN
 10
127.5
 20
321.0
 30
0.0
 11
140.0
 21
321.0
 31
0.0
  0
LINE
  8
L-ZISSEN
 10
127.5
 20
379.0
 30
0.0
 11
140.0
 21
379.0
 31
0.0
  0
LINE
  8
L-ZISSEN
 10
127.5
 20
395.0
 30
0.0
 11
140.0
 21
395.0
 31
0.0
  0
LINE
  8
L-ZISSEN
 10
127.5
 20
395.0
 30
0.0
 11
127.5
 21
379.0
 31
0.0
  0
LINE
  8
L-ZISSEN
 10
127.0
 20
374.0
 30
0.0
 11
140.0
 21
374.0
 31
0.0
  0
LINE
  8
L-ZISSEN
 10
140.0
 20
400.0
 30
0.0
 11
140.0
 21
374.0
 31
0.0
  0
LINE
  8
L-ZISSEN
 10
127.0
 20
400.0
 30
0.0
 11
127.0
 21
300.0
 31
0.0
  0
LINE
  8
L-ZISSEN
 10
372.5
 20
709.0
 30
0.0
 11
360.0
 21
709.0
 31
0.0
  0
LINE
  8
L-ZISSEN
 10
372.5
 20
725.0
 30
0.0
 11
360.0
 21
725.0
 31
0.0
  0
LINE
  8
L-ZISSEN
 10
372.5
 20
725.0
 30
0.0
 11
372.5
 21
709.0
 31
0.0
  0
LINE
  8
L-ZISSEN
 10
373.0
 20
704.0
 30
0.0
 11
360.0
 21
704.0
 31
0.0
  0
LINE
  8
L-ZISSEN
 10
360.0
 20
730.0
 30
0.0
 11
360.0
 21
704.0
 31
0.0
  0
LINE
  8
L-ZISSEN
 10
373.0
 20
730.0
 30
0.0
 11
373.0
 21
630.0
 31
0.0
  0
LINE
  8
L-ZISSEN
 10
345.0
 20
730.0
 30
0.0
 11
345.0
 21
630.0
 31
0.0
  0
LINE
  8
L-TYUSIN
 10
378.0
 20
680.0
 30
0.0
 11
122.0
 21
680.0
 31
0.0
  0
LINE
  8
L-ZISSEN
 10
160.0
 20
605.0
 30
0.0
 11
160.0
 21
755.0
 31
0.0
  0
LINE
  8
L-ZISSEN
 10
340.0
 20
605.0
 30
0.0
 11
340.0
 21
755.0
 31
0.0
  0
ARC
  8
L-ZISSEN
 10
175.0
 20
605.0
 30
0.0
 40
15.0
 50
180.0
 51
270.0
  0
ARC
  8
L-ZISSEN
 10
325.0
 20
605.0
 30
0.0
 40
15.0
 50
270.0
 51
0.0
  0
ARC
  8
L-ZISSEN
 10
175.0
 20
755.0
 30
0.0
 40
15.0
 50
90.0
 51
180.0
  0
ARC
  8
L-ZISSEN
 10
325.0
 20
755.0
 30
0.0
 40
15.0
 50
0.0
 51
90.0
  0
LINE
  8
L-ZISSEN
 10
373.0
 20
730.0
 30
0.0
 11
340.0
 21
730.0
 31
0.0
  0
LINE
  8
L-ZISSEN
 10
373.0
 20
630.0
 30
0.0
 11
340.0
 21
630.0
 31
0.0
  0
LINE
  8
L-ZISSEN
 10
77.0
 20
375.0
 30
0.0
 11
127.0
 21
375.0
 31
0.0
  0
LINE
  8
L-ZISSEN
 10
423.0
 20
325.0
 30
0.0
 11
373.0
 21
325.0
 31
0.0
  0
LINE
  8
L-ZISSEN
 10
77.0
 20
325.0
 30
0.0
 11
77.0
 21
375.0
 31
0.0
  0
LINE
  8
L-ZISSEN
 10
423.0
 20
325.0
 30
0.0
 11
423.0
 21
375.0
 31
0.0
  0
LINE
  8
L-ZISSEN
 10
127.0
 20
325.0
 30
0.0
 11
77.0
 21
325.0
 31
0.0
  0
LINE
  8
L-ZISSEN
 10
373.0
 20
375.0
 30
0.0
 11
423.0
 21
375.0
 31
0.0
  0
LINE
  8
L-TYUSIN
  6
CENTER
 62
     1
 10
101.0
 20
362.0
 30
0.0
 11
101.0
 21
338.0
 31
0.0
  0
ARC
  8
L-ZISSEN
 10
104.0
 20
350.0
 30
0.0
 40
7.0
 50
270.0
 51
90.0
  0
ARC
  8
L-ZISSEN
 10
98.0
 20
350.0
 30
0.0
 40
7.0
 50
90.0
 51
270.0
  0
LINE
  8
L-ZISSEN
 10
104.0
 20
357.0
 30
0.0
 11
98.0
 21
357.0
 31
0.0
  0
LINE
  8
L-ZISSEN
 10
98.0
 20
343.0
 30
0.0
 11
104.0
 21
343.0
 31
0.0
  0
LINE
  8
L-ZISSEN
 10
402.0
 20
343.0
 30
0.0
 11
396.0
 21
343.0
 31
0.0
  0
LINE
  8
L-ZISSEN
 10
396.0
 20
357.0
 30
0.0
 11
402.0
 21
357.0
 31
0.0
  0
ARC
  8
L-ZISSEN
 10
402.0
 20
350.0
 30
0.0
 40
7.0
 50
270.0
 51
90.0
  0
ARC
  8
L-ZISSEN
 10
396.0
 20
350.0
 30
0.0
 40
7.0
 50
90.0
 51
270.0
  0
LINE
  8
L-ZISSEN
 10
757.0
 20
325.0
 30
0.0
 11
740.0
 21
325.0
 31
0.0
  0
LINE
  8
L-ZISSEN
 10
740.0
 20
375.0
 30
0.0
 11
757.0
 21
375.0
 31
0.0
  0
LINE
  8
L-ZISSEN
 10
757.0
 20
375.0
 30
0.0
 11
757.0
 21
325.0
 31
0.0
  0
LINE
  8
L-ZISSEN
 10
753.8
 20
375.0
 30
0.0
 11
753.8
 21
325.0
 31
0.0
  0
LINE
  8
L-ZISSEN
 10
77.0
 20
783.8
 30
0.0
 11
77.0
 21
787.0
 31
0.0
  0
LINE
  8
L-ZISSEN
 10
423.0
 20
783.8
 30
0.0
 11
423.0
 21
787.0
 31
0.0
  0
LINE
  8
L-ZISSEN
 10
77.0
 20
787.0
 30
0.0
 11
147.3119
 21
787.0
 31
0.0
  0
LINE
  8
L-ZISSEN
 10
77.0
 20
783.8
 30
0.0
 11
146.0
 21
783.8
 31
0.0
  0
LINE
  8
L-ZISSEN
 10
161.3119
 20
773.2
 30
0.0
 11
338.6881
 21
773.2
 31
0.0
  0
LINE
  8
L-ZISSEN
 10
160.0
 20
770.0
 30
0.0
 11
146.0
 21
783.8
 31
0.0
  0
LINE
  8
L-ZISSEN
 10
161.3119
 20
773.2
 30
0.0
 11
147.3119
 21
787.0
 31
0.0
  0
LINE
  8
L-TYUSIN
  6
CENTER
 62
     1
 10
399.0
 20
792.0
 30
0.0
 11
399.0
 21
778.8
 31
0.0
  0
LINE
  8
L-ZISSEN
 10
423.0
 20
783.8
 30
0.0
 11
423.0
 21
787.0
 31
0.0
  0
LINE
  8
L-ZISSEN
 10
423.0
 20
787.0
 30
0.0
 11
352.6881
 21
787.0
 31
0.0
  0
LINE
  8
L-ZISSEN
 10
423.0
 20
783.8
 30
0.0
 11
354.0
 21
783.8
 31
0.0
  0
LINE
  8
L-ZISSEN
 10
338.6881
 20
773.2
 30
0.0
 11
352.6881
 21
787.0
 31
0.0
  0
LINE
  8
L-ZISSEN
 10
340.0
 20
770.0
 30
0.0
 11
354.0
 21
783.8
 31
0.0
  0
LINE
  8
L-ZISSEN
 10
199.2
 20
775.7
 30
0.0
 11
199.2
 21
773.2
 31
0.0
  0
LINE
  8
L-ZISSEN
 10
180.8
 20
775.7
 30
0.0
 11
180.8
 21
773.2
 31
0.0
  0
LINE
  8
L-ZISSEN
 10
199.814955
 20
775.7
 30
0.0
 11
180.185045
 21
775.7
 31
0.0
  0
LINE
  8
L-ZISSEN
 10
160.0
 20
449.0
 30
0.0
 11
237.630683
 21
449.0
 31
0.0
  0
LINE
  8
L-ZISSEN
 10
160.0
 20
415.0
 30
0.0
 11
224.920128
 21
415.0
 31
0.0
  0
ARC
  8
L-ZISSEN
 10
250.0
 20
680.0
 30
0.0
 40
69.0
 50
306.20349
 51
334.228538
  0
ARC
  8
L-ZISSEN
 10
250.0
 20
680.0
 30
0.0
 40
86.0
 50
339.58379
 51
20.41621
  0
LINE
  8
L-ZISSEN
 10
330.597767
 20
710.0
 30
0.0
 11
277.0
 21
710.0
 31
0.0
  0
LINE
  8
L-ZISSEN
 10
330.597767
 20
650.0
 30
0.0
 11
276.0
 21
650.0
 31
0.0
  0
LINE
  8
L-ZISSEN
 10
258.0
 20
590.0
 30
0.0
 11
258.0
 21
652.503846
 31
0.0
  0
LINE
  8
L-ZISSEN
 10
242.0
 20
590.0
 30
0.0
 11
242.0
 21
672.0
 31
0.0
  0
LINE
  8
L-ZISSEN
 10
160.0
 20
672.0
 30
0.0
 11
242.0
 21
672.0
 31
0.0
  0
LINE
  8
L-ZISSEN
 10
220.0
 20
753.0
 30
0.0
 11
236.450765
 21
753.0
 31
0.0
  0
ARC
  8
L-ZISSEN
 10
190.0
 20
713.0
 30
0.0
 40
26.0
 50
99.86768
 51
180.0
  0
LINE
  8
L-ZISSEN
 10
162.0
 20
680.0
 30
0.0
 11
218.0
 21
680.0
 31
0.0
  0
LINE
  8
L-ZISSEN
 10
164.0
 20
713.0
 30
0.0
 11
162.0
 21
680.0
 31
0.0
  0
LINE
  8
L-ZISSEN
 10
195.928932
 20
749.0
 30
0.0
 11
212.0
 21
749.0
 31
0.0
  0
LINE
  8
L-ZISSEN
 10
195.928932
 20
749.0
 30
0.0
 11
185.544292
 21
738.61536
 31
0.0
  0
ARC
  8
L-ZISSEN
 10
250.0
 20
727.0
 30
0.0
 40
22.0
 50
0.0
 51
99.526505
  0
LINE
  8
L-ZISSEN
 10
242.0
 20
753.0
 30
0.0
 11
242.0
 21
770.0
 31
0.0
  0
ARC
  8
L-ZISSEN
 10
250.0
 20
680.0
 30
0.0
 40
69.0
 50
186.657963
 51
233.79651
  0
LINE
  8
L-ZISSEN
 10
258.0
 20
747.493902
 30
0.0
 11
258.0
 21
770.0
 31
0.0
  0
ARC
  8
L-ZISSEN
 10
220.0
 20
619.0
 30
0.0
 40
12.0
 50
153.671413
 51
333.952366
  0
ARC
  8
L-ZISSEN
 10
250.0
 20
680.0
 30
0.0
 40
69.0
 50
253.827269
 51
263.342037
  0
ARC
  8
L-ZISSEN
 10
250.0
 20
680.0
 30
0.0
 40
69.0
 50
276.657963
 51
286.172731
  0
ARC
  8
L-ZISSEN
 10
280.0
 20
619.0
 30
0.0
 40
12.0
 50
206.047634
 51
26.328587
  0
ARC
  8
L-ZISSEN
 10
280.0
 20
741.0
 30
0.0
 40
12.0
 50
333.671413
 51
153.952366
  0
ARC
  8
L-ZISSEN
 10
250.0
 20
680.0
 30
0.0
 40
69.0
 50
73.827269
 51
83.342037
  0
ARC
  8
L-ZISSEN
 10
250.0
 20
680.0
 30
0.0
 40
69.0
 50
25.771462
 51
53.79651
  0
LINE
  8
L-ZISSEN
 10
242.0
 20
696.748654
 30
0.0
 11
242.0
 21
686.0
 31
0.0
  0
LINE
  8
L-ZISSEN
 10
229.947784
 20
705.0
 30
0.0
 11
218.0
 21
705.0
 31
0.0
  0
ARC
  8
L-ZISSEN
 10
250.0
 20
680.0
 30
0.0
 40
10.0
 50
143.130102
 51
256.204243
  0
LINE
  8
L-ZISSEN
 10
218.0
 20
680.0
 30
0.0
 11
218.0
 21
705.0
 31
0.0
  0
LINE
  8
L-ZISSEN
 10
277.0
 20
717.574979
 30
0.0
 11
277.0
 21
710.0
 31
0.0
  0
ARC
  8
L-ZISSEN
 10
277.0
 20
727.660254
 30
0.0
 40
5.0
 50
180.0
 51
228.191842
  0
LINE
  8
L-ZISSEN
 10
184.465337
 20
425.0
 30
0.0
 11
223.0
 21
425.0
 31
0.0
  0
LINE
  8
L-ZISSEN
 10
208.0
 20
425.0
 30
0.0
 11
208.0
 21
415.0
 31
0.0
  0
LINE
  8
L-ZISSEN
 10
277.0
 20
425.0
 30
0.0
 11
311.325846
 21
425.0
 31
0.0
  0
LINE
  8
L-ZISSEN
 10
275.079872
 20
415.0
 30
0.0
 11
340.0
 21
415.0
 31
0.0
  0
ARC
  8
L-ZISSEN
 10
184.465337
 20
422.0
 30
0.0
 40
3.0
 50
90.0
 51
98.923316
  0
LINE
  8
L-ZISSEN
 10
292.0
 20
425.0
 30
0.0
 11
292.0
 21
415.0
 31
0.0
  0
LINE
  8
L-ZISSEN
 10
311.325846
 20
425.0
 30
0.0
 11
311.325846
 21
415.0
 31
0.0
  0
LINE
  8
L-ZISSEN
 10
336.0
 20
443.0
 30
0.0
 11
336.0
 21
415.0
 31
0.0
  0
LINE
  8
L-ZISSEN
 10
306.0
 20
443.0
 30
0.0
 11
336.0
 21
443.0
 31
0.0
  0
LINE
  8
L-ZISSEN
 10
306.0
 20
457.0
 30
0.0
 11
306.0
 21
443.0
 31
0.0
  0
LINE
  8
L-ZISSEN
 10
160.0
 20
433.0
 30
0.0
 11
224.212406
 21
433.0
 31
0.0
  0
LINE
  8
L-ZISSEN
 10
680.0
 20
425.0
 30
0.0
 11
711.0
 21
425.0
 31
0.0
  0
LINE
  8
L-ZISSEN
 10
592.43787
 20
425.0
 30
0.0
 11
620.0
 21
425.0
 31
0.0
  0
LINE
  8
L-ZISSEN
 10
560.0
 20
415.0
 30
0.0
 11
740.0
 21
415.0
 31
0.0
  0
LINE
  8
L-ZISSEN
 10
620.0
 20
443.0
 30
0.0
 11
680.0
 21
443.0
 31
0.0
  0
LINE
  8
L-ZISSEN
 10
620.0
 20
455.0
 30
0.0
 11
620.0
 21
415.0
 31
0.0
  0
LINE
  8
L-ZISSEN
 10
680.0
 20
443.0
 30
0.0
 11
680.0
 21
415.0
 31
0.0
  0
LINE
  8
L-ZISSEN
 10
620.0
 20
449.0
 30
0.0
 11
723.0
 21
449.0
 31
0.0
  0
LINE
  8
L-ZISSEN
 10
723.0
 20
449.0
 30
0.0
 11
723.0
 21
443.0
 31
0.0
  0
LINE
  8
L-ZISSEN
 10
717.493902
 20
449.0
 30
0.0
 11
717.493902
 21
430.0
 31
0.0
  0
LINE
  8
L-ZISSEN
 10
723.0
 20
443.0
 30
0.0
 11
740.0
 21
443.0
 31
0.0
  0
LINE
  8
L-ZISSEN
 10
707.56213
 20
425.0
 30
0.0
 11
707.56213
 21
415.0
 31
0.0
  0
LINE
  8
L-ZISSEN
 10
592.43787
 20
425.0
 30
0.0
 11
592.43787
 21
415.0
 31
0.0
  0
LINE
  8
L-ZISSEN
 10
693.330127
 20
449.0
 30
0.0
 11
693.330127
 21
425.0
 31
0.0
  0
LINE
  8
L-ZISSEN
 10
689.0
 20
449.0
 30
0.0
 11
689.0
 21
425.0
 31
0.0
  0
LINE
  8
L-ZISSEN
 10
560.0
 20
433.0
 30
0.0
 11
620.0
 21
433.0
 31
0.0
  0
CIRCLE
  8
L-ZISSEN
 10
276.0
 20
680.0
 30
0.0
 40
30.0
  0
LINE
  8
L-ZISSEN
 10
230.0
 20
457.0
 30
0.0
 11
306.0
 21
457.0
 31
0.0
  0
LINE
  8
L-ZISSEN
 10
255.035693
 20
492.0
 30
0.0
 11
296.964307
 21
492.0
 31
0.0
  0
LINE
  8
L-ZISSEN
 10
246.0
 20
457.0
 30
0.0
 11
246.0
 21
451.70206
 31
0.0
  0
LINE
  8
L-ZISSEN
 10
298.186533
 20
457.0
 30
0.0
 11
296.964307
 21
492.0
 31
0.0
  0
LINE
  8
L-ZISSEN
 10
253.813467
 20
457.0
 30
0.0
 11
255.035693
 21
492.0
 31
0.0
  0
ARC
  8
L-ZISSEN
 10
622.0
 20
455.0
 30
0.0
 40
2.0
 50
90.0
 51
180.0
  0
LINE
  8
L-ZISSEN
 10
622.0
 20
457.0
 30
0.0
 11
723.193936
 21
457.0
 31
0.0
  0
LINE
  8
L-ZISSEN
 10
680.0
 20
457.0
 30
0.0
 11
680.0
 21
449.0
 31
0.0
  0
LINE
  8
L-ZISSEN
 10
626.222227
 20
492.0
 30
0.0
 11
673.777773
 21
492.0
 31
0.0
  0
LINE
  8
L-ZISSEN
 10
625.067404
 20
458.930201
 30
0.0
 11
626.222227
 21
492.0
 31
0.0
  0
ARC
  8
L-ZISSEN
 10
623.068622
 20
459.0
 30
0.0
 40
2.0
 50
270.0
 51
358.0
  0
LINE
  8
L-ZISSEN
 10
675.0
 20
457.0
 30
0.0
 11
673.777773
 21
492.0
 31
0.0
  0
CIRCLE
  8
L-ZISSEN
 10
190.0
 20
713.0
 30
0.0
 40
20.0
  0
CIRCLE
  8
L-ZISSEN
 10
190.0
 20
713.0
 30
0.0
 40
25.5
  0
LINE
  8
L-ZISSEN
 10
218.0
 20
685.0
 30
0.0
 11
162.30303
 21
685.0
 31
0.0
  0
ARC
  8
L-ZISSEN
 10
220.0
 20
743.0
 30
0.0
 40
10.0
 50
315.0
 51
143.130102
  0
LINE
  8
L-ZISSEN
 10
227.071068
 20
735.928932
 30
0.0
 11
213.65796
 21
722.515825
 31
0.0
  0
LINE
  8
L-ZISSEN
 10
218.0
 20
690.0
 30
0.0
 11
214.083078
 21
704.618153
 31
0.0
  0
LINE
  8
L-ZISSEN
 10
162.783211
 20
692.922984
 30
0.0
 11
165.916922
 21
704.618153
 31
0.0
  0
CIRCLE
  8
L-ZISSEN
 10
213.0
 20
690.0
 30
0.0
 40
4.5
  0
CIRCLE
  8
L-ZISSEN
 10
167.0
 20
690.0
 30
0.0
 40
4.5
  0
CIRCLE
  8
L-ZISSEN
 10
198.0
 20
743.0
 30
0.0
 40
4.5
  0
CIRCLE
  8
L-ZISSEN
 10
220.0
 20
743.0
 30
0.0
 40
3.75
  0
LINE
  8
L-ZISSEN
 10
162.0
 20
460.0
 30
0.0
 11
162.0
 21
449.0
 31
0.0
  0
LINE
  8
L-ZISSEN
 10
218.0
 20
460.0
 30
0.0
 11
218.0
 21
449.0
 31
0.0
  0
LINE
  8
L-ZISSEN
 10
162.0
 20
460.0
 30
0.0
 11
230.0
 21
460.0
 31
0.0
  0
LINE
  8
L-ZISSEN
 10
230.0
 20
460.0
 30
0.0
 11
230.0
 21
449.0
 31
0.0
  0
LINE
  8
L-ZISSEN
 10
171.5
 20
464.0
 30
0.0
 11
208.5
 21
464.0
 31
0.0
  0
ARC
  8
L-ZISSEN
 10
190.0
 20
498.0
 30
0.0
 40
20.0
 50
0.0
 51
180.0
  0
LINE
  8
L-ZISSEN
 10
210.0
 20
498.0
 30
0.0
 11
210.0
 21
484.5
 31
0.0
  0
LINE
  8
L-ZISSEN
 10
170.0
 20
498.0
 30
0.0
 11
170.0
 21
484.5
 31
0.0
  0
LINE
  8
L-ZISSEN
 10
164.5
 20
484.5
 30
0.0
 11
215.5
 21
484.5
 31
0.0
  0
LINE
  8
L-ZISSEN
 10
164.5
 20
484.5
 30
0.0
 11
164.5
 21
467.5
 31
0.0
  0
LINE
  8
L-ZISSEN
 10
164.5
 20
467.5
 30
0.0
 11
215.5
 21
467.5
 31
0.0
  0
LINE
  8
L-ZISSEN
 10
215.5
 20
467.5
 30
0.0
 11
215.5
 21
484.5
 31
0.0
  0
LINE
  8
L-ZISSEN
 10
168.0
 20
467.5
 30
0.0
 11
168.0
 21
464.6
 31
0.0
  0
LINE
  8
L-ZISSEN
 10
212.0
 20
467.5
 30
0.0
 11
212.0
 21
464.6
 31
0.0
  0
LINE
  8
L-ZISSEN
 10
162.5
 20
460.0
 30
0.0
 11
162.5
 21
464.6
 31
0.0
  0
LINE
  8
L-ZISSEN
 10
171.5
 20
460.0
 30
0.0
 11
171.5
 21
464.6
 31
0.0
  0
LINE
  8
L-ZISSEN
 10
708.5
 20
467.5
 30
0.0
 11
708.5
 21
484.5
 31
0.0
  0
LINE
  8
L-ZISSEN
 10
674.633332
 20
467.5
 30
0.0
 11
708.5
 21
467.5
 31
0.0
  0
LINE
  8
L-ZISSEN
 10
674.039679
 20
484.5
 30
0.0
 11
708.5
 21
484.5
 31
0.0
  0
LINE
  8
L-ZISSEN
 10
663.0
 20
498.0
 30
0.0
 11
663.0
 21
492.0
 31
0.0
  0
LINE
  8
L-ZISSEN
 10
703.0
 20
498.0
 30
0.0
 11
703.0
 21
484.5
 31
0.0
  0
ARC
  8
L-ZISSEN
 10
683.0
 20
498.0
 30
0.0
 40
20.0
 50
0.0
 51
180.0
  0
LINE
  8
L-ZISSEN
 10
705.0
 20
467.5
 30
0.0
 11
705.0
 21
464.0
 31
0.0
  0
CIRCLE
  8
L-ZISSEN
 10
238.0
 20
705.0
 30
0.0
 40
5.25
  0
CIRCLE
  8
L-ZISSEN
 10
237.864525
 20
747.943936
 30
0.0
 40
5.25
  0
CIRCLE
  8
L-ZISSEN
 10
271.940221
 20
718.975385
 30
0.0
 40
5.25
  0
LINE
  8
L-ZISSEN
 10
229.698031
 20
737.402946
 30
0.0
 11
255.829076
 21
748.162788
 31
0.0
  0
LINE
  8
L-ZISSEN
 10
226.932059
 20
707.064666
 30
0.0
 11
272.299232
 21
725.745266
 31
0.0
  0
LINE
  8
L-ZISSEN
 10
241.65459
 20
701.230853
 30
0.0
 11
271.999261
 21
713.725717
 31
0.0
  0
LINE
  8
L-ZISSEN
 10
232.620963
 20
747.68403
 30
0.0
 11
222.027447
 21
710.422525
 31
0.0
  0
LINE
  8
L-ZISSEN
 10
242.0
 20
696.748654
 30
0.0
 11
237.593053
 21
699.765796
 31
0.0
  0
ARC
  8
L-ZISSEN
 10
246.050858
 20
753.687102
 30
0.0
 40
5.0
 50
228.050531
 51
278.266512
  0
LINE
  8
L-ZISSEN
 10
222.977122
 20
464.0
 30
0.0
 11
254.057912
 21
464.0
 31
0.0
  0
LINE
  8
L-ZISSEN
 10
222.977122
 20
464.0
 30
0.0
 11
222.977122
 21
460.0
 31
0.0
  0
LINE
  8
L-ZISSEN
 10
226.932059
 20
464.0
 30
0.0
 11
226.932059
 21
460.0
 31
0.0
  0
LINE
  8
L-ZISSEN
 10
232.75
 20
457.0
 30
0.0
 11
232.75
 21
462.4
 31
0.0
  0
LINE
  8
L-ZISSEN
 10
243.25
 20
457.0
 30
0.0
 11
243.25
 21
462.4
 31
0.0
  0
LINE
  8
L-ZISSEN
 10
718.162788
 20
464.0
 30
0.0
 11
718.162788
 21
462.4
 31
0.0
  0
LINE
  8
L-ZISSEN
 10
695.745266
 20
464.0
 30
0.0
 11
695.745266
 21
457.0
 31
0.0
  0
LINE
  8
L-ZISSEN
 10
674.755555
 20
464.0
 30
0.0
 11
718.162788
 21
464.0
 31
0.0
  0
LINE
  8
L-ZISSEN
 10
722.943936
 20
457.0
 30
0.0
 11
722.943936
 21
449.0
 31
0.0
  0
LINE
  8
L-ZISSEN
 10
694.225385
 20
457.0
 30
0.0
 11
694.225385
 21
462.4
 31
0.0
  0
LINE
  8
L-ZISSEN
 10
683.725385
 20
457.0
 30
0.0
 11
683.725385
 21
462.4
 31
0.0
  0
LINE
  8
L-ZISSEN
 10
680.25
 20
457.0
 30
0.0
 11
680.25
 21
462.4
 31
0.0
  0
LINE
  8
L-ZISSEN
 10
262.369317
 20
449.0
 30
0.0
 11
306.0
 21
449.0
 31
0.0
  0
LINE
  8
L-ZISSEN
 10
199.814955
 20
782.7
 30
0.0
 11
180.185045
 21
782.7
 31
0.0
  0
LINE
  8
L-ZISSEN
 10
180.185045
 20
775.7
 30
0.0
 11
180.185045
 21
782.7
 31
0.0
  0
LINE
  8
L-ZISSEN
 10
199.814955
 20
775.7
 30
0.0
 11
199.814955
 21
782.7
 31
0.0
  0
LINE
  8
L-ZISSEN
 10
300.185045
 20
775.7
 30
0.0
 11
300.185045
 21
782.7
 31
0.0
  0
LINE
  8
L-ZISSEN
 10
319.814955
 20
775.7
 30
0.0
 11
319.814955
 21
782.7
 31
0.0
  0
LINE
  8
L-ZISSEN
 10
300.185045
 20
782.7
 30
0.0
 11
319.814955
 21
782.7
 31
0.0
  0
LINE
  8
L-ZISSEN
 10
300.185045
 20
775.7
 30
0.0
 11
319.814955
 21
775.7
 31
0.0
  0
LINE
  8
L-ZISSEN
 10
319.2
 20
775.7
 30
0.0
 11
319.2
 21
773.2
 31
0.0
  0
LINE
  8
L-ZISSEN
 10
300.8
 20
775.7
 30
0.0
 11
300.8
 21
773.2
 31
0.0
  0
CIRCLE
  8
L-ZISSEN
 10
175.0
 20
755.0
 30
0.0
 40
9.0
  0
CIRCLE
  8
L-ZISSEN
 10
325.0
 20
750.0
 30
0.0
 40
9.0
  0
CIRCLE
  8
L-ZISSEN
 10
325.0
 20
610.0
 30
0.0
 40
9.0
  0
CIRCLE
  8
L-ZISSEN
 10
175.0
 20
605.0
 30
0.0
 40
9.0
  0
LINE
  8
L-ZISSEN
 10
166.0
 20
430.0
 30
0.0
 11
184.0
 21
430.0
 31
0.0
  0
LINE
  8
L-ZISSEN
 10
166.0
 20
430.0
 30
0.0
 11
166.0
 21
415.0
 31
0.0
  0
LINE
  8
L-ZISSEN
 10
184.0
 20
430.0
 30
0.0
 11
184.0
 21
415.0
 31
0.0
  0
LINE
  8
L-ZISSEN
 10
316.0
 20
430.0
 30
0.0
 11
316.0
 21
415.0
 31
0.0
  0
LINE
  8
L-ZISSEN
 10
334.0
 20
430.0
 30
0.0
 11
334.0
 21
415.0
 31
0.0
  0
LINE
  8
L-ZISSEN
 10
334.0
 20
430.0
 30
0.0
 11
316.0
 21
430.0
 31
0.0
  0
LINE
  8
L-ZISSEN
 10
260.198039
 20
400.0
 30
0.0
 11
373.0
 21
400.0
 31
0.0
  0
LINE
  8
L-ZISSEN
 10
571.0
 20
430.0
 30
0.0
 11
589.0
 21
430.0
 31
0.0
  0
LINE
  8
L-ZISSEN
 10
571.0
 20
430.0
 30
0.0
 11
571.0
 21
415.0
 31
0.0
  0
LINE
  8
L-ZISSEN
 10
589.0
 20
430.0
 30
0.0
 11
589.0
 21
415.0
 31
0.0
  0
LINE
  8
L-ZISSEN
 10
729.0
 20
430.0
 30
0.0
 11
711.0
 21
430.0
 31
0.0
  0
LINE
  8
L-ZISSEN
 10
729.0
 20
430.0
 30
0.0
 11
729.0
 21
415.0
 31
0.0
  0
LINE
  8
L-ZISSEN
 10
711.0
 20
430.0
 30
0.0
 11
711.0
 21
415.0
 31
0.0
  0
CIRCLE
  8
L-ZISSEN
 10
250.0
 20
350.0
 30
0.0
 40
27.0
  0
LINE
  8
L-ZISSEN
 10
234.443651
 20
365.556349
 30
0.0
 11
258.485281
 21
341.514719
 31
0.0
  0
LINE
  8
L-ZISSEN
 10
373.0
 20
400.0
 30
0.0
 11
373.0
 21
300.0
 31
0.0
  0
LINE
  8
L-ZISSEN
 10
360.0
 20
400.0
 30
0.0
 11
360.0
 21
374.0
 31
0.0
  0
LINE
  8
L-ZISSEN
 10
373.0
 20
374.0
 30
0.0
 11
360.0
 21
374.0
 31
0.0
  0
LINE
  8
L-ZISSEN
 10
372.5
 20
395.0
 30
0.0
 11
372.5
 21
379.0
 31
0.0
  0
LINE
  8
L-ZISSEN
 10
372.5
 20
395.0
 30
0.0
 11
360.0
 21
395.0
 31
0.0
  0
LINE
  8
L-ZISSEN
 10
372.5
 20
379.0
 30
0.0
 11
360.0
 21
379.0
 31
0.0
  0
LINE
  8
L-ZISSEN
 10
372.5
 20
321.0
 30
0.0
 11
360.0
 21
321.0
 31
0.0
  0
LINE
  8
L-ZISSEN
 10
372.5
 20
305.0
 30
0.0
 11
360.0
 21
305.0
 31
0.0
  0
LINE
  8
L-ZISSEN
 10
372.5
 20
305.0
 30
0.0
 11
372.5
 21
321.0
 31
0.0
  0
LINE
  8
L-ZISSEN
 10
373.0
 20
326.0
 30
0.0
 11
360.0
 21
326.0
 31
0.0
  0
LINE
  8
L-ZISSEN
 10
360.0
 20
300.0
 30
0.0
 11
360.0
 21
326.0
 31
0.0
  0
LINE
  8
L-ZISSEN
 10
162.5
 20
464.6
 30
0.0
 11
171.5
 21
464.6
 31
0.0
  0
LINE
  8
L-ZISSEN
 10
208.5
 20
464.6
 30
0.0
 11
217.5
 21
464.6
 31
0.0
  0
LINE
  8
L-ZISSEN
 10
208.5
 20
460.0
 30
0.0
 11
208.5
 21
464.6
 31
0.0
  0
LINE
  8
L-ZISSEN
 10
217.5
 20
460.0
 30
0.0
 11
217.5
 21
464.6
 31
0.0
  0
CIRCLE
  8
L-ZISSEN
 10
887.5
 20
520.7
 30
0.0
 40
11.0
  0
LINE
  8
L-ZISSEN
 10
873.75
 20
496.0
 30
0.0
 11
873.75
 21
531.7
 31
0.0
  0
LINE
  8
L-ZISSEN
 10
901.25
 20
496.0
 30
0.0
 11
901.25
 21
531.7
 31
0.0
  0
LINE
  8
L-ZISSEN
 10
873.75
 20
531.7
 30
0.0
 11
901.25
 21
531.7
 31
0.0
  0
LINE
  8
L-ZISSEN
 10
903.5
 20
496.0
 30
0.0
 11
903.5
 21
491.332483
 31
0.0
  0
LINE
  8
L-ZISSEN
 10
871.5
 20
496.0
 30
0.0
 11
871.5
 21
484.0
 31
0.0
  0
LINE
  8
L-ZISSEN
 10
871.5
 20
496.0
 30
0.0
 11
903.5
 21
496.0
 31
0.0
  0
LINE
  8
L-ZISSEN
 10
888.0
 20
484.0
 30
0.0
 11
888.0
 21
478.0
 31
0.0
  0
LINE
  8
L-ZISSEN
 10
888.4215
 20
478.0
 30
0.0
 11
888.4215
 21
475.0
 31
0.0
  0
LINE
  8
L-ZISSEN
 10
871.5
 20
484.0
 30
0.0
 11
899.544156
 21
484.0
 31
0.0
  0
LINE
  8
L-ZISSEN
 10
888.0
 20
478.0
 30
0.0
 11
898.167184
 21
478.0
 31
0.0
  0
LINE
  8
L-ZISSEN
 10
232.75
 20
462.4
 30
0.0
 11
243.25
 21
462.4
 31
0.0
  0
LINE
  8
L-ZISSEN
 10
234.443651
 20
440.556349
 30
0.0
 11
258.485281
 21
416.514719
 31
0.0
  0
CIRCLE
  8
L-ZISSEN
 10
250.0
 20
425.0
 30
0.0
 40
27.0
  0
LINE
  8
L-ZISSEN
 10
327.0
 20
274.688899
 30
0.0
 11
340.0
 21
275.142869
 31
0.0
  0
LINE
  8
L-ZISSEN
 10
309.0
 20
271.0
 30
0.0
 11
327.0
 21
271.0
 31
0.0
  0
LINE
  8
L-ZISSEN
 10
309.0
 20
271.0
 30
0.0
 11
309.0
 21
286.0
 31
0.0
  0
LINE
  8
L-ZISSEN
 10
327.0
 20
271.0
 30
0.0
 11
327.0
 21
286.0
 31
0.0
  0
LINE
  8
L-ZISSEN
 10
340.0
 20
300.0
 30
0.0
 11
340.0
 21
275.142869
 31
0.0
  0
LINE
  8
L-ZISSEN
 10
306.0
 20
286.0
 30
0.0
 11
340.0
 21
286.0
 31
0.0
  0
LINE
  8
L-ZISSEN
 10
306.0
 20
286.0
 30
0.0
 11
306.0
 21
273.955563
 31
0.0
  0
LINE
  8
L-ZISSEN
  6
CONTINUOUS
 62
     7
 10
245.136
 20
65.0
 30
0.0
 11
245.136
 21
59.5
 31
0.0
  0
LINE
  8
L-ZISSEN
  6
CONTINUOUS
 62
     7
 10
254.864
 20
65.0
 30
0.0
 11
254.864
 21
59.5
 31
0.0
  0
LINE
  8
L-ZISSEN
  6
CONTINUOUS
 62
     7
 10
245.75
 20
24.0
 30
0.0
 11
245.75
 21
34.244682
 31
0.0
  0
LINE
  8
L-ZISSEN
  6
CONTINUOUS
 62
     7
 10
254.25
 20
24.0
 30
0.0
 11
254.25
 21
34.244682
 31
0.0
  0
LINE
  8
L-ZISSEN
  6
CONTINUOUS
 62
     7
 10
254.25
 20
24.0
 30
0.0
 11
245.75
 21
24.0
 31
0.0
  0
LINE
  8
L-ZISSEN
  6
CONTINUOUS
 62
     7
 10
250.0
 20
48.886751
 30
0.0
 11
247.5
 21
47.443376
 31
0.0
  0
LINE
  8
L-ZISSEN
  6
CONTINUOUS
 62
     7
 10
247.5
 20
47.443376
 30
0.0
 11
247.5
 21
44.556624
 31
0.0
  0
LINE
  8
L-ZISSEN
  6
CONTINUOUS
 62
     7
 10
250.0
 20
43.113249
 30
0.0
 11
247.5
 21
44.556624
 31
0.0
  0
LINE
  8
L-ZISSEN
  6
CONTINUOUS
 62
     7
 10
250.0
 20
48.886751
 30
0.0
 11
252.5
 21
47.443376
 31
0.0
  0
LINE
  8
L-ZISSEN
  6
CONTINUOUS
 62
     7
 10
252.5
 20
47.443376
 30
0.0
 11
252.5
 21
44.556624
 31
0.0
  0
LINE
  8
L-ZISSEN
  6
CONTINUOUS
 62
     7
 10
250.0
 20
43.113249
 30
0.0
 11
252.5
 21
44.556624
 31
0.0
  0
LINE
  8
L-ZISSEN
  6
CONTINUOUS
 62
     7
 10
244.0
 20
56.965856
 30
0.0
 11
244.0
 21
59.5
 31
0.0
  0
LINE
  8
L-ZISSEN
  6
CONTINUOUS
 62
     7
 10
256.0
 20
56.965856
 30
0.0
 11
256.0
 21
59.5
 31
0.0
  0
LINE
  8
L-ZISSEN
  6
CONTINUOUS
 62
     7
 10
244.0
 20
59.5
 30
0.0
 11
256.0
 21
59.5
 31
0.0
  0
CIRCLE
  8
L-ZISSEN
  6
CONTINUOUS
 62
     7
 10
250.0
 20
46.0
 30
0.0
 40
12.5
  0
LINE
  8
L-ZISSEN
 10
330.0
 20
264.0
 30
0.0
 11
328.690471
 21
264.0
 31
0.0
  0
LINE
  8
L-ZISSEN
  6
CONTINUOUS
 62
     7
 10
351.0
 20
106.0
 30
0.0
 11
351.0
 21
89.0
 31
0.0
  0
LINE
  8
L-ZISSEN
  6
CONTINUOUS
 62
     7
 10
339.0
 20
106.0
 30
0.0
 11
339.0
 21
99.0
 31
0.0
  0
LINE
  8
L-ZISSEN
  6
CONTINUOUS
 62
     7
 10
353.082904
 20
116.0
 30
0.0
 11
353.082904
 21
106.0
 31
0.0
  0
LINE
  8
L-ZISSEN
  6
CONTINUOUS
 62
     7
 10
336.917096
 20
106.0
 30
0.0
 11
353.082904
 21
106.0
 31
0.0
  0
LINE
  8
L-ZISSEN
  6
CONTINUOUS
 62
     7
 10
336.917096
 20
116.0
 30
0.0
 11
336.917096
 21
106.0
 31
0.0
  0
LINE
  8
L-ZISSEN
  6
CONTINUOUS
 62
     7
 10
336.917096
 20
116.0
 30
0.0
 11
353.082904
 21
116.0
 31
0.0
  0
LINE
  8
L-ZISSEN
  6
CONTINUOUS
 62
     7
 10
330.0
 20
99.0
 30
0.0
 11
339.0
 21
99.0
 31
0.0
  0
LINE
  8
L-ZISSEN
  6
CONTINUOUS
 62
     7
 10
330.0
 20
89.0
 30
0.0
 11
351.0
 21
89.0
 31
0.0
  0
LINE
  8
L-ZISSEN
  6
CONTINUOUS
 62
     7
 10
349.0
 20
116.0
 30
0.0
 11
349.0
 21
232.0
 31
0.0
  0
LINE
  8
L-ZISSEN
  6
CONTINUOUS
 62
     7
 10
341.0
 20
116.0
 30
0.0
 11
341.0
 21
232.0
 31
0.0
  0
LINE
  8
L-ZISSEN
  6
CONTINUOUS
 62
     7
 10
330.0
 20
259.0
 30
0.0
 11
351.0
 21
259.0
 31
0.0
  0
LINE
  8
L-ZISSEN
  6
CONTINUOUS
 62
     7
 10
330.0
 20
249.0
 30
0.0
 11
339.0
 21
249.0
 31
0.0
  0
LINE
  8
L-ZISSEN
  6
CONTINUOUS
 62
     7
 10
336.917096
 20
232.0
 30
0.0
 11
353.082904
 21
232.0
 31
0.0
  0
LINE
  8
L-ZISSEN
  6
CONTINUOUS
 62
     7
 10
336.917096
 20
232.0
 30
0.0
 11
336.917096
 21
242.0
 31
0.0
  0
LINE
  8
L-ZISSEN
  6
CONTINUOUS
 62
     7
 10
336.917096
 20
242.0
 30
0.0
 11
353.082904
 21
242.0
 31
0.0
  0
LINE
  8
L-ZISSEN
  6
CONTINUOUS
 62
     7
 10
353.082904
 20
232.0
 30
0.0
 11
353.082904
 21
242.0
 31
0.0
  0
LINE
  8
L-ZISSEN
  6
CONTINUOUS
 62
     7
 10
339.0
 20
242.0
 30
0.0
 11
339.0
 21
249.0
 31
0.0
  0
LINE
  8
L-ZISSEN
  6
CONTINUOUS
 62
     7
 10
351.0
 20
242.0
 30
0.0
 11
351.0
 21
259.0
 31
0.0
  0
LINE
  8
L-ZISSEN
 10
898.5
 20
583.0
 30
0.0
 11
903.5
 21
583.0
 31
0.0
  0
LINE
  8
L-ZISSEN
 10
903.5
 20
615.0
 30
0.0
 11
903.5
 21
583.0
 31
0.0
  0
LINE
  8
L-ZISSEN
 10
871.5
 20
615.0
 30
0.0
 11
871.5
 21
583.0
 31
0.0
  0
LINE
  8
L-ZISSEN
 10
871.5
 20
615.0
 30
0.0
 11
903.5
 21
615.0
 31
0.0
  0
LINE
  8
L-ZISSEN
 10
871.5
 20
583.0
 30
0.0
 11
876.5
 21
583.0
 31
0.0
  0
LINE
  8
L-ZISSEN
 10
898.5
 20
554.25
 30
0.0
 11
898.5
 21
559.25
 31
0.0
  0
LINE
  8
L-ZISSEN
 10
896.5
 20
562.25
 30
0.0
 11
896.5
 21
559.25
 31
0.0
  0
LINE
  8
L-ZISSEN
 10
898.5
 20
554.25
 30
0.0
 11
876.5
 21
554.25
 31
0.0
  0
LINE
  8
L-ZISSEN
 10
898.5
 20
559.25
 30
0.0
 11
876.5
 21
559.25
 31
0.0
  0
LINE
  8
L-ZISSEN
 10
878.5
 20
562.25
 30
0.0
 11
878.5
 21
559.25
 31
0.0
  0
LINE
  8
L-ZISSEN
 10
876.5
 20
554.25
 30
0.0
 11
876.5
 21
559.25
 31
0.0
  0
LINE
  8
L-ZISSEN
 10
876.5
 20
562.25
 30
0.0
 11
876.5
 21
585.25
 31
0.0
  0
LINE
  8
L-ZISSEN
 10
898.5
 20
562.25
 30
0.0
 11
876.5
 21
562.25
 31
0.0
  0
LINE
  8
L-ZISSEN
 10
898.5
 20
562.25
 30
0.0
 11
898.5
 21
585.25
 31
0.0
  0
LINE
  8
L-ZISSEN
 10
264.001603
 20
652.503846
 30
0.0
 11
258.0
 21
652.503846
 31
0.0
  0
CIRCLE
  8
L-ZISSEN
 10
276.0
 20
680.0
 30
0.0
 40
20.964307
  0
LINE
  8
L-ZISSEN
 10
233.26744
 20
702.727254
 30
0.0
 11
222.027447
 21
710.422525
 31
0.0
  0
LINE
  8
L-ZISSEN
 10
239.278285
 20
753.0
 30
0.0
 11
242.0
 21
753.0
 31
0.0
  0
LINE
  8
L-ZISSEN
 10
223.0
 20
554.0
 30
0.0
 11
277.0
 21
554.0
 31
0.0
  0
LINE
  8
L-ZISSEN
 10
223.0
 20
559.0
 30
0.0
 11
277.0
 21
559.0
 31
0.0
  0
LINE
  8
L-ZISSEN
 10
224.0
 20
577.5
 30
0.0
 11
276.0
 21
577.5
 31
0.0
  0
LINE
  8
L-ZISSEN
 10
276.0
 20
577.5
 30
0.0
 11
276.0
 21
559.0
 31
0.0
  0
LINE
  8
L-ZISSEN
 10
277.0
 20
559.0
 30
0.0
 11
277.0
 21
554.0
 31
0.0
  0
LINE
  8
L-ZISSEN
 10
224.0
 20
577.5
 30
0.0
 11
224.0
 21
559.0
 31
0.0
  0
LINE
  8
L-ZISSEN
 10
223.0
 20
559.0
 30
0.0
 11
223.0
 21
554.0
 31
0.0
  0
LINE
  8
L-ZISSEN
 10
244.0
 20
577.5
 30
0.0
 11
244.0
 21
583.5
 31
0.0
  0
LINE
  8
L-ZISSEN
 10
244.0
 20
583.5
 30
0.0
 11
256.0
 21
583.5
 31
0.0
  0
LINE
  8
L-ZISSEN
 10
256.0
 20
583.5
 30
0.0
 11
256.0
 21
577.5
 31
0.0
  0
LINE
  8
L-ZISSEN
 10
245.136
 20
583.5
 30
0.0
 11
245.136
 21
590.0
 31
0.0
  0
LINE
  8
L-ZISSEN
 10
254.864
 20
583.5
 30
0.0
 11
254.864
 21
590.0
 31
0.0
  0
LINE
  8
L-ZISSEN
 10
360.0
 20
630.0
 30
0.0
 11
360.0
 21
656.0
 31
0.0
  0
LINE
  8
L-ZISSEN
 10
373.0
 20
656.0
 30
0.0
 11
360.0
 21
656.0
 31
0.0
  0
LINE
  8
L-ZISSEN
 10
372.5
 20
635.0
 30
0.0
 11
372.5
 21
651.0
 31
0.0
  0
LINE
  8
L-ZISSEN
 10
372.5
 20
635.0
 30
0.0
 11
360.0
 21
635.0
 31
0.0
  0
LINE
  8
L-ZISSEN
 10
372.5
 20
651.0
 30
0.0
 11
360.0
 21
651.0
 31
0.0
  0
LINE
  8
L-ZISSEN
 10
127.5
 20
651.0
 30
0.0
 11
140.0
 21
651.0
 31
0.0
  0
LINE
  8
L-ZISSEN
 10
127.5
 20
635.0
 30
0.0
 11
140.0
 21
635.0
 31
0.0
  0
LINE
  8
L-ZISSEN
 10
127.5
 20
635.0
 30
0.0
 11
127.5
 21
651.0
 31
0.0
  0
LINE
  8
L-ZISSEN
 10
127.0
 20
656.0
 30
0.0
 11
140.0
 21
656.0
 31
0.0
  0
LINE
  8
L-ZISSEN
 10
140.0
 20
630.0
 30
0.0
 11
140.0
 21
656.0
 31
0.0
  0
LINE
  8
L-ZISSEN
 10
127.0
 20
630.0
 30
0.0
 11
160.0
 21
630.0
 31
0.0
  0
LINE
  8
L-ZISSEN
 10
127.0
 20
730.0
 30
0.0
 11
160.0
 21
730.0
 31
0.0
  0
LINE
  8
L-ZISSEN
 10
155.0
 20
730.0
 30
0.0
 11
155.0
 21
630.0
 31
0.0
  0
LINE
  8
L-ZISSEN
 10
127.0
 20
730.0
 30
0.0
 11
127.0
 21
630.0
 31
0.0
  0
LINE
  8
L-ZISSEN
 10
140.0
 20
730.0
 30
0.0
 11
140.0
 21
704.0
 31
0.0
  0
LINE
  8
L-ZISSEN
 10
127.0
 20
704.0
 30
0.0
 11
140.0
 21
704.0
 31
0.0
  0
LINE
  8
L-ZISSEN
 10
127.5
 20
725.0
 30
0.0
 11
127.5
 21
709.0
 31
0.0
  0
LINE
  8
L-ZISSEN
 10
127.5
 20
725.0
 30
0.0
 11
140.0
 21
725.0
 31
0.0
  0
LINE
  8
L-ZISSEN
 10
127.5
 20
709.0
 30
0.0
 11
140.0
 21
709.0
 31
0.0
  0
LINE
  8
L-TYUSIN
  6
CENTER
 62
     1
 10
101.0
 20
792.0
 30
0.0
 11
101.0
 21
778.8
 31
0.0
  0
SOLID
  8
L-ZISSEN
 10
250.596285
 20
678.062074
 30
0.0
 11
251.19257
 21
678.360217
 31
0.0
 12
250.0
 22
680.0
 32
0.0
 13
250.0
 23
680.0
 33
0.0
  0
LINE
  8
L-ZISSEN
 10
250.894427
 20
678.211146
 30
0.0
 11
300.0
 21
580.0
 31
0.0
  0
LINE
  8
L-ZISSEN
 10
300.0
 20
580.0
 30
0.0
 11
302.0
 21
580.0
 31
0.0
  0
TEXT
  8
L-ZISSEN
 10
304.0
 20
577.75
 30
0.0
 40
4.5
  1
P.P
  0
SOLID
  8
L-ZISSEN
 10
926.178511
 20
658.350084
 30
0.0
 11
926.649916
 21
658.821489
 31
0.0
 12
925.0
 22
660.0
 32
0.0
 13
925.0
 23
660.0
 33
0.0
  0
LINE
  8
L-ZISSEN
 10
926.414214
 20
658.585786
 30
0.0
 11
940.0
 21
645.0
 31
0.0
  0
LINE
  8
L-ZISSEN
 10
940.0
 20
645.0
 30
0.0
 11
942.0
 21
645.0
 31
0.0
  0
TEXT
  8
L-ZISSEN
 10
944.0
 20
642.75
 30
0.0
 40
4.5
  1
P.P
  0
LINE
  8
L-ZISSEN
 10
901.25
 20
585.25
 30
0.0
 11
873.75
 21
585.25
 31
0.0
  0
LINE
  8
L-ZISSEN
 10
873.75
 20
585.25
 30
0.0
 11
873.75
 21
612.75
 31
0.0
  0
LINE
  8
L-ZISSEN
 10
901.25
 20
612.75
 30
0.0
 11
873.75
 21
612.75
 31
0.0
  0
LINE
  8
L-ZISSEN
 10
901.25
 20
585.25
 30
0.0
 11
901.25
 21
612.75
 31
0.0
  0
SOLID
  8
L-ZISSEN
 10
926.649916
 20
401.178511
 30
0.0
 11
926.178511
 21
401.649916
 31
0.0
 12
925.0
 22
400.0
 32
0.0
 13
925.0
 23
400.0
 33
0.0
  0
LINE
  8
L-ZISSEN
 10
926.414214
 20
401.414214
 30
0.0
 11
945.0
 21
420.0
 31
0.0
  0
LINE
  8
L-ZISSEN
 10
945.0
 20
420.0
 30
0.0
 11
947.0
 21
420.0
 31
0.0
  0
TEXT
  8
L-ZISSEN
 10
949.0
 20
417.75
 30
0.0
 40
4.5
  1
P.P
  0
LINE
  8
L-TYUSIN
  6
CENTER
 62
     1
 10
399.0
 20
362.0
 30
0.0
 11
399.0
 21
338.0
 31
0.0
  0
SOLID
  8
L-ZISSEN
 10
251.8
 20
350.933333
 30
0.0
 11
251.4
 21
351.466667
 31
0.0
 12
250.0
 22
350.0
 32
0.0
 13
250.0
 23
350.0
 33
0.0
  0
LINE
  8
L-ZISSEN
 10
251.6
 20
351.2
 30
0.0
 11
290.0
 21
380.0
 31
0.0
  0
LINE
  8
L-ZISSEN
 10
290.0
 20
380.0
 30
0.0
 11
292.0
 21
380.0
 31
0.0
  0
TEXT
  8
L-ZISSEN
 10
294.0
 20
377.75
 30
0.0
 40
4.5
  1
P.P
  0
LINE
  8
L-ZISSEN
 10
1059.75
 20
496.0
 30
0.0
 11
1059.75
 21
531.7
 31
0.0
  0
LINE
  8
L-ZISSEN
 10
1087.25
 20
496.0
 30
0.0
 11
1087.25
 21
531.7
 31
0.0
  0
LINE
  8
L-ZISSEN
 10
1044.25
 20
531.7
 30
0.0
 11
1087.25
 21
531.7
 31
0.0
  0
LINE
  8
L-ZISSEN
 10
1044.25
 20
509.7
 30
0.0
 11
1044.25
 21
531.7
 31
0.0
  0
LINE
  8
L-ZISSEN
 10
1044.25
 20
509.7
 30
0.0
 11
1059.75
 21
509.7
 31
0.0
  0
LINE
  8
L-ZISSEN
 10
1036.25
 20
509.7
 30
0.0
 11
1036.25
 21
531.7
 31
0.0
  0
LINE
  8
L-ZISSEN
 10
1041.25
 20
509.7
 30
0.0
 11
1041.25
 21
531.7
 31
0.0
  0
LINE
  8
L-ZISSEN
 10
1036.25
 20
531.7
 30
0.0
 11
1041.25
 21
531.7
 31
0.0
  0
LINE
  8
L-ZISSEN
 10
1036.25
 20
509.7
 30
0.0
 11
1041.25
 21
509.7
 31
0.0
  0
LINE
  8
L-ZISSEN
 10
1044.25
 20
529.7
 30
0.0
 11
1041.25
 21
529.7
 31
0.0
  0
LINE
  8
L-ZISSEN
 10
1044.25
 20
511.7
 30
0.0
 11
1041.25
 21
511.7
 31
0.0
  0
LINE
  8
L-ZISSEN
 10
1074.0
 20
478.0
 30
0.0
 11
1081.0
 21
478.0
 31
0.0
  0
LINE
  8
L-ZISSEN
 10
1080.5785
 20
478.0
 30
0.0
 11
1080.5785
 21
475.0
 31
0.0
  0
LINE
  8
L-ZISSEN
 10
1067.0
 20
484.0
 30
0.0
 11
1067.0
 21
480.0
 31
0.0
  0
LINE
  8
L-ZISSEN
 10
1081.0
 20
484.0
 30
0.0
 11
1081.0
 21
478.0
 31
0.0
  0
LINE
  8
L-ZISSEN
 10
1058.0
 20
484.0
 30
0.0
 11
1090.0
 21
484.0
 31
0.0
  0
LINE
  8
L-ZISSEN
 10
1090.0
 20
496.0
 30
0.0
 11
1090.0
 21
484.0
 31
0.0
  0
LINE
  8
L-ZISSEN
 10
1058.0
 20
496.0
 30
0.0
 11
1058.0
 21
484.0
 31
0.0
  0
LINE
  8
L-ZISSEN
 10
1058.0
 20
496.0
 30
0.0
 11
1090.0
 21
496.0
 31
0.0
  0
LINE
  8
L-ZISSEN
  6
CONTINUOUS
 62
     7
 10
632.0
 20
54.082904
 30
0.0
 11
632.0
 21
37.917096
 31
0.0
  0
LINE
  8
L-ZISSEN
  6
CONTINUOUS
 62
     7
 10
637.0
 20
54.082904
 30
0.0
 11
637.0
 21
37.917096
 31
0.0
  0
LINE
  8
L-ZISSEN
  6
CONTINUOUS
 62
     7
 10
642.75
 20
24.0
 30
0.0
 11
642.75
 21
40.0
 31
0.0
  0
LINE
  8
L-ZISSEN
  6
CONTINUOUS
 62
     7
 10
651.25
 20
24.0
 30
0.0
 11
651.25
 21
40.0
 31
0.0
  0
LINE
  8
L-ZISSEN
  6
CONTINUOUS
 62
     7
 10
656.0
 20
40.0
 30
0.0
 11
637.0
 21
40.0
 31
0.0
  0
LINE
  8
L-ZISSEN
  6
CONTINUOUS
 62
     7
 10
644.0
 20
52.0
 30
0.0
 11
637.0
 21
52.0
 31
0.0
  0
LINE
  8
L-ZISSEN
  6
CONTINUOUS
 62
     7
 10
656.0
 20
40.0
 30
0.0
 11
656.0
 21
59.5
 31
0.0
  0
LINE
  8
L-ZISSEN
  6
CONTINUOUS
 62
     7
 10
644.0
 20
52.0
 30
0.0
 11
644.0
 21
59.5
 31
0.0
  0
LINE
  8
L-ZISSEN
  6
CONTINUOUS
 62
     7
 10
620.0
 20
43.113249
 30
0.0
 11
622.5
 21
43.113249
 31
0.0
  0
LINE
  8
L-ZISSEN
  6
CONTINUOUS
 62
     7
 10
620.0
 20
48.886751
 30
0.0
 11
622.5
 21
48.886751
 31
0.0
  0
LINE
  8
L-ZISSEN
  6
CONTINUOUS
 62
     7
 10
622.5
 20
33.5
 30
0.0
 11
626.0
 21
33.5
 31
0.0
  0
LINE
  8
L-ZISSEN
  6
CONTINUOUS
 62
     7
 10
622.5
 20
58.5
 30
0.0
 11
626.0
 21
58.5
 31
0.0
  0
LINE
  8
L-ZISSEN
  6
CONTINUOUS
 62
     7
 10
626.0
 20
43.75
 30
0.0
 11
632.0
 21
43.75
 31
0.0
  0
LINE
  8
L-ZISSEN
  6
CONTINUOUS
 62
     7
 10
626.0
 20
48.25
 30
0.0
 11
632.0
 21
48.25
 31
0.0
  0
LINE
  8
L-ZISSEN
  6
CONTINUOUS
 62
     7
 10
632.0
 20
37.917096
 30
0.0
 11
637.0
 21
37.917096
 31
0.0
  0
LINE
  8
L-ZISSEN
  6
CONTINUOUS
 62
     7
 10
632.0
 20
54.082904
 30
0.0
 11
637.0
 21
54.082904
 31
0.0
  0
LINE
  8
L-ZISSEN
  6
CONTINUOUS
 62
     7
 10
626.0
 20
58.5
 30
0.0
 11
626.0
 21
33.5
 31
0.0
  0
LINE
  8
L-ZISSEN
  6
CONTINUOUS
 62
     7
 10
622.5
 20
33.5
 30
0.0
 11
622.5
 21
58.5
 31
0.0
  0
LINE
  8
L-ZISSEN
  6
CONTINUOUS
 62
     7
 10
620.0
 20
48.886751
 30
0.0
 11
620.0
 21
43.113249
 31
0.0
  0
LINE
  8
L-ZISSEN
  6
CONTINUOUS
 62
     7
 10
651.25
 20
24.0
 30
0.0
 11
642.75
 21
24.0
 31
0.0
  0
LINE
  8
L-ZISSEN
  6
CONTINUOUS
 62
     7
 10
645.136
 20
65.0
 30
0.0
 11
645.136
 21
59.5
 31
0.0
  0
LINE
  8
L-ZISSEN
  6
CONTINUOUS
 62
     7
 10
654.864
 20
65.0
 30
0.0
 11
654.864
 21
59.5
 31
0.0
  0
LINE
  8
L-ZISSEN
  6
CONTINUOUS
 62
     7
 10
644.0
 20
59.5
 30
0.0
 11
656.0
 21
59.5
 31
0.0
  0
LINE
  8
L-ZISSEN
 10
706.0
 20
286.0
 30
0.0
 11
706.0
 21
273.955563
 31
0.0
  0
LINE
  8
L-ZISSEN
 10
706.0
 20
286.0
 30
0.0
 11
740.0
 21
286.0
 31
0.0
  0
LINE
  8
L-ZISSEN
 10
727.0
 20
271.0
 30
0.0
 11
727.0
 21
286.0
 31
0.0
  0
LINE
  8
L-ZISSEN
 10
709.0
 20
271.0
 30
0.0
 11
709.0
 21
286.0
 31
0.0
  0
LINE
  8
L-ZISSEN
 10
709.0
 20
271.0
 30
0.0
 11
727.0
 21
271.0
 31
0.0
  0
LINE
  8
L-ZISSEN
 10
727.0
 20
274.688899
 30
0.0
 11
740.0
 21
275.142869
 31
0.0
  0
LINE
  8
L-ZISSEN
 10
573.0
 20
274.688899
 30
0.0
 11
560.0
 21
275.142869
 31
0.0
  0
LINE
  8
L-ZISSEN
 10
591.0
 20
271.0
 30
0.0
 11
573.0
 21
271.0
 31
0.0
  0
LINE
  8
L-ZISSEN
 10
591.0
 20
271.0
 30
0.0
 11
591.0
 21
286.0
 31
0.0
  0
LINE
  8
L-ZISSEN
 10
573.0
 20
271.0
 30
0.0
 11
573.0
 21
286.0
 31
0.0
  0
LINE
  8
L-ZISSEN
 10
594.0
 20
286.0
 30
0.0
 11
560.0
 21
286.0
 31
0.0
  0
LINE
  8
L-ZISSEN
 10
594.0
 20
286.0
 30
0.0
 11
594.0
 21
273.955563
 31
0.0
  0
LINE
  8
L-ZISSEN
 10
650.0
 20
272.0
 30
0.0
 11
591.0
 21
274.060325
 31
0.0
  0
LINE
  8
L-ZISSEN
 10
650.0
 20
272.0
 30
0.0
 11
709.0
 21
274.060325
 31
0.0
  0
LINE
  8
L-ZISSEN
 10
560.0
 20
300.0
 30
0.0
 11
740.0
 21
300.0
 31
0.0
  0
LINE
  8
L-ZISSEN
 10
626.0
 20
326.0
 30
0.0
 11
600.0
 21
326.0
 31
0.0
  0
LINE
  8
L-ZISSEN
 10
626.0
 20
326.0
 30
0.0
 11
626.0
 21
300.0
 31
0.0
  0
CIRCLE
  8
L-ZISSEN
 10
613.0
 20
313.0
 30
0.0
 40
8.0
  0
CIRCLE
  8
L-ZISSEN
 10
613.0
 20
387.0
 30
0.0
 40
8.0
  0
LINE
  8
L-ZISSEN
 10
626.0
 20
374.0
 30
0.0
 11
626.0
 21
400.0
 31
0.0
  0
LINE
  8
L-ZISSEN
 10
626.0
 20
374.0
 30
0.0
 11
600.0
 21
374.0
 31
0.0
  0
CIRCLE
  8
L-ZISSEN
 10
687.0
 20
313.0
 30
0.0
 40
8.0
  0
LINE
  8
L-ZISSEN
 10
674.0
 20
326.0
 30
0.0
 11
674.0
 21
300.0
 31
0.0
  0
LINE
  8
L-ZISSEN
 10
674.0
 20
326.0
 30
0.0
 11
700.0
 21
326.0
 31
0.0
  0
LINE
  8
L-ZISSEN
 10
674.0
 20
374.0
 30
0.0
 11
700.0
 21
374.0
 31
0.0
  0
LINE
  8
L-ZISSEN
 10
674.0
 20
374.0
 30
0.0
 11
674.0
 21
400.0
 31
0.0
  0
CIRCLE
  8
L-ZISSEN
 10
687.0
 20
387.0
 30
0.0
 40
8.0
  0
CIRCLE
  8
L-ZISSEN
 10
650.0
 20
350.0
 30
0.0
 40
19.476
  0
LINE
  8
L-ZISSEN
 10
700.0
 20
300.0
 30
0.0
 11
700.0
 21
400.0
 31
0.0
  0
LINE
  8
L-ZISSEN
 10
600.0
 20
300.0
 30
0.0
 11
600.0
 21
400.0
 31
0.0
  0
LINE
  8
L-ZISSEN
 10
674.811428
 20
462.4
 30
0.0
 11
680.25
 21
462.4
 31
0.0
  0
LINE
  8
L-ZISSEN
 10
683.725385
 20
462.4
 30
0.0
 11
694.225385
 21
462.4
 31
0.0
  0
LINE
  8
L-ZISSEN
 10
712.693936
 20
462.4
 30
0.0
 11
723.193936
 21
462.4
 31
0.0
  0
LINE
  8
L-ZISSEN
 10
712.693936
 20
457.0
 30
0.0
 11
712.693936
 21
462.4
 31
0.0
  0
LINE
  8
L-ZISSEN
 10
723.193936
 20
457.0
 30
0.0
 11
723.193936
 21
462.4
 31
0.0
  0
LINE
  8
L-ZISSEN
 10
553.5
 20
354.864
 30
0.0
 11
560.0
 21
354.864
 31
0.0
  0
LINE
  8
L-ZISSEN
 10
553.5
 20
345.136
 30
0.0
 11
560.0
 21
345.136
 31
0.0
  0
LINE
  8
L-ZISSEN
 10
553.5
 20
356.0
 30
0.0
 11
547.5
 21
356.0
 31
0.0
  0
LINE
  8
L-ZISSEN
 10
553.5
 20
344.0
 30
0.0
 11
553.5
 21
356.0
 31
0.0
  0
LINE
  8
L-ZISSEN
 10
547.5
 20
344.0
 30
0.0
 11
553.5
 21
344.0
 31
0.0
  0
LINE
  8
L-ZISSEN
 10
529.0
 20
323.0
 30
0.0
 11
524.0
 21
323.0
 31
0.0
  0
LINE
  8
L-ZISSEN
 10
547.5
 20
324.0
 30
0.0
 11
529.0
 21
324.0
 31
0.0
  0
LINE
  8
L-ZISSEN
 10
529.0
 20
377.0
 30
0.0
 11
524.0
 21
377.0
 31
0.0
  0
LINE
  8
L-ZISSEN
 10
547.5
 20
376.0
 30
0.0
 11
529.0
 21
376.0
 31
0.0
  0
LINE
  8
L-ZISSEN
 10
547.5
 20
324.0
 30
0.0
 11
547.5
 21
376.0
 31
0.0
  0
LINE
  8
L-ZISSEN
 10
529.0
 20
323.0
 30
0.0
 11
529.0
 21
377.0
 31
0.0
  0
LINE
  8
L-ZISSEN
 10
524.0
 20
323.0
 30
0.0
 11
524.0
 21
377.0
 31
0.0
  0
LINE
  8
L-ZISSEN
 10
524.0
 20
398.0
 30
0.0
 11
524.0
 21
452.0
 31
0.0
  0
LINE
  8
L-ZISSEN
 10
529.0
 20
398.0
 30
0.0
 11
529.0
 21
452.0
 31
0.0
  0
LINE
  8
L-ZISSEN
 10
547.5
 20
399.0
 30
0.0
 11
547.5
 21
451.0
 31
0.0
  0
LINE
  8
L-ZISSEN
 10
547.5
 20
451.0
 30
0.0
 11
529.0
 21
451.0
 31
0.0
  0
LINE
  8
L-ZISSEN
 10
529.0
 20
452.0
 30
0.0
 11
524.0
 21
452.0
 31
0.0
  0
LINE
  8
L-ZISSEN
 10
547.5
 20
399.0
 30
0.0
 11
529.0
 21
399.0
 31
0.0
  0
LINE
  8
L-ZISSEN
 10
529.0
 20
398.0
 30
0.0
 11
524.0
 21
398.0
 31
0.0
  0
LINE
  8
L-ZISSEN
 10
547.5
 20
419.0
 30
0.0
 11
553.5
 21
419.0
 31
0.0
  0
LINE
  8
L-ZISSEN
 10
553.5
 20
419.0
 30
0.0
 11
553.5
 21
431.0
 31
0.0
  0
LINE
  8
L-ZISSEN
 10
553.5
 20
431.0
 30
0.0
 11
547.5
 21
431.0
 31
0.0
  0
LINE
  8
L-ZISSEN
 10
553.5
 20
420.136
 30
0.0
 11
560.0
 21
420.136
 31
0.0
  0
LINE
  8
L-ZISSEN
 10
553.5
 20
429.864
 30
0.0
 11
560.0
 21
429.864
 31
0.0
  0
LINE
  8
L-ZISSEN
  6
CONTINUOUS
 62
     7
 10
656.0
 20
106.0
 30
0.0
 11
656.0
 21
89.0
 31
0.0
  0
LINE
  8
L-ZISSEN
  6
CONTINUOUS
 62
     7
 10
644.0
 20
106.0
 30
0.0
 11
644.0
 21
89.0
 31
0.0
  0
LINE
  8
L-ZISSEN
  6
CONTINUOUS
 62
     7
 10
643.0
 20
106.0
 30
0.0
 11
657.0
 21
106.0
 31
0.0
  0
LINE
  8
L-ZISSEN
  6
CONTINUOUS
 62
     7
 10
644.0
 20
89.0
 30
0.0
 11
656.0
 21
89.0
 31
0.0
  0
LINE
  8
L-ZISSEN
  6
CONTINUOUS
 62
     7
 10
657.0
 20
106.0
 30
0.0
 11
657.0
 21
116.0
 31
0.0
  0
LINE
  8
L-ZISSEN
  6
CONTINUOUS
 62
     7
 10
643.0
 20
106.0
 30
0.0
 11
643.0
 21
116.0
 31
0.0
  0
LINE
  8
L-ZISSEN
  6
CONTINUOUS
 62
     7
 10
643.0
 20
116.0
 30
0.0
 11
657.0
 21
116.0
 31
0.0
  0
LINE
  8
L-ZISSEN
  6
CONTINUOUS
 62
     7
 10
654.0
 20
116.0
 30
0.0
 11
654.0
 21
232.0
 31
0.0
  0
LINE
  8
L-ZISSEN
  6
CONTINUOUS
 62
     7
 10
646.0
 20
116.0
 30
0.0
 11
646.0
 21
232.0
 31
0.0
  0
LINE
  8
L-ZISSEN
  6
CONTINUOUS
 62
     7
 10
643.0
 20
232.0
 30
0.0
 11
657.0
 21
232.0
 31
0.0
  0
LINE
  8
L-ZISSEN
  6
CONTINUOUS
 62
     7
 10
643.0
 20
242.0
 30
0.0
 11
643.0
 21
232.0
 31
0.0
  0
LINE
  8
L-ZISSEN
  6
CONTINUOUS
 62
     7
 10
657.0
 20
242.0
 30
0.0
 11
657.0
 21
232.0
 31
0.0
  0
LINE
  8
L-ZISSEN
  6
CONTINUOUS
 62
     7
 10
644.0
 20
259.0
 30
0.0
 11
656.0
 21
259.0
 31
0.0
  0
LINE
  8
L-ZISSEN
  6
CONTINUOUS
 62
     7
 10
643.0
 20
242.0
 30
0.0
 11
657.0
 21
242.0
 31
0.0
  0
LINE
  8
L-ZISSEN
  6
CONTINUOUS
 62
     7
 10
644.0
 20
242.0
 30
0.0
 11
644.0
 21
259.0
 31
0.0
  0
LINE
  8
L-ZISSEN
  6
CONTINUOUS
 62
     7
 10
656.0
 20
242.0
 30
0.0
 11
656.0
 21
259.0
 31
0.0
  0
SOLID
  8
L-ZISSEN
 10
651.733156
 20
348.947726
 30
0.0
 11
651.98075
 21
349.566711
 31
0.0
 12
650.0
 22
350.0
 32
0.0
 13
650.0
 23
350.0
 33
0.0
  0
LINE
  8
L-ZISSEN
 10
651.856953
 20
349.257219
 30
0.0
 11
750.0
 21
310.0
 31
0.0
  0
LINE
  8
L-ZISSEN
 10
750.0
 20
310.0
 30
0.0
 11
752.0
 21
310.0
 31
0.0
  0
TEXT
  8
L-ZISSEN
 10
754.0
 20
307.75
 30
0.0
 40
4.5
  1
P.P
  0
SOLID
  8
L-ZISSEN
 10
125.744091
 20
348.408208
 30
0.0
 11
126.328234
 21
348.086929
 31
0.0
 12
127.0
 22
350.0
 32
0.0
 13
127.0
 23
350.0
 33
0.0
  0
LINE
  8
L-ZISSEN
 10
126.036163
 20
348.247568
 30
0.0
 11
105.0
 21
310.0
 31
0.0
  0
LINE
  8
L-ZISSEN
 10
105.0
 20
310.0
 30
0.0
 11
103.0
 21
310.0
 31
0.0
  0
TEXT
  8
L-ZISSEN
 10
95.0
 20
307.75
 30
0.0
 40
4.5
  1
IN
  0
TEXT
  8
L-ZISSEN
 10
70.0
 20
300.0
 30
0.0
 40
4.5
  1
Rc 1-1/4
  0
TEXT
  8
L-ZISSEN
 10
70.0
 20
290.0
 30
0.0
 40
4.5
  1
Rc 1-1/2
  0
TEXT
  8
L-ZISSEN
 10
70.0
 20
280.0
 30
0.0
 40
4.5
  1
Rc 2
  0
SOLID
  8
L-ZISSEN
 10
1134.108768
 20
401.821213
 30
0.0
 11
1133.566279
 21
401.433721
 31
0.0
 12
1135.0
 22
400.0
 32
0.0
 13
1135.0
 23
400.0
 33
0.0
  0
LINE
  8
L-ZISSEN
 10
1133.837524
 20
401.627467
 30
0.0
 11
1110.0
 21
435.0
 31
0.0
  0
LINE
  8
L-ZISSEN
 10
1110.0
 20
435.0
 30
0.0
 11
1108.0
 21
435.0
 31
0.0
  0
TEXT
  8
L-ZISSEN
 10
1097.0
 20
432.75
 30
0.0
 40
4.5
  1
P.P
  0
TEXT
  8
L-ZISSEN
 10
80.0
 20
810.0
 30
0.0
 40
4.5
  1
MODEL NO. : TLB-B00-00B0
  0
TEXT
  8
L-ZISSEN
 10
1097.0
 20
72.75
 30
0.0
 40
4.5
  1
P.P
  0
LINE
  8
L-ZISSEN
 10
1110.0
 20
75.0
 30
0.0
 11
1108.0
 21
75.0
 31
0.0
  0
LINE
  8
L-ZISSEN
 10
1133.837524
 20
41.627467
 30
0.0
 11
1110.0
 21
75.0
 31
0.0
  0
SOLID
  8
L-ZISSEN
 10
1134.108768
 20
41.821213
 30
0.0
 11
1133.566279
 21
41.433721
 31
0.0
 12
1135.0
 22
40.0
 32
0.0
 13
1135.0
 23
40.0
 33
0.0
  0
LINE
  8
L-ZISSEN
 10
1058.0
 20
136.0
 30
0.0
 11
1090.0
 21
136.0
 31
0.0
  0
LINE
  8
L-ZISSEN
 10
1058.0
 20
136.0
 30
0.0
 11
1058.0
 21
124.0
 31
0.0
  0
LINE
  8
L-ZISSEN
 10
1090.0
 20
136.0
 30
0.0
 11
1090.0
 21
124.0
 31
0.0
  0
LINE
  8
L-ZISSEN
 10
1058.0
 20
124.0
 30
0.0
 11
1090.0
 21
124.0
 31
0.0
  0
LINE
  8
L-ZISSEN
 10
1081.0
 20
124.0
 30
0.0
 11
1081.0
 21
118.0
 31
0.0
  0
LINE
  8
L-ZISSEN
 10
1067.0
 20
124.0
 30
0.0
 11
1067.0
 21
120.0
 31
0.0
  0
LINE
  8
L-ZISSEN
 10
1080.5785
 20
118.0
 30
0.0
 11
1080.5785
 21
115.0
 31
0.0
  0
LINE
  8
L-ZISSEN
 10
1074.0
 20
118.0
 30
0.0
 11
1081.0
 21
118.0
 31
0.0
  0
LINE
  8
L-ZISSEN
 10
1044.25
 20
151.7
 30
0.0
 11
1041.25
 21
151.7
 31
0.0
  0
LINE
  8
L-ZISSEN
 10
1044.25
 20
169.7
 30
0.0
 11
1041.25
 21
169.7
 31
0.0
  0
LINE
  8
L-ZISSEN
 10
1036.25
 20
149.7
 30
0.0
 11
1041.25
 21
149.7
 31
0.0
  0
LINE
  8
L-ZISSEN
 10
1036.25
 20
171.7
 30
0.0
 11
1041.25
 21
171.7
 31
0.0
  0
LINE
  8
L-ZISSEN
 10
1041.25
 20
149.7
 30
0.0
 11
1041.25
 21
171.7
 31
0.0
  0
LINE
  8
L-ZISSEN
 10
1036.25
 20
149.7
 30
0.0
 11
1036.25
 21
171.7
 31
0.0
  0
LINE
  8
L-ZISSEN
 10
1044.25
 20
149.7
 30
0.0
 11
1059.75
 21
149.7
 31
0.0
  0
LINE
  8
L-ZISSEN
 10
1044.25
 20
149.7
 30
0.0
 11
1044.25
 21
171.7
 31
0.0
  0
LINE
  8
L-ZISSEN
 10
1044.25
 20
171.7
 30
0.0
 11
1087.25
 21
171.7
 31
0.0
  0
LINE
  8
L-ZISSEN
 10
1087.25
 20
136.0
 30
0.0
 11
1087.25
 21
171.7
 31
0.0
  0
LINE
  8
L-ZISSEN
 10
1059.75
 20
136.0
 30
0.0
 11
1059.75
 21
171.7
 31
0.0
  0
TEXT
  8
L-ZISSEN
 10
949.0
 20
57.75
 30
0.0
 40
4.5
  1
P.P
  0
LINE
  8
L-ZISSEN
 10
945.0
 20
60.0
 30
0.0
 11
947.0
 21
60.0
 31
0.0
  0
LINE
  8
L-ZISSEN
 10
926.414214
 20
41.414214
 30
0.0
 11
945.0
 21
60.0
 31
0.0
  0
SOLID
  8
L-ZISSEN
 10
926.649916
 20
41.178511
 30
0.0
 11
926.178511
 21
41.649916
 31
0.0
 12
925.0
 22
40.0
 32
0.0
 13
925.0
 23
40.0
 33
0.0
  0
LINE
  8
L-ZISSEN
 10
948.75
 20
171.7
 30
0.0
 11
976.25
 21
171.7
 31
0.0
  0
LINE
  8
L-ZISSEN
 10
901.25
 20
225.25
 30
0.0
 11
901.25
 21
252.75
 31
0.0
  0
LINE
  8
L-ZISSEN
 10
901.25
 20
252.75
 30
0.0
 11
873.75
 21
252.75
 31
0.0
  0
LINE
  8
L-ZISSEN
 10
873.75
 20
225.25
 30
0.0
 11
873.75
 21
252.75
 31
0.0
  0
LINE
  8
L-ZISSEN
 10
901.25
 20
225.25
 30
0.0
 11
873.75
 21
225.25
 31
0.0
  0
TEXT
  8
L-ZISSEN
 10
944.0
 20
282.75
 30
0.0
 40
4.5
  1
P.P
  0
LINE
  8
L-ZISSEN
 10
940.0
 20
285.0
 30
0.0
 11
942.0
 21
285.0
 31
0.0
  0
LINE
  8
L-ZISSEN
 10
926.414214
 20
298.585786
 30
0.0
 11
940.0
 21
285.0
 31
0.0
  0
SOLID
  8
L-ZISSEN
 10
926.178511
 20
298.350084
 30
0.0
 11
926.649916
 21
298.821489
 31
0.0
 12
925.0
 22
300.0
 32
0.0
 13
925.0
 23
300.0
 33
0.0
  0
LINE
  8
L-ZISSEN
 10
898.5
 20
202.25
 30
0.0
 11
898.5
 21
225.25
 31
0.0
  0
LINE
  8
L-ZISSEN
 10
898.5
 20
202.25
 30
0.0
 11
876.5
 21
202.25
 31
0.0
  0
LINE
  8
L-ZISSEN
 10
876.5
 20
202.25
 30
0.0
 11
876.5
 21
225.25
 31
0.0
  0
LINE
  8
L-ZISSEN
 10
876.5
 20
194.25
 30
0.0
 11
876.5
 21
199.25
 31
0.0
  0
LINE
  8
L-ZISSEN
 10
878.5
 20
202.25
 30
0.0
 11
878.5
 21
199.25
 31
0.0
  0
LINE
  8
L-ZISSEN
 10
898.5
 20
199.25
 30
0.0
 11
876.5
 21
199.25
 31
0.0
  0
LINE
  8
L-ZISSEN
 10
898.5
 20
194.25
 30
0.0
 11
876.5
 21
194.25
 31
0.0
  0
LINE
  8
L-ZISSEN
 10
896.5
 20
202.25
 30
0.0
 11
896.5
 21
199.25
 31
0.0
  0
LINE
  8
L-ZISSEN
 10
898.5
 20
194.25
 30
0.0
 11
898.5
 21
199.25
 31
0.0
  0
LINE
  8
L-ZISSEN
 10
871.5
 20
223.0
 30
0.0
 11
876.5
 21
223.0
 31
0.0
  0
LINE
  8
L-ZISSEN
 10
871.5
 20
255.0
 30
0.0
 11
903.5
 21
255.0
 31
0.0
  0
LINE
  8
L-ZISSEN
 10
871.5
 20
255.0
 30
0.0
 11
871.5
 21
223.0
 31
0.0
  0
LINE
  8
L-ZISSEN
 10
903.5
 20
255.0
 30
0.0
 11
903.5
 21
223.0
 31
0.0
  0
LINE
  8
L-ZISSEN
 10
898.5
 20
223.0
 30
0.0
 11
903.5
 21
223.0
 31
0.0
  0
LINE
  8
L-ZISSEN
 10
951.5
 20
223.0
 30
0.0
 11
946.5
 21
223.0
 31
0.0
  0
LINE
  8
L-ZISSEN
 10
946.5
 20
255.0
 30
0.0
 11
946.5
 21
223.0
 31
0.0
  0
LINE
  8
L-ZISSEN
 10
978.5
 20
255.0
 30
0.0
 11
978.5
 21
223.0
 31
0.0
  0
LINE
  8
L-ZISSEN
 10
978.5
 20
255.0
 30
0.0
 11
946.5
 21
255.0
 31
0.0
  0
LINE
  8
L-ZISSEN
 10
978.5
 20
223.0
 30
0.0
 11
973.5
 21
223.0
 31
0.0
  0
LINE
  8
L-ZISSEN
 10
976.25
 20
225.25
 30
0.0
 11
948.75
 21
225.25
 31
0.0
  0
LINE
  8
L-ZISSEN
 10
976.25
 20
225.25
 30
0.0
 11
976.25
 21
252.75
 31
0.0
  0
LINE
  8
L-ZISSEN
 10
976.25
 20
252.75
 30
0.0
 11
948.75
 21
252.75
 31
0.0
  0
LINE
  8
L-ZISSEN
 10
951.5
 20
194.25
 30
0.0
 11
951.5
 21
199.25
 31
0.0
  0
LINE
  8
L-ZISSEN
 10
953.5
 20
202.25
 30
0.0
 11
953.5
 21
199.25
 31
0.0
  0
LINE
  8
L-ZISSEN
 10
951.5
 20
194.25
 30
0.0
 11
973.5
 21
194.25
 31
0.0
  0
LINE
  8
L-ZISSEN
 10
951.5
 20
199.25
 30
0.0
 11
973.5
 21
199.25
 31
0.0
  0
LINE
  8
L-ZISSEN
 10
971.5
 20
202.25
 30
0.0
 11
971.5
 21
199.25
 31
0.0
  0
LINE
  8
L-ZISSEN
 10
973.5
 20
194.25
 30
0.0
 11
973.5
 21
199.25
 31
0.0
  0
LINE
  8
L-ZISSEN
 10
973.5
 20
202.25
 30
0.0
 11
973.5
 21
225.25
 31
0.0
  0
LINE
  8
L-ZISSEN
 10
951.5
 20
202.25
 30
0.0
 11
973.5
 21
202.25
 31
0.0
  0
LINE
  8
L-ZISSEN
 10
951.5
 20
202.25
 30
0.0
 11
951.5
 21
225.25
 31
0.0
  0
LINE
  8
L-ZISSEN
 10
948.75
 20
225.25
 30
0.0
 11
948.75
 21
252.75
 31
0.0
  0
LINE
  8
L-ZISSEN
 10
888.0
 20
118.0
 30
0.0
 11
898.167184
 21
118.0
 31
0.0
  0
LINE
  8
L-ZISSEN
 10
871.5
 20
124.0
 30
0.0
 11
899.544156
 21
124.0
 31
0.0
  0
LINE
  8
L-ZISSEN
 10
888.4215
 20
118.0
 30
0.0
 11
888.4215
 21
115.0
 31
0.0
  0
LINE
  8
L-ZISSEN
 10
888.0
 20
124.0
 30
0.0
 11
888.0
 21
118.0
 31
0.0
  0
LINE
  8
L-ZISSEN
 10
871.5
 20
136.0
 30
0.0
 11
903.5
 21
136.0
 31
0.0
  0
LINE
  8
L-ZISSEN
 10
871.5
 20
136.0
 30
0.0
 11
871.5
 21
124.0
 31
0.0
  0
LINE
  8
L-ZISSEN
 10
903.5
 20
136.0
 30
0.0
 11
903.5
 21
131.332483
 31
0.0
  0
LINE
  8
L-ZISSEN
 10
873.75
 20
171.7
 30
0.0
 11
901.25
 21
171.7
 31
0.0
  0
LINE
  8
L-ZISSEN
 10
901.25
 20
136.0
 30
0.0
 11
901.25
 21
171.7
 31
0.0
  0
LINE
  8
L-ZISSEN
 10
873.75
 20
136.0
 30
0.0
 11
873.75
 21
171.7
 31
0.0
  0
CIRCLE
  8
L-ZISSEN
 10
887.5
 20
160.7
 30
0.0
 40
11.0
  0
CIRCLE
  8
L-ZISSEN
 10
962.5
 20
160.7
 30
0.0
 40
11.0
  0
LINE
  8
L-ZISSEN
 10
976.25
 20
136.0
 30
0.0
 11
976.25
 21
171.7
 31
0.0
  0
LINE
  8
L-ZISSEN
 10
948.75
 20
136.0
 30
0.0
 11
948.75
 21
171.7
 31
0.0
  0
LINE
  8
L-ZISSEN
 10
946.5
 20
136.0
 30
0.0
 11
946.5
 21
131.332483
 31
0.0
  0
LINE
  8
L-ZISSEN
 10
978.5
 20
136.0
 30
0.0
 11
978.5
 21
124.0
 31
0.0
  0
LINE
  8
L-ZISSEN
 10
978.5
 20
136.0
 30
0.0
 11
946.5
 21
136.0
 31
0.0
  0
LINE
  8
L-ZISSEN
 10
962.0
 20
124.0
 30
0.0
 11
962.0
 21
118.0
 31
0.0
  0
LINE
  8
L-ZISSEN
 10
961.5785
 20
118.0
 30
0.0
 11
961.5785
 21
115.0
 31
0.0
  0
LINE
  8
L-ZISSEN
 10
978.5
 20
124.0
 30
0.0
 11
950.455844
 21
124.0
 31
0.0
  0
LINE
  8
L-ZISSEN
 10
962.0
 20
118.0
 30
0.0
 11
951.832816
 21
118.0
 31
0.0
  0
TEXT
  8
L-ZISSEN
  6
CONTINUOUS
 62
     7
 10
860.0
 20
360.0
 30
0.0
 40
4.5
  1
JUNCTION BOX
  0
LINE
  8
L-TYUSIN
 10
840.0
 20
740.0
 30
0.0
 11
840.0
 21
20.0
 31
0.0
  0
LINE
  8
L-TYUSIN
 10
840.0
 20
380.0
 30
0.0
 11
1160.0
 21
380.0
 31
0.0
  0
TEXT
  8
L-ZISSEN
 10
860.0
 20
710.0
 30
0.0
 40
4.5
  1
MODEL NO. : TLB-*00-00*4
  0
TEXT
  8
L-ZISSEN
 10
908.0
 20
700.0
 30
0.0
 40
4.5
  1
TLB-*00-00*5
  0
TEXT
  8
L-ZISSEN
 10
908.0
 20
690.0
 30
0.0
 40
4.5
  1
TLB-*00-00*C
  0
TEXT
  8
L-ZISSEN
 10
908.0
 20
680.0
 30
0.0
 40
4.5
  1
TLB-*00-00*D
  0
TEXT
  8
L-ZISSEN
 10
908.0
 20
320.0
 30
0.0
 40
4.5
  1
TLB-*00-00*G
  0
TEXT
  8
L-ZISSEN
 10
908.0
 20
330.0
 30
0.0
 40
4.5
  1
TLB-*00-00*F
  0
TEXT
  8
L-ZISSEN
 10
908.0
 20
340.0
 30
0.0
 40
4.5
  1
TLB-*00-00*E
  0
TEXT
  8
L-ZISSEN
 10
860.0
 20
350.0
 30
0.0
 40
4.5
  1
MODEL NO. : TLB-*00-00*6
  0
ENDSEC
  0
EOF
