  0
SECTION
  2
HEADER
  9
$ACADVER
  1
AC1006
  9
$INSBASE
 10
0.0
 20
0.0
 30
0.0
  9
$EXTMIN
 10
78.2
 20
33.0
  9
$EXTMAX
 10
1459.0
 20
1167.25
  9
$LIMMIN
 10
0.0
 20
0.0
  9
$LIMMAX
 10
2100.0
 20
1485.0
  9
$ORTHOMODE
 70
     1
  9
$REGENMODE
 70
     1
  9
$FILLMODE
 70
     1
  9
$QTEXTMODE
 70
     0
  9
$MIRRTEXT
 70
     1
  9
$DRAGMODE
 70
     2
  9
$LTSCALE
 40
1.0
  9
$OSMODE
 70
     0
  9
$ATTMODE
 70
     1
  9
$TEXTSIZE
 40
4.5
  9
$TRACEWID
 40
0.05
  9
$TEXTSTYLE
  7
STANDARD
  9
$CLAYER
  8
L-ZISSEN
  9
$CELTYPE
  6
BYLAYER
  9
$CECOLOR
 62
   256
  9
$DIMSCALE
 40
1.0
  9
$DIMASZ
 40
2.0
  9
$DIMEXO
 40
1.0
  9
$DIMDLI
 40
0.38
  9
$DIMRND
 40
0.0
  9
$DIMDLE
 40
1.0
  9
$DIMEXE
 40
1.0
  9
$DIMTP
 40
0.0
  9
$DIMTM
 40
0.0
  9
$DIMTXT
 40
4.5
  9
$DIMCEN
 40
0.09
  9
$DIMTSZ
 40
0.0
  9
$DIMTOL
 70
     0
  9
$DIMLIM
 70
     0
  9
$DIMTIH
 70
     0
  9
$DIMTOH
 70
     0
  9
$DIMSE1
 70
     0
  9
$DIMSE2
 70
     0
  9
$DIMTAD
 70
     1
  9
$DIMZIN
 70
     0
  9
$DIMBLK
  1

  9
$DIMASO
 70
     0
  9
$DIMSHO
 70
     0
  9
$DIMPOST
  1

  9
$DIMAPOST
  1

  9
$DIMALT
 70
     0
  9
$DIMALTD
 70
     2
  9
$DIMALTF
 40
25.4
  9
$DIMLFAC
 40
1.0
  9
$DIMTOFL
 70
     1
  9
$DIMTVP
 40
0.0
  9
$DIMTIX
 70
     0
  9
$DIMSOXD
 70
     0
  9
$DIMSAH
 70
     0
  9
$DIMBLK1
  1

  9
$DIMBLK2
  1

  9
$LUNITS
 70
     2
  9
$LUPREC
 70
     4
  9
$AXISMODE
 70
     0
  9
$AXISUNIT
 10
0.0
 20
0.0
  9
$SKETCHINC
 40
0.1
  9
$FILLETRAD
 40
0.0
  9
$AUNITS
 70
     0
  9
$AUPREC
 70
     0
  9
$MENU
  1
acad
  9
$ELEVATION
 40
0.0
  9
$THICKNESS
 40
0.0
  9
$LIMCHECK
 70
     0
  9
$BLIPMODE
 70
     1
  9
$CHAMFERA
 40
0.0
  9
$CHAMFERB
 40
0.0
  9
$SKPOLY
 70
     0
  9
$TDCREATE
 40
2449654.5795388888
  9
$TDUPDATE
 40
2449654.5795388888
  9
$TDINDWG
 40
0.0000000000
  9
$TDUSRTIMER
 40
0.0000000000
  9
$USRTIMER
 70
     1
  9
$ANGBASE
 50
0.0
  9
$ANGDIR
 70
     0
  9
$PDMODE
 70
     0
  9
$PDSIZE
 40
0.0
  9
$PLINEWID
 40
0.0
  9
$COORDS
 70
     2
  9
$SPLFRAME
 70
     0
  9
$SPLINETYPE
 70
     6
  9
$SPLINESEGS
 70
     8
  9
$ATTDIA
 70
     0
  9
$ATTREQ
 70
     1
  9
$HANDLING
 70
     0
  9
$HANDSEED
  5
0
  9
$SURFTAB1
 70
     6
  9
$SURFTAB2
 70
     6
  9
$SURFTYPE
 70
     6
  9
$SURFU
 70
     6
  9
$SURFV
 70
     6
  9
$FLATLAND
 70
     0
  9
$UCSNAME
  2

  9
$UCSORG
 10
0.0
 20
0.0
 30
0.0
  9
$UCSXDIR
 10
1.0
 20
0.0
 30
0.0
  9
$UCSYDIR
 10
0.0
 20
1.0
 30
0.0
  9
$USERI1
 70
     0
  9
$USERI2
 70
     0
  9
$USERI3
 70
     0
  9
$USERI4
 70
     0
  9
$USERI5
 70
     0
  9
$USERR1
 40
0.0
  9
$USERR2
 40
0.0
  9
$USERR3
 40
0.0
  9
$USERR4
 40
0.0
  9
$USERR5
 40
0.0
  9
$WORLDVIEW
 70
     1
  0
ENDSEC
  0
SECTION
  2
TABLES
  0
TABLE
  2
VPORT
 70
     2
  0
VPORT
  2
*ACTIVE
 70
     0
 10
0.0
 20
0.0
 11
1.0
 21
1.0
 12
988.050287
 22
611.198997
 13
0.0
 23
0.0
 14
5.0
 24
5.0
 15
0.0
 25
0.0
 16
0.0
 26
0.0
 36
1.0
 17
0.0
 27
0.0
 37
0.0
 40
1241.429151
 41
1.5487
 42
50.0
 43
0.0
 44
0.0
 50
0.0
 51
0.0
 71
     0
 72
   100
 73
     1
 74
     0
 75
     0
 76
     0
 77
     0
 78
     0
  0
ENDTAB
  0
TABLE
  2
LTYPE
 70
     2
  0
LTYPE
  2
CONTINUOUS
 70
    64
  3
Solid line
 72
    65
 73
     0
 40
0.0
  0
LTYPE
  2
CENTER
 70
    64
  3
____ _ ____ _ ____ _ ____ _ 
 72
    65
 73
     4
 40
60.0
 49
45.0
 49
-5.0
 49
5.0
 49
-5.0
  0
ENDTAB
  0
TABLE
  2
LAYER
 70
     3
  0
LAYER
  2
0
 70
     0
 62
     7
  6
CONTINUOUS
  0
LAYER
  2
L-ZISSEN
 70
    64
 62
     7
  6
CONTINUOUS
  0
LAYER
  2
L-TYUSIN
 70
    64
 62
     1
  6
CENTER
  0
ENDTAB
  0
TABLE
  2
STYLE
 70
     1
  0
STYLE
  2
STANDARD
 70
    64
 40
0.0
 41
1.0
 50
0.0
 71
     0
 42
4.5
  3
TXT
  4

  0
ENDTAB
  0
TABLE
  2
VIEW
 70
     0
  0
ENDTAB
  0
TABLE
  2
UCS
 70
     0
  0
ENDTAB
  0
TABLE
  2
DWGMGR
 70
     0
  0
ENDTAB
  0
ENDSEC
  0
SECTION
  2
BLOCKS
  0
ENDSEC
  0
SECTION
  2
ENTITIES
  0
LINE
  8
L-TYUSIN
 10
480.0
 20
1127.0
 30
0.0
 11
480.0
 21
920.0
 31
0.0
  0
LINE
  8
L-TYUSIN
 10
385.0
 20
1015.0
 30
0.0
 11
575.0
 21
1015.0
 31
0.0
  0
LINE
  8
L-ZISSEN
 10
390.0
 20
945.0
 30
0.0
 11
390.0
 21
1122.0
 31
0.0
  0
LINE
  8
L-ZISSEN
 10
570.0
 20
1122.0
 30
0.0
 11
570.0
 21
1065.636336
 31
0.0
  0
LINE
  8
L-ZISSEN
 10
550.0
 20
925.0
 30
0.0
 11
410.0
 21
925.0
 31
0.0
  0
LINE
  8
L-ZISSEN
 10
390.0
 20
1122.0
 30
0.0
 11
570.0
 21
1122.0
 31
0.0
  0
LINE
  8
L-ZISSEN
 10
452.0
 20
850.0
 30
0.0
 11
390.0
 21
850.0
 31
0.0
  0
ARC
  8
L-ZISSEN
 10
410.0
 20
945.0
 30
0.0
 40
20.0
 50
180.0
 51
270.0
  0
ARC
  8
L-ZISSEN
 10
550.0
 20
945.0
 30
0.0
 40
20.0
 50
270.0
 51
0.0
  0
LINE
  8
L-TYUSIN
 10
418.0
 20
1033.0
 30
0.0
 11
418.0
 21
997.0
 31
0.0
  0
LINE
  8
L-ZISSEN
 10
390.0
 20
1118.8
 30
0.0
 11
570.0
 21
1118.8
 31
0.0
  0
LINE
  8
L-ZISSEN
 10
564.310545
 20
1062.0
 30
0.0
 11
540.991803
 21
1062.0
 31
0.0
  0
LINE
  8
L-ZISSEN
 10
419.008197
 20
1062.0
 30
0.0
 11
390.0
 21
1062.0
 31
0.0
  0
LINE
  8
L-ZISSEN
 10
570.0
 20
850.0
 30
0.0
 11
570.0
 21
836.6
 31
0.0
  0
LINE
  8
L-ZISSEN
 10
390.0
 20
760.0
 30
0.0
 11
390.0
 21
850.0
 31
0.0
  0
LINE
  8
L-ZISSEN
 10
566.909985
 20
760.0
 30
0.0
 11
522.0
 21
760.0
 31
0.0
  0
LINE
  8
L-ZISSEN
 10
566.909985
 20
763.2
 30
0.0
 11
558.0
 21
763.2
 31
0.0
  0
LINE
  8
L-TYUSIN
 10
420.0
 20
841.0
 30
0.0
 11
420.0
 21
811.0
 31
0.0
  0
LINE
  8
L-TYUSIN
 10
400.0
 20
826.0
 30
0.0
 11
440.0
 21
826.0
 31
0.0
  0
LINE
  8
L-ZISSEN
 10
416.0
 20
835.0
 30
0.0
 11
424.0
 21
835.0
 31
0.0
  0
LINE
  8
L-ZISSEN
 10
416.0
 20
817.0
 30
0.0
 11
424.0
 21
817.0
 31
0.0
  0
ARC
  8
L-ZISSEN
 10
424.0
 20
826.0
 30
0.0
 40
9.0
 50
270.0
 51
90.0
  0
ARC
  8
L-ZISSEN
 10
416.0
 20
826.0
 30
0.0
 40
9.0
 50
90.0
 51
270.0
  0
LINE
  8
L-ZISSEN
 10
508.0
 20
851.6
 30
0.0
 11
508.0
 21
823.0
 31
0.0
  0
ARC
  8
L-ZISSEN
 10
480.0
 20
1015.0
 30
0.0
 40
77.0
 50
37.61768
 51
142.38232
  0
LINE
  8
L-ZISSEN
 10
423.856406
 20
776.2
 30
0.0
 11
418.0
 21
776.2
 31
0.0
  0
CIRCLE
  8
L-ZISSEN
 10
410.0
 20
945.0
 30
0.0
 40
8.0
  0
CIRCLE
  8
L-ZISSEN
 10
410.0
 20
1085.0
 30
0.0
 40
8.0
  0
CIRCLE
  8
L-ZISSEN
 10
550.0
 20
945.0
 30
0.0
 40
8.0
  0
LINE
  8
L-ZISSEN
 10
423.856406
 20
776.2
 30
0.0
 11
423.856406
 21
763.2
 31
0.0
  0
LINE
  8
L-ZISSEN
 10
396.143594
 20
776.2
 30
0.0
 11
396.143594
 21
763.2
 31
0.0
  0
LINE
  8
L-ZISSEN
 10
396.143594
 20
760.0
 30
0.0
 11
396.143594
 21
743.0
 31
0.0
  0
LINE
  8
L-ZISSEN
 10
423.856406
 20
760.0
 30
0.0
 11
423.856406
 21
743.0
 31
0.0
  0
LINE
  8
L-ZISSEN
 10
570.0
 20
743.0
 30
0.0
 11
390.0
 21
743.0
 31
0.0
  0
LINE
  8
L-ZISSEN
 10
390.0
 20
713.0
 30
0.0
 11
570.0
 21
713.0
 31
0.0
  0
LINE
  8
L-ZISSEN
 10
390.0
 20
713.0
 30
0.0
 11
390.0
 21
743.0
 31
0.0
  0
LINE
  8
L-ZISSEN
 10
570.0
 20
713.0
 30
0.0
 11
570.0
 21
743.0
 31
0.0
  0
LINE
  8
L-ZISSEN
 10
536.143594
 20
760.0
 30
0.0
 11
536.143594
 21
743.0
 31
0.0
  0
LINE
  8
L-ZISSEN
 10
563.856406
 20
760.0
 30
0.0
 11
563.856406
 21
743.0
 31
0.0
  0
LINE
  8
L-ZISSEN
 10
563.856406
 20
778.1
 30
0.0
 11
563.856406
 21
763.2
 31
0.0
  0
LINE
  8
L-ZISSEN
 10
536.143594
 20
776.2
 30
0.0
 11
536.143594
 21
763.2
 31
0.0
  0
LINE
  8
L-ZISSEN
 10
536.143594
 20
776.2
 30
0.0
 11
542.0
 21
776.2
 31
0.0
  0
LINE
  8
L-ZISSEN
 10
562.5
 20
713.0
 30
0.0
 11
562.5
 21
496.0
 31
0.0
  0
LINE
  8
L-ZISSEN
 10
397.5
 20
496.0
 30
0.0
 11
397.5
 21
713.0
 31
0.0
  0
LINE
  8
L-ZISSEN
 10
390.0
 20
446.0
 30
0.0
 11
390.0
 21
496.0
 31
0.0
  0
LINE
  8
L-ZISSEN
 10
570.0
 20
446.0
 30
0.0
 11
570.0
 21
496.0
 31
0.0
  0
LINE
  8
L-ZISSEN
 10
570.0
 20
496.0
 30
0.0
 11
534.0
 21
496.0
 31
0.0
  0
LINE
  8
L-ZISSEN
 10
534.0
 20
496.0
 30
0.0
 11
534.0
 21
474.0
 31
0.0
  0
LINE
  8
L-ZISSEN
 10
534.0
 20
474.0
 30
0.0
 11
426.0
 21
474.0
 31
0.0
  0
LINE
  8
L-ZISSEN
 10
426.0
 20
474.0
 30
0.0
 11
426.0
 21
496.0
 31
0.0
  0
LINE
  8
L-ZISSEN
 10
426.0
 20
496.0
 30
0.0
 11
390.0
 21
496.0
 31
0.0
  0
LINE
  8
L-ZISSEN
 10
570.0
 20
446.0
 30
0.0
 11
390.0
 21
446.0
 31
0.0
  0
LINE
  8
L-ZISSEN
 10
558.0
 20
791.0
 30
0.0
 11
542.0
 21
791.0
 31
0.0
  0
LINE
  8
L-ZISSEN
 10
558.0
 20
791.0
 30
0.0
 11
558.0
 21
760.0
 31
0.0
  0
LINE
  8
L-ZISSEN
 10
542.0
 20
791.0
 30
0.0
 11
542.0
 21
760.0
 31
0.0
  0
LINE
  8
L-ZISSEN
 10
402.0
 20
791.0
 30
0.0
 11
402.0
 21
760.0
 31
0.0
  0
LINE
  8
L-ZISSEN
 10
418.0
 20
791.0
 30
0.0
 11
418.0
 21
760.0
 31
0.0
  0
LINE
  8
L-ZISSEN
 10
402.0
 20
791.0
 30
0.0
 11
418.0
 21
791.0
 31
0.0
  0
LINE
  8
L-ZISSEN
 10
402.0
 20
713.0
 30
0.0
 11
402.0
 21
496.0
 31
0.0
  0
LINE
  8
L-ZISSEN
 10
418.0
 20
713.0
 30
0.0
 11
418.0
 21
496.0
 31
0.0
  0
LINE
  8
L-ZISSEN
 10
542.0
 20
713.0
 30
0.0
 11
542.0
 21
496.0
 31
0.0
  0
LINE
  8
L-ZISSEN
 10
558.0
 20
713.0
 30
0.0
 11
558.0
 21
496.0
 31
0.0
  0
LINE
  8
L-ZISSEN
 10
560.0
 20
366.0
 30
0.0
 11
558.0
 21
366.0
 31
0.0
  0
LINE
  8
L-ZISSEN
 10
560.0
 20
352.0
 30
0.0
 11
558.0
 21
352.0
 31
0.0
  0
LINE
  8
L-ZISSEN
 10
560.0
 20
366.0
 30
0.0
 11
560.0
 21
352.0
 31
0.0
  0
LINE
  8
L-ZISSEN
 10
400.0
 20
366.0
 30
0.0
 11
400.0
 21
352.0
 31
0.0
  0
LINE
  8
L-ZISSEN
 10
498.0
 20
369.0
 30
0.0
 11
498.0
 21
286.664319
 31
0.0
  0
LINE
  8
L-ZISSEN
 10
498.0
 20
369.0
 30
0.0
 11
462.0
 21
369.0
 31
0.0
  0
LINE
  8
L-ZISSEN
 10
462.0
 20
369.0
 30
0.0
 11
462.0
 21
279.0
 31
0.0
  0
LINE
  8
L-ZISSEN
 10
462.0
 20
366.0
 30
0.0
 11
418.0
 21
366.0
 31
0.0
  0
LINE
  8
L-ZISSEN
 10
462.0
 20
352.0
 30
0.0
 11
418.0
 21
352.0
 31
0.0
  0
LINE
  8
L-ZISSEN
 10
388.0
 20
279.0
 30
0.0
 11
388.0
 21
153.0
 31
0.0
  0
LINE
  8
L-ZISSEN
 10
570.0
 20
43.0
 30
0.0
 11
490.5
 21
43.0
 31
0.0
  0
LINE
  8
L-ZISSEN
 10
570.0
 20
43.0
 30
0.0
 11
570.0
 21
153.0
 31
0.0
  0
LINE
  8
L-ZISSEN
 10
390.0
 20
43.0
 30
0.0
 11
390.0
 21
153.0
 31
0.0
  0
ARC
  8
L-ZISSEN
 10
416.0
 20
67.0
 30
0.0
 40
9.0
 50
90.0
 51
270.0
  0
ARC
  8
L-ZISSEN
 10
424.0
 20
67.0
 30
0.0
 40
9.0
 50
270.0
 51
90.0
  0
LINE
  8
L-ZISSEN
 10
416.0
 20
58.0
 30
0.0
 11
424.0
 21
58.0
 31
0.0
  0
LINE
  8
L-ZISSEN
 10
416.0
 20
76.0
 30
0.0
 11
424.0
 21
76.0
 31
0.0
  0
LINE
  8
L-TYUSIN
 10
400.0
 20
67.0
 30
0.0
 11
440.0
 21
67.0
 31
0.0
  0
LINE
  8
L-TYUSIN
 10
420.0
 20
82.0
 30
0.0
 11
420.0
 21
52.0
 31
0.0
  0
LINE
  8
L-TYUSIN
 10
540.0
 20
82.0
 30
0.0
 11
540.0
 21
52.0
 31
0.0
  0
LINE
  8
L-TYUSIN
 10
560.0
 20
67.0
 30
0.0
 11
520.0
 21
67.0
 31
0.0
  0
LINE
  8
L-ZISSEN
 10
544.0
 20
76.0
 30
0.0
 11
536.0
 21
76.0
 31
0.0
  0
LINE
  8
L-ZISSEN
 10
544.0
 20
58.0
 30
0.0
 11
536.0
 21
58.0
 31
0.0
  0
ARC
  8
L-ZISSEN
 10
536.0
 20
67.0
 30
0.0
 40
9.0
 50
90.0
 51
270.0
  0
ARC
  8
L-ZISSEN
 10
544.0
 20
67.0
 30
0.0
 40
9.0
 50
270.0
 51
90.0
  0
LINE
  8
L-TYUSIN
 10
480.0
 20
856.6
 30
0.0
 11
480.0
 21
33.0
 31
0.0
  0
LINE
  8
L-ZISSEN
 10
542.0
 20
446.0
 30
0.0
 11
542.0
 21
279.0
 31
0.0
  0
LINE
  8
L-ZISSEN
 10
558.0
 20
446.0
 30
0.0
 11
558.0
 21
279.0
 31
0.0
  0
LINE
  8
L-ZISSEN
 10
402.0
 20
446.0
 30
0.0
 11
402.0
 21
279.0
 31
0.0
  0
LINE
  8
L-ZISSEN
 10
418.0
 20
446.0
 30
0.0
 11
418.0
 21
279.0
 31
0.0
  0
LINE
  8
L-ZISSEN
 10
534.0
 20
812.0
 30
0.0
 11
534.0
 21
762.0
 31
0.0
  0
LINE
  8
L-ZISSEN
 10
534.0
 20
762.0
 30
0.0
 11
484.0
 21
762.0
 31
0.0
  0
LINE
  8
L-ZISSEN
 10
484.0
 20
762.0
 30
0.0
 11
484.0
 21
812.0
 31
0.0
  0
LINE
  8
L-ZISSEN
 10
522.0
 20
762.0
 30
0.0
 11
522.0
 21
750.0
 31
0.0
  0
LINE
  8
L-ZISSEN
 10
522.0
 20
750.0
 30
0.0
 11
496.0
 21
750.0
 31
0.0
  0
LINE
  8
L-ZISSEN
 10
496.0
 20
750.0
 30
0.0
 11
496.0
 21
762.0
 31
0.0
  0
LINE
  8
L-ZISSEN
 10
451.0
 20
763.2
 30
0.0
 11
418.0
 21
763.2
 31
0.0
  0
LINE
  8
L-ZISSEN
 10
451.0
 20
760.0
 30
0.0
 11
390.0
 21
760.0
 31
0.0
  0
LINE
  8
L-ZISSEN
 10
519.5
 20
750.0
 30
0.0
 11
519.5
 21
743.0
 31
0.0
  0
LINE
  8
L-ZISSEN
 10
498.5
 20
750.0
 30
0.0
 11
498.5
 21
743.0
 31
0.0
  0
LINE
  8
L-ZISSEN
 10
484.0
 20
812.0
 30
0.0
 11
534.0
 21
812.0
 31
0.0
  0
CIRCLE
  8
L-ZISSEN
 10
509.0
 20
959.0
 30
0.0
 40
25.0
  0
LINE
  8
L-ZISSEN
 10
515.928203
 20
823.0
 30
0.0
 11
515.928203
 21
812.0
 31
0.0
  0
LINE
  8
L-ZISSEN
 10
515.928203
 20
823.0
 30
0.0
 11
502.071797
 21
823.0
 31
0.0
  0
LINE
  8
L-ZISSEN
 10
502.071797
 20
823.0
 30
0.0
 11
502.071797
 21
812.0
 31
0.0
  0
LINE
  8
L-ZISSEN
 10
484.0
 20
782.6
 30
0.0
 11
451.0
 21
782.6
 31
0.0
  0
LINE
  8
L-ZISSEN
 10
438.0
 20
752.6
 30
0.0
 11
496.0
 21
752.6
 31
0.0
  0
LINE
  8
L-ZISSEN
 10
438.0
 20
752.6
 30
0.0
 11
438.0
 21
743.0
 31
0.0
  0
LINE
  8
L-ZISSEN
 10
522.0
 20
750.0
 30
0.0
 11
522.0
 21
743.0
 31
0.0
  0
LINE
  8
L-ZISSEN
 10
451.0
 20
782.6
 30
0.0
 11
451.0
 21
752.6
 31
0.0
  0
LINE
  8
L-ZISSEN
 10
452.0
 20
851.6
 30
0.0
 11
508.0
 21
851.6
 31
0.0
  0
LINE
  8
L-ZISSEN
 10
452.0
 20
851.6
 30
0.0
 11
452.0
 21
782.6
 31
0.0
  0
CIRCLE
  8
L-ZISSEN
 10
480.0
 20
1015.0
 30
0.0
 40
28.0
  0
ARC
  8
L-ZISSEN
 10
480.0
 20
1015.0
 30
0.0
 40
29.0
 50
138.29097
 51
223.986606
  0
ARC
  8
L-ZISSEN
 10
480.0
 20
1015.0
 30
0.0
 40
50.0
 50
212.85988
 51
273.567999
  0
LINE
  8
L-ZISSEN
 10
522.0
 20
1045.694921
 30
0.0
 11
522.0
 21
1028.09359
 31
0.0
  0
LINE
  8
L-ZISSEN
 10
438.0
 20
987.87068
 30
0.0
 11
438.0
 21
1042.12932
 31
0.0
  0
LINE
  8
L-ZISSEN
 10
522.0
 20
1045.694921
 30
0.0
 11
482.552378
 21
1064.934811
 31
0.0
  0
ARC
  8
L-ZISSEN
 10
480.0
 20
1015.0
 30
0.0
 40
50.0
 50
87.073918
 51
147.14012
  0
LINE
  8
L-ZISSEN
 10
522.0
 20
984.305079
 30
0.0
 11
517.965235
 21
982.337193
 31
0.0
  0
LINE
  8
L-ZISSEN
 10
485.090492
 20
966.303109
 30
0.0
 11
483.111655
 21
965.337966
 31
0.0
  0
LINE
  8
L-ZISSEN
 10
468.505185
 20
1063.660756
 30
0.0
 11
478.124002
 21
1043.939258
 31
0.0
  0
LINE
  8
L-ZISSEN
 10
448.731716
 20
1054.016591
 30
0.0
 11
458.350533
 21
1034.295092
 31
0.0
  0
LINE
  8
L-ZISSEN
 10
467.928203
 20
978.091035
 30
0.0
 11
472.990843
 21
986.859785
 31
0.0
  0
LINE
  8
L-ZISSEN
 10
454.071797
 20
986.091035
 30
0.0
 11
459.134437
 21
994.859785
 31
0.0
  0
ARC
  8
L-ZISSEN
 10
461.0
 20
982.091035
 30
0.0
 40
8.0
 50
150.0
 51
330.0
  0
ARC
  8
L-ZISSEN
 10
480.0
 20
1015.0
 30
0.0
 40
29.0
 50
256.013394
 51
93.70903
  0
CIRCLE
  8
L-ZISSEN
 10
546.966927
 20
1026.808076
 30
0.0
 40
25.0
  0
LINE
  8
L-ZISSEN
 10
570.0
 20
1017.088119
 30
0.0
 11
570.0
 21
945.0
 31
0.0
  0
LINE
  8
L-ZISSEN
 62
     7
 10
507.70921
 20
1024.857603
 30
0.0
 11
521.988152
 21
1027.838027
 31
0.0
  0
LINE
  8
L-ZISSEN
 62
     7
 10
509.409639
 20
1015.213992
 30
0.0
 11
523.846821
 21
1017.296994
 31
0.0
  0
LINE
  8
L-ZISSEN
 10
522.0
 20
1017.030534
 30
0.0
 11
522.0
 21
984.305079
 31
0.0
  0
LINE
  8
L-ZISSEN
 10
722.0
 20
851.6
 30
0.0
 11
722.0
 21
782.6
 31
0.0
  0
LINE
  8
L-ZISSEN
 10
722.0
 20
851.6
 30
0.0
 11
778.0
 21
851.6
 31
0.0
  0
LINE
  8
L-ZISSEN
 10
721.0
 20
782.6
 30
0.0
 11
721.0
 21
752.6
 31
0.0
  0
LINE
  8
L-ZISSEN
 10
708.0
 20
752.6
 30
0.0
 11
708.0
 21
743.0
 31
0.0
  0
LINE
  8
L-ZISSEN
 10
708.0
 20
752.6
 30
0.0
 11
792.0
 21
752.6
 31
0.0
  0
LINE
  8
L-ZISSEN
 10
779.0
 20
782.6
 30
0.0
 11
769.194134
 21
782.6
 31
0.0
  0
LINE
  8
L-ZISSEN
 10
688.0
 20
446.0
 30
0.0
 11
688.0
 21
279.0
 31
0.0
  0
LINE
  8
L-ZISSEN
 10
672.0
 20
446.0
 30
0.0
 11
672.0
 21
279.0
 31
0.0
  0
LINE
  8
L-ZISSEN
 10
828.0
 20
446.0
 30
0.0
 11
828.0
 21
279.0
 31
0.0
  0
LINE
  8
L-ZISSEN
 10
812.0
 20
446.0
 30
0.0
 11
812.0
 21
279.0
 31
0.0
  0
LINE
  8
L-TYUSIN
 10
750.0
 20
856.6
 30
0.0
 11
750.0
 21
148.0
 31
0.0
  0
LINE
  8
L-ZISSEN
 10
830.0
 20
366.0
 30
0.0
 11
830.0
 21
352.0
 31
0.0
  0
LINE
  8
L-ZISSEN
 10
830.0
 20
352.0
 30
0.0
 11
828.0
 21
352.0
 31
0.0
  0
LINE
  8
L-ZISSEN
 10
830.0
 20
366.0
 30
0.0
 11
828.0
 21
366.0
 31
0.0
  0
LINE
  8
L-ZISSEN
 10
828.0
 20
713.0
 30
0.0
 11
828.0
 21
496.0
 31
0.0
  0
LINE
  8
L-ZISSEN
 10
812.0
 20
713.0
 30
0.0
 11
812.0
 21
496.0
 31
0.0
  0
LINE
  8
L-ZISSEN
 10
688.0
 20
713.0
 30
0.0
 11
688.0
 21
496.0
 31
0.0
  0
LINE
  8
L-ZISSEN
 10
672.0
 20
713.0
 30
0.0
 11
672.0
 21
496.0
 31
0.0
  0
LINE
  8
L-ZISSEN
 10
672.0
 20
791.0
 30
0.0
 11
688.0
 21
791.0
 31
0.0
  0
LINE
  8
L-ZISSEN
 10
688.0
 20
791.0
 30
0.0
 11
688.0
 21
760.0
 31
0.0
  0
LINE
  8
L-ZISSEN
 10
672.0
 20
791.0
 30
0.0
 11
672.0
 21
760.0
 31
0.0
  0
LINE
  8
L-ZISSEN
 10
812.0
 20
791.0
 30
0.0
 11
812.0
 21
776.2
 31
0.0
  0
LINE
  8
L-ZISSEN
 10
828.0
 20
791.0
 30
0.0
 11
828.0
 21
776.2
 31
0.0
  0
LINE
  8
L-ZISSEN
 10
828.0
 20
791.0
 30
0.0
 11
812.0
 21
791.0
 31
0.0
  0
LINE
  8
L-ZISSEN
 10
840.0
 20
446.0
 30
0.0
 11
799.0
 21
446.0
 31
0.0
  0
LINE
  8
L-ZISSEN
 10
696.0
 20
496.0
 30
0.0
 11
660.0
 21
496.0
 31
0.0
  0
LINE
  8
L-ZISSEN
 10
696.0
 20
474.0
 30
0.0
 11
696.0
 21
496.0
 31
0.0
  0
LINE
  8
L-ZISSEN
 10
804.0
 20
474.0
 30
0.0
 11
799.0
 21
474.0
 31
0.0
  0
LINE
  8
L-ZISSEN
 10
804.0
 20
496.0
 30
0.0
 11
804.0
 21
474.0
 31
0.0
  0
LINE
  8
L-ZISSEN
 10
840.0
 20
496.0
 30
0.0
 11
804.0
 21
496.0
 31
0.0
  0
LINE
  8
L-ZISSEN
 10
840.0
 20
446.0
 30
0.0
 11
840.0
 21
496.0
 31
0.0
  0
LINE
  8
L-ZISSEN
 10
660.0
 20
446.0
 30
0.0
 11
660.0
 21
496.0
 31
0.0
  0
LINE
  8
L-ZISSEN
 10
667.5
 20
496.0
 30
0.0
 11
667.5
 21
713.0
 31
0.0
  0
LINE
  8
L-ZISSEN
 10
832.5
 20
713.0
 30
0.0
 11
832.5
 21
496.0
 31
0.0
  0
LINE
  8
L-ZISSEN
 10
840.0
 20
713.0
 30
0.0
 11
840.0
 21
743.0
 31
0.0
  0
LINE
  8
L-ZISSEN
 10
660.0
 20
713.0
 30
0.0
 11
660.0
 21
743.0
 31
0.0
  0
LINE
  8
L-ZISSEN
 10
660.0
 20
713.0
 30
0.0
 11
793.0
 21
713.0
 31
0.0
  0
LINE
  8
L-ZISSEN
 10
840.0
 20
743.0
 30
0.0
 11
799.0
 21
743.0
 31
0.0
  0
LINE
  8
L-ZISSEN
 10
853.8
 20
763.2
 30
0.0
 11
799.0
 21
763.2
 31
0.0
  0
LINE
  8
L-ZISSEN
 10
857.0
 20
760.0
 30
0.0
 11
799.0
 21
760.0
 31
0.0
  0
LINE
  8
L-ZISSEN
 10
857.0
 20
850.0
 30
0.0
 11
857.0
 21
760.0
 31
0.0
  0
LINE
  8
L-ZISSEN
 10
558.0
 20
776.2
 30
0.0
 11
563.856406
 21
776.2
 31
0.0
  0
LINE
  8
L-ZISSEN
 10
542.0
 20
763.2
 30
0.0
 11
534.0
 21
763.2
 31
0.0
  0
LINE
  8
L-ZISSEN
 10
402.0
 20
776.2
 30
0.0
 11
396.143594
 21
776.2
 31
0.0
  0
LINE
  8
L-ZISSEN
 10
402.0
 20
763.2
 30
0.0
 11
390.0
 21
763.2
 31
0.0
  0
LINE
  8
L-ZISSEN
 10
778.0
 20
851.6
 30
0.0
 11
778.0
 21
836.6
 31
0.0
  0
LINE
  8
L-ZISSEN
 10
792.0
 20
752.6
 30
0.0
 11
792.0
 21
743.0
 31
0.0
  0
LINE
  8
L-ZISSEN
 10
779.0
 20
782.6
 30
0.0
 11
779.0
 21
752.6
 31
0.0
  0
LINE
  8
L-ZISSEN
 10
833.856406
 20
776.2
 30
0.0
 11
806.143594
 21
776.2
 31
0.0
  0
LINE
  8
L-ZISSEN
 10
853.8
 20
850.0
 30
0.0
 11
853.8
 21
763.2
 31
0.0
  0
LINE
  8
L-ZISSEN
 10
672.0
 20
369.0
 30
0.0
 11
660.0
 21
369.0
 31
0.0
  0
LINE
  8
L-ZISSEN
 10
660.0
 20
369.0
 30
0.0
 11
660.0
 21
279.0
 31
0.0
  0
LINE
  8
L-TYUSIN
 10
738.0
 20
251.0
 30
0.0
 11
738.0
 21
275.0
 31
0.0
  0
LINE
  8
L-TYUSIN
 10
750.0
 20
263.0
 30
0.0
 11
726.0
 21
263.0
 31
0.0
  0
LINE
  8
L-ZISSEN
 10
857.0
 20
279.0
 30
0.0
 11
857.0
 21
43.0
 31
0.0
  0
LINE
  8
L-ZISSEN
 10
853.8
 20
153.0
 30
0.0
 11
853.8
 21
43.0
 31
0.0
  0
LINE
  8
L-ZISSEN
 10
857.0
 20
43.0
 30
0.0
 11
853.8
 21
43.0
 31
0.0
  0
LINE
  8
L-TYUSIN
 10
863.237167
 20
67.0
 30
0.0
 11
846.478101
 21
67.0
 31
0.0
  0
LINE
  8
L-ZISSEN
 10
704.5
 20
750.0
 30
0.0
 11
704.5
 21
743.0
 31
0.0
  0
LINE
  8
L-ZISSEN
 10
707.0
 20
762.0
 30
0.0
 11
707.0
 21
750.0
 31
0.0
  0
LINE
  8
L-ZISSEN
 10
707.0
 20
750.0
 30
0.0
 11
693.856406
 21
750.0
 31
0.0
  0
LINE
  8
L-ZISSEN
 10
719.0
 20
762.0
 30
0.0
 11
688.0
 21
762.0
 31
0.0
  0
LINE
  8
L-ZISSEN
 10
719.0
 20
812.0
 30
0.0
 11
719.0
 21
762.0
 31
0.0
  0
LINE
  8
L-ZISSEN
 10
669.0
 20
762.0
 30
0.0
 11
669.0
 21
812.0
 31
0.0
  0
LINE
  8
L-ZISSEN
 10
669.0
 20
812.0
 30
0.0
 11
719.0
 21
812.0
 31
0.0
  0
LINE
  8
L-ZISSEN
 10
700.0
 20
823.0
 30
0.0
 11
688.0
 21
823.0
 31
0.0
  0
LINE
  8
L-ZISSEN
 10
700.0
 20
823.0
 30
0.0
 11
700.0
 21
812.0
 31
0.0
  0
LINE
  8
L-ZISSEN
 10
688.0
 20
823.0
 30
0.0
 11
688.0
 21
812.0
 31
0.0
  0
LINE
  8
L-ZISSEN
 10
769.194134
 20
787.6
 30
0.0
 11
754.422018
 21
787.6
 31
0.0
  0
LINE
  8
L-ZISSEN
 10
736.808076
 20
801.6
 30
0.0
 11
786.808076
 21
801.6
 31
0.0
  0
LINE
  8
L-ZISSEN
 10
786.808076
 20
836.6
 30
0.0
 11
736.808076
 21
836.6
 31
0.0
  0
LINE
  8
L-ZISSEN
 10
786.808076
 20
836.6
 30
0.0
 11
786.808076
 21
823.6
 31
0.0
  0
LINE
  8
L-ZISSEN
 10
736.808076
 20
836.6
 30
0.0
 11
736.808076
 21
801.6
 31
0.0
  0
LINE
  8
L-ZISSEN
 10
778.0
 20
801.6
 30
0.0
 11
778.0
 21
782.6
 31
0.0
  0
LINE
  8
L-ZISSEN
 10
766.808076
 20
801.6
 30
0.0
 11
766.808076
 21
787.6
 31
0.0
  0
LINE
  8
L-ZISSEN
 10
756.808076
 20
801.6
 30
0.0
 11
756.808076
 21
787.6
 31
0.0
  0
LINE
  8
L-ZISSEN
 10
754.422018
 20
787.6
 30
0.0
 11
754.422018
 21
778.1
 31
0.0
  0
LINE
  8
L-ZISSEN
 10
769.194134
 20
787.6
 30
0.0
 11
769.194134
 21
776.597742
 31
0.0
  0
POLYLINE
  8
L-ZISSEN
 66
     1
 10
0.0
 20
0.0
 30
0.0
 70
     1
  0
VERTEX
  8
L-ZISSEN
 10
772.146153
 20
770.6
 30
0.0
 42
0.097133
  0
VERTEX
  8
L-ZISSEN
 10
771.582215
 20
773.475536
 30
0.0
 42
0.097918
  0
VERTEX
  8
L-ZISSEN
 10
769.982827
 20
775.903301
 30
0.0
 42
0.09905
 70
     2
 50
134.561451
  0
VERTEX
  8
L-ZISSEN
 10
767.581201
 20
777.530863
 30
0.0
 42
0.099865
 50
134.561451
  0
VERTEX
  8
L-ZISSEN
 10
764.760095
 20
778.1
 30
0.0
 42
0.099865
  0
VERTEX
  8
L-ZISSEN
 10
761.93899
 20
777.530863
 30
0.0
 42
0.09905
  0
VERTEX
  8
L-ZISSEN
 10
759.537363
 20
775.903301
 30
0.0
 42
0.097918
 70
     2
 50
225.438549
  0
VERTEX
  8
L-ZISSEN
 10
757.937975
 20
773.475536
 30
0.0
 42
0.097133
 50
225.438549
  0
VERTEX
  8
L-ZISSEN
 10
757.374037
 20
770.6
 30
0.0
 42
0.097133
  0
VERTEX
  8
L-ZISSEN
 10
757.937975
 20
767.724464
 30
0.0
 42
0.097918
  0
VERTEX
  8
L-ZISSEN
 10
759.537363
 20
765.296699
 30
0.0
 42
0.09905
 70
     2
 50
314.561451
  0
VERTEX
  8
L-ZISSEN
 10
761.93899
 20
763.669137
 30
0.0
 42
0.099865
 50
314.561451
  0
VERTEX
  8
L-ZISSEN
 10
764.760095
 20
763.1
 30
0.0
 42
0.099865
  0
VERTEX
  8
L-ZISSEN
 10
767.581201
 20
763.669137
 30
0.0
 42
0.09905
  0
VERTEX
  8
L-ZISSEN
 10
769.982827
 20
765.296699
 30
0.0
 42
0.097918
 70
     2
 50
45.438549
  0
VERTEX
  8
L-ZISSEN
 10
771.582215
 20
767.724464
 30
0.0
 42
0.097133
 50
45.438549
  0
SEQEND
  8
L-ZISSEN
  0
LINE
  8
L-ZISSEN
 10
764.760095
 20
778.1
 30
0.0
 11
750.0
 21
778.1
 31
0.0
  0
LINE
  8
L-ZISSEN
 10
764.760095
 20
763.1
 30
0.0
 11
750.0
 21
763.1
 31
0.0
  0
LINE
  8
L-ZISSEN
 10
754.422018
 20
782.6
 30
0.0
 11
721.0
 21
782.6
 31
0.0
  0
LINE
  8
L-ZISSEN
 10
521.966927
 20
836.6
 30
0.0
 11
521.966927
 21
812.0
 31
0.0
  0
LINE
  8
L-ZISSEN
 10
571.966927
 20
836.6
 30
0.0
 11
521.966927
 21
836.6
 31
0.0
  0
LINE
  8
L-ZISSEN
 10
534.0
 20
801.6
 30
0.0
 11
571.966927
 21
801.6
 31
0.0
  0
LINE
  8
L-ZISSEN
 10
571.966927
 20
836.6
 30
0.0
 11
571.966927
 21
801.6
 31
0.0
  0
LINE
  8
L-ZISSEN
 10
551.966927
 20
801.6
 30
0.0
 11
551.966927
 21
791.0
 31
0.0
  0
LINE
  8
L-ZISSEN
 10
541.966927
 20
801.6
 30
0.0
 11
541.966927
 21
787.6
 31
0.0
  0
LINE
  8
L-ZISSEN
 10
542.0
 20
787.6
 30
0.0
 11
539.580869
 21
787.6
 31
0.0
  0
LINE
  8
L-ZISSEN
 10
539.580869
 20
787.6
 30
0.0
 11
539.580869
 21
778.1
 31
0.0
  0
LINE
  8
L-ZISSEN
 10
563.966927
 20
778.1
 30
0.0
 11
558.0
 21
778.1
 31
0.0
  0
LINE
  8
L-ZISSEN
 10
539.580869
 20
778.1
 30
0.0
 11
534.0
 21
778.1
 31
0.0
  0
LINE
  8
L-ZISSEN
 10
558.0
 20
1055.0
 30
0.0
 11
563.368733
 21
1060.368733
 31
0.0
  0
LINE
  8
L-ZISSEN
 10
558.0
 20
1055.0
 30
0.0
 11
559.531138
 21
1053.468862
 31
0.0
  0
LINE
  8
L-ZISSEN
 10
570.0
 20
1043.0
 30
0.0
 11
570.0
 21
1036.528033
 31
0.0
  0
LINE
  8
L-ZISSEN
 10
778.0
 20
743.0
 30
0.0
 11
778.0
 21
713.0
 31
0.0
  0
LINE
  8
L-ZISSEN
 10
790.0
 20
743.0
 30
0.0
 11
790.0
 21
713.0
 31
0.0
  0
LINE
  8
L-ZISSEN
 10
802.0
 20
743.0
 30
0.0
 11
802.0
 21
713.0
 31
0.0
  0
LINE
  8
L-ZISSEN
 10
572.0
 20
279.0
 30
0.0
 11
572.0
 21
153.0
 31
0.0
  0
LINE
  8
L-ZISSEN
 10
402.0
 20
366.0
 30
0.0
 11
400.0
 21
366.0
 31
0.0
  0
LINE
  8
L-ZISSEN
 10
402.0
 20
352.0
 30
0.0
 11
400.0
 21
352.0
 31
0.0
  0
LINE
  8
L-ZISSEN
 10
542.0
 20
352.0
 30
0.0
 11
498.0
 21
352.0
 31
0.0
  0
LINE
  8
L-ZISSEN
 10
542.0
 20
366.0
 30
0.0
 11
498.0
 21
366.0
 31
0.0
  0
LINE
  8
L-ZISSEN
 10
812.0
 20
366.0
 30
0.0
 11
799.0
 21
366.0
 31
0.0
  0
LINE
  8
L-ZISSEN
 10
812.0
 20
352.0
 30
0.0
 11
799.0
 21
352.0
 31
0.0
  0
POLYLINE
  8
L-ZISSEN
 66
     1
 10
0.0
 20
0.0
 30
0.0
  0
VERTEX
  8
L-ZISSEN
 10
750.0
 20
778.1
 30
0.0
 42
0.099865
  0
VERTEX
  8
L-ZISSEN
 10
747.178895
 20
777.530863
 30
0.0
 42
0.09905
  0
VERTEX
  8
L-ZISSEN
 10
744.777268
 20
775.903301
 30
0.0
 42
0.097918
 70
     2
 50
225.438549
  0
VERTEX
  8
L-ZISSEN
 10
743.17788
 20
773.475536
 30
0.0
 42
0.097133
 50
225.438549
  0
VERTEX
  8
L-ZISSEN
 10
742.613942
 20
770.6
 30
0.0
 42
0.097133
  0
VERTEX
  8
L-ZISSEN
 10
743.17788
 20
767.724464
 30
0.0
 42
0.097918
  0
VERTEX
  8
L-ZISSEN
 10
744.777268
 20
765.296699
 30
0.0
 42
0.09905
 70
     2
 50
314.561451
  0
VERTEX
  8
L-ZISSEN
 10
747.178895
 20
763.669137
 30
0.0
 42
0.099865
 50
314.561451
  0
VERTEX
  8
L-ZISSEN
 10
750.0
 20
763.1
 30
0.0
 42
0.099865
  0
SEQEND
  8
L-ZISSEN
  0
CIRCLE
  8
L-ZISSEN
 10
418.0
 20
1015.0
 30
0.0
 40
9.3155
  0
CIRCLE
  8
L-ZISSEN
 10
738.0
 20
263.0
 30
0.0
 40
5.7225
  0
LINE
  8
L-ZISSEN
 10
403.071797
 20
1097.0
 30
0.0
 11
396.143594
 21
1085.0
 31
0.0
  0
LINE
  8
L-ZISSEN
 10
396.143594
 20
1085.0
 30
0.0
 11
403.071797
 21
1073.0
 31
0.0
  0
LINE
  8
L-ZISSEN
 10
403.071797
 20
1073.0
 30
0.0
 11
416.928203
 21
1073.0
 31
0.0
  0
LINE
  8
L-ZISSEN
 10
416.928203
 20
1073.0
 30
0.0
 11
423.856406
 21
1085.0
 31
0.0
  0
LINE
  8
L-ZISSEN
 10
423.856406
 20
1085.0
 30
0.0
 11
416.928203
 21
1097.0
 31
0.0
  0
LINE
  8
L-ZISSEN
 10
416.928203
 20
1097.0
 30
0.0
 11
403.071797
 21
1097.0
 31
0.0
  0
LINE
  8
L-ZISSEN
 10
403.071797
 20
957.0
 30
0.0
 11
396.143594
 21
945.0
 31
0.0
  0
LINE
  8
L-ZISSEN
 10
396.143594
 20
945.0
 30
0.0
 11
403.071797
 21
933.0
 31
0.0
  0
LINE
  8
L-ZISSEN
 10
403.071797
 20
933.0
 30
0.0
 11
416.928203
 21
933.0
 31
0.0
  0
LINE
  8
L-ZISSEN
 10
416.928203
 20
933.0
 30
0.0
 11
423.856406
 21
945.0
 31
0.0
  0
LINE
  8
L-ZISSEN
 10
423.856406
 20
945.0
 30
0.0
 11
416.928203
 21
957.0
 31
0.0
  0
LINE
  8
L-ZISSEN
 10
416.928203
 20
957.0
 30
0.0
 11
403.071797
 21
957.0
 31
0.0
  0
LINE
  8
L-ZISSEN
 10
543.071797
 20
957.0
 30
0.0
 11
536.143594
 21
945.0
 31
0.0
  0
LINE
  8
L-ZISSEN
 10
536.143594
 20
945.0
 30
0.0
 11
543.071797
 21
933.0
 31
0.0
  0
LINE
  8
L-ZISSEN
 10
543.071797
 20
933.0
 30
0.0
 11
556.928203
 21
933.0
 31
0.0
  0
LINE
  8
L-ZISSEN
 10
556.928203
 20
933.0
 30
0.0
 11
563.856406
 21
945.0
 31
0.0
  0
LINE
  8
L-ZISSEN
 10
563.856406
 20
945.0
 30
0.0
 11
556.928203
 21
957.0
 31
0.0
  0
LINE
  8
L-ZISSEN
 10
556.928203
 20
957.0
 30
0.0
 11
543.071797
 21
957.0
 31
0.0
  0
LINE
  8
L-ZISSEN
 10
505.535898
 20
965.0
 30
0.0
 11
502.071797
 21
959.0
 31
0.0
  0
LINE
  8
L-ZISSEN
 10
502.071797
 20
959.0
 30
0.0
 11
505.535898
 21
953.0
 31
0.0
  0
LINE
  8
L-ZISSEN
 10
505.535898
 20
953.0
 30
0.0
 11
512.464102
 21
953.0
 31
0.0
  0
LINE
  8
L-ZISSEN
 10
512.464102
 20
953.0
 30
0.0
 11
515.928203
 21
959.0
 31
0.0
  0
LINE
  8
L-ZISSEN
 10
515.928203
 20
959.0
 30
0.0
 11
512.464102
 21
965.0
 31
0.0
  0
LINE
  8
L-ZISSEN
 10
512.464102
 20
965.0
 30
0.0
 11
505.535898
 21
965.0
 31
0.0
  0
LINE
  8
L-ZISSEN
 10
693.856406
 20
760.0
 30
0.0
 11
693.856406
 21
743.0
 31
0.0
  0
LINE
  8
L-ZISSEN
 10
666.143594
 20
760.0
 30
0.0
 11
666.143594
 21
743.0
 31
0.0
  0
LINE
  8
L-ZISSEN
 10
693.856406
 20
760.0
 30
0.0
 11
666.143594
 21
760.0
 31
0.0
  0
LINE
  8
L-ZISSEN
 10
806.143594
 20
760.0
 30
0.0
 11
806.143594
 21
743.0
 31
0.0
  0
LINE
  8
L-ZISSEN
 10
833.856406
 20
760.0
 30
0.0
 11
833.856406
 21
743.0
 31
0.0
  0
LINE
  8
L-ZISSEN
 10
806.143594
 20
776.2
 30
0.0
 11
806.143594
 21
763.2
 31
0.0
  0
LINE
  8
L-ZISSEN
 10
833.856406
 20
776.2
 30
0.0
 11
833.856406
 21
763.2
 31
0.0
  0
LINE
  8
L-ZISSEN
 10
572.0
 20
279.0
 30
0.0
 11
532.748563
 21
279.0
 31
0.0
  0
LINE
  8
L-ZISSEN
 10
857.0
 20
279.0
 30
0.0
 11
658.0
 21
279.0
 31
0.0
  0
LINE
  8
L-ZISSEN
 10
658.0
 20
279.0
 30
0.0
 11
658.0
 21
153.0
 31
0.0
  0
LINE
  8
L-ZISSEN
 10
572.0
 20
153.0
 30
0.0
 11
388.0
 21
153.0
 31
0.0
  0
LINE
  8
L-ZISSEN
 10
658.0
 20
153.0
 30
0.0
 11
853.8
 21
153.0
 31
0.0
  0
LINE
  8
L-ZISSEN
 10
790.0
 20
474.0
 30
0.0
 11
790.0
 21
446.0
 31
0.0
  0
LINE
  8
L-ZISSEN
 10
802.0
 20
474.0
 30
0.0
 11
802.0
 21
446.0
 31
0.0
  0
LINE
  8
L-TYUSIN
 10
975.0
 20
975.0
 30
0.0
 11
1035.0
 21
975.0
 31
0.0
  0
LINE
  8
L-TYUSIN
 10
1095.0
 20
975.0
 30
0.0
 11
1135.0
 21
975.0
 31
0.0
  0
LINE
  8
L-TYUSIN
 10
1115.0
 20
1025.0
 30
0.0
 11
1115.0
 21
955.0
 31
0.0
  0
LINE
  8
L-TYUSIN
 10
1005.0
 20
1014.0
 30
0.0
 11
1005.0
 21
955.5
 31
0.0
  0
LINE
  8
L-ZISSEN
 10
980.0
 20
960.5
 30
0.0
 11
980.0
 21
989.5
 31
0.0
  0
LINE
  8
L-ZISSEN
 10
980.0
 20
989.5
 30
0.0
 11
1030.0
 21
989.5
 31
0.0
  0
LINE
  8
L-ZISSEN
 10
1030.0
 20
989.5
 30
0.0
 11
1030.0
 21
960.5
 31
0.0
  0
LINE
  8
L-ZISSEN
 10
980.0
 20
960.5
 30
0.0
 11
1030.0
 21
960.5
 31
0.0
  0
LINE
  8
L-ZISSEN
 10
1018.0
 20
1020.0
 30
0.0
 11
1085.0
 21
1020.0
 31
0.0
  0
LINE
  8
L-ZISSEN
 10
1085.0
 20
1020.0
 30
0.0
 11
1085.0
 21
1015.0
 31
0.0
  0
LINE
  8
L-ZISSEN
 10
1085.0
 20
1015.0
 30
0.0
 11
1021.0
 21
1015.0
 31
0.0
  0
LINE
  8
L-ZISSEN
 10
993.0
 20
1000.0
 30
0.0
 11
1021.0
 21
1000.0
 31
0.0
  0
LINE
  8
L-ZISSEN
 10
997.0
 20
989.5
 30
0.0
 11
997.0
 21
1000.0
 31
0.0
  0
LINE
  8
L-ZISSEN
 10
1013.0
 20
989.5
 30
0.0
 11
1013.0
 21
1000.0
 31
0.0
  0
LINE
  8
L-ZISSEN
 10
993.0
 20
1000.0
 30
0.0
 11
993.0
 21
1003.0
 31
0.0
  0
LINE
  8
L-ZISSEN
 10
993.0
 20
1003.0
 30
0.0
 11
1018.0
 21
1003.0
 31
0.0
  0
LINE
  8
L-ZISSEN
 10
1021.0
 20
1000.0
 30
0.0
 11
1021.0
 21
1015.0
 31
0.0
  0
LINE
  8
L-ZISSEN
 10
1018.0
 20
1003.0
 30
0.0
 11
1018.0
 21
1020.0
 31
0.0
  0
LINE
  8
L-ZISSEN
 10
999.5
 20
1009.0
 30
0.0
 11
1010.5
 21
1009.0
 31
0.0
  0
LINE
  8
L-ZISSEN
 10
999.5
 20
1009.0
 30
0.0
 11
999.5
 21
1003.0
 31
0.0
  0
LINE
  8
L-ZISSEN
 10
1010.5
 20
1009.0
 30
0.0
 11
1010.5
 21
1003.0
 31
0.0
  0
CIRCLE
  8
L-ZISSEN
 10
1115.0
 20
975.0
 30
0.0
 40
14.5
  0
LINE
  8
L-ZISSEN
 10
1107.0
 20
987.093387
 30
0.0
 11
1107.0
 21
1000.0
 31
0.0
  0
LINE
  8
L-ZISSEN
 10
1123.0
 20
987.093387
 30
0.0
 11
1123.0
 21
1000.0
 31
0.0
  0
LINE
  8
L-ZISSEN
 10
302.0
 20
153.0
 30
0.0
 11
106.2
 21
153.0
 31
0.0
  0
LINE
  8
L-ZISSEN
 10
302.0
 20
279.0
 30
0.0
 11
302.0
 21
153.0
 31
0.0
  0
LINE
  8
L-ZISSEN
 10
103.0
 20
279.0
 30
0.0
 11
302.0
 21
279.0
 31
0.0
  0
LINE
  8
L-ZISSEN
 10
126.143594
 20
776.2
 30
0.0
 11
126.143594
 21
763.2
 31
0.0
  0
LINE
  8
L-ZISSEN
 10
153.856406
 20
776.2
 30
0.0
 11
153.856406
 21
763.2
 31
0.0
  0
LINE
  8
L-ZISSEN
 10
126.143594
 20
760.0
 30
0.0
 11
126.143594
 21
743.0
 31
0.0
  0
LINE
  8
L-ZISSEN
 10
153.856406
 20
760.0
 30
0.0
 11
153.856406
 21
743.0
 31
0.0
  0
LINE
  8
L-ZISSEN
 10
266.143594
 20
760.0
 30
0.0
 11
293.856406
 21
760.0
 31
0.0
  0
LINE
  8
L-ZISSEN
 10
293.856406
 20
760.0
 30
0.0
 11
293.856406
 21
743.0
 31
0.0
  0
LINE
  8
L-ZISSEN
 10
266.143594
 20
760.0
 30
0.0
 11
266.143594
 21
743.0
 31
0.0
  0
LINE
  8
L-ZISSEN
 10
148.0
 20
352.0
 30
0.0
 11
272.0
 21
352.0
 31
0.0
  0
LINE
  8
L-ZISSEN
 10
148.0
 20
366.0
 30
0.0
 11
272.0
 21
366.0
 31
0.0
  0
LINE
  8
L-ZISSEN
 10
181.0
 20
782.6
 30
0.0
 11
239.0
 21
782.6
 31
0.0
  0
LINE
  8
L-ZISSEN
 10
173.191924
 20
836.6
 30
0.0
 11
173.191924
 21
801.6
 31
0.0
  0
LINE
  8
L-ZISSEN
 10
173.191924
 20
836.6
 30
0.0
 11
182.0
 21
836.6
 31
0.0
  0
LINE
  8
L-ZISSEN
 10
182.0
 20
801.6
 30
0.0
 11
173.191924
 21
801.6
 31
0.0
  0
LINE
  8
L-ZISSEN
 10
272.0
 20
823.0
 30
0.0
 11
272.0
 21
812.0
 31
0.0
  0
LINE
  8
L-ZISSEN
 10
260.0
 20
823.0
 30
0.0
 11
260.0
 21
812.0
 31
0.0
  0
LINE
  8
L-ZISSEN
 10
288.0
 20
762.0
 30
0.0
 11
291.0
 21
762.0
 31
0.0
  0
LINE
  8
L-ZISSEN
 10
260.0
 20
823.0
 30
0.0
 11
272.0
 21
823.0
 31
0.0
  0
LINE
  8
L-ZISSEN
 10
291.0
 20
812.0
 30
0.0
 11
241.5
 21
812.0
 31
0.0
  0
ARC
  8
L-ZISSEN
 10
241.5
 20
811.5
 30
0.0
 40
0.5
 50
90.0
 51
180.0
  0
LINE
  8
L-ZISSEN
 10
291.0
 20
762.0
 30
0.0
 11
291.0
 21
812.0
 31
0.0
  0
LINE
  8
L-ZISSEN
 10
241.0
 20
811.5
 30
0.0
 11
241.0
 21
762.0
 31
0.0
  0
LINE
  8
L-ZISSEN
 10
241.0
 20
762.0
 30
0.0
 11
272.0
 21
762.0
 31
0.0
  0
LINE
  8
L-ZISSEN
 10
253.0
 20
750.0
 30
0.0
 11
266.143594
 21
750.0
 31
0.0
  0
LINE
  8
L-ZISSEN
 10
253.0
 20
762.0
 30
0.0
 11
253.0
 21
750.0
 31
0.0
  0
LINE
  8
L-ZISSEN
 10
255.5
 20
750.0
 30
0.0
 11
255.5
 21
743.0
 31
0.0
  0
LINE
  8
L-TYUSIN
 10
96.762833
 20
67.0
 30
0.0
 11
113.521899
 21
67.0
 31
0.0
  0
LINE
  8
L-ZISSEN
 10
103.0
 20
43.0
 30
0.0
 11
106.2
 21
43.0
 31
0.0
  0
LINE
  8
L-ZISSEN
 10
106.2
 20
153.0
 30
0.0
 11
106.2
 21
43.0
 31
0.0
  0
LINE
  8
L-ZISSEN
 10
103.0
 20
279.0
 30
0.0
 11
103.0
 21
43.0
 31
0.0
  0
LINE
  8
L-ZISSEN
 10
300.0
 20
369.0
 30
0.0
 11
300.0
 21
279.0
 31
0.0
  0
LINE
  8
L-ZISSEN
 10
288.0
 20
369.0
 30
0.0
 11
300.0
 21
369.0
 31
0.0
  0
LINE
  8
L-ZISSEN
 10
163.0
 20
760.0
 30
0.0
 11
163.0
 21
763.2
 31
0.0
  0
LINE
  8
L-ZISSEN
 10
106.2
 20
850.0
 30
0.0
 11
106.2
 21
763.2
 31
0.0
  0
LINE
  8
L-ZISSEN
 10
126.143594
 20
776.2
 30
0.0
 11
153.856406
 21
776.2
 31
0.0
  0
LINE
  8
L-ZISSEN
 10
181.0
 20
782.6
 30
0.0
 11
181.0
 21
752.6
 31
0.0
  0
LINE
  8
L-ZISSEN
 10
168.0
 20
752.6
 30
0.0
 11
168.0
 21
743.0
 31
0.0
  0
LINE
  8
L-ZISSEN
 10
182.0
 20
851.6
 30
0.0
 11
182.0
 21
782.6
 31
0.0
  0
LINE
  8
L-ZISSEN
 10
103.0
 20
850.0
 30
0.0
 11
103.0
 21
760.0
 31
0.0
  0
LINE
  8
L-ZISSEN
 10
103.0
 20
760.0
 30
0.0
 11
163.0
 21
760.0
 31
0.0
  0
LINE
  8
L-ZISSEN
 10
106.2
 20
763.2
 30
0.0
 11
163.0
 21
763.2
 31
0.0
  0
LINE
  8
L-ZISSEN
 10
120.0
 20
743.0
 30
0.0
 11
300.0
 21
743.0
 31
0.0
  0
LINE
  8
L-ZISSEN
 10
300.0
 20
713.0
 30
0.0
 11
120.0
 21
713.0
 31
0.0
  0
LINE
  8
L-ZISSEN
 10
300.0
 20
713.0
 30
0.0
 11
300.0
 21
743.0
 31
0.0
  0
LINE
  8
L-ZISSEN
 10
120.0
 20
713.0
 30
0.0
 11
120.0
 21
743.0
 31
0.0
  0
LINE
  8
L-ZISSEN
 10
127.5
 20
713.0
 30
0.0
 11
127.5
 21
496.0
 31
0.0
  0
LINE
  8
L-ZISSEN
 10
292.5
 20
496.0
 30
0.0
 11
292.5
 21
713.0
 31
0.0
  0
LINE
  8
L-ZISSEN
 10
300.0
 20
446.0
 30
0.0
 11
300.0
 21
496.0
 31
0.0
  0
LINE
  8
L-ZISSEN
 10
120.0
 20
446.0
 30
0.0
 11
120.0
 21
496.0
 31
0.0
  0
LINE
  8
L-ZISSEN
 10
120.0
 20
496.0
 30
0.0
 11
156.0
 21
496.0
 31
0.0
  0
LINE
  8
L-ZISSEN
 10
156.0
 20
496.0
 30
0.0
 11
156.0
 21
474.0
 31
0.0
  0
LINE
  8
L-ZISSEN
 10
156.0
 20
474.0
 30
0.0
 11
264.0
 21
474.0
 31
0.0
  0
LINE
  8
L-ZISSEN
 10
264.0
 20
474.0
 30
0.0
 11
264.0
 21
496.0
 31
0.0
  0
LINE
  8
L-ZISSEN
 10
264.0
 20
496.0
 30
0.0
 11
300.0
 21
496.0
 31
0.0
  0
LINE
  8
L-ZISSEN
 10
120.0
 20
446.0
 30
0.0
 11
300.0
 21
446.0
 31
0.0
  0
LINE
  8
L-ZISSEN
 10
132.0
 20
791.0
 30
0.0
 11
148.0
 21
791.0
 31
0.0
  0
LINE
  8
L-ZISSEN
 10
132.0
 20
791.0
 30
0.0
 11
132.0
 21
776.2
 31
0.0
  0
LINE
  8
L-ZISSEN
 10
148.0
 20
791.0
 30
0.0
 11
148.0
 21
776.2
 31
0.0
  0
LINE
  8
L-ZISSEN
 10
288.0
 20
791.0
 30
0.0
 11
288.0
 21
760.0
 31
0.0
  0
LINE
  8
L-ZISSEN
 10
272.0
 20
791.0
 30
0.0
 11
272.0
 21
760.0
 31
0.0
  0
LINE
  8
L-ZISSEN
 10
288.0
 20
791.0
 30
0.0
 11
272.0
 21
791.0
 31
0.0
  0
LINE
  8
L-ZISSEN
 10
288.0
 20
713.0
 30
0.0
 11
288.0
 21
496.0
 31
0.0
  0
LINE
  8
L-ZISSEN
 10
272.0
 20
713.0
 30
0.0
 11
272.0
 21
496.0
 31
0.0
  0
LINE
  8
L-ZISSEN
 10
148.0
 20
713.0
 30
0.0
 11
148.0
 21
496.0
 31
0.0
  0
LINE
  8
L-ZISSEN
 10
132.0
 20
713.0
 30
0.0
 11
132.0
 21
496.0
 31
0.0
  0
LINE
  8
L-ZISSEN
 10
130.0
 20
366.0
 30
0.0
 11
132.0
 21
366.0
 31
0.0
  0
LINE
  8
L-ZISSEN
 10
130.0
 20
352.0
 30
0.0
 11
132.0
 21
352.0
 31
0.0
  0
LINE
  8
L-ZISSEN
 10
130.0
 20
366.0
 30
0.0
 11
130.0
 21
352.0
 31
0.0
  0
LINE
  8
L-TYUSIN
 10
210.0
 20
856.6
 30
0.0
 11
210.0
 21
148.0
 31
0.0
  0
LINE
  8
L-ZISSEN
 10
148.0
 20
446.0
 30
0.0
 11
148.0
 21
279.0
 31
0.0
  0
LINE
  8
L-ZISSEN
 10
132.0
 20
446.0
 30
0.0
 11
132.0
 21
279.0
 31
0.0
  0
LINE
  8
L-ZISSEN
 10
288.0
 20
446.0
 30
0.0
 11
288.0
 21
279.0
 31
0.0
  0
LINE
  8
L-ZISSEN
 10
272.0
 20
446.0
 30
0.0
 11
272.0
 21
279.0
 31
0.0
  0
LINE
  8
L-ZISSEN
 10
252.0
 20
752.6
 30
0.0
 11
168.0
 21
752.6
 31
0.0
  0
LINE
  8
L-ZISSEN
 10
252.0
 20
752.6
 30
0.0
 11
252.0
 21
743.0
 31
0.0
  0
LINE
  8
L-ZISSEN
 10
239.0
 20
782.6
 30
0.0
 11
239.0
 21
752.6
 31
0.0
  0
LINE
  8
L-ZISSEN
 10
238.0
 20
851.6
 30
0.0
 11
182.0
 21
851.6
 31
0.0
  0
LINE
  8
L-ZISSEN
 10
238.0
 20
851.6
 30
0.0
 11
238.0
 21
782.6
 31
0.0
  0
LINE
  8
L-ZISSEN
 10
1018.0
 20
1040.0
 30
0.0
 11
1018.0
 21
1060.0
 31
0.0
  0
LINE
  8
L-ZISSEN
 10
993.0
 20
1040.0
 30
0.0
 11
993.0
 21
1046.5
 31
0.0
  0
LINE
  8
L-ZISSEN
 10
980.0
 20
1035.5
 30
0.0
 11
1030.0
 21
1035.5
 31
0.0
  0
LINE
  8
L-ZISSEN
 10
1030.0
 20
1064.5
 30
0.0
 11
1030.0
 21
1060.0
 31
0.0
  0
LINE
  8
L-ZISSEN
 10
980.0
 20
1064.5
 30
0.0
 11
1030.0
 21
1064.5
 31
0.0
  0
LINE
  8
L-ZISSEN
 10
980.0
 20
1035.5
 30
0.0
 11
980.0
 21
1064.5
 31
0.0
  0
LINE
  8
L-TYUSIN
 10
1005.0
 20
1070.0
 30
0.0
 11
1005.0
 21
1030.5
 31
0.0
  0
LINE
  8
L-TYUSIN
 10
975.0
 20
1050.0
 30
0.0
 11
1090.0
 21
1050.0
 31
0.0
  0
LINE
  8
L-ZISSEN
 10
993.0
 20
1040.0
 30
0.0
 11
1085.0
 21
1040.0
 31
0.0
  0
LINE
  8
L-ZISSEN
 10
1085.0
 20
1040.0
 30
0.0
 11
1085.0
 21
1060.0
 31
0.0
  0
LINE
  8
L-ZISSEN
 10
1085.0
 20
1060.0
 30
0.0
 11
1002.0
 21
1060.0
 31
0.0
  0
ARC
  8
L-ZISSEN
 10
1005.0
 20
1050.0
 30
0.0
 40
8.0
 50
67.975687
 51
205.94448
  0
LINE
  8
L-ZISSEN
 10
993.0
 20
1046.5
 30
0.0
 11
997.806253
 21
1046.5
 31
0.0
  0
LINE
  8
L-ZISSEN
 10
1002.0
 20
1060.0
 30
0.0
 11
1002.0
 21
1057.416198
 31
0.0
  0
LINE
  8
L-ZISSEN
 10
1008.0
 20
1060.0
 30
0.0
 11
1008.0
 21
1057.416198
 31
0.0
  0
LINE
  8
L-ZISSEN
 10
1030.0
 20
1040.0
 30
0.0
 11
1030.0
 21
1035.5
 31
0.0
  0
CIRCLE
  8
L-ZISSEN
 10
1115.0
 20
975.0
 30
0.0
 40
5.7225
  0
LINE
  8
L-ZISSEN
 10
1105.0
 20
1000.0
 30
0.0
 11
1125.0
 21
1000.0
 31
0.0
  0
LINE
  8
L-ZISSEN
 10
1105.0
 20
1020.0
 30
0.0
 11
1125.0
 21
1020.0
 31
0.0
  0
LINE
  8
L-ZISSEN
 10
1125.0
 20
1015.0
 30
0.0
 11
1105.0
 21
1015.0
 31
0.0
  0
LINE
  8
L-ZISSEN
 10
1105.0
 20
1020.0
 30
0.0
 11
1105.0
 21
1000.0
 31
0.0
  0
LINE
  8
L-ZISSEN
 10
1125.0
 20
1020.0
 30
0.0
 11
1125.0
 21
994.0
 31
0.0
  0
LINE
  8
L-ZISSEN
 10
1123.0
 20
994.0
 30
0.0
 11
1125.0
 21
994.0
 31
0.0
  0
LINE
  8
L-TYUSIN
 10
970.0
 20
795.0
 30
0.0
 11
1050.0
 21
795.0
 31
0.0
  0
LINE
  8
L-TYUSIN
 10
1010.0
 20
833.5
 30
0.0
 11
1010.0
 21
690.0
 31
0.0
  0
LINE
  8
L-ZISSEN
 10
976.5
 20
779.0
 30
0.0
 11
976.5
 21
811.0
 31
0.0
  0
LINE
  8
L-ZISSEN
 10
976.5
 20
811.0
 30
0.0
 11
994.0
 21
811.0
 31
0.0
  0
LINE
  8
L-ZISSEN
 10
1026.0
 20
828.5
 30
0.0
 11
994.0
 21
828.5
 31
0.0
  0
LINE
  8
L-ZISSEN
 10
994.0
 20
811.0
 30
0.0
 11
994.0
 21
828.5
 31
0.0
  0
LINE
  8
L-ZISSEN
 10
1000.0
 20
695.0
 30
0.0
 11
1020.0
 21
695.0
 31
0.0
  0
LINE
  8
L-ZISSEN
 10
1020.0
 20
695.0
 30
0.0
 11
1020.0
 21
792.0
 31
0.0
  0
LINE
  8
L-ZISSEN
 10
1000.0
 20
695.0
 30
0.0
 11
1000.0
 21
807.0
 31
0.0
  0
LINE
  8
L-ZISSEN
 10
1020.0
 20
792.0
 30
0.0
 11
1017.416198
 21
792.0
 31
0.0
  0
ARC
  8
L-ZISSEN
 10
1010.0
 20
795.0
 30
0.0
 40
8.0
 50
337.975687
 51
115.94448
  0
LINE
  8
L-ZISSEN
 10
1000.0
 20
807.0
 30
0.0
 11
1013.5
 21
807.0
 31
0.0
  0
LINE
  8
L-ZISSEN
 10
1000.0
 20
779.0
 30
0.0
 11
976.5
 21
779.0
 31
0.0
  0
LINE
  8
L-ZISSEN
 10
1000.0
 20
765.0
 30
0.0
 11
1020.0
 21
765.0
 31
0.0
  0
LINE
  8
L-ZISSEN
 10
1000.0
 20
785.0
 30
0.0
 11
1020.0
 21
785.0
 31
0.0
  0
LINE
  8
L-ZISSEN
 10
1043.5
 20
911.0
 30
0.0
 11
976.5
 21
911.0
 31
0.0
  0
LINE
  8
L-TYUSIN
 10
970.0
 20
895.0
 30
0.0
 11
1050.0
 21
895.0
 31
0.0
  0
LINE
  8
L-ZISSEN
 10
976.5
 20
879.0
 30
0.0
 11
1043.5
 21
879.0
 31
0.0
  0
LINE
  8
L-ZISSEN
 10
1043.5
 20
879.0
 30
0.0
 11
1043.5
 21
911.0
 31
0.0
  0
LINE
  8
L-ZISSEN
 10
976.5
 20
911.0
 30
0.0
 11
976.5
 21
879.0
 31
0.0
  0
LINE
  8
L-TYUSIN
 10
1010.0
 20
845.0
 30
0.0
 11
1010.0
 21
915.0
 31
0.0
  0
CIRCLE
  8
L-ZISSEN
 10
1010.0
 20
895.0
 30
0.0
 40
9.3155
  0
LINE
  8
L-ZISSEN
 10
1000.0
 20
850.0
 30
0.0
 11
1020.0
 21
850.0
 31
0.0
  0
LINE
  8
L-ZISSEN
 10
1000.0
 20
870.0
 30
0.0
 11
1000.0
 21
850.0
 31
0.0
  0
LINE
  8
L-ZISSEN
 10
1020.0
 20
870.0
 30
0.0
 11
1020.0
 21
850.0
 31
0.0
  0
LINE
  8
L-ZISSEN
 10
1000.0
 20
870.0
 30
0.0
 11
1007.0
 21
870.0
 31
0.0
  0
LINE
  8
L-ZISSEN
 10
1002.0
 20
870.0
 30
0.0
 11
1002.0
 21
879.0
 31
0.0
  0
LINE
  8
L-ZISSEN
 10
1018.0
 20
870.0
 30
0.0
 11
1018.0
 21
879.0
 31
0.0
  0
LINE
  8
L-ZISSEN
 10
1000.0
 20
867.0
 30
0.0
 11
1020.0
 21
867.0
 31
0.0
  0
LINE
  8
L-ZISSEN
 10
1015.5
 20
861.0
 30
0.0
 11
1015.5
 21
867.0
 31
0.0
  0
LINE
  8
L-ZISSEN
 10
1004.5
 20
861.0
 30
0.0
 11
1004.5
 21
867.0
 31
0.0
  0
LINE
  8
L-ZISSEN
 10
1004.5
 20
861.0
 30
0.0
 11
1015.5
 21
861.0
 31
0.0
  0
LINE
  8
L-ZISSEN
 10
1013.5
 20
807.0
 30
0.0
 11
1013.5
 21
802.193747
 31
0.0
  0
LINE
  8
L-ZISSEN
 10
1006.5
 20
807.0
 30
0.0
 11
1006.5
 21
802.193747
 31
0.0
  0
LINE
  8
L-ZISSEN
 10
1007.0
 20
867.0
 30
0.0
 11
1007.0
 21
879.0
 31
0.0
  0
LINE
  8
L-ZISSEN
 10
1013.0
 20
867.0
 30
0.0
 11
1013.0
 21
879.0
 31
0.0
  0
LINE
  8
L-ZISSEN
 10
1013.0
 20
870.0
 30
0.0
 11
1020.0
 21
870.0
 31
0.0
  0
LINE
  8
L-ZISSEN
 10
1000.0
 20
653.0
 30
0.0
 11
1020.0
 21
653.0
 31
0.0
  0
LINE
  8
L-ZISSEN
 10
1018.0
 20
650.0
 30
0.0
 11
1018.0
 21
641.0
 31
0.0
  0
LINE
  8
L-ZISSEN
 10
1002.0
 20
650.0
 30
0.0
 11
1002.0
 21
641.0
 31
0.0
  0
LINE
  8
L-ZISSEN
 10
1000.0
 20
650.0
 30
0.0
 11
1020.0
 21
650.0
 31
0.0
  0
LINE
  8
L-ZISSEN
 10
1020.0
 20
650.0
 30
0.0
 11
1020.0
 21
670.0
 31
0.0
  0
LINE
  8
L-ZISSEN
 10
1000.0
 20
650.0
 30
0.0
 11
1000.0
 21
670.0
 31
0.0
  0
LINE
  8
L-ZISSEN
 10
1000.0
 20
670.0
 30
0.0
 11
1020.0
 21
670.0
 31
0.0
  0
LINE
  8
L-TYUSIN
 10
1010.0
 20
675.0
 30
0.0
 11
1010.0
 21
605.0
 31
0.0
  0
LINE
  8
L-ZISSEN
 10
976.5
 20
609.0
 30
0.0
 11
976.5
 21
641.0
 31
0.0
  0
LINE
  8
L-ZISSEN
 10
1043.5
 20
641.0
 30
0.0
 11
1043.5
 21
609.0
 31
0.0
  0
LINE
  8
L-ZISSEN
 10
976.5
 20
641.0
 30
0.0
 11
1043.5
 21
641.0
 31
0.0
  0
LINE
  8
L-TYUSIN
 10
970.0
 20
625.0
 30
0.0
 11
1050.0
 21
625.0
 31
0.0
  0
LINE
  8
L-ZISSEN
 10
1043.5
 20
609.0
 30
0.0
 11
976.5
 21
609.0
 31
0.0
  0
LINE
  8
L-ZISSEN
 10
1000.0
 20
665.0
 30
0.0
 11
1020.0
 21
665.0
 31
0.0
  0
LINE
  8
L-ZISSEN
 10
1070.0
 20
695.0
 30
0.0
 11
1070.0
 21
765.0
 31
0.0
  0
LINE
  8
L-ZISSEN
 10
1126.0
 20
828.5
 30
0.0
 11
1126.0
 21
795.0
 31
0.0
  0
LINE
  8
L-TYUSIN
 10
1110.0
 20
775.0
 30
0.0
 11
1110.0
 21
835.0
 31
0.0
  0
LINE
  8
L-ZISSEN
 10
1094.0
 20
795.0
 30
0.0
 11
1094.0
 21
828.5
 31
0.0
  0
LINE
  8
L-ZISSEN
 10
1094.0
 20
828.5
 30
0.0
 11
1126.0
 21
828.5
 31
0.0
  0
LINE
  8
L-TYUSIN
 10
1071.0
 20
795.0
 30
0.0
 11
1130.0
 21
795.0
 31
0.0
  0
LINE
  8
L-ZISSEN
 10
1065.0
 20
695.0
 30
0.0
 11
1065.0
 21
765.0
 31
0.0
  0
LINE
  8
L-ZISSEN
 10
1085.0
 20
785.0
 30
0.0
 11
1085.0
 21
803.0
 31
0.0
  0
LINE
  8
L-ZISSEN
 10
1085.0
 20
787.0
 30
0.0
 11
1097.311422
 21
787.0
 31
0.0
  0
LINE
  8
L-ZISSEN
 10
1085.0
 20
803.0
 30
0.0
 11
1094.0
 21
803.0
 31
0.0
  0
LINE
  8
L-ZISSEN
 10
1082.0
 20
785.0
 30
0.0
 11
1082.0
 21
807.0
 31
0.0
  0
CIRCLE
  8
L-ZISSEN
 10
1110.0
 20
795.0
 30
0.0
 40
16.0
  0
LINE
  8
L-ZISSEN
 10
1026.0
 20
811.0
 30
0.0
 11
1026.0
 21
828.5
 31
0.0
  0
LINE
  8
L-ZISSEN
 10
1043.5
 20
811.0
 30
0.0
 11
1026.0
 21
811.0
 31
0.0
  0
LINE
  8
L-ZISSEN
 10
1043.5
 20
779.0
 30
0.0
 11
1043.5
 21
811.0
 31
0.0
  0
LINE
  8
L-ZISSEN
 10
1020.0
 20
779.0
 30
0.0
 11
1043.5
 21
779.0
 31
0.0
  0
CIRCLE
  8
L-ZISSEN
 10
1010.0
 20
895.0
 30
0.0
 40
16.0
  0
LINE
  8
L-ZISSEN
 10
1082.0
 20
807.0
 30
0.0
 11
1094.0
 21
807.0
 31
0.0
  0
LINE
  8
L-ZISSEN
 10
1085.0
 20
792.0
 30
0.0
 11
1082.0
 21
792.0
 31
0.0
  0
LINE
  8
L-ZISSEN
 10
1065.0
 20
695.0
 30
0.0
 11
1070.0
 21
695.0
 31
0.0
  0
LINE
  8
L-ZISSEN
 10
1085.0
 20
785.0
 30
0.0
 11
1070.0
 21
765.0
 31
0.0
  0
LINE
  8
L-ZISSEN
 10
1082.0
 20
785.0
 30
0.0
 11
1065.0
 21
765.0
 31
0.0
  0
LINE
  8
L-ZISSEN
 10
1082.0
 20
802.193747
 30
0.0
 11
1085.0
 21
802.193747
 31
0.0
  0
LINE
  8
L-ZISSEN
 10
1076.0
 20
789.5
 30
0.0
 11
1076.0
 21
800.5
 31
0.0
  0
LINE
  8
L-ZISSEN
 10
1076.0
 20
789.5
 30
0.0
 11
1082.0
 21
789.5
 31
0.0
  0
LINE
  8
L-ZISSEN
 10
1076.0
 20
800.5
 30
0.0
 11
1082.0
 21
800.5
 31
0.0
  0
CIRCLE
  8
L-ZISSEN
 10
1110.0
 20
795.0
 30
0.0
 40
9.3155
  0
CIRCLE
  8
L-ZISSEN
 10
511.0
 20
263.0
 30
0.0
 40
27.0
  0
LINE
  8
L-ZISSEN
 10
495.443651
 20
278.556349
 30
0.0
 11
519.485281
 21
254.514719
 31
0.0
  0
LINE
  8
L-ZISSEN
 10
623.5
 20
290.0
 30
0.0
 11
623.5
 21
236.0
 31
0.0
  0
LINE
  8
L-ZISSEN
 10
628.5
 20
290.0
 30
0.0
 11
628.5
 21
236.0
 31
0.0
  0
LINE
  8
L-ZISSEN
 10
647.0
 20
289.0
 30
0.0
 11
647.0
 21
237.0
 31
0.0
  0
LINE
  8
L-ZISSEN
 10
647.0
 20
237.0
 30
0.0
 11
628.5
 21
237.0
 31
0.0
  0
LINE
  8
L-ZISSEN
 10
628.5
 20
236.0
 30
0.0
 11
623.5
 21
236.0
 31
0.0
  0
LINE
  8
L-ZISSEN
 10
647.0
 20
289.0
 30
0.0
 11
628.5
 21
289.0
 31
0.0
  0
LINE
  8
L-ZISSEN
 10
628.5
 20
290.0
 30
0.0
 11
623.5
 21
290.0
 31
0.0
  0
LINE
  8
L-ZISSEN
 10
647.0
 20
269.0
 30
0.0
 11
653.0
 21
269.0
 31
0.0
  0
LINE
  8
L-ZISSEN
 10
653.0
 20
269.0
 30
0.0
 11
653.0
 21
257.0
 31
0.0
  0
LINE
  8
L-ZISSEN
 10
653.0
 20
257.0
 30
0.0
 11
647.0
 21
257.0
 31
0.0
  0
LINE
  8
L-ZISSEN
 10
672.0
 20
762.0
 30
0.0
 11
669.0
 21
762.0
 31
0.0
  0
TEXT
  8
L-ZISSEN
 10
100.0
 20
1145.0
 30
0.0
 40
4.5
  1
MODEL No. : TLD-S 04-01
  0
TEXT
  8
L-ZISSEN
 10
970.0
 20
1085.0
 30
0.0
 40
4.5
  1
BALL VALVE
  0
TEXT
  8
L-ZISSEN
 10
970.0
 20
930.0
 30
0.0
 40
4.5
  1
3-WAY BALL VALVE
  0
LINE
  8
L-TYUSIN
 10
1150.0
 20
1100.0
 30
0.0
 11
1150.0
 21
60.0
 31
0.0
  0
LINE
  8
L-TYUSIN
 10
960.0
 20
945.0
 30
0.0
 11
1150.0
 21
945.0
 31
0.0
  0
LINE
  8
L-TYUSIN
 10
960.0
 20
595.0
 30
0.0
 11
1150.0
 21
595.0
 31
0.0
  0
LINE
  8
L-ZISSEN
 10
508.0
 20
850.0
 30
0.0
 11
570.0
 21
850.0
 31
0.0
  0
LINE
  8
L-ZISSEN
 10
853.8
 20
850.0
 30
0.0
 11
857.0
 21
850.0
 31
0.0
  0
LINE
  8
L-ZISSEN
 10
106.2
 20
850.0
 30
0.0
 11
103.0
 21
850.0
 31
0.0
  0
LINE
  8
L-ZISSEN
  6
CONTINUOUS
 62
     7
 10
1316.0
 20
912.0
 30
0.0
 11
1316.0
 21
923.95
 31
0.0
  0
LINE
  8
L-ZISSEN
  6
CONTINUOUS
 62
     7
 10
1254.0
 20
923.95
 30
0.0
 11
1254.0
 21
912.0
 31
0.0
  0
LINE
  8
L-ZISSEN
  6
CONTINUOUS
 62
     7
 10
1346.0
 20
939.5
 30
0.0
 11
1333.8
 21
939.5
 31
0.0
  0
LINE
  8
L-ZISSEN
  6
CONTINUOUS
 62
     7
 10
1346.0
 20
960.5
 30
0.0
 11
1333.8
 21
960.5
 31
0.0
  0
LINE
  8
L-ZISSEN
  6
CONTINUOUS
 62
     7
 10
1351.0
 20
936.0
 30
0.0
 11
1346.0
 21
936.0
 31
0.0
  0
LINE
  8
L-ZISSEN
  6
CONTINUOUS
 62
     7
 10
1351.0
 20
964.0
 30
0.0
 11
1346.0
 21
964.0
 31
0.0
  0
LINE
  8
L-ZISSEN
  6
CONTINUOUS
 62
     7
 10
1346.0
 20
936.0
 30
0.0
 11
1346.0
 21
964.0
 31
0.0
  0
LINE
  8
L-ZISSEN
  6
CONTINUOUS
 62
     7
 10
1351.0
 20
936.0
 30
0.0
 11
1351.0
 21
964.0
 31
0.0
  0
LINE
  8
L-ZISSEN
  6
CONTINUOUS
 62
     7
 10
1333.8
 20
962.5
 30
0.0
 11
1333.8
 21
937.5
 31
0.0
  0
LINE
  8
L-ZISSEN
  6
CONTINUOUS
 62
     7
 10
1317.55
 20
962.5
 30
0.0
 11
1333.8
 21
962.5
 31
0.0
  0
LINE
  8
L-ZISSEN
  6
CONTINUOUS
 62
     7
 10
1333.8
 20
937.5
 30
0.0
 11
1317.55
 21
937.5
 31
0.0
  0
LINE
  8
L-ZISSEN
  6
CONTINUOUS
 62
     7
 10
1317.55
 20
976.05
 30
0.0
 11
1317.55
 21
923.95
 31
0.0
  0
LINE
  8
L-ZISSEN
  6
CONTINUOUS
 62
     7
 10
1252.45
 20
976.05
 30
0.0
 11
1252.45
 21
923.95
 31
0.0
  0
LINE
  8
L-ZISSEN
  6
CONTINUOUS
 62
     7
 10
1418.2
 20
974.0
 30
0.0
 11
1415.0
 21
974.0
 31
0.0
  0
LINE
  8
L-ZISSEN
  6
CONTINUOUS
 62
     7
 10
1415.0
 20
912.0
 30
0.0
 11
1415.0
 21
974.3
 31
0.0
  0
LINE
  8
L-ZISSEN
  6
CONTINUOUS
 62
     7
 10
1377.4
 20
923.95
 30
0.0
 11
1377.4
 21
976.05
 31
0.0
  0
LINE
  8
L-ZISSEN
  6
CONTINUOUS
 62
     7
 10
1382.2
 20
976.05
 30
0.0
 11
1382.2
 21
955.670979
 31
0.0
  0
LINE
  8
L-ZISSEN
  6
CONTINUOUS
 62
     7
 10
1382.2
 20
925.7
 30
0.0
 11
1415.0
 21
925.7
 31
0.0
  0
LINE
  8
L-ZISSEN
  6
CONTINUOUS
 62
     7
 10
1415.0
 20
974.3
 30
0.0
 11
1382.2
 21
974.3
 31
0.0
  0
CIRCLE
  8
L-ZISSEN
  6
CONTINUOUS
 62
     7
 10
1395.0
 20
950.0
 30
0.0
 40
7.5
  0
CIRCLE
  8
L-ZISSEN
  6
CONTINUOUS
 62
     7
 10
1395.0
 20
950.0
 30
0.0
 40
14.0
  0
LINE
  8
L-ZISSEN
  6
CONTINUOUS
 62
     7
 10
1346.0
 20
999.5
 30
0.0
 11
1333.8
 21
999.5
 31
0.0
  0
LINE
  8
L-ZISSEN
  6
CONTINUOUS
 62
     7
 10
1346.0
 20
1020.5
 30
0.0
 11
1333.8
 21
1020.5
 31
0.0
  0
LINE
  8
L-ZISSEN
  6
CONTINUOUS
 62
     7
 10
1351.0
 20
996.0
 30
0.0
 11
1351.0
 21
1024.0
 31
0.0
  0
LINE
  8
L-ZISSEN
  6
CONTINUOUS
 62
     7
 10
1346.0
 20
996.0
 30
0.0
 11
1346.0
 21
1024.0
 31
0.0
  0
LINE
  8
L-ZISSEN
  6
CONTINUOUS
 62
     7
 10
1351.0
 20
1024.0
 30
0.0
 11
1346.0
 21
1024.0
 31
0.0
  0
LINE
  8
L-ZISSEN
  6
CONTINUOUS
 62
     7
 10
1351.0
 20
996.0
 30
0.0
 11
1346.0
 21
996.0
 31
0.0
  0
LINE
  8
L-ZISSEN
  6
CONTINUOUS
 62
     7
 10
1333.8
 20
997.5
 30
0.0
 11
1315.8
 21
997.5
 31
0.0
  0
LINE
  8
L-ZISSEN
  6
CONTINUOUS
 62
     7
 10
1315.8
 20
1022.5
 30
0.0
 11
1333.8
 21
1022.5
 31
0.0
  0
LINE
  8
L-ZISSEN
  6
CONTINUOUS
 62
     7
 10
1333.8
 20
1022.5
 30
0.0
 11
1333.8
 21
997.5
 31
0.0
  0
LINE
  8
L-ZISSEN
  6
CONTINUOUS
 62
     7
 10
1317.55
 20
997.2
 30
0.0
 11
1317.55
 21
992.4
 31
0.0
  0
LINE
  8
L-ZISSEN
  6
CONTINUOUS
 62
     7
 10
1252.45
 20
997.2
 30
0.0
 11
1252.45
 21
992.4
 31
0.0
  0
LINE
  8
L-ZISSEN
  6
CONTINUOUS
 62
     7
 10
1252.45
 20
997.2
 30
0.0
 11
1317.55
 21
997.2
 31
0.0
  0
LINE
  8
L-ZISSEN
  6
CONTINUOUS
 62
     7
 10
1317.55
 20
992.4
 30
0.0
 11
1252.45
 21
992.4
 31
0.0
  0
LINE
  8
L-ZISSEN
  6
CONTINUOUS
 62
     7
 10
1254.2
 20
997.2
 30
0.0
 11
1254.2
 21
1030.0
 31
0.0
  0
LINE
  8
L-ZISSEN
  6
CONTINUOUS
 62
     7
 10
1315.8
 20
1030.0
 30
0.0
 11
1315.8
 21
997.2
 31
0.0
  0
LINE
  8
L-ZISSEN
 10
1252.45
 20
976.05
 30
0.0
 11
1317.55
 21
976.05
 31
0.0
  0
LINE
  8
L-ZISSEN
 10
1252.45
 20
923.95
 30
0.0
 11
1317.55
 21
923.95
 31
0.0
  0
LINE
  8
L-ZISSEN
 10
1377.4
 20
923.95
 30
0.0
 11
1382.2
 21
923.95
 31
0.0
  0
LINE
  8
L-ZISSEN
 10
1377.4
 20
976.05
 30
0.0
 11
1382.2
 21
976.05
 31
0.0
  0
LINE
  8
L-ZISSEN
  6
CONTINUOUS
 62
     7
 10
1382.2
 20
944.329021
 30
0.0
 11
1382.2
 21
923.95
 31
0.0
  0
LINE
  8
L-ZISSEN
 10
453.95
 20
134.55
 30
0.0
 11
453.95
 21
69.45
 31
0.0
  0
LINE
  8
L-ZISSEN
 10
506.05
 20
134.55
 30
0.0
 11
506.05
 21
69.45
 31
0.0
  0
LINE
  8
L-ZISSEN
  6
CONTINUOUS
 62
     7
 10
506.05
 20
134.55
 30
0.0
 11
453.95
 21
134.55
 31
0.0
  0
LINE
  8
L-ZISSEN
  6
CONTINUOUS
 62
     7
 10
506.05
 20
69.45
 30
0.0
 11
453.95
 21
69.45
 31
0.0
  0
LINE
  8
L-ZISSEN
  6
CONTINUOUS
 62
     7
 10
467.5
 20
53.2
 30
0.0
 11
467.5
 21
69.45
 31
0.0
  0
LINE
  8
L-ZISSEN
  6
CONTINUOUS
 62
     7
 10
492.5
 20
69.45
 30
0.0
 11
492.5
 21
53.2
 31
0.0
  0
LINE
  8
L-ZISSEN
  6
CONTINUOUS
 62
     7
 10
492.5
 20
53.2
 30
0.0
 11
467.5
 21
53.2
 31
0.0
  0
LINE
  8
L-ZISSEN
  6
CONTINUOUS
 62
     7
 10
466.0
 20
36.0
 30
0.0
 11
494.0
 21
36.0
 31
0.0
  0
LINE
  8
L-ZISSEN
  6
CONTINUOUS
 62
     7
 10
466.0
 20
41.0
 30
0.0
 11
494.0
 21
41.0
 31
0.0
  0
LINE
  8
L-ZISSEN
  6
CONTINUOUS
 62
     7
 10
494.0
 20
36.0
 30
0.0
 11
494.0
 21
41.0
 31
0.0
  0
LINE
  8
L-ZISSEN
  6
CONTINUOUS
 62
     7
 10
466.0
 20
36.0
 30
0.0
 11
466.0
 21
41.0
 31
0.0
  0
LINE
  8
L-ZISSEN
  6
CONTINUOUS
 62
     7
 10
490.5
 20
41.0
 30
0.0
 11
490.5
 21
53.2
 31
0.0
  0
LINE
  8
L-ZISSEN
  6
CONTINUOUS
 62
     7
 10
469.5
 20
41.0
 30
0.0
 11
469.5
 21
53.2
 31
0.0
  0
LINE
  8
L-ZISSEN
 10
1222.6
 20
976.05
 30
0.0
 11
1217.8
 21
976.05
 31
0.0
  0
LINE
  8
L-ZISSEN
 10
1222.6
 20
923.95
 30
0.0
 11
1217.8
 21
923.95
 31
0.0
  0
LINE
  8
L-ZISSEN
  6
CONTINUOUS
 62
     7
 10
1185.0
 20
974.3
 30
0.0
 11
1217.8
 21
974.3
 31
0.0
  0
LINE
  8
L-ZISSEN
  6
CONTINUOUS
 62
     7
 10
1217.8
 20
925.7
 30
0.0
 11
1185.0
 21
925.7
 31
0.0
  0
LINE
  8
L-ZISSEN
  6
CONTINUOUS
 62
     7
 10
1217.8
 20
976.05
 30
0.0
 11
1217.8
 21
923.95
 31
0.0
  0
LINE
  8
L-ZISSEN
  6
CONTINUOUS
 62
     7
 10
1222.6
 20
923.95
 30
0.0
 11
1222.6
 21
976.05
 31
0.0
  0
LINE
  8
L-ZISSEN
  6
CONTINUOUS
 62
     7
 10
1185.0
 20
912.0
 30
0.0
 11
1185.0
 21
974.3
 31
0.0
  0
LINE
  8
L-ZISSEN
  6
CONTINUOUS
 62
     7
 10
1181.8
 20
974.0
 30
0.0
 11
1185.0
 21
974.0
 31
0.0
  0
LINE
  8
L-ZISSEN
 10
543.071797
 20
1073.0
 30
0.0
 11
556.928203
 21
1073.0
 31
0.0
  0
LINE
  8
L-ZISSEN
 10
536.143594
 20
1085.0
 30
0.0
 11
543.071797
 21
1073.0
 31
0.0
  0
LINE
  8
L-ZISSEN
 10
556.928203
 20
1073.0
 30
0.0
 11
563.856406
 21
1085.0
 31
0.0
  0
CIRCLE
  8
L-ZISSEN
 10
550.0
 20
1085.0
 30
0.0
 40
8.0
  0
LINE
  8
L-ZISSEN
 10
563.856406
 20
1085.0
 30
0.0
 11
556.928203
 21
1097.0
 31
0.0
  0
LINE
  8
L-ZISSEN
 10
556.928203
 20
1097.0
 30
0.0
 11
543.071797
 21
1097.0
 31
0.0
  0
LINE
  8
L-ZISSEN
 10
543.071797
 20
1097.0
 30
0.0
 11
536.143594
 21
1085.0
 31
0.0
  0
LINE
  8
L-ZISSEN
 10
469.5
 20
43.0
 30
0.0
 11
390.0
 21
43.0
 31
0.0
  0
LINE
  8
L-ZISSEN
  6
CONTINUOUS
 62
     7
 10
853.8
 20
71.2
 30
0.0
 11
821.0
 21
71.2
 31
0.0
  0
LINE
  8
L-ZISSEN
  6
CONTINUOUS
 62
     7
 10
821.0
 20
132.8
 30
0.0
 11
853.8
 21
132.8
 31
0.0
  0
LINE
  8
L-ZISSEN
  6
CONTINUOUS
 62
     7
 10
816.2
 20
69.45
 30
0.0
 11
816.2
 21
134.55
 31
0.0
  0
LINE
  8
L-ZISSEN
  6
CONTINUOUS
 62
     7
 10
821.0
 20
134.55
 30
0.0
 11
821.0
 21
69.45
 31
0.0
  0
LINE
  8
L-ZISSEN
  6
CONTINUOUS
 62
     7
 10
821.0
 20
134.55
 30
0.0
 11
816.2
 21
134.55
 31
0.0
  0
LINE
  8
L-ZISSEN
  6
CONTINUOUS
 62
     7
 10
821.0
 20
69.45
 30
0.0
 11
816.2
 21
69.45
 31
0.0
  0
LINE
  8
L-ZISSEN
  6
CONTINUOUS
 62
     7
 10
846.3
 20
53.2
 30
0.0
 11
821.3
 21
53.2
 31
0.0
  0
LINE
  8
L-ZISSEN
  6
CONTINUOUS
 62
     7
 10
846.3
 20
71.2
 30
0.0
 11
846.3
 21
53.2
 31
0.0
  0
LINE
  8
L-ZISSEN
  6
CONTINUOUS
 62
     7
 10
821.3
 20
53.2
 30
0.0
 11
821.3
 21
71.2
 31
0.0
  0
LINE
  8
L-ZISSEN
  6
CONTINUOUS
 62
     7
 10
819.8
 20
36.0
 30
0.0
 11
819.8
 21
41.0
 31
0.0
  0
LINE
  8
L-ZISSEN
  6
CONTINUOUS
 62
     7
 10
847.8
 20
36.0
 30
0.0
 11
847.8
 21
41.0
 31
0.0
  0
LINE
  8
L-ZISSEN
  6
CONTINUOUS
 62
     7
 10
819.8
 20
41.0
 30
0.0
 11
847.8
 21
41.0
 31
0.0
  0
LINE
  8
L-ZISSEN
  6
CONTINUOUS
 62
     7
 10
819.8
 20
36.0
 30
0.0
 11
847.8
 21
36.0
 31
0.0
  0
LINE
  8
L-ZISSEN
  6
CONTINUOUS
 62
     7
 10
844.3
 20
41.0
 30
0.0
 11
844.3
 21
53.2
 31
0.0
  0
LINE
  8
L-ZISSEN
  6
CONTINUOUS
 62
     7
 10
823.3
 20
41.0
 30
0.0
 11
823.3
 21
53.2
 31
0.0
  0
LINE
  8
L-ZISSEN
  6
CONTINUOUS
 62
     7
 10
136.7
 20
41.0
 30
0.0
 11
136.7
 21
53.2
 31
0.0
  0
LINE
  8
L-ZISSEN
  6
CONTINUOUS
 62
     7
 10
115.7
 20
41.0
 30
0.0
 11
115.7
 21
53.2
 31
0.0
  0
LINE
  8
L-ZISSEN
  6
CONTINUOUS
 62
     7
 10
140.2
 20
36.0
 30
0.0
 11
112.2
 21
36.0
 31
0.0
  0
LINE
  8
L-ZISSEN
  6
CONTINUOUS
 62
     7
 10
140.2
 20
41.0
 30
0.0
 11
112.2
 21
41.0
 31
0.0
  0
LINE
  8
L-ZISSEN
  6
CONTINUOUS
 62
     7
 10
112.2
 20
36.0
 30
0.0
 11
112.2
 21
41.0
 31
0.0
  0
LINE
  8
L-ZISSEN
  6
CONTINUOUS
 62
     7
 10
140.2
 20
36.0
 30
0.0
 11
140.2
 21
41.0
 31
0.0
  0
LINE
  8
L-ZISSEN
  6
CONTINUOUS
 62
     7
 10
138.7
 20
53.2
 30
0.0
 11
138.7
 21
71.2
 31
0.0
  0
LINE
  8
L-ZISSEN
  6
CONTINUOUS
 62
     7
 10
113.7
 20
71.2
 30
0.0
 11
113.7
 21
53.2
 31
0.0
  0
LINE
  8
L-ZISSEN
  6
CONTINUOUS
 62
     7
 10
113.7
 20
53.2
 30
0.0
 11
138.7
 21
53.2
 31
0.0
  0
LINE
  8
L-ZISSEN
  6
CONTINUOUS
 62
     7
 10
139.0
 20
69.45
 30
0.0
 11
143.8
 21
69.45
 31
0.0
  0
LINE
  8
L-ZISSEN
  6
CONTINUOUS
 62
     7
 10
139.0
 20
134.55
 30
0.0
 11
143.8
 21
134.55
 31
0.0
  0
LINE
  8
L-ZISSEN
  6
CONTINUOUS
 62
     7
 10
139.0
 20
134.55
 30
0.0
 11
139.0
 21
69.45
 31
0.0
  0
LINE
  8
L-ZISSEN
  6
CONTINUOUS
 62
     7
 10
143.8
 20
69.45
 30
0.0
 11
143.8
 21
134.55
 31
0.0
  0
LINE
  8
L-ZISSEN
  6
CONTINUOUS
 62
     7
 10
139.0
 20
132.8
 30
0.0
 11
106.2
 21
132.8
 31
0.0
  0
LINE
  8
L-ZISSEN
  6
CONTINUOUS
 62
     7
 10
106.2
 20
71.2
 30
0.0
 11
139.0
 21
71.2
 31
0.0
  0
LINE
  8
L-ZISSEN
  6
CONTINUOUS
 62
     7
 10
1181.8
 20
912.0
 30
0.0
 11
1181.8
 21
974.0
 31
0.0
  0
LINE
  8
L-ZISSEN
  6
CONTINUOUS
 62
     7
 10
1418.2
 20
912.0
 30
0.0
 11
1418.2
 21
974.0
 31
0.0
  0
LINE
  8
L-TYUSIN
 10
1150.0
 20
885.0
 30
0.0
 11
1450.0
 21
885.0
 31
0.0
  0
SOLID
  8
L-ZISSEN
 10
540.638618
 20
1119.994171
 30
0.0
 11
540.162745
 21
1120.461064
 31
0.0
 12
539.0
 22
1118.8
 32
0.0
 13
539.0
 23
1118.8
 33
0.0
  0
LINE
  8
L-ZISSEN
 10
540.400681
 20
1120.227618
 30
0.0
 11
559.8
 21
1140.0
 31
0.0
  0
LINE
  8
L-ZISSEN
 10
559.8
 20
1140.0
 30
0.0
 11
561.8
 21
1140.0
 31
0.0
  0
TEXT
  8
L-ZISSEN
 10
563.8
 20
1137.75
 30
0.0
 40
4.5
  1
P.P
  0
TEXT
  8
L-ZISSEN
 10
1309.8
 20
1048.95
 30
0.0
 40
4.5
  1
P.P
  0
LINE
  8
L-ZISSEN
 10
1305.8
 20
1051.2
 30
0.0
 11
1307.8
 21
1051.2
 31
0.0
  0
LINE
  8
L-ZISSEN
 10
1286.400681
 20
1031.427618
 30
0.0
 11
1305.8
 21
1051.2
 31
0.0
  0
SOLID
  8
L-ZISSEN
 10
1286.638618
 20
1031.194171
 30
0.0
 11
1286.162745
 21
1031.661064
 31
0.0
 12
1285.0
 22
1030.0
 32
0.0
 13
1285.0
 23
1030.0
 33
0.0
  0
SOLID
  8
L-ZISSEN
 10
1317.51298
 20
910.650184
 30
0.0
 11
1317.868975
 21
911.213844
 31
0.0
 12
1316.0
 22
912.0
 32
0.0
 13
1316.0
 23
912.0
 33
0.0
  0
LINE
  8
L-ZISSEN
 10
1317.690978
 20
910.932014
 30
0.0
 11
1335.0
 21
900.0
 31
0.0
  0
LINE
  8
L-ZISSEN
 10
1335.0
 20
900.0
 30
0.0
 11
1337.0
 21
900.0
 31
0.0
  0
TEXT
  8
L-ZISSEN
 10
1339.0
 20
897.75
 30
0.0
 40
4.5
  1
P.P
  0
TEXT
  8
L-ZISSEN
 10
593.0
 20
835.75
 30
0.0
 40
4.5
  1
P.P
  0
LINE
  8
L-ZISSEN
 10
589.0
 20
838.0
 30
0.0
 11
591.0
 21
838.0
 31
0.0
  0
LINE
  8
L-ZISSEN
 10
571.690978
 20
848.932014
 30
0.0
 11
589.0
 21
838.0
 31
0.0
  0
SOLID
  8
L-ZISSEN
 10
571.51298
 20
848.650184
 30
0.0
 11
571.868975
 21
849.213844
 31
0.0
 12
570.0
 22
850.0
 32
0.0
 13
570.0
 23
850.0
 33
0.0
  0
SOLID
  8
L-ZISSEN
 10
1419.364605
 20
910.340239
 30
0.0
 11
1419.839954
 21
910.807666
 31
0.0
 12
1418.2
 22
912.0
 32
0.0
 13
1418.2
 23
912.0
 33
0.0
  0
LINE
  8
L-ZISSEN
 10
1419.60228
 20
910.573953
 30
0.0
 11
1430.0
 21
900.0
 31
0.0
  0
LINE
  8
L-ZISSEN
 10
1430.0
 20
900.0
 30
0.0
 11
1432.0
 21
900.0
 31
0.0
  0
TEXT
  8
L-ZISSEN
 10
1434.0
 20
897.75
 30
0.0
 40
4.5
  1
P.P
  0
TEXT
  8
L-ZISSEN
 10
872.8
 20
835.75
 30
0.0
 40
4.5
  1
P.P
  0
LINE
  8
L-ZISSEN
 10
868.8
 20
838.0
 30
0.0
 11
870.8
 21
838.0
 31
0.0
  0
LINE
  8
L-ZISSEN
 10
858.40228
 20
848.573953
 30
0.0
 11
868.8
 21
838.0
 31
0.0
  0
SOLID
  8
L-ZISSEN
 10
858.164605
 20
848.340239
 30
0.0
 11
858.639954
 21
848.807666
 31
0.0
 12
857.0
 22
850.0
 32
0.0
 13
857.0
 23
850.0
 33
0.0
  0
SOLID
  8
L-ZISSEN
 10
1180.160046
 20
910.807666
 30
0.0
 11
1180.635395
 21
910.340239
 31
0.0
 12
1181.8
 22
912.0
 32
0.0
 13
1181.8
 23
912.0
 33
0.0
  0
LINE
  8
L-ZISSEN
 10
1180.39772
 20
910.573953
 30
0.0
 11
1170.0
 21
900.0
 31
0.0
  0
LINE
  8
L-ZISSEN
 10
1170.0
 20
900.0
 30
0.0
 11
1168.0
 21
900.0
 31
0.0
  0
TEXT
  8
L-ZISSEN
 10
1157.0
 20
897.75
 30
0.0
 40
4.5
  1
P.P
  0
TEXT
  8
L-ZISSEN
 10
78.2
 20
835.75
 30
0.0
 40
4.5
  1
P.P
  0
LINE
  8
L-ZISSEN
 10
91.2
 20
838.0
 30
0.0
 11
89.2
 21
838.0
 31
0.0
  0
LINE
  8
L-ZISSEN
 10
101.59772
 20
848.573953
 30
0.0
 11
91.2
 21
838.0
 31
0.0
  0
SOLID
  8
L-ZISSEN
 10
101.360046
 20
848.807666
 30
0.0
 11
101.835395
 21
848.340239
 31
0.0
 12
103.0
 22
850.0
 32
0.0
 13
103.0
 23
850.0
 33
0.0
  0
TEXT
  8
L-ZISSEN
 10
1170.0
 20
1085.0
 30
0.0
 40
4.5
  1
JUNCTION BOX
  0
TEXT
  8
L-ZISSEN
 10
1215.0
 20
1075.0
 30
0.0
 40
4.5
  1
TLD-S*04FG20R-01
  0
TEXT
  8
L-ZISSEN
 10
1170.0
 20
1075.0
 30
0.0
 40
4.5
  1
MODEL No. :
  0
TEXT
  8
L-ZISSEN
 10
1215.0
 20
1065.0
 30
0.0
 40
4.5
  1
TLD-S*04FG21R-01
  0
TEXT
  8
L-ZISSEN
 10
1215.0
 20
850.0
 30
0.0
 40
4.5
  1
TLD-S*04FG21L-01
  0
TEXT
  8
L-ZISSEN
 10
1170.0
 20
860.0
 30
0.0
 40
4.5
  1
MODEL No. :
  0
TEXT
  8
L-ZISSEN
 10
1215.0
 20
860.0
 30
0.0
 40
4.5
  1
TLD-S*04FG20L-01
  0
TEXT
  8
L-ZISSEN
 10
1170.0
 20
870.0
 30
0.0
 40
4.5
  1
JUNCTION BOX
  0
TEXT
  8
L-ZISSEN
 10
1157.0
 20
682.75
 30
0.0
 40
4.5
  1
P.P
  0
LINE
  8
L-ZISSEN
 10
1170.0
 20
685.0
 30
0.0
 11
1168.0
 21
685.0
 31
0.0
  0
LINE
  8
L-ZISSEN
 10
1180.39772
 20
695.573953
 30
0.0
 11
1170.0
 21
685.0
 31
0.0
  0
SOLID
  8
L-ZISSEN
 10
1180.160046
 20
695.807666
 30
0.0
 11
1180.635395
 21
695.340239
 31
0.0
 12
1181.8
 22
697.0
 32
0.0
 13
1181.8
 23
697.0
 33
0.0
  0
TEXT
  8
L-ZISSEN
 10
1434.0
 20
682.75
 30
0.0
 40
4.5
  1
P.P
  0
LINE
  8
L-ZISSEN
 10
1430.0
 20
685.0
 30
0.0
 11
1432.0
 21
685.0
 31
0.0
  0
LINE
  8
L-ZISSEN
 10
1419.60228
 20
695.573953
 30
0.0
 11
1430.0
 21
685.0
 31
0.0
  0
SOLID
  8
L-ZISSEN
 10
1419.364605
 20
695.340239
 30
0.0
 11
1419.839954
 21
695.807666
 31
0.0
 12
1418.2
 22
697.0
 32
0.0
 13
1418.2
 23
697.0
 33
0.0
  0
LINE
  8
L-ZISSEN
  6
CONTINUOUS
 62
     7
 10
1418.2
 20
697.0
 30
0.0
 11
1418.2
 21
759.0
 31
0.0
  0
LINE
  8
L-ZISSEN
  6
CONTINUOUS
 62
     7
 10
1181.8
 20
697.0
 30
0.0
 11
1181.8
 21
759.0
 31
0.0
  0
LINE
  8
L-ZISSEN
  6
CONTINUOUS
 62
     7
 10
1181.8
 20
759.0
 30
0.0
 11
1185.0
 21
759.0
 31
0.0
  0
LINE
  8
L-ZISSEN
  6
CONTINUOUS
 62
     7
 10
1185.0
 20
697.0
 30
0.0
 11
1185.0
 21
759.3
 31
0.0
  0
LINE
  8
L-ZISSEN
  6
CONTINUOUS
 62
     7
 10
1222.6
 20
708.95
 30
0.0
 11
1222.6
 21
761.05
 31
0.0
  0
LINE
  8
L-ZISSEN
  6
CONTINUOUS
 62
     7
 10
1217.8
 20
710.7
 30
0.0
 11
1185.0
 21
710.7
 31
0.0
  0
LINE
  8
L-ZISSEN
  6
CONTINUOUS
 62
     7
 10
1185.0
 20
759.3
 30
0.0
 11
1217.8
 21
759.3
 31
0.0
  0
LINE
  8
L-ZISSEN
 10
1222.6
 20
708.95
 30
0.0
 11
1217.8
 21
708.95
 31
0.0
  0
LINE
  8
L-ZISSEN
 10
1222.6
 20
761.05
 30
0.0
 11
1217.8
 21
761.05
 31
0.0
  0
LINE
  8
L-ZISSEN
  6
CONTINUOUS
 62
     7
 10
1217.8
 20
729.329021
 30
0.0
 11
1217.8
 21
708.95
 31
0.0
  0
LINE
  8
L-ZISSEN
 10
1377.4
 20
761.05
 30
0.0
 11
1382.2
 21
761.05
 31
0.0
  0
LINE
  8
L-ZISSEN
 10
1377.4
 20
708.95
 30
0.0
 11
1382.2
 21
708.95
 31
0.0
  0
LINE
  8
L-ZISSEN
 10
1347.55
 20
708.95
 30
0.0
 11
1282.45
 21
708.95
 31
0.0
  0
LINE
  8
L-ZISSEN
 10
1347.55
 20
761.05
 30
0.0
 11
1282.45
 21
761.05
 31
0.0
  0
LINE
  8
L-ZISSEN
  6
CONTINUOUS
 62
     7
 10
1284.2
 20
815.0
 30
0.0
 11
1284.2
 21
782.2
 31
0.0
  0
LINE
  8
L-ZISSEN
  6
CONTINUOUS
 62
     7
 10
1345.8
 20
782.2
 30
0.0
 11
1345.8
 21
815.0
 31
0.0
  0
LINE
  8
L-ZISSEN
  6
CONTINUOUS
 62
     7
 10
1282.45
 20
777.4
 30
0.0
 11
1347.55
 21
777.4
 31
0.0
  0
LINE
  8
L-ZISSEN
  6
CONTINUOUS
 62
     7
 10
1347.55
 20
782.2
 30
0.0
 11
1282.45
 21
782.2
 31
0.0
  0
LINE
  8
L-ZISSEN
  6
CONTINUOUS
 62
     7
 10
1347.55
 20
782.2
 30
0.0
 11
1347.55
 21
777.4
 31
0.0
  0
LINE
  8
L-ZISSEN
  6
CONTINUOUS
 62
     7
 10
1282.45
 20
782.2
 30
0.0
 11
1282.45
 21
777.4
 31
0.0
  0
LINE
  8
L-ZISSEN
  6
CONTINUOUS
 62
     7
 10
1266.2
 20
807.5
 30
0.0
 11
1266.2
 21
782.5
 31
0.0
  0
LINE
  8
L-ZISSEN
  6
CONTINUOUS
 62
     7
 10
1284.2
 20
807.5
 30
0.0
 11
1266.2
 21
807.5
 31
0.0
  0
LINE
  8
L-ZISSEN
  6
CONTINUOUS
 62
     7
 10
1266.2
 20
782.5
 30
0.0
 11
1284.2
 21
782.5
 31
0.0
  0
LINE
  8
L-ZISSEN
  6
CONTINUOUS
 62
     7
 10
1249.0
 20
781.0
 30
0.0
 11
1254.0
 21
781.0
 31
0.0
  0
LINE
  8
L-ZISSEN
  6
CONTINUOUS
 62
     7
 10
1249.0
 20
809.0
 30
0.0
 11
1254.0
 21
809.0
 31
0.0
  0
LINE
  8
L-ZISSEN
  6
CONTINUOUS
 62
     7
 10
1254.0
 20
781.0
 30
0.0
 11
1254.0
 21
809.0
 31
0.0
  0
LINE
  8
L-ZISSEN
  6
CONTINUOUS
 62
     7
 10
1249.0
 20
781.0
 30
0.0
 11
1249.0
 21
809.0
 31
0.0
  0
LINE
  8
L-ZISSEN
  6
CONTINUOUS
 62
     7
 10
1254.0
 20
805.5
 30
0.0
 11
1266.2
 21
805.5
 31
0.0
  0
LINE
  8
L-ZISSEN
  6
CONTINUOUS
 62
     7
 10
1254.0
 20
784.5
 30
0.0
 11
1266.2
 21
784.5
 31
0.0
  0
CIRCLE
  8
L-ZISSEN
  6
CONTINUOUS
 62
     7
 10
1205.0
 20
735.0
 30
0.0
 40
14.0
  0
CIRCLE
  8
L-ZISSEN
  6
CONTINUOUS
 62
     7
 10
1205.0
 20
735.0
 30
0.0
 40
7.5
  0
LINE
  8
L-ZISSEN
  6
CONTINUOUS
 62
     7
 10
1415.0
 20
759.3
 30
0.0
 11
1382.2
 21
759.3
 31
0.0
  0
LINE
  8
L-ZISSEN
  6
CONTINUOUS
 62
     7
 10
1382.2
 20
710.7
 30
0.0
 11
1415.0
 21
710.7
 31
0.0
  0
LINE
  8
L-ZISSEN
  6
CONTINUOUS
 62
     7
 10
1217.8
 20
761.05
 30
0.0
 11
1217.8
 21
740.670979
 31
0.0
  0
LINE
  8
L-ZISSEN
  6
CONTINUOUS
 62
     7
 10
1377.4
 20
708.95
 30
0.0
 11
1377.4
 21
761.05
 31
0.0
  0
LINE
  8
L-ZISSEN
  6
CONTINUOUS
 62
     7
 10
1415.0
 20
697.0
 30
0.0
 11
1415.0
 21
759.3
 31
0.0
  0
LINE
  8
L-ZISSEN
  6
CONTINUOUS
 62
     7
 10
1418.2
 20
759.0
 30
0.0
 11
1415.0
 21
759.0
 31
0.0
  0
LINE
  8
L-ZISSEN
  6
CONTINUOUS
 62
     7
 10
1347.55
 20
761.05
 30
0.0
 11
1347.55
 21
708.95
 31
0.0
  0
LINE
  8
L-ZISSEN
  6
CONTINUOUS
 62
     7
 10
1282.45
 20
761.05
 30
0.0
 11
1282.45
 21
708.95
 31
0.0
  0
LINE
  8
L-ZISSEN
  6
CONTINUOUS
 62
     7
 10
1266.2
 20
722.5
 30
0.0
 11
1282.45
 21
722.5
 31
0.0
  0
LINE
  8
L-ZISSEN
  6
CONTINUOUS
 62
     7
 10
1282.45
 20
747.5
 30
0.0
 11
1266.2
 21
747.5
 31
0.0
  0
LINE
  8
L-ZISSEN
  6
CONTINUOUS
 62
     7
 10
1266.2
 20
747.5
 30
0.0
 11
1266.2
 21
722.5
 31
0.0
  0
LINE
  8
L-ZISSEN
  6
CONTINUOUS
 62
     7
 10
1249.0
 20
721.0
 30
0.0
 11
1249.0
 21
749.0
 31
0.0
  0
LINE
  8
L-ZISSEN
  6
CONTINUOUS
 62
     7
 10
1254.0
 20
721.0
 30
0.0
 11
1254.0
 21
749.0
 31
0.0
  0
LINE
  8
L-ZISSEN
  6
CONTINUOUS
 62
     7
 10
1249.0
 20
749.0
 30
0.0
 11
1254.0
 21
749.0
 31
0.0
  0
LINE
  8
L-ZISSEN
  6
CONTINUOUS
 62
     7
 10
1249.0
 20
721.0
 30
0.0
 11
1254.0
 21
721.0
 31
0.0
  0
LINE
  8
L-ZISSEN
  6
CONTINUOUS
 62
     7
 10
1254.0
 20
745.5
 30
0.0
 11
1266.2
 21
745.5
 31
0.0
  0
LINE
  8
L-ZISSEN
  6
CONTINUOUS
 62
     7
 10
1254.0
 20
724.5
 30
0.0
 11
1266.2
 21
724.5
 31
0.0
  0
LINE
  8
L-ZISSEN
  6
CONTINUOUS
 62
     7
 10
1346.0
 20
708.95
 30
0.0
 11
1346.0
 21
697.0
 31
0.0
  0
LINE
  8
L-ZISSEN
  6
CONTINUOUS
 62
     7
 10
1284.0
 20
697.0
 30
0.0
 11
1284.0
 21
708.95
 31
0.0
  0
LINE
  8
L-ZISSEN
 10
1382.2
 20
761.05
 30
0.0
 11
1382.2
 21
708.95
 31
0.0
  0
SOLID
  8
L-ZISSEN
 10
388.062074
 20
849.403715
 30
0.0
 11
388.360217
 21
848.80743
 31
0.0
 12
390.0
 22
850.0
 32
0.0
 13
390.0
 23
850.0
 33
0.0
  0
LINE
  8
L-ZISSEN
 10
388.211146
 20
849.105573
 30
0.0
 11
370.0
 21
840.0
 31
0.0
  0
LINE
  8
L-ZISSEN
 10
370.0
 20
840.0
 30
0.0
 11
368.0
 21
840.0
 31
0.0
  0
TEXT
  8
L-ZISSEN
 10
357.0
 20
837.75
 30
0.0
 40
4.5
  1
P.P
  0
TEXT
  8
L-ZISSEN
 10
1251.0
 20
684.75
 30
0.0
 40
4.5
  1
P.P
  0
LINE
  8
L-ZISSEN
 10
1264.0
 20
687.0
 30
0.0
 11
1262.0
 21
687.0
 31
0.0
  0
LINE
  8
L-ZISSEN
 10
1282.211146
 20
696.105573
 30
0.0
 11
1264.0
 21
687.0
 31
0.0
  0
SOLID
  8
L-ZISSEN
 10
1282.062074
 20
696.403715
 30
0.0
 11
1282.360217
 21
695.80743
 31
0.0
 12
1284.0
 22
697.0
 32
0.0
 13
1284.0
 23
697.0
 33
0.0
  0
SOLID
  8
L-ZISSEN
 10
420.061249
 20
1120.597181
 30
0.0
 11
419.529123
 21
1120.195576
 31
0.0
 12
421.0
 22
1118.8
 32
0.0
 13
421.0
 23
1118.8
 33
0.0
  0
LINE
  8
L-ZISSEN
 10
419.795186
 20
1120.396378
 30
0.0
 11
405.0
 21
1140.0
 31
0.0
  0
LINE
  8
L-ZISSEN
 10
405.0
 20
1140.0
 30
0.0
 11
403.0
 21
1140.0
 31
0.0
  0
TEXT
  8
L-ZISSEN
 10
392.0
 20
1137.75
 30
0.0
 40
4.5
  1
P.P
  0
TEXT
  8
L-ZISSEN
 10
1286.0
 20
833.95
 30
0.0
 40
4.5
  1
P.P
  0
LINE
  8
L-ZISSEN
 10
1299.0
 20
836.2
 30
0.0
 11
1297.0
 21
836.2
 31
0.0
  0
LINE
  8
L-ZISSEN
 10
1313.795186
 20
816.596378
 30
0.0
 11
1299.0
 21
836.2
 31
0.0
  0
SOLID
  8
L-ZISSEN
 10
1314.061249
 20
816.797181
 30
0.0
 11
1313.529123
 21
816.395576
 31
0.0
 12
1315.0
 22
815.0
 32
0.0
 13
1315.0
 23
815.0
 33
0.0
  0
TEXT
  8
L-ZISSEN
 10
1215.0
 20
625.0
 30
0.0
 40
4.5
  1
TLD-S*04FG23R-01
  0
TEXT
  8
L-ZISSEN
 10
1170.0
 20
635.0
 30
0.0
 40
4.5
  1
MODEL No. :
  0
TEXT
  8
L-ZISSEN
 10
1215.0
 20
635.0
 30
0.0
 40
4.5
  1
TLD-S*04FG22R-01
  0
TEXT
  8
L-ZISSEN
 10
1170.0
 20
645.0
 30
0.0
 40
4.5
  1
JUNCTION BOX
  0
TEXT
  8
L-ZISSEN
 10
1157.0
 20
377.75
 30
0.0
 40
4.5
  1
P.P
  0
LINE
  8
L-ZISSEN
 10
1170.0
 20
380.0
 30
0.0
 11
1168.0
 21
380.0
 31
0.0
  0
LINE
  8
L-ZISSEN
 10
1180.39772
 20
390.573953
 30
0.0
 11
1170.0
 21
380.0
 31
0.0
  0
SOLID
  8
L-ZISSEN
 10
1180.160046
 20
390.807666
 30
0.0
 11
1180.635395
 21
390.340239
 31
0.0
 12
1181.8
 22
392.0
 32
0.0
 13
1181.8
 23
392.0
 33
0.0
  0
TEXT
  8
L-ZISSEN
 10
1434.0
 20
377.75
 30
0.0
 40
4.5
  1
P.P
  0
LINE
  8
L-ZISSEN
 10
1430.0
 20
380.0
 30
0.0
 11
1432.0
 21
380.0
 31
0.0
  0
LINE
  8
L-ZISSEN
 10
1419.60228
 20
390.573953
 30
0.0
 11
1430.0
 21
380.0
 31
0.0
  0
SOLID
  8
L-ZISSEN
 10
1419.364605
 20
390.340239
 30
0.0
 11
1419.839954
 21
390.807666
 31
0.0
 12
1418.2
 22
392.0
 32
0.0
 13
1418.2
 23
392.0
 33
0.0
  0
TEXT
  8
L-ZISSEN
 10
1339.0
 20
377.75
 30
0.0
 40
4.5
  1
P.P
  0
LINE
  8
L-ZISSEN
 10
1335.0
 20
380.0
 30
0.0
 11
1337.0
 21
380.0
 31
0.0
  0
LINE
  8
L-ZISSEN
 10
1317.690978
 20
390.932014
 30
0.0
 11
1335.0
 21
380.0
 31
0.0
  0
SOLID
  8
L-ZISSEN
 10
1317.51298
 20
390.650184
 30
0.0
 11
1317.868975
 21
391.213844
 31
0.0
 12
1316.0
 22
392.0
 32
0.0
 13
1316.0
 23
392.0
 33
0.0
  0
SOLID
  8
L-ZISSEN
 10
1286.638618
 20
571.194171
 30
0.0
 11
1286.162745
 21
571.661064
 31
0.0
 12
1285.0
 22
570.0
 32
0.0
 13
1285.0
 23
570.0
 33
0.0
  0
LINE
  8
L-ZISSEN
 10
1286.400681
 20
571.427618
 30
0.0
 11
1305.8
 21
591.2
 31
0.0
  0
LINE
  8
L-ZISSEN
 10
1305.8
 20
591.2
 30
0.0
 11
1307.8
 21
591.2
 31
0.0
  0
TEXT
  8
L-ZISSEN
 10
1309.8
 20
588.95
 30
0.0
 40
4.5
  1
P.P
  0
LINE
  8
L-ZISSEN
  6
CONTINUOUS
 62
     7
 10
1418.2
 20
392.0
 30
0.0
 11
1418.2
 21
509.0
 31
0.0
  0
LINE
  8
L-ZISSEN
  6
CONTINUOUS
 62
     7
 10
1181.8
 20
392.0
 30
0.0
 11
1181.8
 21
509.0
 31
0.0
  0
LINE
  8
L-ZISSEN
  6
CONTINUOUS
 62
     7
 10
1185.0
 20
392.0
 30
0.0
 11
1185.0
 21
509.3
 31
0.0
  0
LINE
  8
L-ZISSEN
  6
CONTINUOUS
 62
     7
 10
1222.6
 20
403.95
 30
0.0
 11
1222.6
 21
456.05
 31
0.0
  0
LINE
  8
L-ZISSEN
  6
CONTINUOUS
 62
     7
 10
1217.8
 20
456.05
 30
0.0
 11
1217.8
 21
403.95
 31
0.0
  0
LINE
  8
L-ZISSEN
  6
CONTINUOUS
 62
     7
 10
1217.8
 20
405.7
 30
0.0
 11
1185.0
 21
405.7
 31
0.0
  0
LINE
  8
L-ZISSEN
  6
CONTINUOUS
 62
     7
 10
1185.0
 20
454.3
 30
0.0
 11
1217.8
 21
454.3
 31
0.0
  0
LINE
  8
L-ZISSEN
 10
1222.6
 20
403.95
 30
0.0
 11
1217.8
 21
403.95
 31
0.0
  0
LINE
  8
L-ZISSEN
 10
1222.6
 20
456.05
 30
0.0
 11
1217.8
 21
456.05
 31
0.0
  0
LINE
  8
L-ZISSEN
  6
CONTINUOUS
 62
     7
 10
1382.2
 20
424.329021
 30
0.0
 11
1382.2
 21
403.95
 31
0.0
  0
LINE
  8
L-ZISSEN
 10
1377.4
 20
456.05
 30
0.0
 11
1382.2
 21
456.05
 31
0.0
  0
LINE
  8
L-ZISSEN
 10
1377.4
 20
403.95
 30
0.0
 11
1382.2
 21
403.95
 31
0.0
  0
LINE
  8
L-ZISSEN
 10
1252.45
 20
403.95
 30
0.0
 11
1317.55
 21
403.95
 31
0.0
  0
LINE
  8
L-ZISSEN
 10
1252.45
 20
456.05
 30
0.0
 11
1317.55
 21
456.05
 31
0.0
  0
LINE
  8
L-ZISSEN
  6
CONTINUOUS
 62
     7
 10
1315.8
 20
570.0
 30
0.0
 11
1315.8
 21
537.2
 31
0.0
  0
LINE
  8
L-ZISSEN
  6
CONTINUOUS
 62
     7
 10
1254.2
 20
537.2
 30
0.0
 11
1254.2
 21
570.0
 31
0.0
  0
LINE
  8
L-ZISSEN
  6
CONTINUOUS
 62
     7
 10
1317.55
 20
532.4
 30
0.0
 11
1252.45
 21
532.4
 31
0.0
  0
LINE
  8
L-ZISSEN
  6
CONTINUOUS
 62
     7
 10
1252.45
 20
537.2
 30
0.0
 11
1317.55
 21
537.2
 31
0.0
  0
LINE
  8
L-ZISSEN
  6
CONTINUOUS
 62
     7
 10
1252.45
 20
537.2
 30
0.0
 11
1252.45
 21
532.4
 31
0.0
  0
LINE
  8
L-ZISSEN
  6
CONTINUOUS
 62
     7
 10
1317.55
 20
537.2
 30
0.0
 11
1317.55
 21
532.4
 31
0.0
  0
LINE
  8
L-ZISSEN
  6
CONTINUOUS
 62
     7
 10
1333.8
 20
562.5
 30
0.0
 11
1333.8
 21
537.5
 31
0.0
  0
LINE
  8
L-ZISSEN
  6
CONTINUOUS
 62
     7
 10
1315.8
 20
562.5
 30
0.0
 11
1333.8
 21
562.5
 31
0.0
  0
LINE
  8
L-ZISSEN
  6
CONTINUOUS
 62
     7
 10
1333.8
 20
537.5
 30
0.0
 11
1315.8
 21
537.5
 31
0.0
  0
LINE
  8
L-ZISSEN
  6
CONTINUOUS
 62
     7
 10
1351.0
 20
536.0
 30
0.0
 11
1346.0
 21
536.0
 31
0.0
  0
LINE
  8
L-ZISSEN
  6
CONTINUOUS
 62
     7
 10
1351.0
 20
564.0
 30
0.0
 11
1346.0
 21
564.0
 31
0.0
  0
LINE
  8
L-ZISSEN
  6
CONTINUOUS
 62
     7
 10
1346.0
 20
536.0
 30
0.0
 11
1346.0
 21
564.0
 31
0.0
  0
LINE
  8
L-ZISSEN
  6
CONTINUOUS
 62
     7
 10
1351.0
 20
536.0
 30
0.0
 11
1351.0
 21
564.0
 31
0.0
  0
LINE
  8
L-ZISSEN
  6
CONTINUOUS
 62
     7
 10
1346.0
 20
560.5
 30
0.0
 11
1333.8
 21
560.5
 31
0.0
  0
LINE
  8
L-ZISSEN
  6
CONTINUOUS
 62
     7
 10
1346.0
 20
539.5
 30
0.0
 11
1333.8
 21
539.5
 31
0.0
  0
CIRCLE
  8
L-ZISSEN
  6
CONTINUOUS
 62
     7
 10
1395.0
 20
430.0
 30
0.0
 40
14.0
  0
CIRCLE
  8
L-ZISSEN
  6
CONTINUOUS
 62
     7
 10
1395.0
 20
430.0
 30
0.0
 40
7.5
  0
LINE
  8
L-ZISSEN
  6
CONTINUOUS
 62
     7
 10
1415.0
 20
454.3
 30
0.0
 11
1382.2
 21
454.3
 31
0.0
  0
LINE
  8
L-ZISSEN
  6
CONTINUOUS
 62
     7
 10
1382.2
 20
405.7
 30
0.0
 11
1415.0
 21
405.7
 31
0.0
  0
LINE
  8
L-ZISSEN
  6
CONTINUOUS
 62
     7
 10
1382.2
 20
456.05
 30
0.0
 11
1382.2
 21
435.670979
 31
0.0
  0
LINE
  8
L-ZISSEN
  6
CONTINUOUS
 62
     7
 10
1377.4
 20
403.95
 30
0.0
 11
1377.4
 21
456.05
 31
0.0
  0
LINE
  8
L-ZISSEN
  6
CONTINUOUS
 62
     7
 10
1415.0
 20
392.0
 30
0.0
 11
1415.0
 21
509.3
 31
0.0
  0
LINE
  8
L-ZISSEN
  6
CONTINUOUS
 62
     7
 10
1252.45
 20
456.05
 30
0.0
 11
1252.45
 21
403.95
 31
0.0
  0
LINE
  8
L-ZISSEN
  6
CONTINUOUS
 62
     7
 10
1317.55
 20
456.05
 30
0.0
 11
1317.55
 21
403.95
 31
0.0
  0
LINE
  8
L-ZISSEN
  6
CONTINUOUS
 62
     7
 10
1333.8
 20
417.5
 30
0.0
 11
1317.55
 21
417.5
 31
0.0
  0
LINE
  8
L-ZISSEN
  6
CONTINUOUS
 62
     7
 10
1317.55
 20
442.5
 30
0.0
 11
1333.8
 21
442.5
 31
0.0
  0
LINE
  8
L-ZISSEN
  6
CONTINUOUS
 62
     7
 10
1333.8
 20
442.5
 30
0.0
 11
1333.8
 21
417.5
 31
0.0
  0
LINE
  8
L-ZISSEN
  6
CONTINUOUS
 62
     7
 10
1351.0
 20
416.0
 30
0.0
 11
1351.0
 21
444.0
 31
0.0
  0
LINE
  8
L-ZISSEN
  6
CONTINUOUS
 62
     7
 10
1346.0
 20
416.0
 30
0.0
 11
1346.0
 21
444.0
 31
0.0
  0
LINE
  8
L-ZISSEN
  6
CONTINUOUS
 62
     7
 10
1351.0
 20
444.0
 30
0.0
 11
1346.0
 21
444.0
 31
0.0
  0
LINE
  8
L-ZISSEN
  6
CONTINUOUS
 62
     7
 10
1351.0
 20
416.0
 30
0.0
 11
1346.0
 21
416.0
 31
0.0
  0
LINE
  8
L-ZISSEN
  6
CONTINUOUS
 62
     7
 10
1346.0
 20
440.5
 30
0.0
 11
1333.8
 21
440.5
 31
0.0
  0
LINE
  8
L-ZISSEN
  6
CONTINUOUS
 62
     7
 10
1346.0
 20
419.5
 30
0.0
 11
1333.8
 21
419.5
 31
0.0
  0
LINE
  8
L-ZISSEN
  6
CONTINUOUS
 62
     7
 10
1254.0
 20
403.95
 30
0.0
 11
1254.0
 21
392.0
 31
0.0
  0
LINE
  8
L-ZISSEN
  6
CONTINUOUS
 62
     7
 10
1316.0
 20
392.0
 30
0.0
 11
1316.0
 21
403.95
 31
0.0
  0
TEXT
  8
L-ZISSEN
 10
1215.0
 20
615.0
 30
0.0
 40
4.5
  1
TLD-S*04FG24R-01
  0
TEXT
  8
L-ZISSEN
 10
1215.0
 20
605.0
 30
0.0
 40
4.5
  1
TLD-S*04FG25R-01
  0
LINE
  8
L-ZISSEN
  6
CONTINUOUS
 62
     7
 10
1346.0
 20
474.5
 30
0.0
 11
1333.8
 21
474.5
 31
0.0
  0
LINE
  8
L-ZISSEN
  6
CONTINUOUS
 62
     7
 10
1346.0
 20
495.5
 30
0.0
 11
1333.8
 21
495.5
 31
0.0
  0
LINE
  8
L-ZISSEN
  6
CONTINUOUS
 62
     7
 10
1351.0
 20
471.0
 30
0.0
 11
1346.0
 21
471.0
 31
0.0
  0
LINE
  8
L-ZISSEN
  6
CONTINUOUS
 62
     7
 10
1351.0
 20
499.0
 30
0.0
 11
1346.0
 21
499.0
 31
0.0
  0
LINE
  8
L-ZISSEN
  6
CONTINUOUS
 62
     7
 10
1346.0
 20
471.0
 30
0.0
 11
1346.0
 21
499.0
 31
0.0
  0
LINE
  8
L-ZISSEN
  6
CONTINUOUS
 62
     7
 10
1351.0
 20
471.0
 30
0.0
 11
1351.0
 21
499.0
 31
0.0
  0
LINE
  8
L-ZISSEN
  6
CONTINUOUS
 62
     7
 10
1333.8
 20
497.5
 30
0.0
 11
1333.8
 21
472.5
 31
0.0
  0
LINE
  8
L-ZISSEN
  6
CONTINUOUS
 62
     7
 10
1317.55
 20
497.5
 30
0.0
 11
1333.8
 21
497.5
 31
0.0
  0
LINE
  8
L-ZISSEN
  6
CONTINUOUS
 62
     7
 10
1333.8
 20
472.5
 30
0.0
 11
1317.55
 21
472.5
 31
0.0
  0
LINE
  8
L-ZISSEN
  6
CONTINUOUS
 62
     7
 10
1317.55
 20
511.05
 30
0.0
 11
1317.55
 21
458.95
 31
0.0
  0
LINE
  8
L-ZISSEN
  6
CONTINUOUS
 62
     7
 10
1252.45
 20
511.05
 30
0.0
 11
1252.45
 21
458.95
 31
0.0
  0
LINE
  8
L-ZISSEN
 10
1252.45
 20
511.05
 30
0.0
 11
1317.55
 21
511.05
 31
0.0
  0
LINE
  8
L-ZISSEN
 10
1252.45
 20
458.95
 30
0.0
 11
1317.55
 21
458.95
 31
0.0
  0
LINE
  8
L-ZISSEN
  6
CONTINUOUS
 62
     7
 10
1418.2
 20
509.0
 30
0.0
 11
1415.0
 21
509.0
 31
0.0
  0
LINE
  8
L-ZISSEN
  6
CONTINUOUS
 62
     7
 10
1377.4
 20
458.95
 30
0.0
 11
1377.4
 21
511.05
 31
0.0
  0
LINE
  8
L-ZISSEN
  6
CONTINUOUS
 62
     7
 10
1382.2
 20
511.05
 30
0.0
 11
1382.2
 21
490.670979
 31
0.0
  0
LINE
  8
L-ZISSEN
  6
CONTINUOUS
 62
     7
 10
1382.2
 20
460.7
 30
0.0
 11
1415.0
 21
460.7
 31
0.0
  0
LINE
  8
L-ZISSEN
  6
CONTINUOUS
 62
     7
 10
1415.0
 20
509.3
 30
0.0
 11
1382.2
 21
509.3
 31
0.0
  0
CIRCLE
  8
L-ZISSEN
  6
CONTINUOUS
 62
     7
 10
1395.0
 20
485.0
 30
0.0
 40
7.5
  0
CIRCLE
  8
L-ZISSEN
  6
CONTINUOUS
 62
     7
 10
1395.0
 20
485.0
 30
0.0
 40
14.0
  0
LINE
  8
L-ZISSEN
 10
1377.4
 20
458.95
 30
0.0
 11
1382.2
 21
458.95
 31
0.0
  0
LINE
  8
L-ZISSEN
 10
1377.4
 20
511.05
 30
0.0
 11
1382.2
 21
511.05
 31
0.0
  0
LINE
  8
L-ZISSEN
  6
CONTINUOUS
 62
     7
 10
1382.2
 20
479.329021
 30
0.0
 11
1382.2
 21
458.95
 31
0.0
  0
LINE
  8
L-ZISSEN
 10
1418.2
 20
509.0
 30
0.0
 11
1415.0
 21
509.0
 31
0.0
  0
LINE
  8
L-ZISSEN
 10
1254.0
 20
456.05
 30
0.0
 11
1254.0
 21
458.95
 31
0.0
  0
LINE
  8
L-ZISSEN
 10
1316.0
 20
456.05
 30
0.0
 11
1316.0
 21
458.95
 31
0.0
  0
LINE
  8
L-ZISSEN
 10
1222.6
 20
511.05
 30
0.0
 11
1217.8
 21
511.05
 31
0.0
  0
LINE
  8
L-ZISSEN
 10
1222.6
 20
458.95
 30
0.0
 11
1217.8
 21
458.95
 31
0.0
  0
LINE
  8
L-ZISSEN
  6
CONTINUOUS
 62
     7
 10
1185.0
 20
509.3
 30
0.0
 11
1217.8
 21
509.3
 31
0.0
  0
LINE
  8
L-ZISSEN
  6
CONTINUOUS
 62
     7
 10
1217.8
 20
460.7
 30
0.0
 11
1185.0
 21
460.7
 31
0.0
  0
LINE
  8
L-ZISSEN
  6
CONTINUOUS
 62
     7
 10
1217.8
 20
511.05
 30
0.0
 11
1217.8
 21
458.95
 31
0.0
  0
LINE
  8
L-ZISSEN
  6
CONTINUOUS
 62
     7
 10
1222.6
 20
458.95
 30
0.0
 11
1222.6
 21
511.05
 31
0.0
  0
LINE
  8
L-ZISSEN
 10
1185.0
 20
509.0
 30
0.0
 11
1181.8
 21
509.0
 31
0.0
  0
LINE
  8
L-TYUSIN
 10
1150.0
 20
360.0
 30
0.0
 11
1450.0
 21
360.0
 31
0.0
  0
LINE
  8
L-ZISSEN
 10
1415.0
 20
209.0
 30
0.0
 11
1418.2
 21
209.0
 31
0.0
  0
LINE
  8
L-ZISSEN
  6
CONTINUOUS
 62
     7
 10
1377.4
 20
158.95
 30
0.0
 11
1377.4
 21
211.05
 31
0.0
  0
LINE
  8
L-ZISSEN
  6
CONTINUOUS
 62
     7
 10
1382.2
 20
211.05
 30
0.0
 11
1382.2
 21
158.95
 31
0.0
  0
LINE
  8
L-ZISSEN
  6
CONTINUOUS
 62
     7
 10
1382.2
 20
160.7
 30
0.0
 11
1415.0
 21
160.7
 31
0.0
  0
LINE
  8
L-ZISSEN
  6
CONTINUOUS
 62
     7
 10
1415.0
 20
209.3
 30
0.0
 11
1382.2
 21
209.3
 31
0.0
  0
LINE
  8
L-ZISSEN
 10
1377.4
 20
158.95
 30
0.0
 11
1382.2
 21
158.95
 31
0.0
  0
LINE
  8
L-ZISSEN
 10
1377.4
 20
211.05
 30
0.0
 11
1382.2
 21
211.05
 31
0.0
  0
LINE
  8
L-ZISSEN
 10
1284.0
 20
156.05
 30
0.0
 11
1284.0
 21
158.95
 31
0.0
  0
LINE
  8
L-ZISSEN
 10
1346.0
 20
156.05
 30
0.0
 11
1346.0
 21
158.95
 31
0.0
  0
LINE
  8
L-ZISSEN
 10
1181.8
 20
209.0
 30
0.0
 11
1185.0
 21
209.0
 31
0.0
  0
LINE
  8
L-ZISSEN
  6
CONTINUOUS
 62
     7
 10
1217.8
 20
179.329021
 30
0.0
 11
1217.8
 21
158.95
 31
0.0
  0
LINE
  8
L-ZISSEN
 10
1222.6
 20
211.05
 30
0.0
 11
1217.8
 21
211.05
 31
0.0
  0
LINE
  8
L-ZISSEN
 10
1222.6
 20
158.95
 30
0.0
 11
1217.8
 21
158.95
 31
0.0
  0
CIRCLE
  8
L-ZISSEN
  6
CONTINUOUS
 62
     7
 10
1205.0
 20
185.0
 30
0.0
 40
14.0
  0
CIRCLE
  8
L-ZISSEN
  6
CONTINUOUS
 62
     7
 10
1205.0
 20
185.0
 30
0.0
 40
7.5
  0
LINE
  8
L-ZISSEN
  6
CONTINUOUS
 62
     7
 10
1185.0
 20
209.3
 30
0.0
 11
1217.8
 21
209.3
 31
0.0
  0
LINE
  8
L-ZISSEN
  6
CONTINUOUS
 62
     7
 10
1217.8
 20
160.7
 30
0.0
 11
1185.0
 21
160.7
 31
0.0
  0
LINE
  8
L-ZISSEN
  6
CONTINUOUS
 62
     7
 10
1217.8
 20
211.05
 30
0.0
 11
1217.8
 21
190.670979
 31
0.0
  0
LINE
  8
L-ZISSEN
  6
CONTINUOUS
 62
     7
 10
1222.6
 20
158.95
 30
0.0
 11
1222.6
 21
211.05
 31
0.0
  0
LINE
  8
L-ZISSEN
  6
CONTINUOUS
 62
     7
 10
1181.8
 20
209.0
 30
0.0
 11
1185.0
 21
209.0
 31
0.0
  0
LINE
  8
L-ZISSEN
 10
1347.55
 20
158.95
 30
0.0
 11
1282.45
 21
158.95
 31
0.0
  0
LINE
  8
L-ZISSEN
 10
1347.55
 20
211.05
 30
0.0
 11
1282.45
 21
211.05
 31
0.0
  0
LINE
  8
L-ZISSEN
  6
CONTINUOUS
 62
     7
 10
1347.55
 20
211.05
 30
0.0
 11
1347.55
 21
158.95
 31
0.0
  0
LINE
  8
L-ZISSEN
  6
CONTINUOUS
 62
     7
 10
1282.45
 20
211.05
 30
0.0
 11
1282.45
 21
158.95
 31
0.0
  0
LINE
  8
L-ZISSEN
  6
CONTINUOUS
 62
     7
 10
1266.2
 20
172.5
 30
0.0
 11
1282.45
 21
172.5
 31
0.0
  0
LINE
  8
L-ZISSEN
  6
CONTINUOUS
 62
     7
 10
1282.45
 20
197.5
 30
0.0
 11
1266.2
 21
197.5
 31
0.0
  0
LINE
  8
L-ZISSEN
  6
CONTINUOUS
 62
     7
 10
1266.2
 20
197.5
 30
0.0
 11
1266.2
 21
172.5
 31
0.0
  0
LINE
  8
L-ZISSEN
  6
CONTINUOUS
 62
     7
 10
1249.0
 20
171.0
 30
0.0
 11
1249.0
 21
199.0
 31
0.0
  0
LINE
  8
L-ZISSEN
  6
CONTINUOUS
 62
     7
 10
1254.0
 20
171.0
 30
0.0
 11
1254.0
 21
199.0
 31
0.0
  0
LINE
  8
L-ZISSEN
  6
CONTINUOUS
 62
     7
 10
1249.0
 20
199.0
 30
0.0
 11
1254.0
 21
199.0
 31
0.0
  0
LINE
  8
L-ZISSEN
  6
CONTINUOUS
 62
     7
 10
1249.0
 20
171.0
 30
0.0
 11
1254.0
 21
171.0
 31
0.0
  0
LINE
  8
L-ZISSEN
  6
CONTINUOUS
 62
     7
 10
1254.0
 20
195.5
 30
0.0
 11
1266.2
 21
195.5
 31
0.0
  0
LINE
  8
L-ZISSEN
  6
CONTINUOUS
 62
     7
 10
1254.0
 20
174.5
 30
0.0
 11
1266.2
 21
174.5
 31
0.0
  0
TEXT
  8
L-ZISSEN
 10
1215.0
 20
305.0
 30
0.0
 40
4.5
  1
TLD-S*04FG25L-01
  0
TEXT
  8
L-ZISSEN
 10
1215.0
 20
315.0
 30
0.0
 40
4.5
  1
TLD-S*04FG24L-01
  0
LINE
  8
L-ZISSEN
  6
CONTINUOUS
 62
     7
 10
1284.0
 20
92.0
 30
0.0
 11
1284.0
 21
103.95
 31
0.0
  0
LINE
  8
L-ZISSEN
  6
CONTINUOUS
 62
     7
 10
1346.0
 20
103.95
 30
0.0
 11
1346.0
 21
92.0
 31
0.0
  0
LINE
  8
L-ZISSEN
  6
CONTINUOUS
 62
     7
 10
1254.0
 20
119.5
 30
0.0
 11
1266.2
 21
119.5
 31
0.0
  0
LINE
  8
L-ZISSEN
  6
CONTINUOUS
 62
     7
 10
1254.0
 20
140.5
 30
0.0
 11
1266.2
 21
140.5
 31
0.0
  0
LINE
  8
L-ZISSEN
  6
CONTINUOUS
 62
     7
 10
1249.0
 20
116.0
 30
0.0
 11
1254.0
 21
116.0
 31
0.0
  0
LINE
  8
L-ZISSEN
  6
CONTINUOUS
 62
     7
 10
1249.0
 20
144.0
 30
0.0
 11
1254.0
 21
144.0
 31
0.0
  0
LINE
  8
L-ZISSEN
  6
CONTINUOUS
 62
     7
 10
1254.0
 20
116.0
 30
0.0
 11
1254.0
 21
144.0
 31
0.0
  0
LINE
  8
L-ZISSEN
  6
CONTINUOUS
 62
     7
 10
1249.0
 20
116.0
 30
0.0
 11
1249.0
 21
144.0
 31
0.0
  0
LINE
  8
L-ZISSEN
  6
CONTINUOUS
 62
     7
 10
1266.2
 20
142.5
 30
0.0
 11
1266.2
 21
117.5
 31
0.0
  0
LINE
  8
L-ZISSEN
  6
CONTINUOUS
 62
     7
 10
1282.45
 20
142.5
 30
0.0
 11
1266.2
 21
142.5
 31
0.0
  0
LINE
  8
L-ZISSEN
  6
CONTINUOUS
 62
     7
 10
1266.2
 20
117.5
 30
0.0
 11
1282.45
 21
117.5
 31
0.0
  0
LINE
  8
L-ZISSEN
  6
CONTINUOUS
 62
     7
 10
1282.45
 20
156.05
 30
0.0
 11
1282.45
 21
103.95
 31
0.0
  0
LINE
  8
L-ZISSEN
  6
CONTINUOUS
 62
     7
 10
1347.55
 20
156.05
 30
0.0
 11
1347.55
 21
103.95
 31
0.0
  0
LINE
  8
L-ZISSEN
  6
CONTINUOUS
 62
     7
 10
1185.0
 20
92.0
 30
0.0
 11
1185.0
 21
209.3
 31
0.0
  0
LINE
  8
L-ZISSEN
  6
CONTINUOUS
 62
     7
 10
1222.6
 20
103.95
 30
0.0
 11
1222.6
 21
156.05
 31
0.0
  0
LINE
  8
L-ZISSEN
  6
CONTINUOUS
 62
     7
 10
1217.8
 20
156.05
 30
0.0
 11
1217.8
 21
135.670979
 31
0.0
  0
LINE
  8
L-ZISSEN
  6
CONTINUOUS
 62
     7
 10
1217.8
 20
105.7
 30
0.0
 11
1185.0
 21
105.7
 31
0.0
  0
LINE
  8
L-ZISSEN
  6
CONTINUOUS
 62
     7
 10
1185.0
 20
154.3
 30
0.0
 11
1217.8
 21
154.3
 31
0.0
  0
CIRCLE
  8
L-ZISSEN
  6
CONTINUOUS
 62
     7
 10
1205.0
 20
130.0
 30
0.0
 40
7.5
  0
CIRCLE
  8
L-ZISSEN
  6
CONTINUOUS
 62
     7
 10
1205.0
 20
130.0
 30
0.0
 40
14.0
  0
LINE
  8
L-ZISSEN
  6
CONTINUOUS
 62
     7
 10
1254.0
 20
239.5
 30
0.0
 11
1266.2
 21
239.5
 31
0.0
  0
LINE
  8
L-ZISSEN
  6
CONTINUOUS
 62
     7
 10
1254.0
 20
260.5
 30
0.0
 11
1266.2
 21
260.5
 31
0.0
  0
LINE
  8
L-ZISSEN
  6
CONTINUOUS
 62
     7
 10
1249.0
 20
236.0
 30
0.0
 11
1249.0
 21
264.0
 31
0.0
  0
LINE
  8
L-ZISSEN
  6
CONTINUOUS
 62
     7
 10
1254.0
 20
236.0
 30
0.0
 11
1254.0
 21
264.0
 31
0.0
  0
LINE
  8
L-ZISSEN
  6
CONTINUOUS
 62
     7
 10
1249.0
 20
264.0
 30
0.0
 11
1254.0
 21
264.0
 31
0.0
  0
LINE
  8
L-ZISSEN
  6
CONTINUOUS
 62
     7
 10
1249.0
 20
236.0
 30
0.0
 11
1254.0
 21
236.0
 31
0.0
  0
LINE
  8
L-ZISSEN
  6
CONTINUOUS
 62
     7
 10
1266.2
 20
237.5
 30
0.0
 11
1284.2
 21
237.5
 31
0.0
  0
LINE
  8
L-ZISSEN
  6
CONTINUOUS
 62
     7
 10
1284.2
 20
262.5
 30
0.0
 11
1266.2
 21
262.5
 31
0.0
  0
LINE
  8
L-ZISSEN
  6
CONTINUOUS
 62
     7
 10
1266.2
 20
262.5
 30
0.0
 11
1266.2
 21
237.5
 31
0.0
  0
LINE
  8
L-ZISSEN
  6
CONTINUOUS
 62
     7
 10
1282.45
 20
237.2
 30
0.0
 11
1282.45
 21
232.4
 31
0.0
  0
LINE
  8
L-ZISSEN
  6
CONTINUOUS
 62
     7
 10
1347.55
 20
237.2
 30
0.0
 11
1347.55
 21
232.4
 31
0.0
  0
LINE
  8
L-ZISSEN
  6
CONTINUOUS
 62
     7
 10
1347.55
 20
237.2
 30
0.0
 11
1282.45
 21
237.2
 31
0.0
  0
LINE
  8
L-ZISSEN
  6
CONTINUOUS
 62
     7
 10
1282.45
 20
232.4
 30
0.0
 11
1347.55
 21
232.4
 31
0.0
  0
LINE
  8
L-ZISSEN
  6
CONTINUOUS
 62
     7
 10
1345.8
 20
237.2
 30
0.0
 11
1345.8
 21
270.0
 31
0.0
  0
LINE
  8
L-ZISSEN
  6
CONTINUOUS
 62
     7
 10
1284.2
 20
270.0
 30
0.0
 11
1284.2
 21
237.2
 31
0.0
  0
LINE
  8
L-ZISSEN
 10
1347.55
 20
156.05
 30
0.0
 11
1282.45
 21
156.05
 31
0.0
  0
LINE
  8
L-ZISSEN
 10
1347.55
 20
103.95
 30
0.0
 11
1282.45
 21
103.95
 31
0.0
  0
LINE
  8
L-ZISSEN
 10
1222.6
 20
103.95
 30
0.0
 11
1217.8
 21
103.95
 31
0.0
  0
LINE
  8
L-ZISSEN
 10
1222.6
 20
156.05
 30
0.0
 11
1217.8
 21
156.05
 31
0.0
  0
LINE
  8
L-ZISSEN
  6
CONTINUOUS
 62
     7
 10
1217.8
 20
124.329021
 30
0.0
 11
1217.8
 21
103.95
 31
0.0
  0
LINE
  8
L-ZISSEN
 10
1377.4
 20
156.05
 30
0.0
 11
1382.2
 21
156.05
 31
0.0
  0
LINE
  8
L-ZISSEN
 10
1377.4
 20
103.95
 30
0.0
 11
1382.2
 21
103.95
 31
0.0
  0
LINE
  8
L-ZISSEN
  6
CONTINUOUS
 62
     7
 10
1415.0
 20
154.3
 30
0.0
 11
1382.2
 21
154.3
 31
0.0
  0
LINE
  8
L-ZISSEN
  6
CONTINUOUS
 62
     7
 10
1382.2
 20
105.7
 30
0.0
 11
1415.0
 21
105.7
 31
0.0
  0
LINE
  8
L-ZISSEN
  6
CONTINUOUS
 62
     7
 10
1382.2
 20
156.05
 30
0.0
 11
1382.2
 21
103.95
 31
0.0
  0
LINE
  8
L-ZISSEN
  6
CONTINUOUS
 62
     7
 10
1377.4
 20
103.95
 30
0.0
 11
1377.4
 21
156.05
 31
0.0
  0
LINE
  8
L-ZISSEN
  6
CONTINUOUS
 62
     7
 10
1415.0
 20
92.0
 30
0.0
 11
1415.0
 21
209.3
 31
0.0
  0
LINE
  8
L-ZISSEN
  6
CONTINUOUS
 62
     7
 10
1181.8
 20
92.0
 30
0.0
 11
1181.8
 21
209.0
 31
0.0
  0
LINE
  8
L-ZISSEN
  6
CONTINUOUS
 62
     7
 10
1418.2
 20
92.0
 30
0.0
 11
1418.2
 21
209.0
 31
0.0
  0
SOLID
  8
L-ZISSEN
 10
1419.364605
 20
90.340239
 30
0.0
 11
1419.839954
 21
90.807666
 31
0.0
 12
1418.2
 22
92.0
 32
0.0
 13
1418.2
 23
92.0
 33
0.0
  0
LINE
  8
L-ZISSEN
 10
1419.60228
 20
90.573953
 30
0.0
 11
1430.0
 21
80.0
 31
0.0
  0
LINE
  8
L-ZISSEN
 10
1430.0
 20
80.0
 30
0.0
 11
1432.0
 21
80.0
 31
0.0
  0
TEXT
  8
L-ZISSEN
 10
1434.0
 20
77.75
 30
0.0
 40
4.5
  1
P.P
  0
SOLID
  8
L-ZISSEN
 10
1180.160046
 20
90.807666
 30
0.0
 11
1180.635395
 21
90.340239
 31
0.0
 12
1181.8
 22
92.0
 32
0.0
 13
1181.8
 23
92.0
 33
0.0
  0
LINE
  8
L-ZISSEN
 10
1180.39772
 20
90.573953
 30
0.0
 11
1170.0
 21
80.0
 31
0.0
  0
LINE
  8
L-ZISSEN
 10
1170.0
 20
80.0
 30
0.0
 11
1168.0
 21
80.0
 31
0.0
  0
TEXT
  8
L-ZISSEN
 10
1157.0
 20
77.75
 30
0.0
 40
4.5
  1
P.P
  0
TEXT
  8
L-ZISSEN
 10
1170.0
 20
345.0
 30
0.0
 40
4.5
  1
JUNCTION BOX
  0
TEXT
  8
L-ZISSEN
 10
1215.0
 20
335.0
 30
0.0
 40
4.5
  1
TLD-S*04FG22L-01
  0
TEXT
  8
L-ZISSEN
 10
1170.0
 20
335.0
 30
0.0
 40
4.5
  1
MODEL No. :
  0
TEXT
  8
L-ZISSEN
 10
1215.0
 20
325.0
 30
0.0
 40
4.5
  1
TLD-S*04FG23L-01
  0
SOLID
  8
L-ZISSEN
 10
1282.062074
 20
91.403715
 30
0.0
 11
1282.360217
 21
90.80743
 31
0.0
 12
1284.0
 22
92.0
 32
0.0
 13
1284.0
 23
92.0
 33
0.0
  0
LINE
  8
L-ZISSEN
 10
1282.211146
 20
91.105573
 30
0.0
 11
1264.0
 21
82.0
 31
0.0
  0
LINE
  8
L-ZISSEN
 10
1264.0
 20
82.0
 30
0.0
 11
1262.0
 21
82.0
 31
0.0
  0
TEXT
  8
L-ZISSEN
 10
1251.0
 20
79.75
 30
0.0
 40
4.5
  1
P.P
  0
SOLID
  8
L-ZISSEN
 10
1314.061249
 20
271.797181
 30
0.0
 11
1313.529123
 21
271.395576
 31
0.0
 12
1315.0
 22
270.0
 32
0.0
 13
1315.0
 23
270.0
 33
0.0
  0
LINE
  8
L-ZISSEN
 10
1313.795186
 20
271.596378
 30
0.0
 11
1299.0
 21
291.2
 31
0.0
  0
LINE
  8
L-ZISSEN
 10
1299.0
 20
291.2
 30
0.0
 11
1297.0
 21
291.2
 31
0.0
  0
TEXT
  8
L-ZISSEN
 10
1286.0
 20
288.95
 30
0.0
 40
4.5
  1
P.P
  0
LINE
  8
L-TYUSIN
 10
1150.0
 20
660.0
 30
0.0
 11
1450.0
 21
660.0
 31
0.0
  0
LINE
  8
L-ZISSEN
 10
799.0
 20
791.6
 30
0.0
 11
799.0
 21
308.0
 31
0.0
  0
LINE
  8
L-ZISSEN
 10
793.0
 20
791.6
 30
0.0
 11
793.0
 21
308.0
 31
0.0
  0
LINE
  8
L-ZISSEN
 10
572.909985
 20
791.6
 30
0.0
 11
572.909985
 21
279.0
 31
0.0
  0
LINE
  8
L-ZISSEN
 10
566.909985
 20
791.6
 30
0.0
 11
566.909985
 21
743.0
 31
0.0
  0
LINE
  8
L-ZISSEN
 10
566.909985
 20
713.0
 30
0.0
 11
566.909985
 21
496.0
 31
0.0
  0
LINE
  8
L-ZISSEN
 10
566.909985
 20
446.0
 30
0.0
 11
566.909985
 21
279.0
 31
0.0
  0
LINE
  8
L-ZISSEN
 10
793.0
 20
743.0
 30
0.0
 11
660.0
 21
743.0
 31
0.0
  0
LINE
  8
L-ZISSEN
 10
799.0
 20
713.0
 30
0.0
 11
840.0
 21
713.0
 31
0.0
  0
LINE
  8
L-ZISSEN
 10
793.0
 20
474.0
 30
0.0
 11
696.0
 21
474.0
 31
0.0
  0
LINE
  8
L-ZISSEN
 10
793.0
 20
446.0
 30
0.0
 11
660.0
 21
446.0
 31
0.0
  0
LINE
  8
L-ZISSEN
 10
167.0
 20
791.6
 30
0.0
 11
167.0
 21
743.0
 31
0.0
  0
LINE
  8
L-ZISSEN
 10
161.0
 20
791.6
 30
0.0
 11
161.0
 21
763.2
 31
0.0
  0
LINE
  8
L-ZISSEN
 10
161.0
 20
760.0
 30
0.0
 11
161.0
 21
743.0
 31
0.0
  0
LINE
  8
L-ZISSEN
 10
793.0
 20
366.0
 30
0.0
 11
688.0
 21
366.0
 31
0.0
  0
LINE
  8
L-ZISSEN
 10
793.0
 20
352.0
 30
0.0
 11
688.0
 21
352.0
 31
0.0
  0
LINE
  8
L-ZISSEN
 10
789.0
 20
308.0
 30
0.0
 11
803.0
 21
308.0
 31
0.0
  0
LINE
  8
L-ZISSEN
 10
789.0
 20
308.0
 30
0.0
 11
789.0
 21
294.0
 31
0.0
  0
LINE
  8
L-ZISSEN
 10
789.0
 20
294.0
 30
0.0
 11
803.0
 21
294.0
 31
0.0
  0
LINE
  8
L-ZISSEN
 10
803.0
 20
294.0
 30
0.0
 11
803.0
 21
308.0
 31
0.0
  0
LINE
  8
L-ZISSEN
 10
789.0
 20
290.0
 30
0.0
 11
803.0
 21
290.0
 31
0.0
  0
LINE
  8
L-ZISSEN
 10
789.0
 20
285.0
 30
0.0
 11
789.0
 21
290.0
 31
0.0
  0
LINE
  8
L-ZISSEN
 10
803.0
 20
290.0
 30
0.0
 11
803.0
 21
285.0
 31
0.0
  0
LINE
  8
L-ZISSEN
 10
789.0
 20
285.0
 30
0.0
 11
803.0
 21
285.0
 31
0.0
  0
LINE
  8
L-ZISSEN
 10
791.0
 20
294.0
 30
0.0
 11
791.0
 21
290.0
 31
0.0
  0
LINE
  8
L-ZISSEN
 10
791.0
 20
285.0
 30
0.0
 11
791.0
 21
279.0
 31
0.0
  0
LINE
  8
L-ZISSEN
 10
801.0
 20
294.0
 30
0.0
 11
801.0
 21
290.0
 31
0.0
  0
LINE
  8
L-ZISSEN
 10
801.0
 20
285.0
 30
0.0
 11
801.0
 21
279.0
 31
0.0
  0
LINE
  8
L-ZISSEN
 10
566.409985
 20
1065.636336
 30
0.0
 11
562.909985
 21
1059.574158
 31
0.0
  0
LINE
  8
L-ZISSEN
 10
562.909985
 20
1059.574158
 30
0.0
 11
563.31496
 21
1058.87272
 31
0.0
  0
LINE
  8
L-ZISSEN
 10
571.769075
 20
1053.51198
 30
0.0
 11
573.409985
 21
1053.51198
 31
0.0
  0
LINE
  8
L-ZISSEN
 10
573.409985
 20
1053.51198
 30
0.0
 11
576.909985
 21
1059.574158
 31
0.0
  0
LINE
  8
L-ZISSEN
 10
576.909985
 20
1059.574158
 30
0.0
 11
573.409985
 21
1065.636336
 31
0.0
  0
LINE
  8
L-ZISSEN
 10
573.409985
 20
1065.636336
 30
0.0
 11
566.409985
 21
1065.636336
 31
0.0
  0
ARC
  8
L-ZISSEN
 10
569.909985
 20
1059.574158
 30
0.0
 40
5.0
 50
325.0
 51
145.0
  0
LINE
  8
L-ZISSEN
 10
565.112383
 20
1044.005239
 30
0.0
 11
574.005745
 21
1056.706276
 31
0.0
  0
LINE
  8
L-ZISSEN
 10
565.814224
 20
1062.44204
 30
0.0
 11
556.920863
 21
1049.741004
 31
0.0
  0
LINE
  8
L-ZISSEN
 10
566.711288
 20
1046.288712
 30
0.0
 11
570.0
 21
1043.0
 31
0.0
  0
ARC
  8
L-ZISSEN
 10
782.286877
 20
818.6
 30
0.0
 40
5.0
 50
90.0
 51
270.0
  0
LINE
  8
L-ZISSEN
 10
782.286877
 20
813.6
 30
0.0
 11
791.0
 21
813.6
 31
0.0
  0
LINE
  8
L-ZISSEN
 10
782.286877
 20
823.6
 30
0.0
 11
801.0
 21
823.6
 31
0.0
  0
LINE
  8
L-ZISSEN
 10
791.0
 20
805.6
 30
0.0
 11
791.0
 21
813.6
 31
0.0
  0
LINE
  8
L-ZISSEN
 10
801.0
 20
805.6
 30
0.0
 11
801.0
 21
823.6
 31
0.0
  0
LINE
  8
L-ZISSEN
 10
789.937822
 20
805.6
 30
0.0
 11
789.937822
 21
791.6
 31
0.0
  0
LINE
  8
L-ZISSEN
 10
802.062178
 20
791.6
 30
0.0
 11
802.062178
 21
805.6
 31
0.0
  0
LINE
  8
L-ZISSEN
 10
789.937822
 20
791.6
 30
0.0
 11
802.062178
 21
791.6
 31
0.0
  0
LINE
  8
L-ZISSEN
 10
789.937822
 20
805.6
 30
0.0
 11
802.062178
 21
805.6
 31
0.0
  0
LINE
  8
L-ZISSEN
 10
786.808076
 20
813.6
 30
0.0
 11
786.808076
 21
801.6
 31
0.0
  0
LINE
  8
L-ZISSEN
 10
169.0
 20
805.6
 30
0.0
 11
169.0
 21
813.6
 31
0.0
  0
LINE
  8
L-ZISSEN
 10
157.937822
 20
805.6
 30
0.0
 11
170.062178
 21
805.6
 31
0.0
  0
LINE
  8
L-ZISSEN
 10
159.0
 20
805.6
 30
0.0
 11
159.0
 21
823.6
 31
0.0
  0
LINE
  8
L-ZISSEN
 10
173.191924
 20
823.6
 30
0.0
 11
159.0
 21
823.6
 31
0.0
  0
LINE
  8
L-ZISSEN
 10
173.191924
 20
813.6
 30
0.0
 11
169.0
 21
813.6
 31
0.0
  0
LINE
  8
L-ZISSEN
 10
157.937822
 20
805.6
 30
0.0
 11
157.937822
 21
791.6
 31
0.0
  0
LINE
  8
L-ZISSEN
 10
170.062178
 20
791.6
 30
0.0
 11
170.062178
 21
805.6
 31
0.0
  0
LINE
  8
L-ZISSEN
 10
157.937822
 20
791.6
 30
0.0
 11
170.062178
 21
791.6
 31
0.0
  0
LINE
  8
L-ZISSEN
 10
575.0
 20
805.6
 30
0.0
 11
575.0
 21
823.6
 31
0.0
  0
LINE
  8
L-ZISSEN
 10
571.966927
 20
805.6
 30
0.0
 11
576.909985
 21
805.6
 31
0.0
  0
LINE
  8
L-ZISSEN
 10
562.909985
 20
791.6
 30
0.0
 11
576.909985
 21
791.6
 31
0.0
  0
LINE
  8
L-ZISSEN
 10
562.909985
 20
801.6
 30
0.0
 11
562.909985
 21
791.6
 31
0.0
  0
LINE
  8
L-ZISSEN
 10
576.909985
 20
805.6
 30
0.0
 11
576.909985
 21
791.6
 31
0.0
  0
LINE
  8
L-ZISSEN
 10
575.0
 20
823.6
 30
0.0
 11
571.966927
 21
823.6
 31
0.0
  0
SOLID
  8
L-ZISSEN
 10
736.719631
 20
261.427815
 30
0.0
 11
737.298738
 21
261.097543
 31
0.0
 12
738.0
 22
263.0
 32
0.0
 13
738.0
 23
263.0
 33
0.0
  0
LINE
  8
L-ZISSEN
 10
737.009184
 20
261.262679
 30
0.0
 11
665.0
 21
135.0
 31
0.0
  0
LINE
  8
L-ZISSEN
 10
665.0
 20
135.0
 30
0.0
 11
663.0
 21
135.0
 31
0.0
  0
TEXT
  8
L-ZISSEN
 10
655.0
 20
132.75
 30
0.0
 40
4.5
  1
IN
  0
TEXT
  8
L-ZISSEN
 10
640.0
 20
125.0
 30
0.0
 40
4.5
  1
Rc 1/4
  0
LINE
  8
L-TYUSIN
 10
420.0
 20
1127.0
 30
0.0
 11
420.0
 21
1113.8
 31
0.0
  0
LINE
  8
L-TYUSIN
 10
960.0
 20
1100.0
 30
0.0
 11
960.0
 21
595.0
 31
0.0
  0
LINE
  8
L-ZISSEN
 10
653.0
 20
268.052437
 30
0.0
 11
658.0
 21
267.896187
 31
0.0
  0
LINE
  8
L-ZISSEN
 10
653.0
 20
257.947563
 30
0.0
 11
658.0
 21
258.103813
 31
0.0
  0
LINE
  8
L-TYUSIN
 10
848.8
 20
826.0
 30
0.0
 11
862.0
 21
826.0
 31
0.0
  0
LINE
  8
L-TYUSIN
 10
98.0
 20
826.0
 30
0.0
 11
111.2
 21
826.0
 31
0.0
  0
LINE
  8
L-TYUSIN
 10
540.0
 20
1127.0
 30
0.0
 11
540.0
 21
1113.8
 31
0.0
  0
TEXT
  8
L-ZISSEN
 10
171.5
 20
1148.0
 30
0.0
 40
4.5
  1
1
  0
TEXT
  8
L-ZISSEN
 10
170.5
 20
1141.5
 30
0.0
 40
4.5
  1
2
  0
LINE
  8
L-ZISSEN
 10
307.0
 20
257.947563
 30
0.0
 11
302.0
 21
258.103813
 31
0.0
  0
LINE
  8
L-ZISSEN
 10
307.0
 20
268.052437
 30
0.0
 11
302.0
 21
267.896187
 31
0.0
  0
LINE
  8
L-ZISSEN
 10
307.0
 20
257.0
 30
0.0
 11
313.0
 21
257.0
 31
0.0
  0
LINE
  8
L-ZISSEN
 10
307.0
 20
269.0
 30
0.0
 11
307.0
 21
257.0
 31
0.0
  0
LINE
  8
L-ZISSEN
 10
313.0
 20
269.0
 30
0.0
 11
307.0
 21
269.0
 31
0.0
  0
LINE
  8
L-ZISSEN
 10
331.5
 20
290.0
 30
0.0
 11
336.5
 21
290.0
 31
0.0
  0
LINE
  8
L-ZISSEN
 10
313.0
 20
289.0
 30
0.0
 11
331.5
 21
289.0
 31
0.0
  0
LINE
  8
L-ZISSEN
 10
331.5
 20
236.0
 30
0.0
 11
336.5
 21
236.0
 31
0.0
  0
LINE
  8
L-ZISSEN
 10
313.0
 20
237.0
 30
0.0
 11
331.5
 21
237.0
 31
0.0
  0
LINE
  8
L-ZISSEN
 10
313.0
 20
289.0
 30
0.0
 11
313.0
 21
237.0
 31
0.0
  0
LINE
  8
L-ZISSEN
 10
331.5
 20
290.0
 30
0.0
 11
331.5
 21
236.0
 31
0.0
  0
LINE
  8
L-ZISSEN
 10
336.5
 20
290.0
 30
0.0
 11
336.5
 21
236.0
 31
0.0
  0
LINE
  8
L-ZISSEN
 10
489.251437
 20
279.0
 30
0.0
 11
388.0
 21
279.0
 31
0.0
  0
LINE
  8
L-ZISSEN
 10
538.0
 20
888.5
 30
0.0
 11
484.0
 21
888.5
 31
0.0
  0
LINE
  8
L-ZISSEN
 10
538.0
 20
893.5
 30
0.0
 11
484.0
 21
893.5
 31
0.0
  0
LINE
  8
L-ZISSEN
 10
537.0
 20
912.0
 30
0.0
 11
485.0
 21
912.0
 31
0.0
  0
LINE
  8
L-ZISSEN
 10
485.0
 20
912.0
 30
0.0
 11
485.0
 21
893.5
 31
0.0
  0
LINE
  8
L-ZISSEN
 10
484.0
 20
893.5
 30
0.0
 11
484.0
 21
888.5
 31
0.0
  0
LINE
  8
L-ZISSEN
 10
537.0
 20
912.0
 30
0.0
 11
537.0
 21
893.5
 31
0.0
  0
LINE
  8
L-ZISSEN
 10
538.0
 20
893.5
 30
0.0
 11
538.0
 21
888.5
 31
0.0
  0
LINE
  8
L-ZISSEN
 10
517.0
 20
912.0
 30
0.0
 11
517.0
 21
918.0
 31
0.0
  0
LINE
  8
L-ZISSEN
 10
517.0
 20
918.0
 30
0.0
 11
505.0
 21
918.0
 31
0.0
  0
LINE
  8
L-ZISSEN
 10
505.0
 20
918.0
 30
0.0
 11
505.0
 21
912.0
 31
0.0
  0
LINE
  8
L-ZISSEN
 10
516.052437
 20
918.0
 30
0.0
 11
515.833688
 21
925.0
 31
0.0
  0
LINE
  8
L-ZISSEN
 10
505.947563
 20
918.0
 30
0.0
 11
506.166312
 21
925.0
 31
0.0
  0
ENDSEC
  0
EOF
