  0
SECTION
  2
HEADER
  9
$ACADVER
  1
AC1006
  9
$INSBASE
 10
0.0
 20
0.0
 30
0.0
  9
$EXTMIN
 10
-62.802602
 20
-34.609741
  9
$EXTMAX
 10
992.91784
 20
551.694184
  9
$LIMMIN
 10
0.0
 20
0.0
  9
$LIMMAX
 10
297.0
 20
210.0
  9
$ORTHOMODE
 70
     0
  9
$REGENMODE
 70
     1
  9
$FILLMODE
 70
     1
  9
$QTEXTMODE
 70
     0
  9
$MIRRTEXT
 70
     1
  9
$DRAGMODE
 70
     2
  9
$LTSCALE
 40
1.0
  9
$OSMODE
 70
     0
  9
$ATTMODE
 70
     1
  9
$TEXTSIZE
 40
4.5
  9
$TRACEWID
 40
0.05
  9
$TEXTSTYLE
  7
STANDARD
  9
$CLAYER
  8
L-ZISSEN
  9
$CELTYPE
  6
BYLAYER
  9
$CECOLOR
 62
   256
  9
$DIMSCALE
 40
1.0
  9
$DIMASZ
 40
2.0
  9
$DIMEXO
 40
1.0
  9
$DIMDLI
 40
8.0
  9
$DIMRND
 40
0.0
  9
$DIMDLE
 40
0.0
  9
$DIMEXE
 40
1.0
  9
$DIMTP
 40
0.0
  9
$DIMTM
 40
0.0
  9
$DIMTXT
 40
4.5
  9
$DIMCEN
 40
0.8
  9
$DIMTSZ
 40
0.0
  9
$DIMTOL
 70
     0
  9
$DIMLIM
 70
     0
  9
$DIMTIH
 70
     0
  9
$DIMTOH
 70
     0
  9
$DIMSE1
 70
     0
  9
$DIMSE2
 70
     0
  9
$DIMTAD
 70
     0
  9
$DIMZIN
 70
     0
  9
$DIMBLK
  1

  9
$DIMASO
 70
     0
  9
$DIMSHO
 70
     0
  9
$DIMPOST
  1

  9
$DIMAPOST
  1

  9
$DIMALT
 70
     0
  9
$DIMALTD
 70
     2
  9
$DIMALTF
 40
25.4
  9
$DIMLFAC
 40
1.0
  9
$DIMTOFL
 70
     1
  9
$DIMTVP
 40
1.0
  9
$DIMTIX
 70
     1
  9
$DIMSOXD
 70
     0
  9
$DIMSAH
 70
     0
  9
$DIMBLK1
  1

  9
$DIMBLK2
  1

  9
$LUNITS
 70
     2
  9
$LUPREC
 70
     4
  9
$AXISMODE
 70
     0
  9
$AXISUNIT
 10
0.0
 20
0.0
  9
$SKETCHINC
 40
0.1
  9
$FILLETRAD
 40
1.0
  9
$AUNITS
 70
     0
  9
$AUPREC
 70
     0
  9
$MENU
  1
acad
  9
$ELEVATION
 40
0.0
  9
$THICKNESS
 40
0.0
  9
$LIMCHECK
 70
     0
  9
$BLIPMODE
 70
     1
  9
$CHAMFERA
 40
2.0
  9
$CHAMFERB
 40
2.0
  9
$SKPOLY
 70
     0
  9
$TDCREATE
 40
2449045.6704133102
  9
$TDUPDATE
 40
2449045.6704133102
  9
$TDINDWG
 40
0.0000000000
  9
$TDUSRTIMER
 40
0.0000000000
  9
$USRTIMER
 70
     1
  9
$ANGBASE
 50
0.0
  9
$ANGDIR
 70
     0
  9
$PDMODE
 70
     0
  9
$PDSIZE
 40
0.0
  9
$PLINEWID
 40
0.0
  9
$COORDS
 70
     2
  9
$SPLFRAME
 70
     0
  9
$SPLINETYPE
 70
     6
  9
$SPLINESEGS
 70
     8
  9
$ATTDIA
 70
     0
  9
$ATTREQ
 70
     1
  9
$HANDLING
 70
     0
  9
$HANDSEED
  5
0
  9
$SURFTAB1
 70
     6
  9
$SURFTAB2
 70
     6
  9
$SURFTYPE
 70
     6
  9
$SURFU
 70
     6
  9
$SURFV
 70
     6
  9
$FLATLAND
 70
     0
  9
$UCSNAME
  2

  9
$UCSORG
 10
0.0
 20
0.0
 30
0.0
  9
$UCSXDIR
 10
1.0
 20
0.0
 30
0.0
  9
$UCSYDIR
 10
0.0
 20
1.0
 30
0.0
  9
$USERI1
 70
     0
  9
$USERI2
 70
     0
  9
$USERI3
 70
     0
  9
$USERI4
 70
     0
  9
$USERI5
 70
     0
  9
$USERR1
 40
0.0
  9
$USERR2
 40
0.0
  9
$USERR3
 40
0.0
  9
$USERR4
 40
0.0
  9
$USERR5
 40
0.0
  9
$WORLDVIEW
 70
     1
  0
ENDSEC
  0
SECTION
  2
TABLES
  0
TABLE
  2
VPORT
 70
     2
  0
VPORT
  2
*ACTIVE
 70
     0
 10
0.0
 20
0.0
 11
1.0
 21
1.0
 12
664.268003
 22
310.695447
 13
0.0
 23
0.0
 14
1.0
 24
1.0
 15
0.0
 25
0.0
 16
0.0
 26
0.0
 36
1.0
 17
0.0
 27
0.0
 37
0.0
 40
503.971896
 41
1.5487
 42
50.0
 43
0.0
 44
0.0
 50
0.0
 51
0.0
 71
     0
 72
   100
 73
     1
 74
     0
 75
     0
 76
     0
 77
     0
 78
     0
  0
ENDTAB
  0
TABLE
  2
LTYPE
 70
     2
  0
LTYPE
  2
CONTINUOUS
 70
    64
  3
Solid line
 72
    65
 73
     0
 40
0.0
  0
LTYPE
  2
CENTER
 70
    64
  3
----- - ----- - ----- - ----- - ----- - -----
 72
    65
 73
     4
 40
17.5
 49
15.0
 49
-0.75
 49
1.0
 49
-0.75
  0
ENDTAB
  0
TABLE
  2
LAYER
 70
     4
  0
LAYER
  2
0
 70
    64
 62
     7
  6
CONTINUOUS
  0
LAYER
  2
L-ZISSEN
 70
    64
 62
     7
  6
CONTINUOUS
  0
LAYER
  2
L-TYUSIN
 70
    64
 62
     1
  6
CENTER
  0
LAYER
  2
L-MOJI
 70
    64
 62
     4
  6
CONTINUOUS
  0
ENDTAB
  0
TABLE
  2
STYLE
 70
     2
  0
STYLE
  2
STANDARD
 70
    64
 40
0.0
 41
1.0
 50
0.0
 71
     0
 42
4.5
  3
txt
  4

  0
STYLE
  2
KANJI
 70
    64
 40
0.0
 41
1.0
 50
0.0
 71
     0
 42
3.5
  3
romans
  4
bigfont
  0
ENDTAB
  0
TABLE
  2
VIEW
 70
     0
  0
ENDTAB
  0
TABLE
  2
UCS
 70
     0
  0
ENDTAB
  0
TABLE
  2
DWGMGR
 70
     0
  0
ENDTAB
  0
ENDSEC
  0
SECTION
  2
BLOCKS
  0
ENDSEC
  0
SECTION
  2
ENTITIES
  0
TEXT
  8
L-MOJI
 10
645.26864
 20
123.487089
 30
0.0
 40
1.75
  1

  7
KANJI
  0
TEXT
  8
L-MOJI
 10
677.213598
 20
197.232945
 30
0.0
 40
1.75
  1
 
  7
KANJI
 72
     1
 11
677.563598
 21
197.232945
 31
0.0
  0
TEXT
  8
L-MOJI
 10
677.213598
 20
164.232945
 30
0.0
 40
1.75
  1
 
  7
KANJI
 72
     1
 11
677.563598
 21
164.232945
 31
0.0
  0
TEXT
  8
L-MOJI
 10
677.213598
 20
155.982945
 30
0.0
 40
1.75
  1
 
  7
KANJI
 72
     1
 11
677.563598
 21
155.982945
 31
0.0
  0
TEXT
  8
L-MOJI
 10
677.213598
 20
150.482945
 30
0.0
 40
1.75
  1
 
  7
KANJI
 72
     1
 11
677.563598
 21
150.482945
 31
0.0
  0
TEXT
  8
L-MOJI
 10
677.213598
 20
120.232945
 30
0.0
 40
1.75
  1
 
  7
KANJI
 72
     1
 11
677.563598
 21
120.232945
 31
0.0
  0
TEXT
  8
L-MOJI
 10
677.213598
 20
100.982945
 30
0.0
 40
1.75
  1
 
  7
KANJI
 72
     1
 11
677.563598
 21
100.982945
 31
0.0
  0
LINE
  8
L-ZISSEN
 10
479.475194
 20
-34.609741
 30
0.0
 11
479.475194
 21
-33.009741
 31
0.0
  0
LINE
  8
L-ZISSEN
 10
333.513132
 20
371.782892
 30
0.0
 11
333.513132
 21
399.782892
 31
0.0
  0
LINE
  8
L-TYUSIN
  6
CENTER
 62
     1
 10
340.801006
 20
394.782892
 30
0.0
 11
324.487842
 21
394.782892
 31
0.0
  0
LINE
  8
L-TYUSIN
  6
CENTER
 62
     1
 10
340.196815
 20
376.782892
 30
0.0
 11
324.487842
 21
376.782892
 31
0.0
  0
LINE
  8
L-ZISSEN
  6
CONTINUOUS
 62
     7
 10
335.113132
 20
371.782892
 30
0.0
 11
335.113132
 21
399.782892
 31
0.0
  0
LINE
  8
L-ZISSEN
  6
CONTINUOUS
 62
     7
 10
333.513132
 20
371.782892
 30
0.0
 11
335.113132
 21
371.782892
 31
0.0
  0
LINE
  8
L-TYUSIN
  6
CENTER
 62
     1
 10
403.513132
 20
372.782892
 30
0.0
 11
383.513132
 21
372.782892
 31
0.0
  0
LINE
  8
L-TYUSIN
  6
CENTER
 62
     1
 10
393.513132
 20
347.184623
 30
0.0
 11
393.513132
 21
456.982892
 31
0.0
  0
LINE
  8
L-ZISSEN
 10
335.113132
 20
399.782892
 30
0.0
 11
333.513132
 21
399.782892
 31
0.0
  0
LINE
  8
L-ZISSEN
 10
408.513132
 20
363.782892
 30
0.0
 11
371.163341
 21
363.782892
 31
0.0
  0
LINE
  8
L-ZISSEN
 10
371.163341
 20
363.782892
 30
0.0
 11
335.113132
 21
399.782892
 31
0.0
  0
LINE
  8
L-ZISSEN
 10
356.144578
 20
347.782892
 30
0.0
 11
335.113132
 21
371.782892
 31
0.0
  0
LINE
  8
L-ZISSEN
 10
408.513132
 20
363.782892
 30
0.0
 11
408.513132
 21
347.782892
 31
0.0
  0
LINE
  8
L-ZISSEN
  6
CONTINUOUS
 62
     7
 10
532.597091
 20
412.782892
 30
0.0
 11
532.597091
 21
414.582892
 31
0.0
  0
LINE
  8
L-ZISSEN
  6
CONTINUOUS
 62
     7
 10
512.597091
 20
412.782892
 30
0.0
 11
512.597091
 21
414.582892
 31
0.0
  0
LINE
  8
L-ZISSEN
  6
CONTINUOUS
 62
     7
 10
510.097091
 20
430.782892
 30
0.0
 11
510.097091
 21
432.782892
 31
0.0
  0
LINE
  8
L-ZISSEN
  6
CONTINUOUS
 62
     7
 10
535.097091
 20
430.782892
 30
0.0
 11
535.097091
 21
432.782892
 31
0.0
  0
LINE
  8
0
 10
508.847091
 20
430.782892
 30
0.0
 11
508.847091
 21
426.782892
 31
0.0
  0
LINE
  8
0
 10
536.347091
 20
430.782892
 30
0.0
 11
536.347091
 21
426.782892
 31
0.0
  0
LINE
  8
L-ZISSEN
  6
CONTINUOUS
 62
     7
 10
537.597091
 20
399.882892
 30
0.0
 11
537.597091
 21
412.782892
 31
0.0
  0
LINE
  8
L-ZISSEN
  6
CONTINUOUS
 62
     7
 10
503.597091
 20
399.882892
 30
0.0
 11
541.597091
 21
399.882892
 31
0.0
  0
LINE
  8
L-ZISSEN
  6
CONTINUOUS
 62
     7
 10
507.597091
 20
399.882892
 30
0.0
 11
507.597091
 21
412.782892
 31
0.0
  0
LINE
  8
L-ZISSEN
  6
CONTINUOUS
 62
     7
 10
507.597091
 20
412.782892
 30
0.0
 11
537.597091
 21
412.782892
 31
0.0
  0
LINE
  8
L-ZISSEN
  6
CONTINUOUS
 62
     7
 10
509.347091
 20
414.582892
 30
0.0
 11
535.847091
 21
414.582892
 31
0.0
  0
LINE
  8
0
 10
509.347091
 20
426.782892
 30
0.0
 11
509.347091
 21
414.582892
 31
0.0
  0
LINE
  8
0
 10
535.847091
 20
426.782892
 30
0.0
 11
535.847091
 21
414.582892
 31
0.0
  0
LINE
  8
L-ZISSEN
  6
CONTINUOUS
 62
     7
 10
508.847091
 20
426.782892
 30
0.0
 11
536.347091
 21
426.782892
 31
0.0
  0
LINE
  8
L-ZISSEN
  6
CONTINUOUS
 62
     7
 10
508.847091
 20
430.782892
 30
0.0
 11
536.347091
 21
430.782892
 31
0.0
  0
LINE
  8
L-ZISSEN
  6
CONTINUOUS
 62
     7
 10
510.097091
 20
432.782892
 30
0.0
 11
535.097091
 21
432.782892
 31
0.0
  0
LINE
  8
L-ZISSEN
  6
CONTINUOUS
 62
     7
 10
406.013132
 20
432.782892
 30
0.0
 11
381.013132
 21
432.782892
 31
0.0
  0
LINE
  8
L-ZISSEN
  6
CONTINUOUS
 62
     7
 10
407.263132
 20
430.782892
 30
0.0
 11
379.763132
 21
430.782892
 31
0.0
  0
LINE
  8
L-ZISSEN
  6
CONTINUOUS
 62
     7
 10
407.263132
 20
426.782892
 30
0.0
 11
379.763132
 21
426.782892
 31
0.0
  0
LINE
  8
0
 10
380.263132
 20
426.782892
 30
0.0
 11
380.263132
 21
414.582892
 31
0.0
  0
LINE
  8
0
 10
406.763132
 20
426.782892
 30
0.0
 11
406.763132
 21
414.582892
 31
0.0
  0
LINE
  8
L-ZISSEN
  6
CONTINUOUS
 62
     7
 10
406.763132
 20
414.582892
 30
0.0
 11
380.263132
 21
414.582892
 31
0.0
  0
LINE
  8
L-ZISSEN
  6
CONTINUOUS
 62
     7
 10
408.513132
 20
412.782892
 30
0.0
 11
378.513132
 21
412.782892
 31
0.0
  0
LINE
  8
L-ZISSEN
  6
CONTINUOUS
 62
     7
 10
408.513132
 20
399.882892
 30
0.0
 11
408.513132
 21
412.782892
 31
0.0
  0
LINE
  8
L-ZISSEN
  6
CONTINUOUS
 62
     7
 10
412.513132
 20
399.882892
 30
0.0
 11
374.513132
 21
399.882892
 31
0.0
  0
LINE
  8
L-ZISSEN
  6
CONTINUOUS
 62
     7
 10
378.513132
 20
399.882892
 30
0.0
 11
378.513132
 21
412.782892
 31
0.0
  0
LINE
  8
0
 10
379.763132
 20
430.782892
 30
0.0
 11
379.763132
 21
426.782892
 31
0.0
  0
LINE
  8
0
 10
407.263132
 20
430.782892
 30
0.0
 11
407.263132
 21
426.782892
 31
0.0
  0
LINE
  8
L-ZISSEN
  6
CONTINUOUS
 62
     7
 10
381.013132
 20
430.782892
 30
0.0
 11
381.013132
 21
432.782892
 31
0.0
  0
LINE
  8
L-ZISSEN
  6
CONTINUOUS
 62
     7
 10
406.013132
 20
430.782892
 30
0.0
 11
406.013132
 21
432.782892
 31
0.0
  0
LINE
  8
L-ZISSEN
  6
CONTINUOUS
 62
     7
 10
403.513132
 20
412.782892
 30
0.0
 11
403.513132
 21
414.582892
 31
0.0
  0
LINE
  8
L-ZISSEN
  6
CONTINUOUS
 62
     7
 10
383.513132
 20
412.782892
 30
0.0
 11
383.513132
 21
414.582892
 31
0.0
  0
LINE
  8
L-ZISSEN
  6
CONTINUOUS
 62
     7
 10
412.513132
 20
387.782892
 30
0.0
 11
412.513132
 21
399.882892
 31
0.0
  0
LINE
  8
L-ZISSEN
  6
CONTINUOUS
 62
     7
 10
374.513132
 20
387.782892
 30
0.0
 11
374.513132
 21
399.882892
 31
0.0
  0
LINE
  8
0
 10
413.513132
 20
347.782892
 30
0.0
 11
413.513132
 21
402.782892
 31
0.0
  0
LINE
  8
0
 10
413.513132
 20
383.782892
 30
0.0
 11
373.513132
 21
383.782892
 31
0.0
  0
LINE
  8
0
 10
373.513132
 20
363.782892
 30
0.0
 11
373.513132
 21
402.782892
 31
0.0
  0
LINE
  8
0
 10
417.513132
 20
347.782892
 30
0.0
 11
356.144578
 21
347.782892
 31
0.0
  0
LINE
  8
L-ZISSEN
 10
374.713132
 20
303.882892
 30
0.0
 11
374.713132
 21
347.782892
 31
0.0
  0
LINE
  8
L-ZISSEN
 10
417.513132
 20
347.782892
 30
0.0
 11
417.513132
 21
303.882892
 31
0.0
  0
LINE
  8
L-ZISSEN
 10
422.013132
 20
344.632892
 30
0.0
 11
422.013132
 21
314.132892
 31
0.0
  0
LINE
  8
L-ZISSEN
 10
453.213132
 20
343.132892
 30
0.0
 11
422.013132
 21
343.132892
 31
0.0
  0
LINE
  8
L-ZISSEN
 10
453.213132
 20
343.132892
 30
0.0
 11
453.213132
 21
300.132892
 31
0.0
  0
LINE
  8
L-ZISSEN
 10
453.213132
 20
315.632892
 30
0.0
 11
422.013132
 21
315.632892
 31
0.0
  0
LINE
  8
L-ZISSEN
 10
430.713132
 20
315.632892
 30
0.0
 11
430.713132
 21
300.132892
 31
0.0
  0
LINE
  8
L-ZISSEN
 10
536.347091
 20
239.982892
 30
0.0
 11
536.347091
 21
208.782892
 31
0.0
  0
LINE
  8
L-ZISSEN
 10
508.847091
 20
239.982892
 30
0.0
 11
508.847091
 21
208.782892
 31
0.0
  0
LINE
  8
L-ZISSEN
 10
508.847091
 20
239.982892
 30
0.0
 11
536.347091
 21
239.982892
 31
0.0
  0
LINE
  8
L-ZISSEN
 10
507.597091
 20
208.782892
 30
0.0
 11
537.597091
 21
208.782892
 31
0.0
  0
LINE
  8
L-TYUSIN
  6
CENTER
 62
     1
 10
546.561979
 20
180.282892
 30
0.0
 11
497.559984
 21
180.282892
 31
0.0
  0
LINE
  8
L-TYUSIN
  6
CENTER
 62
     1
 10
522.597091
 20
247.226053
 30
0.0
 11
522.597091
 21
158.453714
 31
0.0
  0
LINE
  8
L-ZISSEN
 10
507.597091
 20
204.282892
 30
0.0
 11
537.597091
 21
204.282892
 31
0.0
  0
LINE
  8
L-ZISSEN
  6
CONTINUOUS
 62
     7
 10
503.597091
 20
387.782892
 30
0.0
 11
503.597091
 21
399.882892
 31
0.0
  0
LINE
  8
L-ZISSEN
  6
CONTINUOUS
 62
     7
 10
541.597091
 20
387.782892
 30
0.0
 11
541.597091
 21
399.882892
 31
0.0
  0
LINE
  8
L-ZISSEN
  6
CONTINUOUS
 62
     7
 10
503.597091
 20
387.782892
 30
0.0
 11
541.597091
 21
387.782892
 31
0.0
  0
LINE
  8
L-ZISSEN
  6
CONTINUOUS
 62
     7
 10
502.597091
 20
383.782892
 30
0.0
 11
542.597091
 21
383.782892
 31
0.0
  0
LINE
  8
L-ZISSEN
  6
CONTINUOUS
 62
     7
 10
542.597091
 20
383.782892
 30
0.0
 11
542.597091
 21
347.782892
 31
0.0
  0
LINE
  8
L-TYUSIN
  6
CENTER
 62
     1
 10
522.597091
 20
282.340026
 30
0.0
 11
522.597091
 21
438.33666
 31
0.0
  0
LINE
  8
L-TYUSIN
  6
CENTER
 62
     1
 10
491.476803
 20
372.782892
 30
0.0
 11
673.700503
 21
372.782892
 31
0.0
  0
LINE
  8
L-ZISSEN
 10
542.597091
 20
347.782892
 30
0.0
 11
502.597091
 21
347.782892
 31
0.0
  0
LINE
  8
L-ZISSEN
 10
537.597091
 20
344.632892
 30
0.0
 11
507.597091
 21
344.632892
 31
0.0
  0
LINE
  8
L-ZISSEN
 10
508.847091
 20
343.132892
 30
0.0
 11
536.347091
 21
343.132892
 31
0.0
  0
LINE
  8
L-ZISSEN
 10
507.597091
 20
303.882892
 30
0.0
 11
507.597091
 21
347.782892
 31
0.0
  0
LINE
  8
L-ZISSEN
 10
508.847091
 20
343.132892
 30
0.0
 11
508.847091
 21
315.632892
 31
0.0
  0
LINE
  8
L-ZISSEN
 10
508.847091
 20
315.632892
 30
0.0
 11
536.347091
 21
315.632892
 31
0.0
  0
LINE
  8
L-ZISSEN
 10
511.347091
 20
315.632892
 30
0.0
 11
511.347091
 21
300.132892
 31
0.0
  0
LINE
  8
L-ZISSEN
 10
533.847091
 20
315.632892
 30
0.0
 11
533.847091
 21
300.132892
 31
0.0
  0
LINE
  8
L-ZISSEN
 10
537.597091
 20
303.882892
 30
0.0
 11
537.597091
 21
347.782892
 31
0.0
  0
LINE
  8
L-ZISSEN
 10
536.347091
 20
343.132892
 30
0.0
 11
536.347091
 21
315.632892
 31
0.0
  0
LINE
  8
L-ZISSEN
 10
511.347091
 20
300.132892
 30
0.0
 11
533.847091
 21
300.132892
 31
0.0
  0
LINE
  8
L-ZISSEN
 10
511.627436
 20
293.882892
 30
0.0
 11
533.566746
 21
293.882892
 31
0.0
  0
LINE
  8
L-ZISSEN
 10
511.627436
 20
288.382892
 30
0.0
 11
533.566746
 21
288.382892
 31
0.0
  0
LINE
  8
L-ZISSEN
 10
533.566746
 20
288.382892
 30
0.0
 11
533.566746
 21
293.882892
 31
0.0
  0
LINE
  8
L-ZISSEN
 10
533.847091
 20
303.882892
 30
0.0
 11
537.597091
 21
303.882892
 31
0.0
  0
LINE
  8
L-ZISSEN
 10
531.797091
 20
300.132892
 30
0.0
 11
531.797091
 21
293.882892
 31
0.0
  0
LINE
  8
L-ZISSEN
 10
513.397091
 20
300.132892
 30
0.0
 11
513.397091
 21
293.882892
 31
0.0
  0
LINE
  8
L-ZISSEN
 10
507.597091
 20
303.882892
 30
0.0
 11
511.347091
 21
303.882892
 31
0.0
  0
LINE
  8
L-ZISSEN
 10
511.627436
 20
288.382892
 30
0.0
 11
511.627436
 21
293.882892
 31
0.0
  0
LINE
  8
L-ZISSEN
 10
453.213132
 20
300.132892
 30
0.0
 11
430.713132
 21
300.132892
 31
0.0
  0
LINE
  8
L-ZISSEN
 10
452.932787
 20
293.882892
 30
0.0
 11
430.993477
 21
293.882892
 31
0.0
  0
LINE
  8
L-ZISSEN
 10
452.932787
 20
288.382892
 30
0.0
 11
430.993477
 21
288.382892
 31
0.0
  0
LINE
  8
L-ZISSEN
 10
452.932787
 20
288.382892
 30
0.0
 11
452.932787
 21
293.882892
 31
0.0
  0
LINE
  8
L-ZISSEN
 10
430.993477
 20
288.382892
 30
0.0
 11
430.993477
 21
293.882892
 31
0.0
  0
LINE
  8
L-ZISSEN
 10
432.763132
 20
300.132892
 30
0.0
 11
432.763132
 21
293.882892
 31
0.0
  0
LINE
  8
L-ZISSEN
 10
451.163132
 20
300.132892
 30
0.0
 11
451.163132
 21
293.882892
 31
0.0
  0
LINE
  8
L-ZISSEN
  6
CONTINUOUS
 62
     7
 10
502.597091
 20
399.782892
 30
0.0
 11
502.597091
 21
347.782892
 31
0.0
  0
LINE
  8
L-ZISSEN
 10
422.013132
 20
314.132892
 30
0.0
 11
417.513132
 21
314.132892
 31
0.0
  0
LINE
  8
L-ZISSEN
 10
417.513132
 20
303.882892
 30
0.0
 11
374.713132
 21
303.882892
 31
0.0
  0
LINE
  8
L-ZISSEN
 10
403.328086
 20
300.882892
 30
0.0
 11
383.698177
 21
300.882892
 31
0.0
  0
LINE
  8
L-ZISSEN
  6
CONTINUOUS
 62
     7
 10
412.513132
 20
387.782892
 30
0.0
 11
374.513132
 21
387.782892
 31
0.0
  0
LINE
  8
L-ZISSEN
  6
CONTINUOUS
 62
     7
 10
378.513132
 20
387.782892
 30
0.0
 11
378.513132
 21
383.782892
 31
0.0
  0
LINE
  8
L-ZISSEN
 10
403.328086
 20
300.882892
 30
0.0
 11
403.328086
 21
303.882892
 31
0.0
  0
CIRCLE
  8
L-ZISSEN
  6
CONTINUOUS
 62
     7
 10
520.097091
 20
361.782892
 30
0.0
 40
2.0
  0
LINE
  8
L-TYUSIN
  6
CENTER
 62
     1
 10
393.513132
 20
282.340026
 30
0.0
 11
393.513132
 21
438.33666
 31
0.0
  0
LINE
  8
L-ZISSEN
 10
521.511305
 20
363.197105
 30
0.0
 11
528.582372
 21
370.268173
 31
0.0
  0
LINE
  8
L-ZISSEN
  6
CONTINUOUS
 62
     7
 10
408.513132
 20
387.782892
 30
0.0
 11
408.513132
 21
383.782892
 31
0.0
  0
LINE
  8
L-ZISSEN
  6
CONTINUOUS
 62
     7
 10
507.597091
 20
387.782892
 30
0.0
 11
507.597091
 21
383.782892
 31
0.0
  0
LINE
  8
L-ZISSEN
  6
CONTINUOUS
 62
     7
 10
537.597091
 20
387.782892
 30
0.0
 11
537.597091
 21
383.782892
 31
0.0
  0
LINE
  8
L-ZISSEN
 10
422.013132
 20
344.632892
 30
0.0
 11
417.513132
 21
344.632892
 31
0.0
  0
LINE
  8
L-ZISSEN
 10
383.698177
 20
300.882892
 30
0.0
 11
383.698177
 21
303.882892
 31
0.0
  0
LINE
  8
L-TYUSIN
  6
CENTER
 62
     1
 10
432.121097
 20
372.782892
 30
0.0
 11
368.129754
 21
372.782892
 31
0.0
  0
LINE
  8
L-ZISSEN
 10
413.513132
 20
363.782892
 30
0.0
 11
420.513132
 21
363.782892
 31
0.0
  0
LINE
  8
L-ZISSEN
 10
420.513132
 20
363.782892
 30
0.0
 11
420.513132
 21
359.782892
 31
0.0
  0
LINE
  8
L-ZISSEN
 10
420.513132
 20
359.782892
 30
0.0
 11
413.513132
 21
359.782892
 31
0.0
  0
LINE
  8
L-ZISSEN
 10
417.513132
 20
370.268173
 30
0.0
 11
417.513132
 21
363.782892
 31
0.0
  0
CIRCLE
  8
L-ZISSEN
 10
393.513132
 20
372.782892
 30
0.0
 40
6.5785
  0
TEXT
  8
L-ZISSEN
 10
350.196412
 20
520.9642
 30
0.0
 40
4.5
  1
MODEL NO.
  0
LINE
  8
L-ZISSEN
 10
662.597091
 20
383.782892
 30
0.0
 11
622.597091
 21
383.782892
 31
0.0
  0
LINE
  8
L-ZISSEN
  6
CONTINUOUS
 62
     7
 10
622.597091
 20
402.782892
 30
0.0
 11
662.597091
 21
402.782892
 31
0.0
  0
LINE
  8
L-ZISSEN
  6
CONTINUOUS
 62
     7
 10
662.347091
 20
406.982892
 30
0.0
 11
622.847091
 21
406.982892
 31
0.0
  0
LINE
  8
L-ZISSEN
  6
CONTINUOUS
 62
     7
 10
623.847091
 20
406.982892
 30
0.0
 11
625.156387
 21
456.982892
 31
0.0
  0
LINE
  8
L-ZISSEN
  6
CONTINUOUS
 62
     7
 10
625.156387
 20
456.982892
 30
0.0
 11
660.037795
 21
456.982892
 31
0.0
  0
LINE
  8
L-ZISSEN
 10
622.597091
 20
350.782892
 30
0.0
 11
662.597091
 21
350.782892
 31
0.0
  0
CIRCLE
  8
L-ZISSEN
  6
CONTINUOUS
 62
     7
 10
634.597091
 20
375.782892
 30
0.0
 40
4.85
  0
LINE
  8
L-TYUSIN
  6
CENTER
 62
     1
 10
642.597091
 20
342.809887
 30
0.0
 11
642.597091
 21
462.218182
 31
0.0
  0
LINE
  8
L-ZISSEN
 10
622.597091
 20
402.782892
 30
0.0
 11
622.597091
 21
350.782892
 31
0.0
  0
LINE
  8
L-ZISSEN
 10
662.597091
 20
350.782892
 30
0.0
 11
662.597091
 21
402.782892
 31
0.0
  0
LINE
  8
L-ZISSEN
  6
CONTINUOUS
 62
     7
 10
674.597091
 20
399.782892
 30
0.0
 11
674.597091
 21
371.782892
 31
0.0
  0
CIRCLE
  8
L-ZISSEN
  6
CONTINUOUS
 62
     7
 10
670.597091
 20
394.782892
 30
0.0
 40
2.8
  0
CIRCLE
  8
L-ZISSEN
  6
CONTINUOUS
 62
     7
 10
670.597091
 20
376.782892
 30
0.0
 40
2.8
  0
LINE
  8
L-TYUSIN
  6
CENTER
 62
     1
 10
673.747091
 20
376.782892
 30
0.0
 11
667.447091
 21
376.782892
 31
0.0
  0
LINE
  8
L-TYUSIN
  6
CENTER
 62
     1
 10
670.597091
 20
373.632892
 30
0.0
 11
670.597091
 21
379.932892
 31
0.0
  0
LINE
  8
L-TYUSIN
  6
CENTER
 62
     1
 10
673.747091
 20
394.782892
 30
0.0
 11
667.447091
 21
394.782892
 31
0.0
  0
LINE
  8
L-TYUSIN
  6
CENTER
 62
     1
 10
670.597091
 20
391.632892
 30
0.0
 11
670.597091
 21
397.932892
 31
0.0
  0
LINE
  8
L-ZISSEN
  6
CONTINUOUS
 62
     7
 10
674.597091
 20
371.782892
 30
0.0
 11
662.597091
 21
371.782892
 31
0.0
  0
LINE
  8
L-ZISSEN
  6
CONTINUOUS
 62
     7
 10
623.097091
 20
345.782892
 30
0.0
 11
623.097091
 21
350.782892
 31
0.0
  0
LINE
  8
L-ZISSEN
  6
CONTINUOUS
 62
     7
 10
630.097091
 20
345.782892
 30
0.0
 11
623.097091
 21
345.782892
 31
0.0
  0
LINE
  8
L-ZISSEN
  6
CONTINUOUS
 62
     7
 10
630.097091
 20
345.782892
 30
0.0
 11
630.097091
 21
350.782892
 31
0.0
  0
LINE
  8
L-ZISSEN
  6
CONTINUOUS
 62
     7
 10
655.097091
 20
345.782892
 30
0.0
 11
655.097091
 21
350.782892
 31
0.0
  0
LINE
  8
L-ZISSEN
  6
CONTINUOUS
 62
     7
 10
662.097091
 20
345.782892
 30
0.0
 11
662.097091
 21
350.782892
 31
0.0
  0
LINE
  8
L-ZISSEN
  6
CONTINUOUS
 62
     7
 10
655.097091
 20
345.782892
 30
0.0
 11
662.097091
 21
345.782892
 31
0.0
  0
CIRCLE
  8
L-ZISSEN
  6
CONTINUOUS
 62
     7
 10
652.597091
 20
358.782892
 30
0.0
 40
2.5
  0
LINE
  8
L-ZISSEN
  6
CONTINUOUS
 62
     7
 10
342.324345
 20
456.982892
 30
0.0
 11
421.701918
 21
456.982892
 31
0.0
  0
LINE
  8
L-ZISSEN
  6
CONTINUOUS
 62
     7
 10
423.845391
 20
432.482892
 30
0.0
 11
421.701918
 21
456.982892
 31
0.0
  0
LINE
  8
L-ZISSEN
  6
CONTINUOUS
 62
     7
 10
340.180873
 20
432.482892
 30
0.0
 11
342.324345
 21
456.982892
 31
0.0
  0
LINE
  8
L-ZISSEN
  6
CONTINUOUS
 62
     7
 10
339.513132
 20
406.982892
 30
0.0
 11
340.180873
 21
432.482892
 31
0.0
  0
LINE
  8
L-ZISSEN
  6
CONTINUOUS
 62
     7
 10
424.513132
 20
406.982892
 30
0.0
 11
423.845391
 21
432.482892
 31
0.0
  0
LINE
  8
L-ZISSEN
  6
CONTINUOUS
 62
     7
 10
425.513132
 20
406.982892
 30
0.0
 11
408.513132
 21
406.982892
 31
0.0
  0
LINE
  8
L-ZISSEN
  6
CONTINUOUS
 62
     7
 10
425.513132
 20
402.782892
 30
0.0
 11
425.513132
 21
406.982892
 31
0.0
  0
LINE
  8
L-ZISSEN
  6
CONTINUOUS
 62
     7
 10
338.513132
 20
406.982892
 30
0.0
 11
338.513132
 21
402.782892
 31
0.0
  0
LINE
  8
L-ZISSEN
  6
CONTINUOUS
 62
     7
 10
369.013132
 20
402.782892
 30
0.0
 11
369.013132
 21
365.780106
 31
0.0
  0
LINE
  8
L-ZISSEN
  6
CONTINUOUS
 62
     7
 10
342.013132
 20
349.782892
 30
0.0
 11
354.260511
 21
349.782892
 31
0.0
  0
LINE
  8
L-ZISSEN
  6
CONTINUOUS
 62
     7
 10
342.013132
 20
402.782892
 30
0.0
 11
342.013132
 21
392.742502
 31
0.0
  0
LINE
  8
L-ZISSEN
  6
CONTINUOUS
 62
     7
 10
413.513132
 20
383.782892
 30
0.0
 11
373.513132
 21
383.782892
 31
0.0
  0
LINE
  8
L-ZISSEN
  6
CONTINUOUS
 62
     7
 10
816.415071
 20
404.85314
 30
0.0
 11
840.415071
 21
404.85314
 31
0.0
  0
LINE
  8
L-ZISSEN
  6
CONTINUOUS
 62
     7
 10
816.415071
 20
366.85314
 30
0.0
 11
816.415071
 21
404.85314
 31
0.0
  0
LINE
  8
L-ZISSEN
  6
CONTINUOUS
 62
     7
 10
661.347091
 20
406.982892
 30
0.0
 11
660.037795
 21
456.982892
 31
0.0
  0
LINE
  8
L-ZISSEN
  6
CONTINUOUS
 62
     7
 10
650.28769
 20
362.782892
 30
0.0
 11
647.978289
 21
358.782892
 31
0.0
  0
LINE
  8
L-ZISSEN
  6
CONTINUOUS
 62
     7
 10
647.978289
 20
358.782892
 30
0.0
 11
650.28769
 21
354.782892
 31
0.0
  0
LINE
  8
L-ZISSEN
  6
CONTINUOUS
 62
     7
 10
650.28769
 20
354.782892
 30
0.0
 11
654.906492
 21
354.782892
 31
0.0
  0
LINE
  8
L-ZISSEN
  6
CONTINUOUS
 62
     7
 10
654.906492
 20
354.782892
 30
0.0
 11
657.215893
 21
358.782892
 31
0.0
  0
LINE
  8
L-ZISSEN
  6
CONTINUOUS
 62
     7
 10
657.215893
 20
358.782892
 30
0.0
 11
654.906492
 21
362.782892
 31
0.0
  0
LINE
  8
L-ZISSEN
  6
CONTINUOUS
 62
     7
 10
654.906492
 20
362.782892
 30
0.0
 11
650.28769
 21
362.782892
 31
0.0
  0
LINE
  8
L-ZISSEN
 10
622.847091
 20
406.982892
 30
0.0
 11
622.847091
 21
402.782892
 31
0.0
  0
LINE
  8
L-ZISSEN
 10
662.347091
 20
406.982892
 30
0.0
 11
662.347091
 21
402.782892
 31
0.0
  0
LINE
  8
L-ZISSEN
 10
425.513132
 20
402.782892
 30
0.0
 11
408.513132
 21
402.782892
 31
0.0
  0
LINE
  8
L-TYUSIN
  6
CENTER
 62
     1
 10
562.597091
 20
120.807699
 30
0.0
 11
562.597091
 21
224.758085
 31
0.0
  0
LINE
  8
L-ZISSEN
 10
542.597091
 20
160.282892
 30
0.0
 11
582.597091
 21
160.282892
 31
0.0
  0
LINE
  8
L-ZISSEN
 10
542.597091
 20
213.282892
 30
0.0
 11
542.597091
 21
160.282892
 31
0.0
  0
LINE
  8
L-ZISSEN
 10
582.597091
 20
200.282892
 30
0.0
 11
542.597091
 21
200.282892
 31
0.0
  0
LINE
  8
L-TYUSIN
 10
539.967964
 20
172.782892
 30
0.0
 11
674.882453
 21
172.782892
 31
0.0
  0
LINE
  8
L-ZISSEN
 10
582.597091
 20
213.282892
 30
0.0
 11
542.597091
 21
213.282892
 31
0.0
  0
LINE
  8
L-ZISSEN
 10
582.597091
 20
126.282892
 30
0.0
 11
542.597091
 21
126.282892
 31
0.0
  0
CIRCLE
  8
L-ZISSEN
 10
554.597091
 20
185.282892
 30
0.0
 40
4.864
  0
CIRCLE
  8
L-ZISSEN
 10
546.597091
 20
196.282892
 30
0.0
 40
3.5
  0
CIRCLE
  8
L-ZISSEN
 10
578.597091
 20
196.282892
 30
0.0
 40
3.5
  0
CIRCLE
  8
L-ZISSEN
 10
546.597091
 20
164.282892
 30
0.0
 40
3.5
  0
CIRCLE
  8
L-ZISSEN
 10
578.597091
 20
164.282892
 30
0.0
 40
3.5
  0
LINE
  8
L-ZISSEN
 10
557.005208
 20
154.782892
 30
0.0
 11
549.097091
 21
146.874775
 31
0.0
  0
LINE
  8
L-ZISSEN
 10
549.097091
 20
146.874775
 30
0.0
 11
549.097091
 21
135.691009
 31
0.0
  0
LINE
  8
L-ZISSEN
 10
549.097091
 20
135.691009
 30
0.0
 11
557.005208
 21
127.782892
 31
0.0
  0
LINE
  8
L-ZISSEN
 10
557.005208
 20
127.782892
 30
0.0
 11
568.188974
 21
127.782892
 31
0.0
  0
LINE
  8
L-ZISSEN
 10
568.188974
 20
127.782892
 30
0.0
 11
576.097091
 21
135.691009
 31
0.0
  0
LINE
  8
L-ZISSEN
 10
576.097091
 20
135.691009
 30
0.0
 11
576.097091
 21
146.874775
 31
0.0
  0
LINE
  8
L-ZISSEN
 10
576.097091
 20
146.874775
 30
0.0
 11
568.188974
 21
154.782892
 31
0.0
  0
LINE
  8
L-ZISSEN
 10
568.188974
 20
154.782892
 30
0.0
 11
557.005208
 21
154.782892
 31
0.0
  0
LINE
  8
L-ZISSEN
 10
662.597091
 20
195.282892
 30
0.0
 11
664.197091
 21
195.282892
 31
0.0
  0
LINE
  8
L-ZISSEN
 10
664.197091
 20
195.282892
 30
0.0
 11
664.197091
 21
177.401694
 31
0.0
  0
LINE
  8
L-ZISSEN
 10
662.597091
 20
120.282892
 30
0.0
 11
674.597091
 21
120.282892
 31
0.0
  0
LINE
  8
L-ZISSEN
 10
674.597091
 20
120.282892
 30
0.0
 11
674.597091
 21
121.882892
 31
0.0
  0
LINE
  8
L-ZISSEN
 10
664.197091
 20
121.882892
 30
0.0
 11
674.597091
 21
121.882892
 31
0.0
  0
LINE
  8
L-ZISSEN
 10
542.597091
 20
195.282892
 30
0.0
 11
540.997091
 21
195.282892
 31
0.0
  0
LINE
  8
L-TYUSIN
  6
CENTER
 62
     1
 10
670.597091
 20
118.234833
 30
0.0
 11
670.597091
 21
124.534833
 31
0.0
  0
LINE
  8
L-TYUSIN
  6
CENTER
 62
     1
 10
549.140841
 20
185.282892
 30
0.0
 11
560.053341
 21
185.282892
 31
0.0
  0
LINE
  8
L-TYUSIN
  6
CENTER
 62
     1
 10
554.597091
 20
179.826642
 30
0.0
 11
554.597091
 21
190.739142
 31
0.0
  0
LINE
  8
L-TYUSIN
  6
CENTER
 62
     1
 10
391.469382
 20
372.782892
 30
0.0
 11
380.556882
 21
372.782892
 31
0.0
  0
LINE
  8
L-ZISSEN
 10
570.576365
 20
194.782892
 30
0.0
 11
568.555639
 21
191.282892
 31
0.0
  0
LINE
  8
L-ZISSEN
 10
568.555639
 20
191.282892
 30
0.0
 11
570.576365
 21
187.782892
 31
0.0
  0
LINE
  8
L-ZISSEN
 10
570.576365
 20
187.782892
 30
0.0
 11
574.617817
 21
187.782892
 31
0.0
  0
LINE
  8
L-ZISSEN
 10
574.617817
 20
187.782892
 30
0.0
 11
576.638543
 21
191.282892
 31
0.0
  0
LINE
  8
L-ZISSEN
 10
576.638543
 20
191.282892
 30
0.0
 11
574.617817
 21
194.782892
 31
0.0
  0
LINE
  8
L-ZISSEN
 10
574.617817
 20
194.782892
 30
0.0
 11
570.576365
 21
194.782892
 31
0.0
  0
LINE
  8
L-ZISSEN
 10
664.197091
 20
371.782892
 30
0.0
 11
664.197091
 21
399.782892
 31
0.0
  0
LINE
  8
L-ZISSEN
  6
CONTINUOUS
 62
     7
 10
816.415071
 20
366.85314
 30
0.0
 11
840.415071
 21
366.85314
 31
0.0
  0
LINE
  8
L-ZISSEN
 10
840.415071
 20
404.85314
 30
0.0
 11
840.415071
 21
366.85314
 31
0.0
  0
LINE
  8
L-ZISSEN
 10
840.415071
 20
390.71714
 30
0.0
 11
851.415071
 21
390.71714
 31
0.0
  0
SOLID
  8
L-ZISSEN
 10
853.004561
 20
387.111961
 30
0.0
 11
852.510376
 21
387.559427
 31
0.0
 12
851.415071
 22
385.85314
 32
0.0
 13
851.415071
 23
385.85314
 33
0.0
  0
LINE
  8
L-ZISSEN
 10
852.757468
 20
387.335694
 30
0.0
 11
872.634848
 21
409.28843
 31
0.0
  0
LINE
  8
L-ZISSEN
 10
872.634848
 20
409.28843
 30
0.0
 11
874.634848
 21
409.28843
 31
0.0
  0
TEXT
  8
L-ZISSEN
 10
876.634848
 20
407.03843
 30
0.0
 40
4.5
  1
P.P
  0
LINE
  8
L-ZISSEN
 10
840.415071
 20
380.98914
 30
0.0
 11
851.415071
 21
380.98914
 31
0.0
  0
CIRCLE
  8
L-ZISSEN
 10
935.767977
 20
385.85314
 30
0.0
 40
19.0
  0
LINE
  8
L-ZISSEN
 10
939.303511
 20
389.388674
 30
0.0
 11
925.161375
 21
375.246538
 31
0.0
  0
SOLID
  8
L-ZISSEN
 10
934.678626
 20
387.563235
 30
0.0
 11
934.182884
 21
387.117494
 31
0.0
 12
935.767977
 22
385.85314
 32
0.0
 13
935.767977
 23
385.85314
 33
0.0
  0
LINE
  8
L-ZISSEN
 10
934.430755
 20
387.340364
 30
0.0
 11
914.119308
 21
409.93024
 31
0.0
  0
LINE
  8
L-ZISSEN
 10
914.119308
 20
409.93024
 30
0.0
 11
912.119308
 21
409.93024
 31
0.0
  0
TEXT
  8
L-ZISSEN
 10
901.119308
 20
407.68024
 30
0.0
 40
4.5
  1
P.P
  0
LINE
  8
L-ZISSEN
 10
650.597091
 20
340.782892
 30
0.0
 11
654.597091
 21
340.782892
 31
0.0
  0
LINE
  8
L-ZISSEN
 10
654.597091
 20
340.782892
 30
0.0
 11
654.597091
 21
348.282892
 31
0.0
  0
LINE
  8
L-ZISSEN
 10
650.597091
 20
340.782892
 30
0.0
 11
650.597091
 21
348.282892
 31
0.0
  0
LINE
  8
L-ZISSEN
 10
648.555639
 20
348.282892
 30
0.0
 11
648.555639
 21
350.782892
 31
0.0
  0
LINE
  8
L-ZISSEN
 10
648.555639
 20
348.282892
 30
0.0
 11
655.097091
 21
348.282892
 31
0.0
  0
LINE
  8
L-TYUSIN
 10
794.308018
 20
403.970965
 30
0.0
 11
794.308018
 21
91.093533
 31
0.0
  0
LINE
  8
L-TYUSIN
 10
794.308018
 20
278.139823
 30
0.0
 11
970.697185
 21
278.139823
 31
0.0
  0
TEXT
  8
L-ZISSEN
 10
804.520022
 20
430.991316
 30
0.0
 40
4.5
  1
GAUGE
  0
LINE
  8
L-ZISSEN
 10
818.484654
 20
216.896815
 30
0.0
 11
818.484654
 21
210.896815
 31
0.0
  0
LINE
  8
L-ZISSEN
 10
818.484654
 20
210.896815
 30
0.0
 11
848.506868
 21
210.896815
 31
0.0
  0
LINE
  8
L-ZISSEN
 10
823.495761
 20
205.896815
 30
0.0
 11
845.995761
 21
205.896815
 31
0.0
  0
LINE
  8
L-ZISSEN
 10
818.484654
 20
210.896815
 30
0.0
 11
823.495761
 21
205.896815
 31
0.0
  0
LINE
  8
L-ZISSEN
 10
842.495761
 20
184.896815
 30
0.0
 11
826.495761
 21
184.896815
 31
0.0
  0
LINE
  8
L-ZISSEN
 10
823.495761
 20
205.896815
 30
0.0
 11
826.495761
 21
184.896815
 31
0.0
  0
LINE
  8
L-ZISSEN
 10
837.995761
 20
184.896815
 30
0.0
 11
837.995761
 21
179.896815
 31
0.0
  0
LINE
  8
L-ZISSEN
 10
828.995761
 20
179.896815
 30
0.0
 11
828.995761
 21
184.896815
 31
0.0
  0
LINE
  8
L-ZISSEN
 10
837.995761
 20
179.896815
 30
0.0
 11
828.995761
 21
179.896815
 31
0.0
  0
LINE
  8
L-ZISSEN
 10
848.506868
 20
210.896815
 30
0.0
 11
843.495761
 21
205.896815
 31
0.0
  0
LINE
  8
L-ZISSEN
 10
848.506868
 20
216.896815
 30
0.0
 11
848.506868
 21
210.896815
 31
0.0
  0
ARC
  8
L-ZISSEN
 10
833.495761
 20
141.424786
 30
0.0
 40
9.5
 50
90.0
 51
270.0
  0
LINE
  8
L-ZISSEN
 10
845.995761
 20
131.924786
 30
0.0
 11
845.995761
 21
150.924786
 31
0.0
  0
LINE
  8
L-ZISSEN
 10
833.495761
 20
150.924786
 30
0.0
 11
845.995761
 21
150.924786
 31
0.0
  0
LINE
  8
L-ZISSEN
 10
833.495761
 20
131.924786
 30
0.0
 11
845.995761
 21
131.924786
 31
0.0
  0
LINE
  8
L-ZISSEN
 10
845.995761
 20
205.896815
 30
0.0
 11
842.495761
 21
184.896815
 31
0.0
  0
LINE
  8
L-ZISSEN
 10
825.990208
 20
154.424786
 30
0.0
 11
818.484654
 21
141.424786
 31
0.0
  0
LINE
  8
L-ZISSEN
 10
818.484654
 20
141.424786
 30
0.0
 11
825.990208
 21
128.424786
 31
0.0
  0
LINE
  8
L-ZISSEN
 10
825.990208
 20
128.424786
 30
0.0
 11
841.001315
 21
128.424786
 31
0.0
  0
LINE
  8
L-ZISSEN
 10
841.001315
 20
128.424786
 30
0.0
 11
843.022041
 21
131.924786
 31
0.0
  0
LINE
  8
L-ZISSEN
 10
848.506868
 20
141.424786
 30
0.0
 11
845.995761
 21
145.774151
 31
0.0
  0
LINE
  8
L-ZISSEN
 10
841.001315
 20
154.424786
 30
0.0
 11
825.990208
 21
154.424786
 31
0.0
  0
LINE
  8
L-ZISSEN
 10
845.995761
 20
137.075421
 30
0.0
 11
848.506868
 21
141.424786
 31
0.0
  0
LINE
  8
L-ZISSEN
 10
843.022041
 20
150.924786
 30
0.0
 11
841.001315
 21
154.424786
 31
0.0
  0
LINE
  8
L-ZISSEN
 10
924.079749
 20
150.924786
 30
0.0
 11
922.059023
 21
154.424786
 31
0.0
  0
LINE
  8
L-ZISSEN
 10
922.059023
 20
154.424786
 30
0.0
 11
907.047916
 21
154.424786
 31
0.0
  0
LINE
  8
L-ZISSEN
 10
922.059023
 20
128.424786
 30
0.0
 11
924.079749
 21
131.924786
 31
0.0
  0
LINE
  8
L-ZISSEN
 10
907.047916
 20
128.424786
 30
0.0
 11
922.059023
 21
128.424786
 31
0.0
  0
LINE
  8
L-ZISSEN
 10
899.542362
 20
141.424786
 30
0.0
 11
907.047916
 21
128.424786
 31
0.0
  0
LINE
  8
L-ZISSEN
 10
907.047916
 20
154.424786
 30
0.0
 11
899.542362
 21
141.424786
 31
0.0
  0
LINE
  8
L-ZISSEN
 10
929.564576
 20
216.896815
 30
0.0
 11
929.564576
 21
210.896815
 31
0.0
  0
LINE
  8
L-ZISSEN
 10
899.542362
 20
210.896815
 30
0.0
 11
929.564576
 21
210.896815
 31
0.0
  0
LINE
  8
L-ZISSEN
 10
899.542362
 20
216.896815
 30
0.0
 11
899.542362
 21
210.896815
 31
0.0
  0
LINE
  8
L-ZISSEN
 10
905.053469
 20
206.896815
 30
0.0
 11
905.053469
 21
192.896815
 31
0.0
  0
LINE
  8
L-ZISSEN
 10
905.053469
 20
206.896815
 30
0.0
 11
899.542362
 21
210.896815
 31
0.0
  0
LINE
  8
L-ZISSEN
 10
929.053469
 20
192.896815
 30
0.0
 11
905.053469
 21
192.896815
 31
0.0
  0
ARC
  8
L-ZISSEN
 10
914.553469
 20
141.424786
 30
0.0
 40
9.5
 50
90.0
 51
270.0
  0
LINE
  8
L-ZISSEN
 10
929.053469
 20
131.924786
 30
0.0
 11
929.053469
 21
150.924786
 31
0.0
  0
LINE
  8
L-ZISSEN
 10
914.553469
 20
150.924786
 30
0.0
 11
929.053469
 21
150.924786
 31
0.0
  0
LINE
  8
L-ZISSEN
 10
914.553469
 20
131.924786
 30
0.0
 11
929.053469
 21
131.924786
 31
0.0
  0
LINE
  8
L-ZISSEN
 10
929.053469
 20
192.896815
 30
0.0
 11
929.053469
 21
206.896815
 31
0.0
  0
LINE
  8
L-ZISSEN
 10
924.053469
 20
206.896815
 30
0.0
 11
929.564576
 21
210.896815
 31
0.0
  0
LINE
  8
L-ZISSEN
 10
905.053469
 20
206.896815
 30
0.0
 11
929.053469
 21
206.896815
 31
0.0
  0
SOLID
  8
L-ZISSEN
 10
834.929278
 20
218.330741
 30
0.0
 11
834.386734
 21
218.718156
 31
0.0
 12
833.495761
 22
216.896815
 32
0.0
 13
833.495761
 23
216.896815
 33
0.0
  0
LINE
  8
L-ZISSEN
 10
834.658006
 20
218.524448
 30
0.0
 11
852.508503
 21
243.522682
 31
0.0
  0
LINE
  8
L-ZISSEN
 10
852.508503
 20
243.522682
 30
0.0
 11
854.508503
 21
243.522682
 31
0.0
  0
TEXT
  8
L-ZISSEN
 10
856.508503
 20
241.272682
 30
0.0
 40
4.5
  1
P.P
  0
SOLID
  8
L-ZISSEN
 10
916.111866
 20
218.193932
 30
0.0
 11
915.606942
 21
218.629243
 31
0.0
 12
914.553469
 22
216.896815
 32
0.0
 13
914.553469
 23
216.896815
 33
0.0
  0
LINE
  8
L-ZISSEN
 10
915.859404
 20
218.411588
 30
0.0
 11
937.508503
 21
243.522682
 31
0.0
  0
LINE
  8
L-ZISSEN
 10
937.508503
 20
243.522682
 30
0.0
 11
939.508503
 21
243.522682
 31
0.0
  0
TEXT
  8
L-ZISSEN
 10
941.508503
 20
241.272682
 30
0.0
 40
4.5
  1
P.P
  0
SOLID
  8
L-ZISSEN
 10
835.052857
 20
142.723463
 30
0.0
 11
834.547497
 21
143.158269
 31
0.0
 12
833.495761
 22
141.424786
 32
0.0
 13
833.495761
 23
141.424786
 33
0.0
  0
LINE
  8
L-ZISSEN
 10
834.800177
 20
142.940866
 30
0.0
 11
852.508503
 21
163.522682
 31
0.0
  0
LINE
  8
L-ZISSEN
 10
852.508503
 20
163.522682
 30
0.0
 11
854.508503
 21
163.522682
 31
0.0
  0
TEXT
  8
L-ZISSEN
 10
856.508503
 20
161.272682
 30
0.0
 40
4.5
  1
P.P
  0
SOLID
  8
L-ZISSEN
 10
916.110565
 20
142.723463
 30
0.0
 11
915.605205
 21
143.158269
 31
0.0
 12
914.553469
 22
141.424786
 32
0.0
 13
914.553469
 23
141.424786
 33
0.0
  0
LINE
  8
L-ZISSEN
 10
915.857885
 20
142.940866
 30
0.0
 11
933.56621
 21
163.522682
 31
0.0
  0
TEXT
  8
L-ZISSEN
 10
937.56621
 20
161.272682
 30
0.0
 40
4.5
  1
P.P
  0
LINE
  8
L-ZISSEN
 10
933.56621
 20
163.522682
 30
0.0
 11
935.56621
 21
163.522682
 31
0.0
  0
LINE
  8
L-TYUSIN
 10
880.067373
 20
278.139823
 30
0.0
 11
880.067373
 21
90.380527
 31
0.0
  0
TEXT
  8
L-ZISSEN
 10
806.186915
 20
258.691193
 30
0.0
 40
4.5
  1
S51-100-**1*
  0
TEXT
  8
L-ZISSEN
 10
894.402388
 20
258.691193
 30
0.0
 40
4.5
  1
S51-100-**2*
  0
LINE
  8
L-ZISSEN
 10
674.597091
 20
399.782892
 30
0.0
 11
662.597091
 21
399.782892
 31
0.0
  0
LINE
  8
L-ZISSEN
  6
CONTINUOUS
 62
     7
 10
342.013132
 20
363.758968
 30
0.0
 11
342.013132
 21
349.782892
 31
0.0
  0
LINE
  8
L-ZISSEN
  6
CONTINUOUS
 62
     7
 10
378.513132
 20
406.982892
 30
0.0
 11
338.513132
 21
406.982892
 31
0.0
  0
LINE
  8
L-ZISSEN
 10
378.513132
 20
402.782892
 30
0.0
 11
338.513132
 21
402.782892
 31
0.0
  0
LINE
  8
L-ZISSEN
 10
502.597091
 20
347.782892
 30
0.0
 11
500.997091
 21
347.782892
 31
0.0
  0
LINE
  8
L-ZISSEN
 10
500.997091
 20
347.782892
 30
0.0
 11
500.997091
 21
399.782892
 31
0.0
  0
LINE
  8
L-ZISSEN
 10
490.597091
 20
399.782892
 30
0.0
 11
490.597091
 21
371.782892
 31
0.0
  0
LINE
  8
L-ZISSEN
 10
490.597091
 20
399.782892
 30
0.0
 11
502.597091
 21
399.782892
 31
0.0
  0
LINE
  8
L-ZISSEN
 10
490.597091
 20
371.782892
 30
0.0
 11
500.997091
 21
371.782892
 31
0.0
  0
CIRCLE
  8
L-ZISSEN
 10
494.597091
 20
394.782892
 30
0.0
 40
2.8
  0
CIRCLE
  8
L-ZISSEN
 10
494.597091
 20
376.782892
 30
0.0
 40
2.8
  0
LINE
  8
L-ZISSEN
 10
568.555639
 20
348.282892
 30
0.0
 11
575.097091
 21
348.282892
 31
0.0
  0
LINE
  8
L-ZISSEN
 10
568.555639
 20
348.282892
 30
0.0
 11
568.555639
 21
350.782892
 31
0.0
  0
LINE
  8
L-ZISSEN
 10
570.597091
 20
340.782892
 30
0.0
 11
570.597091
 21
348.282892
 31
0.0
  0
LINE
  8
L-ZISSEN
 10
574.597091
 20
340.782892
 30
0.0
 11
574.597091
 21
348.282892
 31
0.0
  0
LINE
  8
L-ZISSEN
 10
570.597091
 20
340.782892
 30
0.0
 11
574.597091
 21
340.782892
 31
0.0
  0
LINE
  8
L-ZISSEN
 10
582.347091
 20
406.982892
 30
0.0
 11
582.347091
 21
402.782892
 31
0.0
  0
LINE
  8
L-ZISSEN
 10
542.847091
 20
406.982892
 30
0.0
 11
542.847091
 21
402.782892
 31
0.0
  0
LINE
  8
L-ZISSEN
  6
CONTINUOUS
 62
     7
 10
574.906492
 20
362.782892
 30
0.0
 11
570.28769
 21
362.782892
 31
0.0
  0
LINE
  8
L-ZISSEN
  6
CONTINUOUS
 62
     7
 10
577.215893
 20
358.782892
 30
0.0
 11
574.906492
 21
362.782892
 31
0.0
  0
LINE
  8
L-ZISSEN
  6
CONTINUOUS
 62
     7
 10
574.906492
 20
354.782892
 30
0.0
 11
577.215893
 21
358.782892
 31
0.0
  0
LINE
  8
L-ZISSEN
  6
CONTINUOUS
 62
     7
 10
570.28769
 20
354.782892
 30
0.0
 11
574.906492
 21
354.782892
 31
0.0
  0
LINE
  8
L-ZISSEN
  6
CONTINUOUS
 62
     7
 10
567.978289
 20
358.782892
 30
0.0
 11
570.28769
 21
354.782892
 31
0.0
  0
LINE
  8
L-ZISSEN
  6
CONTINUOUS
 62
     7
 10
570.28769
 20
362.782892
 30
0.0
 11
567.978289
 21
358.782892
 31
0.0
  0
LINE
  8
L-ZISSEN
  6
CONTINUOUS
 62
     7
 10
581.347091
 20
406.982892
 30
0.0
 11
580.037795
 21
456.982892
 31
0.0
  0
CIRCLE
  8
L-ZISSEN
  6
CONTINUOUS
 62
     7
 10
572.597091
 20
358.782892
 30
0.0
 40
2.5
  0
LINE
  8
L-ZISSEN
  6
CONTINUOUS
 62
     7
 10
575.097091
 20
345.782892
 30
0.0
 11
582.097091
 21
345.782892
 31
0.0
  0
LINE
  8
L-ZISSEN
  6
CONTINUOUS
 62
     7
 10
582.097091
 20
345.782892
 30
0.0
 11
582.097091
 21
350.782892
 31
0.0
  0
LINE
  8
L-ZISSEN
  6
CONTINUOUS
 62
     7
 10
575.097091
 20
345.782892
 30
0.0
 11
575.097091
 21
350.782892
 31
0.0
  0
LINE
  8
L-ZISSEN
  6
CONTINUOUS
 62
     7
 10
550.097091
 20
345.782892
 30
0.0
 11
550.097091
 21
350.782892
 31
0.0
  0
LINE
  8
L-ZISSEN
  6
CONTINUOUS
 62
     7
 10
550.097091
 20
345.782892
 30
0.0
 11
543.097091
 21
345.782892
 31
0.0
  0
LINE
  8
L-ZISSEN
  6
CONTINUOUS
 62
     7
 10
543.097091
 20
345.782892
 30
0.0
 11
543.097091
 21
350.782892
 31
0.0
  0
LINE
  8
L-ZISSEN
 10
582.597091
 20
350.782892
 30
0.0
 11
582.597091
 21
402.782892
 31
0.0
  0
LINE
  8
L-ZISSEN
 10
542.597091
 20
402.782892
 30
0.0
 11
542.597091
 21
350.782892
 31
0.0
  0
LINE
  8
L-TYUSIN
  6
CENTER
 62
     1
 10
562.597091
 20
342.809887
 30
0.0
 11
562.597091
 21
462.218182
 31
0.0
  0
CIRCLE
  8
L-ZISSEN
  6
CONTINUOUS
 62
     7
 10
554.597091
 20
375.782892
 30
0.0
 40
4.85
  0
LINE
  8
L-ZISSEN
 10
542.597091
 20
350.782892
 30
0.0
 11
582.597091
 21
350.782892
 31
0.0
  0
LINE
  8
L-ZISSEN
  6
CONTINUOUS
 62
     7
 10
545.156387
 20
456.982892
 30
0.0
 11
580.037795
 21
456.982892
 31
0.0
  0
LINE
  8
L-ZISSEN
  6
CONTINUOUS
 62
     7
 10
543.847091
 20
406.982892
 30
0.0
 11
545.156387
 21
456.982892
 31
0.0
  0
LINE
  8
L-ZISSEN
  6
CONTINUOUS
 62
     7
 10
582.347091
 20
406.982892
 30
0.0
 11
542.847091
 21
406.982892
 31
0.0
  0
LINE
  8
L-ZISSEN
  6
CONTINUOUS
 62
     7
 10
542.597091
 20
402.782892
 30
0.0
 11
582.597091
 21
402.782892
 31
0.0
  0
LINE
  8
L-ZISSEN
 10
582.597091
 20
383.782892
 30
0.0
 11
542.597091
 21
383.782892
 31
0.0
  0
LINE
  8
L-ZISSEN
 10
608.555639
 20
348.282892
 30
0.0
 11
615.097091
 21
348.282892
 31
0.0
  0
LINE
  8
L-ZISSEN
 10
608.555639
 20
348.282892
 30
0.0
 11
608.555639
 21
350.782892
 31
0.0
  0
LINE
  8
L-ZISSEN
 10
610.597091
 20
340.782892
 30
0.0
 11
610.597091
 21
348.282892
 31
0.0
  0
LINE
  8
L-ZISSEN
 10
614.597091
 20
340.782892
 30
0.0
 11
614.597091
 21
348.282892
 31
0.0
  0
LINE
  8
L-ZISSEN
 10
610.597091
 20
340.782892
 30
0.0
 11
614.597091
 21
340.782892
 31
0.0
  0
LINE
  8
L-ZISSEN
 10
622.347091
 20
406.982892
 30
0.0
 11
622.347091
 21
402.782892
 31
0.0
  0
LINE
  8
L-ZISSEN
 10
582.847091
 20
406.982892
 30
0.0
 11
582.847091
 21
402.782892
 31
0.0
  0
LINE
  8
L-ZISSEN
  6
CONTINUOUS
 62
     7
 10
614.906492
 20
362.782892
 30
0.0
 11
610.28769
 21
362.782892
 31
0.0
  0
LINE
  8
L-ZISSEN
  6
CONTINUOUS
 62
     7
 10
617.215893
 20
358.782892
 30
0.0
 11
614.906492
 21
362.782892
 31
0.0
  0
LINE
  8
L-ZISSEN
  6
CONTINUOUS
 62
     7
 10
614.906492
 20
354.782892
 30
0.0
 11
617.215893
 21
358.782892
 31
0.0
  0
LINE
  8
L-ZISSEN
  6
CONTINUOUS
 62
     7
 10
610.28769
 20
354.782892
 30
0.0
 11
614.906492
 21
354.782892
 31
0.0
  0
LINE
  8
L-ZISSEN
  6
CONTINUOUS
 62
     7
 10
607.978289
 20
358.782892
 30
0.0
 11
610.28769
 21
354.782892
 31
0.0
  0
LINE
  8
L-ZISSEN
  6
CONTINUOUS
 62
     7
 10
610.28769
 20
362.782892
 30
0.0
 11
607.978289
 21
358.782892
 31
0.0
  0
LINE
  8
L-ZISSEN
  6
CONTINUOUS
 62
     7
 10
621.347091
 20
406.982892
 30
0.0
 11
620.037795
 21
456.982892
 31
0.0
  0
CIRCLE
  8
L-ZISSEN
  6
CONTINUOUS
 62
     7
 10
612.597091
 20
358.782892
 30
0.0
 40
2.5
  0
LINE
  8
L-ZISSEN
  6
CONTINUOUS
 62
     7
 10
615.097091
 20
345.782892
 30
0.0
 11
622.097091
 21
345.782892
 31
0.0
  0
LINE
  8
L-ZISSEN
  6
CONTINUOUS
 62
     7
 10
622.097091
 20
345.782892
 30
0.0
 11
622.097091
 21
350.782892
 31
0.0
  0
LINE
  8
L-ZISSEN
  6
CONTINUOUS
 62
     7
 10
615.097091
 20
345.782892
 30
0.0
 11
615.097091
 21
350.782892
 31
0.0
  0
LINE
  8
L-ZISSEN
  6
CONTINUOUS
 62
     7
 10
590.097091
 20
345.782892
 30
0.0
 11
590.097091
 21
350.782892
 31
0.0
  0
LINE
  8
L-ZISSEN
  6
CONTINUOUS
 62
     7
 10
590.097091
 20
345.782892
 30
0.0
 11
583.097091
 21
345.782892
 31
0.0
  0
LINE
  8
L-ZISSEN
  6
CONTINUOUS
 62
     7
 10
583.097091
 20
345.782892
 30
0.0
 11
583.097091
 21
350.782892
 31
0.0
  0
LINE
  8
L-TYUSIN
  6
CENTER
 62
     1
 10
602.597091
 20
342.809887
 30
0.0
 11
602.597091
 21
462.218182
 31
0.0
  0
CIRCLE
  8
L-ZISSEN
  6
CONTINUOUS
 62
     7
 10
594.597091
 20
375.782892
 30
0.0
 40
4.85
  0
LINE
  8
L-ZISSEN
 10
582.597091
 20
350.782892
 30
0.0
 11
622.597091
 21
350.782892
 31
0.0
  0
LINE
  8
L-ZISSEN
  6
CONTINUOUS
 62
     7
 10
585.156387
 20
456.982892
 30
0.0
 11
620.037795
 21
456.982892
 31
0.0
  0
LINE
  8
L-ZISSEN
  6
CONTINUOUS
 62
     7
 10
583.847091
 20
406.982892
 30
0.0
 11
585.156387
 21
456.982892
 31
0.0
  0
LINE
  8
L-ZISSEN
  6
CONTINUOUS
 62
     7
 10
622.347091
 20
406.982892
 30
0.0
 11
582.847091
 21
406.982892
 31
0.0
  0
LINE
  8
L-ZISSEN
  6
CONTINUOUS
 62
     7
 10
582.597091
 20
402.782892
 30
0.0
 11
622.597091
 21
402.782892
 31
0.0
  0
LINE
  8
L-ZISSEN
 10
622.597091
 20
383.782892
 30
0.0
 11
582.597091
 21
383.782892
 31
0.0
  0
LINE
  8
L-TYUSIN
  6
CENTER
 62
     1
 10
497.747091
 20
376.782892
 30
0.0
 11
491.447091
 21
376.782892
 31
0.0
  0
LINE
  8
L-TYUSIN
  6
CENTER
 62
     1
 10
494.597091
 20
373.632892
 30
0.0
 11
494.597091
 21
379.932892
 31
0.0
  0
LINE
  8
L-TYUSIN
  6
CENTER
 62
     1
 10
494.597091
 20
391.632892
 30
0.0
 11
494.597091
 21
397.932892
 31
0.0
  0
LINE
  8
L-TYUSIN
  6
CENTER
 62
     1
 10
497.747091
 20
394.782892
 30
0.0
 11
491.447091
 21
394.782892
 31
0.0
  0
LINE
  8
L-ZISSEN
 10
537.597091
 20
161.482892
 30
0.0
 11
507.597091
 21
161.482892
 31
0.0
  0
LINE
  8
L-ZISSEN
 10
507.597091
 20
204.282892
 30
0.0
 11
537.597091
 21
204.282892
 31
0.0
  0
LINE
  8
L-ZISSEN
 10
507.597091
 20
161.482892
 30
0.0
 11
507.597091
 21
208.782892
 31
0.0
  0
LINE
  8
L-ZISSEN
 10
537.597091
 20
208.782892
 30
0.0
 11
537.597091
 21
161.482892
 31
0.0
  0
LINE
  8
L-ZISSEN
 10
514.097091
 20
175.375415
 30
0.0
 11
522.597091
 21
170.467937
 31
0.0
  0
LINE
  8
L-ZISSEN
 10
522.597091
 20
170.467937
 30
0.0
 11
531.097091
 21
175.375415
 31
0.0
  0
LINE
  8
L-ZISSEN
 10
531.097091
 20
175.375415
 30
0.0
 11
531.097091
 21
185.190369
 31
0.0
  0
LINE
  8
L-ZISSEN
 10
531.097091
 20
185.190369
 30
0.0
 11
522.597091
 21
190.097846
 31
0.0
  0
LINE
  8
L-ZISSEN
 10
522.597091
 20
190.097846
 30
0.0
 11
514.097091
 21
185.190369
 31
0.0
  0
LINE
  8
L-ZISSEN
 10
514.097091
 20
185.190369
 30
0.0
 11
514.097091
 21
175.375415
 31
0.0
  0
CIRCLE
  8
L-ZISSEN
 10
522.597091
 20
228.732892
 30
0.0
 40
11.0
  0
LINE
  8
L-ZISSEN
 10
502.597091
 20
200.282892
 30
0.0
 11
502.597091
 21
120.282892
 31
0.0
  0
LINE
  8
L-ZISSEN
 10
502.597091
 20
160.282892
 30
0.0
 11
542.597091
 21
160.282892
 31
0.0
  0
LINE
  8
L-ZISSEN
 10
542.597091
 20
126.282892
 30
0.0
 11
542.597091
 21
200.282892
 31
0.0
  0
LINE
  8
L-ZISSEN
 10
542.597091
 20
200.282892
 30
0.0
 11
537.597091
 21
200.282892
 31
0.0
  0
LINE
  8
L-ZISSEN
 10
507.597091
 20
200.282892
 30
0.0
 11
502.597091
 21
200.282892
 31
0.0
  0
LINE
  8
L-ZISSEN
 10
502.597091
 20
195.282892
 30
0.0
 11
500.997091
 21
195.282892
 31
0.0
  0
LINE
  8
L-ZISSEN
 10
500.997091
 20
195.282892
 30
0.0
 11
500.997091
 21
121.882892
 31
0.0
  0
LINE
  8
L-ZISSEN
 10
502.597091
 20
120.282892
 30
0.0
 11
490.597091
 21
120.282892
 31
0.0
  0
LINE
  8
L-ZISSEN
 10
490.597091
 20
120.282892
 30
0.0
 11
490.597091
 21
121.882892
 31
0.0
  0
LINE
  8
L-ZISSEN
 10
490.597091
 20
121.882892
 30
0.0
 11
500.997091
 21
121.882892
 31
0.0
  0
LINE
  8
L-ZISSEN
 10
614.617817
 20
194.782892
 30
0.0
 11
610.576365
 21
194.782892
 31
0.0
  0
LINE
  8
L-ZISSEN
 10
616.638543
 20
191.282892
 30
0.0
 11
614.617817
 21
194.782892
 31
0.0
  0
LINE
  8
L-ZISSEN
 10
614.617817
 20
187.782892
 30
0.0
 11
616.638543
 21
191.282892
 31
0.0
  0
LINE
  8
L-ZISSEN
 10
610.576365
 20
187.782892
 30
0.0
 11
614.617817
 21
187.782892
 31
0.0
  0
LINE
  8
L-ZISSEN
 10
608.555639
 20
191.282892
 30
0.0
 11
610.576365
 21
187.782892
 31
0.0
  0
LINE
  8
L-ZISSEN
 10
610.576365
 20
194.782892
 30
0.0
 11
608.555639
 21
191.282892
 31
0.0
  0
LINE
  8
L-TYUSIN
  6
CENTER
 62
     1
 10
594.597091
 20
179.826642
 30
0.0
 11
594.597091
 21
190.739142
 31
0.0
  0
LINE
  8
L-TYUSIN
  6
CENTER
 62
     1
 10
589.140841
 20
185.282892
 30
0.0
 11
600.053341
 21
185.282892
 31
0.0
  0
LINE
  8
L-ZISSEN
 10
582.597091
 20
195.282892
 30
0.0
 11
580.997091
 21
195.282892
 31
0.0
  0
LINE
  8
L-ZISSEN
 10
608.188974
 20
154.782892
 30
0.0
 11
597.005208
 21
154.782892
 31
0.0
  0
LINE
  8
L-ZISSEN
 10
616.097091
 20
146.874775
 30
0.0
 11
608.188974
 21
154.782892
 31
0.0
  0
LINE
  8
L-ZISSEN
 10
616.097091
 20
135.691009
 30
0.0
 11
616.097091
 21
146.874775
 31
0.0
  0
LINE
  8
L-ZISSEN
 10
608.188974
 20
127.782892
 30
0.0
 11
616.097091
 21
135.691009
 31
0.0
  0
LINE
  8
L-ZISSEN
 10
597.005208
 20
127.782892
 30
0.0
 11
608.188974
 21
127.782892
 31
0.0
  0
LINE
  8
L-ZISSEN
 10
589.097091
 20
135.691009
 30
0.0
 11
597.005208
 21
127.782892
 31
0.0
  0
LINE
  8
L-ZISSEN
 10
589.097091
 20
146.874775
 30
0.0
 11
589.097091
 21
135.691009
 31
0.0
  0
LINE
  8
L-ZISSEN
 10
597.005208
 20
154.782892
 30
0.0
 11
589.097091
 21
146.874775
 31
0.0
  0
CIRCLE
  8
L-ZISSEN
 10
618.597091
 20
164.282892
 30
0.0
 40
3.5
  0
CIRCLE
  8
L-ZISSEN
 10
586.597091
 20
164.282892
 30
0.0
 40
3.5
  0
CIRCLE
  8
L-ZISSEN
 10
618.597091
 20
196.282892
 30
0.0
 40
3.5
  0
CIRCLE
  8
L-ZISSEN
 10
586.597091
 20
196.282892
 30
0.0
 40
3.5
  0
CIRCLE
  8
L-ZISSEN
 10
594.597091
 20
185.282892
 30
0.0
 40
4.864
  0
LINE
  8
L-ZISSEN
 10
622.597091
 20
126.282892
 30
0.0
 11
582.597091
 21
126.282892
 31
0.0
  0
LINE
  8
L-ZISSEN
 10
622.597091
 20
213.282892
 30
0.0
 11
582.597091
 21
213.282892
 31
0.0
  0
LINE
  8
L-ZISSEN
 10
622.597091
 20
200.282892
 30
0.0
 11
582.597091
 21
200.282892
 31
0.0
  0
LINE
  8
L-ZISSEN
 10
622.597091
 20
126.282892
 30
0.0
 11
622.597091
 21
213.282892
 31
0.0
  0
LINE
  8
L-ZISSEN
 10
582.597091
 20
213.282892
 30
0.0
 11
582.597091
 21
126.282892
 31
0.0
  0
LINE
  8
L-ZISSEN
 10
582.597091
 20
160.282892
 30
0.0
 11
622.597091
 21
160.282892
 31
0.0
  0
LINE
  8
L-TYUSIN
  6
CENTER
 62
     1
 10
602.597091
 20
120.807699
 30
0.0
 11
602.597091
 21
224.758085
 31
0.0
  0
LINE
  8
L-TYUSIN
  6
CENTER
 62
     1
 10
642.597091
 20
120.807699
 30
0.0
 11
642.597091
 21
224.758085
 31
0.0
  0
LINE
  8
L-ZISSEN
 10
622.597091
 20
160.282892
 30
0.0
 11
662.597091
 21
160.282892
 31
0.0
  0
LINE
  8
L-ZISSEN
 10
622.597091
 20
213.282892
 30
0.0
 11
622.597091
 21
160.282892
 31
0.0
  0
LINE
  8
L-ZISSEN
 10
662.597091
 20
120.282892
 30
0.0
 11
662.597091
 21
213.282892
 31
0.0
  0
LINE
  8
L-ZISSEN
 10
662.597091
 20
200.282892
 30
0.0
 11
622.597091
 21
200.282892
 31
0.0
  0
LINE
  8
L-ZISSEN
 10
662.597091
 20
213.282892
 30
0.0
 11
622.597091
 21
213.282892
 31
0.0
  0
LINE
  8
L-ZISSEN
 10
662.597091
 20
126.282892
 30
0.0
 11
622.597091
 21
126.282892
 31
0.0
  0
CIRCLE
  8
L-ZISSEN
 10
634.597091
 20
185.282892
 30
0.0
 40
4.864
  0
CIRCLE
  8
L-ZISSEN
 10
626.597091
 20
196.282892
 30
0.0
 40
3.5
  0
CIRCLE
  8
L-ZISSEN
 10
658.597091
 20
196.282892
 30
0.0
 40
3.5
  0
CIRCLE
  8
L-ZISSEN
 10
626.597091
 20
164.282892
 30
0.0
 40
3.5
  0
CIRCLE
  8
L-ZISSEN
 10
658.597091
 20
164.282892
 30
0.0
 40
3.5
  0
LINE
  8
L-ZISSEN
 10
637.005208
 20
154.782892
 30
0.0
 11
629.097091
 21
146.874775
 31
0.0
  0
LINE
  8
L-ZISSEN
 10
629.097091
 20
146.874775
 30
0.0
 11
629.097091
 21
135.691009
 31
0.0
  0
LINE
  8
L-ZISSEN
 10
629.097091
 20
135.691009
 30
0.0
 11
637.005208
 21
127.782892
 31
0.0
  0
LINE
  8
L-ZISSEN
 10
637.005208
 20
127.782892
 30
0.0
 11
648.188974
 21
127.782892
 31
0.0
  0
LINE
  8
L-ZISSEN
 10
648.188974
 20
127.782892
 30
0.0
 11
656.097091
 21
135.691009
 31
0.0
  0
LINE
  8
L-ZISSEN
 10
656.097091
 20
135.691009
 30
0.0
 11
656.097091
 21
146.874775
 31
0.0
  0
LINE
  8
L-ZISSEN
 10
656.097091
 20
146.874775
 30
0.0
 11
648.188974
 21
154.782892
 31
0.0
  0
LINE
  8
L-ZISSEN
 10
648.188974
 20
154.782892
 30
0.0
 11
637.005208
 21
154.782892
 31
0.0
  0
LINE
  8
L-TYUSIN
  6
CENTER
 62
     1
 10
629.140841
 20
185.282892
 30
0.0
 11
640.053341
 21
185.282892
 31
0.0
  0
LINE
  8
L-TYUSIN
  6
CENTER
 62
     1
 10
634.597091
 20
179.826642
 30
0.0
 11
634.597091
 21
190.739142
 31
0.0
  0
LINE
  8
L-ZISSEN
 10
650.576365
 20
194.782892
 30
0.0
 11
648.555639
 21
191.282892
 31
0.0
  0
LINE
  8
L-ZISSEN
 10
648.555639
 20
191.282892
 30
0.0
 11
650.576365
 21
187.782892
 31
0.0
  0
LINE
  8
L-ZISSEN
 10
650.576365
 20
187.782892
 30
0.0
 11
654.617817
 21
187.782892
 31
0.0
  0
LINE
  8
L-ZISSEN
 10
654.617817
 20
187.782892
 30
0.0
 11
656.638543
 21
191.282892
 31
0.0
  0
LINE
  8
L-ZISSEN
 10
656.638543
 20
191.282892
 30
0.0
 11
654.617817
 21
194.782892
 31
0.0
  0
LINE
  8
L-ZISSEN
 10
654.617817
 20
194.782892
 30
0.0
 11
650.576365
 21
194.782892
 31
0.0
  0
SOLID
  8
L-ZISSEN
 10
636.044227
 20
201.703071
 30
0.0
 11
635.505405
 21
202.095646
 31
0.0
 12
634.597091
 22
200.282892
 32
0.0
 13
634.597091
 23
200.282892
 33
0.0
  0
LINE
  8
L-ZISSEN
 10
635.774816
 20
201.899358
 30
0.0
 11
665.06542
 21
242.101691
 31
0.0
  0
LINE
  8
L-ZISSEN
 10
665.06542
 20
242.101691
 30
0.0
 11
667.06542
 21
242.101691
 31
0.0
  0
LINE
  8
L-ZISSEN
 10
667.06542
 20
242.101691
 30
0.0
 11
678.06542
 21
242.101691
 31
0.0
  0
TEXT
  8
L-ZISSEN
 10
669.06542
 20
244.351691
 30
0.0
 40
4.5
  1
P.P
  0
LINE
  8
L-ZISSEN
 10
633.797091
 20
375.782892
 30
0.0
 11
635.397091
 21
375.782892
 31
0.0
  0
LINE
  8
L-ZISSEN
 10
634.597091
 20
374.982892
 30
0.0
 11
634.597091
 21
376.582892
 31
0.0
  0
SOLID
  8
L-ZISSEN
 10
636.173508
 20
377.058047
 30
0.0
 11
635.674732
 21
377.50039
 31
0.0
 12
634.597091
 22
375.782892
 32
0.0
 13
634.597091
 23
375.782892
 33
0.0
  0
LINE
  8
L-ZISSEN
 10
635.92412
 20
377.279219
 30
0.0
 11
688.329985
 21
436.370856
 31
0.0
  0
LINE
  8
L-ZISSEN
 10
688.329985
 20
436.370856
 30
0.0
 11
690.329985
 21
436.370856
 31
0.0
  0
LINE
  8
L-ZISSEN
 10
690.329985
 20
436.370856
 30
0.0
 11
701.329985
 21
436.370856
 31
0.0
  0
TEXT
  8
L-ZISSEN
 10
692.329985
 20
438.620856
 30
0.0
 40
4.5
  1
P.P
  0
SOLID
  8
L-ZISSEN
 10
644.483261
 20
142.02685
 30
0.0
 11
644.140022
 21
142.598367
 31
0.0
 12
642.597091
 22
141.282892
 32
0.0
 13
642.597091
 23
141.282892
 33
0.0
  0
LINE
  8
L-ZISSEN
 10
644.311642
 20
142.312608
 30
0.0
 11
679.367346
 21
163.366199
 31
0.0
  0
LINE
  8
L-ZISSEN
 10
679.367346
 20
163.366199
 30
0.0
 11
681.367346
 21
163.366199
 31
0.0
  0
LINE
  8
L-ZISSEN
 10
681.367346
 20
163.366199
 30
0.0
 11
692.367346
 21
163.366199
 31
0.0
  0
TEXT
  8
L-ZISSEN
 10
683.367346
 20
165.616199
 30
0.0
 40
4.5
  1
P.P
  0
SOLID
  8
L-ZISSEN
 10
643.840566
 20
348.181367
 30
0.0
 11
644.292765
 21
348.671225
 31
0.0
 12
642.597091
 22
349.782892
 32
0.0
 13
642.597091
 23
349.782892
 33
0.0
  0
LINE
  8
L-ZISSEN
 10
644.066666
 20
348.426296
 30
0.0
 11
694.972926
 21
301.433645
 31
0.0
  0
LINE
  8
L-ZISSEN
 10
694.972926
 20
301.433645
 30
0.0
 11
696.972926
 21
301.433645
 31
0.0
  0
LINE
  8
L-ZISSEN
 10
696.972926
 20
301.433645
 30
0.0
 11
707.972926
 21
301.433645
 31
0.0
  0
TEXT
  8
L-ZISSEN
 10
698.972926
 20
303.683645
 30
0.0
 40
4.5
  1
P.P
  0
LINE
  8
L-ZISSEN
 10
930.903977
 20
326.514909
 30
0.0
 11
930.903977
 21
315.514909
 31
0.0
  0
TEXT
  8
L-ZISSEN
 10
963.203267
 20
292.045132
 30
0.0
 40
4.5
  1
P.P
  0
LINE
  8
L-ZISSEN
 10
959.203267
 20
294.295132
 30
0.0
 11
961.203267
 21
294.295132
 31
0.0
  0
LINE
  8
L-ZISSEN
 10
937.250532
 20
314.172512
 30
0.0
 11
959.203267
 21
294.295132
 31
0.0
  0
SOLID
  8
L-ZISSEN
 10
937.026799
 20
313.925419
 30
0.0
 11
937.474265
 21
314.419604
 31
0.0
 12
935.767977
 22
315.514909
 32
0.0
 13
935.767977
 23
315.514909
 33
0.0
  0
LINE
  8
L-ZISSEN
 10
940.631977
 20
326.514909
 30
0.0
 11
940.631977
 21
315.514909
 31
0.0
  0
LINE
  8
L-ZISSEN
 10
954.767977
 20
326.514909
 30
0.0
 11
916.767977
 21
326.514909
 31
0.0
  0
LINE
  8
L-ZISSEN
  6
CONTINUOUS
 62
     7
 10
916.767977
 20
350.514909
 30
0.0
 11
916.767977
 21
326.514909
 31
0.0
  0
LINE
  8
L-ZISSEN
  6
CONTINUOUS
 62
     7
 10
916.767977
 20
350.514909
 30
0.0
 11
954.767977
 21
350.514909
 31
0.0
  0
LINE
  8
L-ZISSEN
  6
CONTINUOUS
 62
     7
 10
954.767977
 20
350.514909
 30
0.0
 11
954.767977
 21
326.514909
 31
0.0
  0
SOLID
  8
L-ZISSEN
 10
415.397957
 20
376.530249
 30
0.0
 11
415.053689
 21
377.101146
 31
0.0
 12
413.513132
 22
375.782892
 32
0.0
 13
413.513132
 23
375.782892
 33
0.0
  0
LINE
  8
L-ZISSEN
 10
415.225823
 20
376.815698
 30
0.0
 11
448.718999
 21
397.013121
 31
0.0
  0
LINE
  8
L-ZISSEN
 10
448.718999
 20
397.013121
 30
0.0
 11
450.718999
 21
397.013121
 31
0.0
  0
LINE
  8
L-ZISSEN
 10
450.718999
 20
397.013121
 30
0.0
 11
461.718999
 21
397.013121
 31
0.0
  0
TEXT
  8
L-ZISSEN
 10
452.718999
 20
399.263121
 30
0.0
 40
4.5
  1
P.P
  0
LINE
  8
L-TYUSIN
  6
CENTER
 62
     1
 10
494.597091
 20
118.496683
 30
0.0
 11
494.597091
 21
124.796683
 31
0.0
  0
TEXT
  8
L-ZISSEN
 10
353.948325
 20
505.552373
 30
0.0
 40
4.5
  1
S51-100-3***
  0
TEXT
  8
L-ZISSEN
 10
385.4629
 20
511.826153
 30
0.0
 40
4.5
  1
2
  0
LINE
  8
L-ZISSEN
 10
668.097091
 20
362.782892
 30
0.0
 11
668.097091
 21
354.782892
 31
0.0
  0
LINE
  8
L-ZISSEN
 10
662.597091
 20
354.782892
 30
0.0
 11
668.097091
 21
354.782892
 31
0.0
  0
LINE
  8
L-ZISSEN
 10
662.597091
 20
362.782892
 30
0.0
 11
668.097091
 21
362.782892
 31
0.0
  0
LINE
  8
L-ZISSEN
 10
668.097091
 20
361.282892
 30
0.0
 11
671.097091
 21
361.282892
 31
0.0
  0
LINE
  8
L-ZISSEN
 10
671.097091
 20
361.282892
 30
0.0
 11
671.097091
 21
356.282892
 31
0.0
  0
LINE
  8
L-ZISSEN
 10
668.097091
 20
356.282892
 30
0.0
 11
671.097091
 21
356.282892
 31
0.0
  0
LINE
  8
L-ZISSEN
 10
668.097091
 20
170.282892
 30
0.0
 11
671.097091
 21
170.282892
 31
0.0
  0
LINE
  8
L-ZISSEN
 10
671.097091
 20
175.282892
 30
0.0
 11
671.097091
 21
170.282892
 31
0.0
  0
LINE
  8
L-ZISSEN
 10
668.097091
 20
175.282892
 30
0.0
 11
671.097091
 21
175.282892
 31
0.0
  0
LINE
  8
L-ZISSEN
 10
668.097091
 20
177.401694
 30
0.0
 11
668.097091
 21
168.16409
 31
0.0
  0
LINE
  8
L-ZISSEN
 10
664.197091
 20
168.16409
 30
0.0
 11
664.197091
 21
121.882892
 31
0.0
  0
LINE
  8
L-ZISSEN
 10
668.097091
 20
177.401694
 30
0.0
 11
662.597091
 21
177.401694
 31
0.0
  0
LINE
  8
L-ZISSEN
 10
668.097091
 20
168.16409
 30
0.0
 11
662.597091
 21
168.16409
 31
0.0
  0
SOLID
  8
L-ZISSEN
 10
387.137231
 20
367.003445
 30
0.0
 11
387.651029
 21
366.578644
 31
0.0
 12
388.668535
 22
368.332437
 32
0.0
 13
388.668535
 23
368.332437
 33
0.0
  0
LINE
  8
L-ZISSEN
 10
387.39413
 20
366.791045
 30
0.0
 11
348.874417
 21
320.20145
 31
0.0
  0
LINE
  8
L-ZISSEN
 10
348.874417
 20
320.20145
 30
0.0
 11
346.874417
 21
320.20145
 31
0.0
  0
LINE
  8
L-ZISSEN
 10
338.874417
 20
320.20145
 30
0.0
 11
346.874417
 21
320.20145
 31
0.0
  0
TEXT
  8
L-ZISSEN
 10
338.874417
 20
322.45145
 30
0.0
 40
4.5
  1
IN
  0
TEXT
  8
L-ZISSEN
 10
338.487564
 20
312.768355
 30
0.0
 40
4.5
  1
Rc1/4
  0
ENDSEC
  0
EOF
