  0
SECTION
  2
HEADER
  9
$ACADVER
  1
AC1006
  9
$INSBASE
 10
-753.289691
 20
-97.794707
 30
0.0
  9
$EXTMIN
 10
-810.0
 20
-192.816683
  9
$EXTMAX
 10
-310.872325
 20
93.796375
  9
$LIMMIN
 10
0.0
 20
0.0
  9
$LIMMAX
 10
12.0
 20
9.0
  9
$ORTHOMODE
 70
     1
  9
$REGENMODE
 70
     1
  9
$FILLMODE
 70
     1
  9
$QTEXTMODE
 70
     0
  9
$MIRRTEXT
 70
     1
  9
$DRAGMODE
 70
     2
  9
$LTSCALE
 40
1.0
  9
$OSMODE
 70
     0
  9
$ATTMODE
 70
     1
  9
$TEXTSIZE
 40
4.5
  9
$TRACEWID
 40
0.05
  9
$TEXTSTYLE
  7
STANDARD
  9
$CLAYER
  8
L-TYUSIN
  9
$CELTYPE
  6
BYLAYER
  9
$CECOLOR
 62
   256
  9
$DIMSCALE
 40
1.0
  9
$DIMASZ
 40
2.0
  9
$DIMEXO
 40
0.0625
  9
$DIMDLI
 40
0.38
  9
$DIMRND
 40
0.0
  9
$DIMDLE
 40
0.0
  9
$DIMEXE
 40
0.18
  9
$DIMTP
 40
0.0
  9
$DIMTM
 40
0.0
  9
$DIMTXT
 40
4.5
  9
$DIMCEN
 40
0.09
  9
$DIMTSZ
 40
0.0
  9
$DIMTOL
 70
     0
  9
$DIMLIM
 70
     0
  9
$DIMTIH
 70
     1
  9
$DIMTOH
 70
     1
  9
$DIMSE1
 70
     0
  9
$DIMSE2
 70
     0
  9
$DIMTAD
 70
     0
  9
$DIMZIN
 70
     0
  9
$DIMBLK
  1

  9
$DIMASO
 70
     0
  9
$DIMSHO
 70
     0
  9
$DIMPOST
  1

  9
$DIMAPOST
  1

  9
$DIMALT
 70
     0
  9
$DIMALTD
 70
     2
  9
$DIMALTF
 40
25.4
  9
$DIMLFAC
 40
1.0
  9
$DIMTOFL
 70
     0
  9
$DIMTVP
 40
0.0
  9
$DIMTIX
 70
     0
  9
$DIMSOXD
 70
     0
  9
$DIMSAH
 70
     0
  9
$DIMBLK1
  1

  9
$DIMBLK2
  1

  9
$LUNITS
 70
     2
  9
$LUPREC
 70
     4
  9
$AXISMODE
 70
     0
  9
$AXISUNIT
 10
0.0
 20
0.0
  9
$SKETCHINC
 40
0.1
  9
$FILLETRAD
 40
0.0
  9
$AUNITS
 70
     0
  9
$AUPREC
 70
     0
  9
$MENU
  1
acad
  9
$ELEVATION
 40
0.0
  9
$THICKNESS
 40
0.0
  9
$LIMCHECK
 70
     0
  9
$BLIPMODE
 70
     1
  9
$CHAMFERA
 40
0.0
  9
$CHAMFERB
 40
0.0
  9
$SKPOLY
 70
     0
  9
$TDCREATE
 40
2449015.9317924767
  9
$TDUPDATE
 40
2449651.6775402776
  9
$TDINDWG
 40
0.0050952546
  9
$TDUSRTIMER
 40
0.0050952546
  9
$USRTIMER
 70
     1
  9
$ANGBASE
 50
0.0
  9
$ANGDIR
 70
     0
  9
$PDMODE
 70
     0
  9
$PDSIZE
 40
0.0
  9
$PLINEWID
 40
0.0
  9
$COORDS
 70
     0
  9
$SPLFRAME
 70
     0
  9
$SPLINETYPE
 70
     6
  9
$SPLINESEGS
 70
     8
  9
$ATTDIA
 70
     0
  9
$ATTREQ
 70
     1
  9
$HANDLING
 70
     0
  9
$HANDSEED
  5
0
  9
$SURFTAB1
 70
     6
  9
$SURFTAB2
 70
     6
  9
$SURFTYPE
 70
     6
  9
$SURFU
 70
     6
  9
$SURFV
 70
     6
  9
$FLATLAND
 70
     0
  9
$UCSNAME
  2

  9
$UCSORG
 10
0.0
 20
0.0
 30
0.0
  9
$UCSXDIR
 10
1.0
 20
0.0
 30
0.0
  9
$UCSYDIR
 10
0.0
 20
1.0
 30
0.0
  9
$USERI1
 70
     0
  9
$USERI2
 70
     0
  9
$USERI3
 70
     0
  9
$USERI4
 70
     0
  9
$USERI5
 70
     0
  9
$USERR1
 40
0.0
  9
$USERR2
 40
0.0
  9
$USERR3
 40
0.0
  9
$USERR4
 40
0.0
  9
$USERR5
 40
0.0
  9
$WORLDVIEW
 70
     1
  0
ENDSEC
  0
SECTION
  2
TABLES
  0
TABLE
  2
VPORT
 70
     2
  0
VPORT
  2
*ACTIVE
 70
     0
 10
0.0
 20
0.0
 11
1.0
 21
1.0
 12
-484.96024
 22
17.464956
 13
0.0
 23
0.0
 14
5.0
 24
5.0
 15
0.0
 25
0.0
 16
0.0
 26
0.0
 36
1.0
 17
0.0
 27
0.0
 37
0.0
 40
529.840402
 41
1.5487
 42
50.0
 43
0.0
 44
0.0
 50
0.0
 51
0.0
 71
     0
 72
   100
 73
     1
 74
     0
 75
     0
 76
     0
 77
     0
 78
     0
  0
ENDTAB
  0
TABLE
  2
LTYPE
 70
     2
  0
LTYPE
  2
CONTINUOUS
 70
    64
  3
Solid line
 72
    65
 73
     0
 40
0.0
  0
LTYPE
  2
CENTER
 70
    64
  3
____ _ ____ _ ____ _ ____ _ ____ _ ____
 72
    65
 73
     4
 40
21.5
 49
15.0
 49
-2.5
 49
1.5
 49
-2.5
  0
ENDTAB
  0
TABLE
  2
LAYER
 70
     3
  0
LAYER
  2
0
 70
    64
 62
     7
  6
CONTINUOUS
  0
LAYER
  2
L-ZISSEN
 70
    64
 62
     7
  6
CONTINUOUS
  0
LAYER
  2
L-TYUSIN
 70
    64
 62
     1
  6
CENTER
  0
ENDTAB
  0
TABLE
  2
STYLE
 70
     1
  0
STYLE
  2
STANDARD
 70
    64
 40
0.0
 41
1.0
 50
0.0
 71
     0
 42
4.5
  3
txt
  4

  0
ENDTAB
  0
TABLE
  2
VIEW
 70
     0
  0
ENDTAB
  0
TABLE
  2
UCS
 70
     0
  0
ENDTAB
  0
TABLE
  2
DWGMGR
 70
     0
  0
ENDTAB
  0
ENDSEC
  0
SECTION
  2
BLOCKS
  0
ENDSEC
  0
SECTION
  2
ENTITIES
  0
LINE
  8
L-ZISSEN
  6
CONTINUOUS
 62
     7
 10
-743.289691
 20
-57.794707
 30
0.0
 11
-743.289691
 21
-55.994707
 31
0.0
  0
LINE
  8
L-ZISSEN
  6
CONTINUOUS
 62
     7
 10
-763.289691
 20
-57.794707
 30
0.0
 11
-763.289691
 21
-55.994707
 31
0.0
  0
LINE
  8
L-ZISSEN
  6
CONTINUOUS
 62
     7
 10
-765.789691
 20
-39.794707
 30
0.0
 11
-765.789691
 21
-37.794707
 31
0.0
  0
LINE
  8
L-ZISSEN
  6
CONTINUOUS
 62
     7
 10
-740.789691
 20
-39.794707
 30
0.0
 11
-740.789691
 21
-37.794707
 31
0.0
  0
LINE
  8
0
 10
-767.039691
 20
-39.794707
 30
0.0
 11
-767.039691
 21
-43.794707
 31
0.0
  0
LINE
  8
0
 10
-739.539691
 20
-39.794707
 30
0.0
 11
-739.539691
 21
-43.794707
 31
0.0
  0
LINE
  8
L-ZISSEN
  6
CONTINUOUS
 62
     7
 10
-738.289691
 20
-70.694707
 30
0.0
 11
-738.289691
 21
-57.794707
 31
0.0
  0
LINE
  8
L-ZISSEN
  6
CONTINUOUS
 62
     7
 10
-772.289691
 20
-70.694707
 30
0.0
 11
-734.289691
 21
-70.694707
 31
0.0
  0
LINE
  8
L-ZISSEN
  6
CONTINUOUS
 62
     7
 10
-768.289691
 20
-70.694707
 30
0.0
 11
-768.289691
 21
-57.794707
 31
0.0
  0
LINE
  8
L-ZISSEN
  6
CONTINUOUS
 62
     7
 10
-768.289691
 20
-57.794707
 30
0.0
 11
-738.289691
 21
-57.794707
 31
0.0
  0
LINE
  8
L-ZISSEN
  6
CONTINUOUS
 62
     7
 10
-766.539691
 20
-55.994707
 30
0.0
 11
-740.039691
 21
-55.994707
 31
0.0
  0
LINE
  8
0
 10
-766.539691
 20
-43.794707
 30
0.0
 11
-766.539691
 21
-55.994707
 31
0.0
  0
LINE
  8
0
 10
-740.039691
 20
-43.794707
 30
0.0
 11
-740.039691
 21
-55.994707
 31
0.0
  0
LINE
  8
L-ZISSEN
  6
CONTINUOUS
 62
     7
 10
-767.039691
 20
-43.794707
 30
0.0
 11
-739.539691
 21
-43.794707
 31
0.0
  0
LINE
  8
L-ZISSEN
  6
CONTINUOUS
 62
     7
 10
-767.039691
 20
-39.794707
 30
0.0
 11
-739.539691
 21
-39.794707
 31
0.0
  0
LINE
  8
L-ZISSEN
  6
CONTINUOUS
 62
     7
 10
-765.789691
 20
-37.794707
 30
0.0
 11
-740.789691
 21
-37.794707
 31
0.0
  0
LINE
  8
L-ZISSEN
  6
CONTINUOUS
 62
     7
 10
-645.789691
 20
-37.794707
 30
0.0
 11
-620.789691
 21
-37.794707
 31
0.0
  0
LINE
  8
L-ZISSEN
  6
CONTINUOUS
 62
     7
 10
-647.039691
 20
-39.794707
 30
0.0
 11
-619.539691
 21
-39.794707
 31
0.0
  0
LINE
  8
L-ZISSEN
  6
CONTINUOUS
 62
     7
 10
-647.039691
 20
-43.794707
 30
0.0
 11
-619.539691
 21
-43.794707
 31
0.0
  0
LINE
  8
0
 10
-620.039691
 20
-43.794707
 30
0.0
 11
-620.039691
 21
-55.994707
 31
0.0
  0
LINE
  8
0
 10
-646.539691
 20
-43.794707
 30
0.0
 11
-646.539691
 21
-55.994707
 31
0.0
  0
LINE
  8
L-ZISSEN
  6
CONTINUOUS
 62
     7
 10
-646.539691
 20
-55.994707
 30
0.0
 11
-620.039691
 21
-55.994707
 31
0.0
  0
LINE
  8
L-ZISSEN
  6
CONTINUOUS
 62
     7
 10
-648.289691
 20
-57.794707
 30
0.0
 11
-618.289691
 21
-57.794707
 31
0.0
  0
LINE
  8
L-ZISSEN
  6
CONTINUOUS
 62
     7
 10
-648.289691
 20
-70.694707
 30
0.0
 11
-648.289691
 21
-57.794707
 31
0.0
  0
LINE
  8
L-ZISSEN
  6
CONTINUOUS
 62
     7
 10
-652.289691
 20
-70.694707
 30
0.0
 11
-614.289691
 21
-70.694707
 31
0.0
  0
LINE
  8
L-ZISSEN
  6
CONTINUOUS
 62
     7
 10
-618.289691
 20
-70.694707
 30
0.0
 11
-618.289691
 21
-57.794707
 31
0.0
  0
LINE
  8
0
 10
-619.539691
 20
-39.794707
 30
0.0
 11
-619.539691
 21
-43.794707
 31
0.0
  0
LINE
  8
0
 10
-647.039691
 20
-39.794707
 30
0.0
 11
-647.039691
 21
-43.794707
 31
0.0
  0
LINE
  8
L-ZISSEN
  6
CONTINUOUS
 62
     7
 10
-620.789691
 20
-39.794707
 30
0.0
 11
-620.789691
 21
-37.794707
 31
0.0
  0
LINE
  8
L-ZISSEN
  6
CONTINUOUS
 62
     7
 10
-645.789691
 20
-39.794707
 30
0.0
 11
-645.789691
 21
-37.794707
 31
0.0
  0
LINE
  8
L-ZISSEN
  6
CONTINUOUS
 62
     7
 10
-643.289691
 20
-57.794707
 30
0.0
 11
-643.289691
 21
-55.994707
 31
0.0
  0
LINE
  8
L-ZISSEN
  6
CONTINUOUS
 62
     7
 10
-623.289691
 20
-57.794707
 30
0.0
 11
-623.289691
 21
-55.994707
 31
0.0
  0
LINE
  8
L-ZISSEN
  6
CONTINUOUS
 62
     7
 10
-652.289691
 20
-82.794707
 30
0.0
 11
-652.289691
 21
-70.694707
 31
0.0
  0
LINE
  8
L-ZISSEN
  6
CONTINUOUS
 62
     7
 10
-614.289691
 20
-82.794707
 30
0.0
 11
-614.289691
 21
-70.694707
 31
0.0
  0
LINE
  8
0
 10
-653.289691
 20
-122.794707
 30
0.0
 11
-653.289691
 21
-86.794707
 31
0.0
  0
LINE
  8
0
 10
-653.289691
 20
-86.794707
 30
0.0
 11
-613.289691
 21
-86.794707
 31
0.0
  0
LINE
  8
0
 10
-613.289691
 20
-122.794707
 30
0.0
 11
-613.289691
 21
-86.794707
 31
0.0
  0
LINE
  8
0
 10
-657.289691
 20
-122.794707
 30
0.0
 11
-613.289691
 21
-122.794707
 31
0.0
  0
LINE
  8
L-ZISSEN
 10
-614.489691
 20
-166.694707
 30
0.0
 11
-614.489691
 21
-122.794707
 31
0.0
  0
LINE
  8
L-ZISSEN
 10
-657.289691
 20
-122.794707
 30
0.0
 11
-657.289691
 21
-166.694707
 31
0.0
  0
LINE
  8
L-ZISSEN
 10
-661.789691
 20
-125.944707
 30
0.0
 11
-661.789691
 21
-156.444707
 31
0.0
  0
LINE
  8
L-ZISSEN
 10
-692.989691
 20
-127.444707
 30
0.0
 11
-661.789691
 21
-127.444707
 31
0.0
  0
LINE
  8
L-ZISSEN
 10
-692.989691
 20
-127.444707
 30
0.0
 11
-692.989691
 21
-170.444707
 31
0.0
  0
LINE
  8
L-ZISSEN
 10
-692.989691
 20
-154.944707
 30
0.0
 11
-661.789691
 21
-154.944707
 31
0.0
  0
LINE
  8
L-ZISSEN
 10
-670.489691
 20
-154.944707
 30
0.0
 11
-670.489691
 21
-170.444707
 31
0.0
  0
LINE
  8
L-ZISSEN
 10
-767.039691
 20
-0.412592
 30
0.0
 11
-767.039691
 21
30.787408
 31
0.0
  0
LINE
  8
L-ZISSEN
 10
-739.539691
 20
-0.412592
 30
0.0
 11
-739.539691
 21
30.787408
 31
0.0
  0
LINE
  8
L-ZISSEN
 10
-739.539691
 20
-0.412592
 30
0.0
 11
-767.039691
 21
-0.412592
 31
0.0
  0
LINE
  8
L-ZISSEN
 10
-738.289691
 20
30.787408
 30
0.0
 11
-768.289691
 21
30.787408
 31
0.0
  0
LINE
  8
0
 10
-773.289691
 20
79.287408
 30
0.0
 11
-733.289691
 21
79.287408
 31
0.0
  0
LINE
  8
0
 10
-733.289691
 20
39.287408
 30
0.0
 11
-733.289691
 21
79.287408
 31
0.0
  0
CIRCLE
  8
L-ZISSEN
  6
CONTINUOUS
 62
     7
 10
-753.289691
 20
59.287408
 30
0.0
 40
19.0
  0
CIRCLE
  8
L-ZISSEN
  6
CONTINUOUS
 62
     7
 10
-753.289691
 20
59.287408
 30
0.0
 40
15.0
  0
CIRCLE
  8
L-ZISSEN
  6
CONTINUOUS
 62
     7
 10
-753.289691
 20
59.287408
 30
0.0
 40
13.5
  0
CIRCLE
  8
L-ZISSEN
  6
CONTINUOUS
 62
     7
 10
-753.289691
 20
59.287408
 30
0.0
 40
11.5
  0
LINE
  8
L-TYUSIN
  6
CENTER
 62
     1
 10
-777.254579
 20
59.287408
 30
0.0
 11
-728.252585
 21
59.287408
 31
0.0
  0
LINE
  8
L-TYUSIN
  6
CENTER
 62
     1
 10
-753.289691
 20
-7.655753
 30
0.0
 11
-753.289691
 21
81.116586
 31
0.0
  0
LINE
  8
0
 10
-773.289691
 20
39.287408
 30
0.0
 11
-773.289691
 21
79.287408
 31
0.0
  0
LINE
  8
0
 10
-773.289691
 20
39.287408
 30
0.0
 11
-733.289691
 21
39.287408
 31
0.0
  0
LINE
  8
L-ZISSEN
 10
-738.289691
 20
35.287408
 30
0.0
 11
-768.289691
 21
35.287408
 31
0.0
  0
LINE
  8
L-ZISSEN
  6
CONTINUOUS
 62
     7
 10
-772.289691
 20
-82.794707
 30
0.0
 11
-772.289691
 21
-70.694707
 31
0.0
  0
LINE
  8
L-ZISSEN
  6
CONTINUOUS
 62
     7
 10
-734.289691
 20
-82.794707
 30
0.0
 11
-734.289691
 21
-70.694707
 31
0.0
  0
LINE
  8
L-ZISSEN
  6
CONTINUOUS
 62
     7
 10
-772.289691
 20
-82.794707
 30
0.0
 11
-734.289691
 21
-82.794707
 31
0.0
  0
LINE
  8
L-ZISSEN
  6
CONTINUOUS
 62
     7
 10
-773.289691
 20
-86.794707
 30
0.0
 11
-733.289691
 21
-86.794707
 31
0.0
  0
LINE
  8
L-ZISSEN
  6
CONTINUOUS
 62
     7
 10
-733.289691
 20
-86.794707
 30
0.0
 11
-733.289691
 21
-122.794707
 31
0.0
  0
LINE
  8
L-TYUSIN
  6
CENTER
 62
     1
 10
-753.289691
 20
-188.237573
 30
0.0
 11
-753.289691
 21
-32.240938
 31
0.0
  0
LINE
  8
L-TYUSIN
  6
CENTER
 62
     1
 10
-784.40998
 20
-97.794707
 30
0.0
 11
-720.418637
 21
-97.794707
 31
0.0
  0
LINE
  8
L-ZISSEN
 10
-733.289691
 20
-122.794707
 30
0.0
 11
-773.289691
 21
-122.794707
 31
0.0
  0
LINE
  8
L-ZISSEN
 10
-738.289691
 20
-125.944707
 30
0.0
 11
-768.289691
 21
-125.944707
 31
0.0
  0
LINE
  8
L-ZISSEN
 10
-767.039691
 20
-127.444707
 30
0.0
 11
-739.539691
 21
-127.444707
 31
0.0
  0
LINE
  8
L-ZISSEN
 10
-768.289691
 20
-166.694707
 30
0.0
 11
-768.289691
 21
-122.794707
 31
0.0
  0
LINE
  8
L-ZISSEN
 10
-767.039691
 20
-127.444707
 30
0.0
 11
-767.039691
 21
-154.944707
 31
0.0
  0
LINE
  8
L-ZISSEN
 10
-767.039691
 20
-154.944707
 30
0.0
 11
-739.539691
 21
-154.944707
 31
0.0
  0
LINE
  8
L-ZISSEN
 10
-764.539691
 20
-154.944707
 30
0.0
 11
-764.539691
 21
-170.444707
 31
0.0
  0
LINE
  8
L-ZISSEN
 10
-742.039691
 20
-154.944707
 30
0.0
 11
-742.039691
 21
-170.444707
 31
0.0
  0
LINE
  8
L-ZISSEN
 10
-738.289691
 20
-166.694707
 30
0.0
 11
-738.289691
 21
-122.794707
 31
0.0
  0
LINE
  8
L-ZISSEN
 10
-739.539691
 20
-127.444707
 30
0.0
 11
-739.539691
 21
-154.944707
 31
0.0
  0
LINE
  8
L-ZISSEN
 10
-764.539691
 20
-170.444707
 30
0.0
 11
-742.039691
 21
-170.444707
 31
0.0
  0
LINE
  8
L-ZISSEN
 10
-764.259346
 20
-176.694707
 30
0.0
 11
-742.320036
 21
-176.694707
 31
0.0
  0
LINE
  8
L-ZISSEN
 10
-764.259346
 20
-182.194707
 30
0.0
 11
-742.320036
 21
-182.194707
 31
0.0
  0
LINE
  8
L-ZISSEN
 10
-742.320036
 20
-182.194707
 30
0.0
 11
-742.320036
 21
-176.694707
 31
0.0
  0
LINE
  8
L-ZISSEN
 10
-742.039691
 20
-166.694707
 30
0.0
 11
-738.289691
 21
-166.694707
 31
0.0
  0
LINE
  8
L-ZISSEN
 10
-744.089691
 20
-170.444707
 30
0.0
 11
-744.089691
 21
-176.694707
 31
0.0
  0
LINE
  8
L-ZISSEN
 10
-762.489691
 20
-170.444707
 30
0.0
 11
-762.489691
 21
-176.694707
 31
0.0
  0
LINE
  8
L-ZISSEN
 10
-768.289691
 20
-166.694707
 30
0.0
 11
-764.539691
 21
-166.694707
 31
0.0
  0
LINE
  8
L-ZISSEN
 10
-764.259346
 20
-182.194707
 30
0.0
 11
-764.259346
 21
-176.694707
 31
0.0
  0
LINE
  8
L-ZISSEN
 10
-692.989691
 20
-170.444707
 30
0.0
 11
-670.489691
 21
-170.444707
 31
0.0
  0
LINE
  8
L-ZISSEN
 10
-692.709346
 20
-176.694707
 30
0.0
 11
-670.770036
 21
-176.694707
 31
0.0
  0
LINE
  8
L-ZISSEN
 10
-692.709346
 20
-182.194707
 30
0.0
 11
-670.770036
 21
-182.194707
 31
0.0
  0
LINE
  8
L-ZISSEN
 10
-692.709346
 20
-182.194707
 30
0.0
 11
-692.709346
 21
-176.694707
 31
0.0
  0
LINE
  8
L-ZISSEN
 10
-670.770036
 20
-182.194707
 30
0.0
 11
-670.770036
 21
-176.694707
 31
0.0
  0
LINE
  8
L-ZISSEN
 10
-672.539691
 20
-170.444707
 30
0.0
 11
-672.539691
 21
-176.694707
 31
0.0
  0
LINE
  8
L-ZISSEN
 10
-690.939691
 20
-170.444707
 30
0.0
 11
-690.939691
 21
-176.694707
 31
0.0
  0
LINE
  8
L-ZISSEN
  6
CONTINUOUS
 62
     7
 10
-773.289691
 20
-86.794707
 30
0.0
 11
-773.289691
 21
-122.794707
 31
0.0
  0
LINE
  8
L-ZISSEN
 10
-661.789691
 20
-156.444707
 30
0.0
 11
-657.289691
 21
-156.444707
 31
0.0
  0
LINE
  8
L-ZISSEN
 10
-657.289691
 20
-166.694707
 30
0.0
 11
-614.489691
 21
-166.694707
 31
0.0
  0
LINE
  8
L-ZISSEN
 10
-643.104646
 20
-169.694707
 30
0.0
 11
-623.474737
 21
-169.694707
 31
0.0
  0
LINE
  8
L-ZISSEN
  6
CONTINUOUS
 62
     7
 10
-652.289691
 20
-82.794707
 30
0.0
 11
-614.289691
 21
-82.794707
 31
0.0
  0
LINE
  8
L-ZISSEN
  6
CONTINUOUS
 62
     7
 10
-618.289691
 20
-82.794707
 30
0.0
 11
-618.289691
 21
-86.794707
 31
0.0
  0
LINE
  8
L-ZISSEN
 10
-643.104646
 20
-169.694707
 30
0.0
 11
-643.104646
 21
-166.694707
 31
0.0
  0
CIRCLE
  8
L-ZISSEN
  6
CONTINUOUS
 62
     7
 10
-755.789691
 20
-108.794707
 30
0.0
 40
2.0
  0
CIRCLE
  8
L-ZISSEN
 10
-501.686531
 20
20.350946
 30
0.0
 40
19.3
  0
CIRCLE
  8
L-ZISSEN
 10
-501.686531
 20
20.350946
 30
0.0
 40
15.25
  0
LINE
  8
L-TYUSIN
 10
-501.686531
 20
44.077448
 30
0.0
 11
-501.686531
 21
-3.375555
 31
0.0
  0
LINE
  8
L-TYUSIN
 10
-525.413033
 20
20.350946
 30
0.0
 11
-477.960029
 21
20.350946
 31
0.0
  0
TEXT
  8
L-ZISSEN
 10
-524.389985
 20
46.06239
 30
0.0
 40
4.5
  1
PANEL RING
  0
LINE
  8
L-ZISSEN
 10
-520.986531
 20
-10.028326
 30
0.0
 11
-520.986531
 21
-15.628326
 31
0.0
  0
LINE
  8
L-ZISSEN
 10
-482.386531
 20
-15.628326
 30
0.0
 11
-520.986531
 21
-15.628326
 31
0.0
  0
LINE
  8
L-ZISSEN
 10
-520.986531
 20
-10.028326
 30
0.0
 11
-482.386531
 21
-10.028326
 31
0.0
  0
TEXT
  8
L-ZISSEN
 10
-482.410324
 20
-29.82786
 30
0.0
 40
4.5
  1
P.P
  0
LINE
  8
L-ZISSEN
 10
-482.386531
 20
-10.028326
 30
0.0
 11
-482.386531
 21
-15.628326
 31
0.0
  0
LINE
  8
L-TYUSIN
 10
-501.686531
 20
-4.973542
 30
0.0
 11
-501.686531
 21
-20.137895
 31
0.0
  0
SOLID
  8
L-ZISSEN
 10
-500.316607
 20
-17.123124
 30
0.0
 11
-499.905858
 21
-16.598025
 31
0.0
 12
-501.686531
 22
-15.628326
 32
0.0
 13
-501.686531
 23
-15.628326
 33
0.0
  0
LINE
  8
L-ZISSEN
 10
-500.111233
 20
-16.860574
 30
0.0
 11
-486.410324
 21
-27.57786
 31
0.0
  0
TEXT
  8
L-ZISSEN
 10
-532.005899
 20
-47.259855
 30
0.0
 40
4.5
  1
BRAKET
  0
LINE
  8
L-ZISSEN
 10
-401.686531
 20
-134.478055
 30
0.0
 11
-403.986531
 21
-134.478055
 31
0.0
  0
LINE
  8
L-ZISSEN
 10
-484.972544
 20
-174.569525
 30
0.0
 11
-482.972544
 21
-174.569525
 31
0.0
  0
LINE
  8
L-ZISSEN
 10
-462.686531
 20
-159.478055
 30
0.0
 11
-462.686531
 21
-157.178055
 31
0.0
  0
LINE
  8
L-ZISSEN
 10
-476.441247
 20
-139.442077
 30
0.0
 11
-474.441247
 21
-139.442077
 31
0.0
  0
SOLID
  8
L-ZISSEN
 10
-500.425491
 20
-161.065786
 30
0.0
 11
-499.978715
 21
-160.570977
 31
0.0
 12
-501.686531
 22
-159.478055
 32
0.0
 13
-501.686531
 23
-159.478055
 33
0.0
  0
SOLID
  8
L-ZISSEN
 10
-499.858407
 20
-156.301086
 30
0.0
 11
-500.241647
 21
-155.755585
 31
0.0
 12
-501.686531
 22
-157.178055
 32
0.0
 13
-501.686531
 23
-157.178055
 33
0.0
  0
LINE
  8
L-ZISSEN
 10
-401.686531
 20
-134.478055
 30
0.0
 11
-401.686531
 21
-159.478055
 31
0.0
  0
LINE
  8
L-ZISSEN
 10
-403.986531
 20
-134.478055
 30
0.0
 11
-403.986531
 21
-157.178055
 31
0.0
  0
LINE
  8
L-ZISSEN
 10
-401.686531
 20
-159.478055
 30
0.0
 11
-462.686531
 21
-159.478055
 31
0.0
  0
LINE
  8
L-ZISSEN
 10
-462.686531
 20
-157.178055
 30
0.0
 11
-403.986531
 21
-157.178055
 31
0.0
  0
LINE
  8
L-ZISSEN
  6
CONTINUOUS
 62
     7
 10
-482.686531
 20
-159.478055
 30
0.0
 11
-482.686531
 21
-134.478055
 31
0.0
  0
LINE
  8
L-ZISSEN
  6
CONTINUOUS
 62
     7
 10
-482.686531
 20
-159.478055
 30
0.0
 11
-520.686531
 21
-159.478055
 31
0.0
  0
LINE
  8
L-ZISSEN
  6
CONTINUOUS
 62
     7
 10
-482.686531
 20
-157.178055
 30
0.0
 11
-520.686531
 21
-157.178055
 31
0.0
  0
LINE
  8
L-ZISSEN
  6
CONTINUOUS
 62
     7
 10
-520.686531
 20
-134.478055
 30
0.0
 11
-520.686531
 21
-159.478055
 31
0.0
  0
LINE
  8
L-ZISSEN
 10
-500.202103
 20
-160.818381
 30
0.0
 11
-484.972544
 21
-174.569525
 31
0.0
  0
TEXT
  8
L-ZISSEN
 10
-480.972544
 20
-176.819525
 30
0.0
 40
4.5
  1
P.P
  0
TEXT
  8
L-ZISSEN
 10
-472.441247
 20
-141.692077
 30
0.0
 40
4.5
  1
P.P
  0
LINE
  8
L-ZISSEN
 10
-500.050027
 20
-156.028335
 30
0.0
 11
-476.441247
 21
-139.442077
 31
0.0
  0
CIRCLE
  8
L-ZISSEN
  6
CONTINUOUS
 62
     7
 10
-493.186531
 20
-143.478055
 30
0.0
 40
2.75
  0
CIRCLE
  8
L-ZISSEN
  6
CONTINUOUS
 62
     7
 10
-510.186531
 20
-150.478055
 30
0.0
 40
2.75
  0
LINE
  8
L-ZISSEN
  6
CONTINUOUS
 62
     7
 10
-482.686531
 20
-134.478055
 30
0.0
 11
-520.686531
 21
-134.478055
 31
0.0
  0
LINE
  8
L-TYUSIN
 10
-501.686531
 20
-131.809645
 30
0.0
 11
-501.686531
 21
-162.146464
 31
0.0
  0
LINE
  8
L-TYUSIN
 10
-501.686531
 20
-56.652853
 30
0.0
 11
-501.686531
 21
-125.669864
 31
0.0
  0
ARC
  8
L-ZISSEN
 10
-501.686531
 20
-101.802348
 30
0.0
 40
19.0
 50
180.0
 51
0.0
  0
ARC
  8
L-ZISSEN
 10
-501.686531
 20
-101.802348
 30
0.0
 40
15.5
 50
180.0
 51
0.0
  0
LINE
  8
L-TYUSIN
 10
-525.554047
 20
-101.802348
 30
0.0
 11
-477.819014
 21
-101.802348
 31
0.0
  0
LINE
  8
L-ZISSEN
 10
-517.186531
 20
-87.802348
 30
0.0
 11
-517.186531
 21
-101.802348
 31
0.0
  0
LINE
  8
L-ZISSEN
 10
-486.186531
 20
-87.802348
 30
0.0
 11
-486.186531
 21
-101.802348
 31
0.0
  0
LINE
  8
L-ZISSEN
  6
CONTINUOUS
 62
     7
 10
-482.686531
 20
-101.802348
 30
0.0
 11
-482.686531
 21
-59.802348
 31
0.0
  0
LINE
  8
L-ZISSEN
  6
CONTINUOUS
 62
     7
 10
-482.686531
 20
-59.802348
 30
0.0
 11
-520.686531
 21
-59.802348
 31
0.0
  0
LINE
  8
L-ZISSEN
  6
CONTINUOUS
 62
     7
 10
-482.686531
 20
-62.102348
 30
0.0
 11
-520.686531
 21
-62.102348
 31
0.0
  0
LINE
  8
L-ZISSEN
  6
CONTINUOUS
 62
     7
 10
-520.686531
 20
-59.802348
 30
0.0
 11
-520.686531
 21
-101.802348
 31
0.0
  0
ARC
  8
L-ZISSEN
 10
-501.686531
 20
-87.802348
 30
0.0
 40
15.5
 50
0.0
 51
180.0
  0
LINE
  8
L-TYUSIN
 10
-525.554047
 20
-87.802348
 30
0.0
 11
-477.819014
 21
-87.802348
 31
0.0
  0
LINE
  8
L-TYUSIN
 10
-390.872325
 20
-33.785477
 30
0.0
 11
-539.58148
 21
-33.785477
 31
0.0
  0
LINE
  8
L-TYUSIN
  6
CENTER
 62
     1
 10
-633.289691
 20
-188.237573
 30
0.0
 11
-633.289691
 21
-32.240938
 31
0.0
  0
LINE
  8
L-TYUSIN
 10
-390.872325
 20
-180.524962
 30
0.0
 11
-539.58148
 21
-180.524962
 31
0.0
  0
LINE
  8
L-ZISSEN
 10
-754.375478
 20
-107.380493
 30
0.0
 11
-747.30441
 21
-100.309425
 31
0.0
  0
LINE
  8
L-ZISSEN
  6
CONTINUOUS
 62
     7
 10
-648.289691
 20
-82.794707
 30
0.0
 11
-648.289691
 21
-86.794707
 31
0.0
  0
LINE
  8
L-ZISSEN
  6
CONTINUOUS
 62
     7
 10
-768.289691
 20
-82.794707
 30
0.0
 11
-768.289691
 21
-86.794707
 31
0.0
  0
LINE
  8
L-ZISSEN
  6
CONTINUOUS
 62
     7
 10
-738.289691
 20
-82.794707
 30
0.0
 11
-738.289691
 21
-86.794707
 31
0.0
  0
LINE
  8
L-ZISSEN
 10
-661.789691
 20
-125.944707
 30
0.0
 11
-657.289691
 21
-125.944707
 31
0.0
  0
LINE
  8
L-ZISSEN
 10
-623.474737
 20
-169.694707
 30
0.0
 11
-623.474737
 21
-166.694707
 31
0.0
  0
LINE
  8
L-TYUSIN
  6
CENTER
 62
     1
 10
-671.897656
 20
-97.794707
 30
0.0
 11
-607.906313
 21
-97.794707
 31
0.0
  0
LINE
  8
L-ZISSEN
 10
-653.289691
 20
-106.794707
 30
0.0
 11
-660.289691
 21
-106.794707
 31
0.0
  0
LINE
  8
L-ZISSEN
 10
-660.289691
 20
-106.794707
 30
0.0
 11
-660.289691
 21
-110.794707
 31
0.0
  0
LINE
  8
L-ZISSEN
 10
-660.289691
 20
-110.794707
 30
0.0
 11
-653.289691
 21
-110.794707
 31
0.0
  0
LINE
  8
L-ZISSEN
 10
-657.289691
 20
-100.309425
 30
0.0
 11
-657.289691
 21
-106.794707
 31
0.0
  0
CIRCLE
  8
L-ZISSEN
 10
-633.289691
 20
-97.794707
 30
0.0
 40
6.5785
  0
LINE
  8
L-ZISSEN
 10
-738.289691
 20
30.787408
 30
0.0
 11
-738.289691
 21
39.287408
 31
0.0
  0
LINE
  8
L-ZISSEN
 10
-768.289691
 20
30.787408
 30
0.0
 11
-768.289691
 21
39.287408
 31
0.0
  0
LINE
  8
L-TYUSIN
 10
-510.186531
 20
-156.054309
 30
0.0
 11
-510.186531
 21
-144.901801
 31
0.0
  0
LINE
  8
L-TYUSIN
 10
-504.610277
 20
-150.478055
 30
0.0
 11
-515.762785
 21
-150.478055
 31
0.0
  0
LINE
  8
L-TYUSIN
 10
-493.186531
 20
-149.054309
 30
0.0
 11
-493.186531
 21
-137.901801
 31
0.0
  0
LINE
  8
L-TYUSIN
 10
-487.610277
 20
-143.478055
 30
0.0
 11
-498.762785
 21
-143.478055
 31
0.0
  0
LINE
  8
L-TYUSIN
 10
-510.186531
 20
-66.080541
 30
0.0
 11
-510.186531
 21
-54.928034
 31
0.0
  0
LINE
  8
L-TYUSIN
 10
-493.18653
 20
-66.080541
 30
0.0
 11
-493.18653
 21
-54.928034
 31
0.0
  0
LINE
  8
L-TYUSIN
 10
-398.162799
 20
-143.478055
 30
0.0
 11
-409.315306
 21
-143.478055
 31
0.0
  0
LINE
  8
L-TYUSIN
 10
-397.430919
 20
-150.478055
 30
0.0
 11
-408.583427
 21
-150.478055
 31
0.0
  0
SOLID
  8
L-ZISSEN
 10
-774.294261
 20
-96.033471
 30
0.0
 11
-774.811171
 21
-96.454479
 31
0.0
 12
-773.289691
 22
-97.794707
 32
0.0
 13
-773.289691
 23
-97.794707
 33
0.0
  0
LINE
  8
L-ZISSEN
 10
-774.552716
 20
-96.243975
 30
0.0
 11
-800.0
 21
-65.0
 31
0.0
  0
LINE
  8
L-ZISSEN
 10
-800.0
 20
-65.0
 30
0.0
 11
-802.0
 21
-65.0
 31
0.0
  0
TEXT
  8
L-ZISSEN
 10
-810.0
 20
-67.25
 30
0.0
 40
4.5
  1
IN
  0
TEXT
  8
L-ZISSEN
 10
-695.0
 20
65.0
 30
0.0
 40
4.5
  1
MODEL NO.
  0
TEXT
  8
L-ZISSEN
 10
-691.39073
 20
55.241393
 30
0.0
 40
4.5
  1
MVS-214-02-07
  0
TEXT
  8
L-ZISSEN
 10
-691.39073
 20
46.807491
 30
0.0
 40
4.5
  1
MVS-214-02S-07
  0
LINE
  8
L-TYUSIN
 10
-539.58148
 20
-180.524962
 30
0.0
 11
-539.58148
 21
75.723727
 31
0.0
  0
ENDSEC
  0
EOF
