  0
SECTION
  2
HEADER
  9
$ACADVER
  1
AC1006
  9
$INSBASE
 10
0.0
 20
0.0
 30
0.0
  9
$EXTMIN
 10
-96.985651
 20
-40.7197
  9
$EXTMAX
 10
698.246614
 20
482.130517
  9
$LIMMIN
 10
0.0
 20
0.0
  9
$LIMMAX
 10
12.0
 20
9.0
  9
$ORTHOMODE
 70
     1
  9
$REGENMODE
 70
     1
  9
$FILLMODE
 70
     1
  9
$QTEXTMODE
 70
     0
  9
$MIRRTEXT
 70
     1
  9
$DRAGMODE
 70
     2
  9
$LTSCALE
 40
1.0
  9
$OSMODE
 70
     0
  9
$ATTMODE
 70
     1
  9
$TEXTSIZE
 40
4.5
  9
$TRACEWID
 40
0.05
  9
$TEXTSTYLE
  7
STANDARD
  9
$CLAYER
  8
L-ZISSEN
  9
$CELTYPE
  6
BYLAYER
  9
$CECOLOR
 62
   256
  9
$DIMSCALE
 40
1.0
  9
$DIMASZ
 40
2.0
  9
$DIMEXO
 40
1.0
  9
$DIMDLI
 40
0.38
  9
$DIMRND
 40
0.0
  9
$DIMDLE
 40
0.0
  9
$DIMEXE
 40
1.0
  9
$DIMTP
 40
0.0
  9
$DIMTM
 40
0.0
  9
$DIMTXT
 40
4.5
  9
$DIMCEN
 40
0.09
  9
$DIMTSZ
 40
0.0
  9
$DIMTOL
 70
     0
  9
$DIMLIM
 70
     0
  9
$DIMTIH
 70
     0
  9
$DIMTOH
 70
     0
  9
$DIMSE1
 70
     0
  9
$DIMSE2
 70
     0
  9
$DIMTAD
 70
     1
  9
$DIMZIN
 70
     0
  9
$DIMBLK
  1

  9
$DIMASO
 70
     1
  9
$DIMSHO
 70
     0
  9
$DIMPOST
  1

  9
$DIMAPOST
  1

  9
$DIMALT
 70
     0
  9
$DIMALTD
 70
     2
  9
$DIMALTF
 40
25.4
  9
$DIMLFAC
 40
1.0
  9
$DIMTOFL
 70
     1
  9
$DIMTVP
 40
0.0
  9
$DIMTIX
 70
     0
  9
$DIMSOXD
 70
     0
  9
$DIMSAH
 70
     0
  9
$DIMBLK1
  1

  9
$DIMBLK2
  1

  9
$LUNITS
 70
     2
  9
$LUPREC
 70
     4
  9
$AXISMODE
 70
     0
  9
$AXISUNIT
 10
0.0
 20
0.0
  9
$SKETCHINC
 40
0.1
  9
$FILLETRAD
 40
0.0
  9
$AUNITS
 70
     0
  9
$AUPREC
 70
     0
  9
$MENU
  1
acad
  9
$ELEVATION
 40
0.0
  9
$THICKNESS
 40
0.0
  9
$LIMCHECK
 70
     0
  9
$BLIPMODE
 70
     1
  9
$CHAMFERA
 40
0.0
  9
$CHAMFERB
 40
0.0
  9
$SKPOLY
 70
     0
  9
$TDCREATE
 40
2449238.6710146992
  9
$TDUPDATE
 40
2449650.6495568287
  9
$TDINDWG
 40
0.0247825231
  9
$TDUSRTIMER
 40
0.0247825231
  9
$USRTIMER
 70
     1
  9
$ANGBASE
 50
0.0
  9
$ANGDIR
 70
     0
  9
$PDMODE
 70
     0
  9
$PDSIZE
 40
0.0
  9
$PLINEWID
 40
0.0
  9
$COORDS
 70
     0
  9
$SPLFRAME
 70
     0
  9
$SPLINETYPE
 70
     6
  9
$SPLINESEGS
 70
     8
  9
$ATTDIA
 70
     0
  9
$ATTREQ
 70
     1
  9
$HANDLING
 70
     0
  9
$HANDSEED
  5
0
  9
$SURFTAB1
 70
     6
  9
$SURFTAB2
 70
     6
  9
$SURFTYPE
 70
     6
  9
$SURFU
 70
     6
  9
$SURFV
 70
     6
  9
$FLATLAND
 70
     0
  9
$UCSNAME
  2

  9
$UCSORG
 10
0.0
 20
0.0
 30
0.0
  9
$UCSXDIR
 10
1.0
 20
0.0
 30
0.0
  9
$UCSYDIR
 10
0.0
 20
1.0
 30
0.0
  9
$USERI1
 70
     0
  9
$USERI2
 70
     0
  9
$USERI3
 70
     0
  9
$USERI4
 70
     0
  9
$USERI5
 70
     0
  9
$USERR1
 40
0.0
  9
$USERR2
 40
0.0
  9
$USERR3
 40
0.0
  9
$USERR4
 40
0.0
  9
$USERR5
 40
0.0
  9
$WORLDVIEW
 70
     1
  0
ENDSEC
  0
SECTION
  2
TABLES
  0
TABLE
  2
VPORT
 70
     2
  0
VPORT
  2
*ACTIVE
 70
     0
 10
0.0
 20
0.0
 11
1.0
 21
1.0
 12
327.597274
 22
238.822276
 13
0.0
 23
0.0
 14
1.0
 24
1.0
 15
0.0
 25
0.0
 16
0.0
 26
0.0
 36
1.0
 17
0.0
 27
0.0
 37
0.0
 40
550.182194
 41
1.5487
 42
50.0
 43
0.0
 44
0.0
 50
0.0
 51
0.0
 71
     0
 72
   100
 73
     1
 74
     0
 75
     0
 76
     0
 77
     0
 78
     0
  0
ENDTAB
  0
TABLE
  2
LTYPE
 70
     3
  0
LTYPE
  2
CONTINUOUS
 70
    64
  3
Solid line
 72
    65
 73
     0
 40
0.0
  0
LTYPE
  2
CENTER
 70
    64
  3
____ _ ____ _ ____
 72
    65
 73
     4
 40
8.0
 49
5.0
 49
-1.0
 49
1.0
 49
-1.0
  0
LTYPE
  2
PHANTOM
 70
    64
  3
____ _ _ ____ _ _ ____
 72
    65
 73
     6
 40
11.0
 49
3.0
 49
-2.0
 49
1.0
 49
-2.0
 49
1.0
 49
-2.0
  0
ENDTAB
  0
TABLE
  2
LAYER
 70
     3
  0
LAYER
  2
0
 70
     0
 62
     7
  6
CONTINUOUS
  0
LAYER
  2
L-ZISSEN
 70
    64
 62
     7
  6
CONTINUOUS
  0
LAYER
  2
L-TYUSIN
 70
    64
 62
     1
  6
CENTER
  0
ENDTAB
  0
TABLE
  2
STYLE
 70
     1
  0
STYLE
  2
STANDARD
 70
    64
 40
0.0
 41
1.0
 50
0.0
 71
     0
 42
4.5
  3
txt
  4

  0
ENDTAB
  0
TABLE
  2
VIEW
 70
     0
  0
ENDTAB
  0
TABLE
  2
UCS
 70
     0
  0
ENDTAB
  0
TABLE
  2
DWGMGR
 70
     0
  0
ENDTAB
  0
ENDSEC
  0
SECTION
  2
BLOCKS
  0
ENDSEC
  0
SECTION
  2
ENTITIES
  0
CIRCLE
  8
L-ZISSEN
 10
100.0
 20
101.0
 30
0.0
 40
4.283
  0
LINE
  8
L-TYUSIN
  6
CENTER
 62
     1
 10
100.0
 20
84.0
 30
0.0
 11
100.0
 21
269.0
 31
0.0
  0
LINE
  8
L-ZISSEN
  6
CONTINUOUS
 62
     7
 10
89.0
 20
193.7
 30
0.0
 11
89.0
 21
154.7
 31
0.0
  0
LINE
  8
L-ZISSEN
  6
CONTINUOUS
 62
     7
 10
111.0
 20
193.7
 30
0.0
 11
111.0
 21
154.7
 31
0.0
  0
LINE
  8
L-ZISSEN
  6
CONTINUOUS
 62
     7
 10
111.0
 20
154.7
 30
0.0
 11
89.0
 21
154.7
 31
0.0
  0
LINE
  8
L-ZISSEN
  6
CONTINUOUS
 62
     7
 10
71.0
 20
123.0
 30
0.0
 11
129.0
 21
123.0
 31
0.0
  0
LINE
  8
L-ZISSEN
 10
111.0
 20
106.0
 30
0.0
 11
129.0
 21
106.0
 31
0.0
  0
LINE
  8
L-ZISSEN
 10
71.0
 20
106.0
 30
0.0
 11
89.0
 21
106.0
 31
0.0
  0
ARC
  8
L-ZISSEN
 10
100.0
 20
100.0
 30
0.0
 40
11.0
 50
180.0
 51
0.0
  0
LINE
  8
L-TYUSIN
 10
91.475222
 20
101.0
 30
0.0
 11
108.524778
 21
101.0
 31
0.0
  0
LINE
  8
L-ZISSEN
 10
129.0
 20
100.0
 30
0.0
 11
127.0
 21
100.0
 31
0.0
  0
LINE
  8
L-ZISSEN
 10
89.045549
 20
100.0
 30
0.0
 11
83.0
 21
100.0
 31
0.0
  0
LINE
  8
L-ZISSEN
  6
CONTINUOUS
 62
     7
 10
71.0
 20
100.0
 30
0.0
 11
71.0
 21
150.8
 31
0.0
  0
LINE
  8
L-ZISSEN
  6
CONTINUOUS
 62
     7
 10
129.0
 20
150.8
 30
0.0
 11
129.0
 21
100.0
 31
0.0
  0
LINE
  8
L-ZISSEN
  6
CONTINUOUS
 62
     7
 10
124.0
 20
214.0
 30
0.0
 11
124.0
 21
138.0
 31
0.0
  0
LINE
  8
L-ZISSEN
  6
CONTINUOUS
 62
     7
 10
117.0
 20
138.0
 30
0.0
 11
127.0
 21
138.0
 31
0.0
  0
LINE
  8
L-ZISSEN
  6
CONTINUOUS
 62
     7
 10
117.0
 20
129.0
 30
0.0
 11
117.0
 21
138.0
 31
0.0
  0
LINE
  8
L-ZISSEN
  6
CONTINUOUS
 62
     7
 10
127.0
 20
138.0
 30
0.0
 11
127.0
 21
129.0
 31
0.0
  0
LINE
  8
L-ZISSEN
  6
CONTINUOUS
 62
     7
 10
83.0
 20
138.0
 30
0.0
 11
73.0
 21
138.0
 31
0.0
  0
LINE
  8
L-ZISSEN
  6
CONTINUOUS
 62
     7
 10
83.0
 20
129.0
 30
0.0
 11
83.0
 21
138.0
 31
0.0
  0
LINE
  8
L-ZISSEN
  6
CONTINUOUS
 62
     7
 10
71.0
 20
129.0
 30
0.0
 11
129.0
 21
129.0
 31
0.0
  0
LINE
  8
L-ZISSEN
  6
CONTINUOUS
 62
     7
 10
76.0
 20
138.0
 30
0.0
 11
76.0
 21
214.0
 31
0.0
  0
LINE
  8
L-ZISSEN
  6
CONTINUOUS
 62
     7
 10
55.0
 20
150.8
 30
0.0
 11
71.0
 21
150.8
 31
0.0
  0
LINE
  8
L-ZISSEN
  6
CONTINUOUS
 62
     7
 10
55.0
 20
148.4
 30
0.0
 11
71.0
 21
148.4
 31
0.0
  0
LINE
  8
L-ZISSEN
  6
CONTINUOUS
 62
     7
 10
55.0
 20
181.0
 30
0.0
 11
55.0
 21
148.4
 31
0.0
  0
ARC
  8
L-ZISSEN
  6
CONTINUOUS
 62
     7
 10
65.0
 20
171.0
 30
0.0
 40
4.5
 50
90.0
 51
270.0
  0
LINE
  8
L-ZISSEN
  6
CONTINUOUS
 62
     7
 10
75.0
 20
166.5
 30
0.0
 11
65.0
 21
166.5
 31
0.0
  0
LINE
  8
L-TYUSIN
  6
CENTER
 62
     1
 10
81.607556
 20
171.0
 30
0.0
 11
58.510678
 21
171.0
 31
0.0
  0
LINE
  8
L-ZISSEN
  6
CONTINUOUS
 62
     7
 10
76.0
 20
181.0
 30
0.0
 11
55.0
 21
181.0
 31
0.0
  0
LINE
  8
L-TYUSIN
  6
CENTER
 62
     1
 10
70.0
 20
177.136691
 30
0.0
 11
70.0
 21
164.815618
 31
0.0
  0
LINE
  8
L-ZISSEN
  6
CONTINUOUS
 62
     7
 10
65.0
 20
175.5
 30
0.0
 11
75.0
 21
175.5
 31
0.0
  0
LINE
  8
L-ZISSEN
  6
CONTINUOUS
 62
     7
 10
125.0
 20
175.5
 30
0.0
 11
135.0
 21
175.5
 31
0.0
  0
LINE
  8
L-TYUSIN
  6
CENTER
 62
     1
 10
142.316506
 20
171.0
 30
0.0
 11
118.342385
 21
171.0
 31
0.0
  0
LINE
  8
L-TYUSIN
  6
CENTER
 62
     1
 10
130.0
 20
177.123749
 30
0.0
 11
130.0
 21
164.674538
 31
0.0
  0
LINE
  8
L-ZISSEN
  6
CONTINUOUS
 62
     7
 10
135.0
 20
166.5
 30
0.0
 11
125.0
 21
166.5
 31
0.0
  0
ARC
  8
L-ZISSEN
  6
CONTINUOUS
 62
     7
 10
135.0
 20
171.0
 30
0.0
 40
4.5
 50
270.0
 51
90.0
  0
LINE
  8
L-ZISSEN
  6
CONTINUOUS
 62
     7
 10
145.0
 20
181.0
 30
0.0
 11
124.0
 21
181.0
 31
0.0
  0
LINE
  8
L-ZISSEN
  6
CONTINUOUS
 62
     7
 10
145.0
 20
181.0
 30
0.0
 11
145.0
 21
148.614839
 31
0.0
  0
LINE
  8
L-ZISSEN
  6
CONTINUOUS
 62
     7
 10
129.0
 20
148.4
 30
0.0
 11
145.0
 21
148.4
 31
0.0
  0
LINE
  8
L-ZISSEN
  6
CONTINUOUS
 62
     7
 10
129.0
 20
150.8
 30
0.0
 11
145.0
 21
150.8
 31
0.0
  0
LINE
  8
L-ZISSEN
  6
CONTINUOUS
 62
     7
 10
136.7
 20
200.95
 30
0.0
 11
132.7
 21
200.95
 31
0.0
  0
LINE
  8
L-ZISSEN
  6
CONTINUOUS
 62
     7
 10
136.7
 20
200.95
 30
0.0
 11
136.7
 21
207.45
 31
0.0
  0
LINE
  8
L-ZISSEN
  6
CONTINUOUS
 62
     7
 10
136.7
 20
207.45
 30
0.0
 11
132.7
 21
207.45
 31
0.0
  0
LINE
  8
L-ZISSEN
  6
CONTINUOUS
 62
     7
 10
79.0
 20
205.7
 30
0.0
 11
121.0
 21
205.7
 31
0.0
  0
LINE
  8
L-ZISSEN
  6
CONTINUOUS
 62
     7
 10
79.0
 20
193.7
 30
0.0
 11
121.0
 21
193.7
 31
0.0
  0
LINE
  8
L-ZISSEN
  6
CONTINUOUS
 62
     7
 10
79.0
 20
193.7
 30
0.0
 11
79.0
 21
214.0
 31
0.0
  0
LINE
  8
L-ZISSEN
  6
CONTINUOUS
 62
     7
 10
59.75
 20
214.0
 30
0.0
 11
124.75
 21
214.0
 31
0.0
  0
LINE
  8
L-ZISSEN
  6
CONTINUOUS
 62
     7
 10
59.75
 20
253.0
 30
0.0
 11
59.75
 21
214.0
 31
0.0
  0
ARC
  8
L-ZISSEN
  6
CONTINUOUS
 62
     7
 10
70.75
 20
253.0
 30
0.0
 40
11.0
 50
90.0
 51
180.0
  0
LINE
  8
L-ZISSEN
  6
CONTINUOUS
 62
     7
 10
113.75
 20
264.0
 30
0.0
 11
70.75
 21
264.0
 31
0.0
  0
ARC
  8
L-ZISSEN
  6
CONTINUOUS
 62
     7
 10
113.75
 20
253.0
 30
0.0
 40
11.0
 50
0.0
 51
90.0
  0
LINE
  8
L-ZISSEN
  6
CONTINUOUS
 62
     7
 10
124.75
 20
214.0
 30
0.0
 11
124.75
 21
253.0
 31
0.0
  0
LINE
  8
L-ZISSEN
  6
CONTINUOUS
 62
     7
 10
121.0
 20
193.7
 30
0.0
 11
121.0
 21
214.0
 31
0.0
  0
LINE
  8
L-ZISSEN
  6
CONTINUOUS
 62
     7
 10
130.2
 20
200.2
 30
0.0
 11
130.2
 21
208.2
 31
0.0
  0
LINE
  8
L-ZISSEN
  6
CONTINUOUS
 62
     7
 10
130.2
 20
200.2
 30
0.0
 11
126.0
 21
200.2
 31
0.0
  0
LINE
  8
L-ZISSEN
  6
CONTINUOUS
 62
     7
 10
130.2
 20
208.2
 30
0.0
 11
126.0
 21
208.2
 31
0.0
  0
LINE
  8
L-ZISSEN
  6
CONTINUOUS
 62
     7
 10
126.0
 20
199.2
 30
0.0
 11
126.0
 21
209.2
 31
0.0
  0
LINE
  8
L-ZISSEN
  6
CONTINUOUS
 62
     7
 10
126.0
 20
209.2
 30
0.0
 11
124.008142
 21
210.35
 31
0.0
  0
LINE
  8
L-ZISSEN
  6
CONTINUOUS
 62
     7
 10
126.0
 20
199.2
 30
0.0
 11
124.008142
 21
198.05
 31
0.0
  0
LINE
  8
L-ZISSEN
  6
CONTINUOUS
 62
     7
 10
132.7
 20
207.45
 30
0.0
 11
132.7
 21
200.95
 31
0.0
  0
LINE
  8
L-ZISSEN
  6
CONTINUOUS
 62
     7
 10
274.5
 20
193.7
 30
0.0
 11
274.5
 21
138.0
 31
0.0
  0
LINE
  8
L-ZISSEN
  6
CONTINUOUS
 62
     7
 10
274.5
 20
193.7
 30
0.0
 11
288.0
 21
193.7
 31
0.0
  0
LINE
  8
L-ZISSEN
  6
CONTINUOUS
 62
     7
 10
279.0
 20
206.2
 30
0.0
 11
288.0
 21
206.2
 31
0.0
  0
LINE
  8
L-ZISSEN
  6
CONTINUOUS
 62
     7
 10
358.0
 20
214.0
 30
0.0
 11
278.0
 21
214.0
 31
0.0
  0
LINE
  8
L-ZISSEN
  6
CONTINUOUS
 62
     7
 10
288.0
 20
193.7
 30
0.0
 11
288.0
 21
214.0
 31
0.0
  0
LINE
  8
L-ZISSEN
  6
CONTINUOUS
 62
     7
 10
278.0
 20
214.0
 30
0.0
 11
278.0
 21
253.0
 31
0.0
  0
ARC
  8
L-ZISSEN
  6
CONTINUOUS
 62
     7
 10
289.0
 20
253.0
 30
0.0
 40
11.0
 50
90.0
 51
180.0
  0
LINE
  8
L-ZISSEN
  6
CONTINUOUS
 62
     7
 10
289.0
 20
264.0
 30
0.0
 11
347.0
 21
264.0
 31
0.0
  0
LINE
  8
L-TYUSIN
  6
CENTER
 62
     1
 10
300.0
 20
84.0
 30
0.0
 11
300.0
 21
269.0
 31
0.0
  0
ARC
  8
L-ZISSEN
  6
CONTINUOUS
 62
     7
 10
347.0
 20
253.0
 30
0.0
 40
11.0
 50
0.0
 51
90.0
  0
LINE
  8
L-ZISSEN
  6
CONTINUOUS
 62
     7
 10
321.0
 20
193.7
 30
0.0
 11
321.0
 21
206.2
 31
0.0
  0
LINE
  8
L-ZISSEN
  6
CONTINUOUS
 62
     7
 10
321.0
 20
206.2
 30
0.0
 11
312.0
 21
206.2
 31
0.0
  0
LINE
  8
L-ZISSEN
  6
CONTINUOUS
 62
     7
 10
312.0
 20
214.0
 30
0.0
 11
312.0
 21
193.7
 31
0.0
  0
LINE
  8
L-ZISSEN
  6
CONTINUOUS
 62
     7
 10
312.0
 20
193.7
 30
0.0
 11
324.0
 21
193.7
 31
0.0
  0
LINE
  8
L-ZISSEN
  6
CONTINUOUS
 62
     7
 10
324.0
 20
193.7
 30
0.0
 11
324.0
 21
144.0
 31
0.0
  0
LINE
  8
L-ZISSEN
  6
CONTINUOUS
 62
     7
 10
273.0
 20
138.0
 30
0.0
 11
327.0
 21
138.0
 31
0.0
  0
LINE
  8
L-ZISSEN
  6
CONTINUOUS
 62
     7
 10
271.0
 20
129.0
 30
0.0
 11
330.0
 21
129.0
 31
0.0
  0
LINE
  8
L-ZISSEN
  6
CONTINUOUS
 62
     7
 10
271.0
 20
123.0
 30
0.0
 11
330.0
 21
123.0
 31
0.0
  0
LINE
  8
L-ZISSEN
  6
CONTINUOUS
 62
     7
 10
329.0
 20
112.0
 30
0.0
 11
271.0
 21
112.0
 31
0.0
  0
LINE
  8
L-TYUSIN
 10
281.04497
 20
101.0
 30
0.0
 11
263.805283
 21
101.0
 31
0.0
  0
LINE
  8
L-ZISSEN
 10
329.0
 20
100.0
 30
0.0
 11
327.0
 21
100.0
 31
0.0
  0
LINE
  8
L-ZISSEN
 10
271.0
 20
129.0
 30
0.0
 11
271.0
 21
89.0
 31
0.0
  0
LINE
  8
L-ZISSEN
  6
CONTINUOUS
 62
     7
 10
273.0
 20
129.0
 30
0.0
 11
273.0
 21
138.0
 31
0.0
  0
LINE
  8
L-ZISSEN
  6
CONTINUOUS
 62
     7
 10
327.0
 20
138.0
 30
0.0
 11
327.0
 21
129.0
 31
0.0
  0
LINE
  8
L-ZISSEN
  6
CONTINUOUS
 62
     7
 10
330.0
 20
123.0
 30
0.0
 11
330.0
 21
151.02482
 31
0.0
  0
LINE
  8
L-ZISSEN
 10
329.0
 20
123.0
 30
0.0
 11
329.0
 21
100.0
 31
0.0
  0
LINE
  8
L-ZISSEN
 10
271.0
 20
89.0
 30
0.0
 11
311.384128
 21
89.0
 31
0.0
  0
LINE
  8
L-ZISSEN
  6
CONTINUOUS
 62
     7
 10
330.0
 20
151.02482
 30
0.0
 11
363.7
 21
151.02482
 31
0.0
  0
LINE
  8
L-ZISSEN
  6
CONTINUOUS
 62
     7
 10
366.0
 20
148.677406
 30
0.0
 11
332.3
 21
148.677406
 31
0.0
  0
LINE
  8
L-ZISSEN
  6
CONTINUOUS
 62
     7
 10
339.0
 20
132.475
 30
0.0
 11
332.3
 21
132.475
 31
0.0
  0
LINE
  8
L-ZISSEN
  6
CONTINUOUS
 62
     7
 10
339.0
 20
143.525
 30
0.0
 11
332.3
 21
143.525
 31
0.0
  0
LINE
  8
L-ZISSEN
  6
CONTINUOUS
 62
     7
 10
339.0
 20
143.525
 30
0.0
 11
339.0
 21
132.475
 31
0.0
  0
LINE
  8
L-ZISSEN
  6
CONTINUOUS
 62
     7
 10
332.3
 20
148.677406
 30
0.0
 11
332.3
 21
128.0
 31
0.0
  0
LINE
  8
L-ZISSEN
  6
CONTINUOUS
 62
     7
 10
358.0
 20
253.0
 30
0.0
 11
358.0
 21
214.0
 31
0.0
  0
LINE
  8
L-ZISSEN
  6
CONTINUOUS
 62
     7
 10
363.7
 20
151.02482
 30
0.0
 11
363.7
 21
181.0
 31
0.0
  0
LINE
  8
L-TYUSIN
  6
CENTER
 62
     1
 10
375.241972
 20
171.0
 30
0.0
 11
355.787014
 21
171.0
 31
0.0
  0
LINE
  8
L-ZISSEN
  6
CONTINUOUS
 62
     7
 10
366.0
 20
181.0
 30
0.0
 11
366.0
 21
148.677406
 31
0.0
  0
LINE
  8
L-ZISSEN
  6
CONTINUOUS
 62
     7
 10
279.0
 20
193.7
 30
0.0
 11
279.0
 21
206.2
 31
0.0
  0
CIRCLE
  8
L-ZISSEN
  6
CONTINUOUS
 62
     7
 10
300.0
 20
204.2
 30
0.0
 40
5.0
  0
LINE
  8
L-ZISSEN
  6
CONTINUOUS
 62
     7
 10
145.0
 20
427.0
 30
0.0
 11
55.0
 21
427.0
 31
0.0
  0
LINE
  8
L-ZISSEN
  6
CONTINUOUS
 62
     7
 10
145.0
 20
424.7
 30
0.0
 11
55.0
 21
424.7
 31
0.0
  0
LINE
  8
L-ZISSEN
  6
CONTINUOUS
 62
     7
 10
61.521249
 20
413.133363
 30
0.0
 11
55.0
 21
424.7
 31
0.0
  0
ARC
  8
L-ZISSEN
  6
CONTINUOUS
 62
     7
 10
71.25
 20
408.0
 30
0.0
 40
11.0
 50
90.0
 51
180.0
  0
LINE
  8
L-ZISSEN
  6
CONTINUOUS
 62
     7
 10
114.25
 20
419.0
 30
0.0
 11
71.25
 21
419.0
 31
0.0
  0
LINE
  8
L-TYUSIN
  6
CENTER
 62
     1
 10
100.0
 20
327.0
 30
0.0
 11
100.0
 21
432.0
 31
0.0
  0
ARC
  8
L-ZISSEN
  6
CONTINUOUS
 62
     7
 10
114.25
 20
408.0
 30
0.0
 40
11.0
 50
0.0
 51
90.0
  0
LINE
  8
L-ZISSEN
  6
CONTINUOUS
 62
     7
 10
125.25
 20
350.0
 30
0.0
 11
125.25
 21
408.0
 31
0.0
  0
LINE
  8
L-ZISSEN
  6
CONTINUOUS
 62
     7
 10
60.25
 20
350.0
 30
0.0
 11
60.25
 21
408.0
 31
0.0
  0
LINE
  8
L-TYUSIN
  6
CENTER
 62
     1
 10
55.0
 20
361.0
 30
0.0
 11
141.7
 21
361.0
 31
0.0
  0
ARC
  8
L-ZISSEN
  6
CONTINUOUS
 62
     7
 10
71.25
 20
350.0
 30
0.0
 40
11.0
 50
180.0
 51
270.0
  0
LINE
  8
L-ZISSEN
  6
CONTINUOUS
 62
     7
 10
71.25
 20
339.0
 30
0.0
 11
114.25
 21
339.0
 31
0.0
  0
ARC
  8
L-ZISSEN
  6
CONTINUOUS
 62
     7
 10
114.25
 20
350.0
 30
0.0
 40
11.0
 50
270.0
 51
0.0
  0
LINE
  8
L-ZISSEN
  6
CONTINUOUS
 62
     7
 10
122.0
 20
332.0
 30
0.0
 11
78.0
 21
332.0
 31
0.0
  0
ARC
  8
L-ZISSEN
  6
CONTINUOUS
 62
     7
 10
122.0
 20
339.0
 30
0.0
 40
7.0
 50
270.0
 51
0.0
  0
LINE
  8
L-ZISSEN
  6
CONTINUOUS
 62
     7
 10
129.0
 20
339.0
 30
0.0
 11
129.0
 21
357.535898
 31
0.0
  0
ARC
  8
L-ZISSEN
  6
CONTINUOUS
 62
     7
 10
78.0
 20
339.0
 30
0.0
 40
7.0
 50
180.0
 51
270.0
  0
LINE
  8
L-ZISSEN
  6
CONTINUOUS
 62
     7
 10
129.0
 20
364.464102
 30
0.0
 11
129.0
 21
383.0
 31
0.0
  0
LINE
  8
L-ZISSEN
  6
CONTINUOUS
 62
     7
 10
125.25
 20
389.669737
 30
0.0
 11
145.0
 21
424.7
 31
0.0
  0
ARC
  8
L-ZISSEN
  6
CONTINUOUS
 62
     7
 10
122.0
 20
383.0
 30
0.0
 40
7.0
 50
0.0
 51
62.335996
  0
LINE
  8
L-ZISSEN
  6
CONTINUOUS
 62
     7
 10
145.0
 20
427.0
 30
0.0
 11
145.0
 21
424.7
 31
0.0
  0
LINE
  8
L-ZISSEN
  6
CONTINUOUS
 62
     7
 10
126.0
 20
356.0
 30
0.0
 11
126.0
 21
366.0
 31
0.0
  0
LINE
  8
L-ZISSEN
  6
CONTINUOUS
 62
     7
 10
126.0
 20
366.0
 30
0.0
 11
125.25
 21
366.433013
 31
0.0
  0
LINE
  8
L-ZISSEN
  6
CONTINUOUS
 62
     7
 10
126.0
 20
356.0
 30
0.0
 11
125.25
 21
355.566987
 31
0.0
  0
LINE
  8
L-ZISSEN
  6
CONTINUOUS
 62
     7
 10
126.0
 20
357.535898
 30
0.0
 11
130.2
 21
357.535898
 31
0.0
  0
LINE
  8
L-ZISSEN
  6
CONTINUOUS
 62
     7
 10
130.2
 20
364.464102
 30
0.0
 11
130.2
 21
357.535898
 31
0.0
  0
LINE
  8
L-ZISSEN
  6
CONTINUOUS
 62
     7
 10
130.2
 20
364.464102
 30
0.0
 11
126.0
 21
364.464102
 31
0.0
  0
LINE
  8
L-ZISSEN
  6
CONTINUOUS
 62
     7
 10
132.7
 20
363.0
 30
0.0
 11
130.2
 21
363.0
 31
0.0
  0
LINE
  8
L-ZISSEN
  6
CONTINUOUS
 62
     7
 10
132.7
 20
359.0
 30
0.0
 11
130.2
 21
359.0
 31
0.0
  0
LINE
  8
L-ZISSEN
  6
CONTINUOUS
 62
     7
 10
132.7
 20
357.75
 30
0.0
 11
132.7
 21
364.25
 31
0.0
  0
LINE
  8
L-ZISSEN
  6
CONTINUOUS
 62
     7
 10
136.7
 20
364.25
 30
0.0
 11
136.7
 21
357.75
 31
0.0
  0
LINE
  8
L-ZISSEN
  6
CONTINUOUS
 62
     7
 10
136.7
 20
357.75
 30
0.0
 11
132.7
 21
357.75
 31
0.0
  0
LINE
  8
L-ZISSEN
  6
CONTINUOUS
 62
     7
 10
136.7
 20
364.25
 30
0.0
 11
132.7
 21
364.25
 31
0.0
  0
LINE
  8
L-ZISSEN
  6
CONTINUOUS
 62
     7
 10
71.0
 20
112.0
 30
0.0
 11
129.0
 21
112.0
 31
0.0
  0
LINE
  8
L-ZISSEN
 10
111.0
 20
89.0
 30
0.0
 11
111.0
 21
106.0
 31
0.0
  0
LINE
  8
L-ZISSEN
 10
89.0
 20
89.0
 30
0.0
 11
89.0
 21
106.0
 31
0.0
  0
LINE
  8
L-ZISSEN
  6
CONTINUOUS
 62
     7
 10
73.0
 20
138.0
 30
0.0
 11
73.0
 21
129.0
 31
0.0
  0
LINE
  8
L-ZISSEN
  6
CONTINUOUS
 62
     7
 10
55.0
 20
427.0
 30
0.0
 11
55.0
 21
424.7
 31
0.0
  0
LINE
  8
L-ZISSEN
  6
CONTINUOUS
 62
     7
 10
132.7
 20
202.2
 30
0.0
 11
130.2
 21
202.2
 31
0.0
  0
LINE
  8
L-ZISSEN
  6
CONTINUOUS
 62
     7
 10
132.7
 20
206.2
 30
0.0
 11
130.2
 21
206.2
 31
0.0
  0
LINE
  8
L-ZISSEN
 10
311.384128
 20
100.0
 30
0.0
 11
311.384128
 21
89.0
 31
0.0
  0
LINE
  8
L-ZISSEN
 10
324.0
 20
144.0
 30
0.0
 11
330.0
 21
144.0
 31
0.0
  0
LINE
  8
L-ZISSEN
 10
363.7
 20
181.0
 30
0.0
 11
366.0
 21
181.0
 31
0.0
  0
LINE
  8
L-ZISSEN
 10
332.3
 20
128.0
 30
0.0
 11
330.0
 21
128.0
 31
0.0
  0
LINE
  8
L-ZISSEN
 10
83.0
 20
106.0
 30
0.0
 11
83.0
 21
98.5
 31
0.0
  0
LINE
  8
L-ZISSEN
 10
83.0
 20
98.5
 30
0.0
 11
73.0
 21
98.5
 31
0.0
  0
LINE
  8
L-ZISSEN
 10
73.0
 20
106.0
 30
0.0
 11
73.0
 21
98.5
 31
0.0
  0
LINE
  8
L-ZISSEN
 10
73.0
 20
100.0
 30
0.0
 11
71.0
 21
100.0
 31
0.0
  0
LINE
  8
L-ZISSEN
 10
127.0
 20
106.0
 30
0.0
 11
127.0
 21
98.5
 31
0.0
  0
LINE
  8
L-ZISSEN
 10
117.0
 20
98.5
 30
0.0
 11
127.0
 21
98.5
 31
0.0
  0
LINE
  8
L-ZISSEN
 10
117.0
 20
106.0
 30
0.0
 11
117.0
 21
98.5
 31
0.0
  0
LINE
  8
L-ZISSEN
 10
117.0
 20
100.0
 30
0.0
 11
110.954451
 21
100.0
 31
0.0
  0
LINE
  8
L-ZISSEN
 10
273.0
 20
106.0
 30
0.0
 11
273.0
 21
98.5
 31
0.0
  0
LINE
  8
L-ZISSEN
 10
283.0
 20
98.5
 30
0.0
 11
273.0
 21
98.5
 31
0.0
  0
LINE
  8
L-ZISSEN
 10
283.0
 20
106.0
 30
0.0
 11
283.0
 21
98.5
 31
0.0
  0
LINE
  8
L-ZISSEN
 10
317.0
 20
106.0
 30
0.0
 11
317.0
 21
98.5
 31
0.0
  0
LINE
  8
L-ZISSEN
 10
317.0
 20
98.5
 30
0.0
 11
327.0
 21
98.5
 31
0.0
  0
LINE
  8
L-ZISSEN
 10
327.0
 20
106.0
 30
0.0
 11
327.0
 21
98.5
 31
0.0
  0
LINE
  8
L-ZISSEN
 10
271.0
 20
106.0
 30
0.0
 11
329.0
 21
106.0
 31
0.0
  0
LINE
  8
L-ZISSEN
 10
273.0
 20
100.0
 30
0.0
 11
271.0
 21
100.0
 31
0.0
  0
LINE
  8
L-ZISSEN
 10
317.0
 20
100.0
 30
0.0
 11
283.0
 21
100.0
 31
0.0
  0
SOLID
  8
L-ZISSEN
 10
68.349998
 20
215.669912
 30
0.0
 11
67.870567
 21
215.206673
 31
0.0
 12
69.5
 22
214.0
 32
0.0
 13
69.5
 23
214.0
 33
0.0
  0
LINE
  8
L-ZISSEN
 10
68.110282
 20
215.438292
 30
0.0
 11
32.931858
 21
251.846297
 31
0.0
  0
LINE
  8
L-ZISSEN
 10
32.931858
 20
251.846297
 30
0.0
 11
30.931858
 21
251.846297
 31
0.0
  0
TEXT
  8
L-ZISSEN
 10
19.931858
 20
249.596297
 30
0.0
 40
4.5
  1
P.P
  0
TEXT
  8
L-ZISSEN
 10
287.932381
 20
384.596297
 30
0.0
 40
4.5
  1
P.P
  0
LINE
  8
L-ZISSEN
 10
300.932381
 20
386.846297
 30
0.0
 11
298.932381
 21
386.846297
 31
0.0
  0
LINE
  8
L-ZISSEN
 10
336.110805
 20
350.438292
 30
0.0
 11
300.932381
 21
386.846297
 31
0.0
  0
SOLID
  8
L-ZISSEN
 10
336.350521
 20
350.669912
 30
0.0
 11
335.87109
 21
350.206673
 31
0.0
 12
337.500523
 22
349.0
 32
0.0
 13
337.500523
 23
349.0
 33
0.0
  0
POLYLINE
  8
L-ZISSEN
  6
CONTINUOUS
 62
     7
 66
     1
 10
0.0
 20
0.0
 30
0.0
  0
VERTEX
  8
L-ZISSEN
  6
CONTINUOUS
 62
     7
 10
337.500523
 20
345.0
 30
0.0
 42
-0.126822
  0
VERTEX
  8
L-ZISSEN
  6
CONTINUOUS
 62
     7
 10
336.399765
 20
345.283765
 30
0.0
 42
-0.10607
  0
VERTEX
  8
L-ZISSEN
  6
CONTINUOUS
 62
     7
 10
335.379203
 20
346.171573
 30
0.0
 42
-0.085783
 70
     2
 50
53.130102
  0
VERTEX
  8
L-ZISSEN
  6
CONTINUOUS
 62
     7
 10
334.673863
 20
347.552071
 30
0.0
 42
-0.091282
  0
VERTEX
  8
L-ZISSEN
  6
CONTINUOUS
 62
     7
 10
334.500523
 20
349.0
 30
0.0
 42
-0.075445
  0
SEQEND
  8
L-ZISSEN
  6
PHANTOM
 62
     2
  0
POLYLINE
  8
L-ZISSEN
  6
CONTINUOUS
 62
     7
 66
     1
 10
0.0
 20
0.0
 30
0.0
  0
VERTEX
  8
L-ZISSEN
  6
CONTINUOUS
 62
     7
 10
337.500523
 20
345.0
 30
0.0
 42
0.126822
  0
VERTEX
  8
L-ZISSEN
  6
CONTINUOUS
 62
     7
 10
338.601281
 20
345.283765
 30
0.0
 42
0.10607
  0
VERTEX
  8
L-ZISSEN
  6
CONTINUOUS
 62
     7
 10
339.621843
 20
346.171573
 30
0.0
 42
0.085783
 70
     2
 50
53.130102
  0
VERTEX
  8
L-ZISSEN
  6
CONTINUOUS
 62
     7
 10
340.327183
 20
347.552071
 30
0.0
 42
0.091282
 50
53.130102
  0
VERTEX
  8
L-ZISSEN
  6
CONTINUOUS
 62
     7
 10
340.500523
 20
349.0
 30
0.0
 42
0.075445
  0
SEQEND
  8
L-ZISSEN
  6
PHANTOM
 62
     2
  0
SOLID
  8
L-ZISSEN
 10
101.857612
 20
101.812642
 30
0.0
 11
101.493641
 21
102.371184
 31
0.0
 12
100.0
 22
101.0
 32
0.0
 13
100.0
 23
101.0
 33
0.0
  0
LINE
  8
L-ZISSEN
 10
101.675627
 20
102.091913
 30
0.0
 11
162.681858
 21
141.846297
 31
0.0
  0
LINE
  8
L-ZISSEN
 10
162.681858
 20
141.846297
 30
0.0
 11
164.681858
 21
141.846297
 31
0.0
  0
TEXT
  8
L-ZISSEN
 10
166.681858
 20
139.596297
 30
0.0
 40
4.5
  1
P.P
  0
SOLID
  8
L-ZISSEN
 10
269.773561
 20
102.614608
 30
0.0
 11
269.316198
 21
102.129567
 31
0.0
 12
271.0
 22
101.0
 32
0.0
 13
271.0
 23
101.0
 33
0.0
  0
LINE
  8
L-ZISSEN
 10
269.544879
 20
102.372088
 30
0.0
 11
227.681858
 21
141.846297
 31
0.0
  0
LINE
  8
L-ZISSEN
 10
227.681858
 20
141.846297
 30
0.0
 11
225.681858
 21
141.846297
 31
0.0
  0
TEXT
  8
L-ZISSEN
 10
214.681858
 20
139.596297
 30
0.0
 40
4.5
  1
P.P
  0
SOLID
  8
L-ZISSEN
 10
101.353329
 20
330.490161
 30
0.0
 11
101.769853
 21
331.010692
 31
0.0
 12
100.0
 22
332.0
 32
0.0
 13
100.0
 23
332.0
 33
0.0
  0
LINE
  8
L-ZISSEN
 10
101.561591
 20
330.750427
 30
0.0
 11
142.681858
 21
297.846297
 31
0.0
  0
LINE
  8
L-ZISSEN
 10
142.681858
 20
297.846297
 30
0.0
 11
144.681858
 21
297.846297
 31
0.0
  0
TEXT
  8
L-ZISSEN
 10
146.681858
 20
295.596297
 30
0.0
 40
4.5
  1
P.P
  0
LINE
  8
L-ZISSEN
 10
505.377745
 20
230.846297
 30
0.0
 11
505.377745
 21
219.404563
 31
0.0
  0
LINE
  8
L-ZISSEN
 10
495.649745
 20
230.846297
 30
0.0
 11
495.649745
 21
219.404563
 31
0.0
  0
LINE
  8
L-ZISSEN
 10
608.513745
 20
131.710297
 30
0.0
 11
597.513745
 21
131.710297
 31
0.0
  0
LINE
  8
L-ZISSEN
 10
608.513745
 20
121.982297
 30
0.0
 11
597.513745
 21
121.982297
 31
0.0
  0
LINE
  8
L-ZISSEN
  6
CONTINUOUS
 62
     7
 10
597.513745
 20
118.346297
 30
0.0
 11
543.513745
 21
118.346297
 31
0.0
  0
LINE
  8
L-ZISSEN
  6
CONTINUOUS
 62
     7
 10
543.513745
 20
141.846297
 30
0.0
 11
543.513745
 21
118.346297
 31
0.0
  0
LINE
  8
L-ZISSEN
  6
CONTINUOUS
 62
     7
 10
543.513745
 20
141.846297
 30
0.0
 11
597.513745
 21
141.846297
 31
0.0
  0
LINE
  8
L-ZISSEN
  6
CONTINUOUS
 62
     7
 10
597.513745
 20
141.846297
 30
0.0
 11
597.513745
 21
118.346297
 31
0.0
  0
LINE
  8
L-ZISSEN
 10
493.442677
 20
185.775229
 30
0.0
 11
514.65588
 21
206.988433
 31
0.0
  0
LINE
  8
L-ZISSEN
 10
505.584812
 20
318.917365
 30
0.0
 11
484.371609
 21
297.704161
 31
0.0
  0
LINE
  8
L-ZISSEN
 10
578.513745
 20
306.982297
 30
0.0
 11
567.013745
 21
306.982297
 31
0.0
  0
LINE
  8
L-ZISSEN
 10
578.513745
 20
316.710297
 30
0.0
 11
567.013745
 21
316.710297
 31
0.0
  0
SOLID
  8
L-ZISSEN
 10
504.232624
 20
229.229393
 30
0.0
 11
504.556005
 21
230.522916
 31
0.0
 12
500.513745
 22
230.846297
 32
0.0
 13
500.513745
 23
230.846297
 33
0.0
  0
LINE
  8
L-ZISSEN
 10
504.394315
 20
229.876154
 30
0.0
 11
528.513745
 21
223.846297
 31
0.0
  0
LINE
  8
L-ZISSEN
 10
528.513745
 20
223.846297
 30
0.0
 11
532.513745
 21
223.846297
 31
0.0
  0
TEXT
  8
L-ZISSEN
 10
536.513745
 20
221.596297
 30
0.0
 40
4.5
  1
P.P
  0
CIRCLE
  8
L-ZISSEN
 10
500.513745
 20
192.846297
 30
0.0
 40
27.0
  0
SOLID
  8
L-ZISSEN
 10
497.214739
 20
129.204475
 30
0.0
 11
496.628249
 21
128.007058
 31
0.0
 12
500.513745
 22
126.846297
 32
0.0
 13
500.513745
 23
126.846297
 33
0.0
  0
LINE
  8
L-ZISSEN
 10
496.921494
 20
128.605767
 30
0.0
 11
451.513745
 21
150.846297
 31
0.0
  0
LINE
  8
L-ZISSEN
 10
451.513745
 20
150.846297
 30
0.0
 11
448.513745
 21
150.846297
 31
0.0
  0
TEXT
  8
L-ZISSEN
 10
434.870887
 20
148.596297
 30
0.0
 40
4.5
  1
P.P
  0
LINE
  8
L-ZISSEN
  6
CONTINUOUS
 62
     7
 10
527.513745
 20
141.846297
 30
0.0
 11
527.513745
 21
118.346297
 31
0.0
  0
LINE
  8
L-ZISSEN
  6
CONTINUOUS
 62
     7
 10
527.513745
 20
118.346297
 30
0.0
 11
473.513745
 21
118.346297
 31
0.0
  0
LINE
  8
L-ZISSEN
  6
CONTINUOUS
 62
     7
 10
473.513745
 20
141.846297
 30
0.0
 11
473.513745
 21
118.346297
 31
0.0
  0
LINE
  8
L-ZISSEN
  6
CONTINUOUS
 62
     7
 10
473.513745
 20
141.846297
 30
0.0
 11
527.513745
 21
141.846297
 31
0.0
  0
TEXT
  8
L-ZISSEN
 10
433.513745
 20
426.846297
 30
0.0
 40
4.5
  1
OPTION
  0
TEXT
  8
L-ZISSEN
 10
432.870887
 20
333.596297
 30
0.0
 40
4.5
  1
P.P
  0
LINE
  8
L-ZISSEN
 10
449.513745
 20
335.846297
 30
0.0
 11
446.513745
 21
335.846297
 31
0.0
  0
SOLID
  8
L-ZISSEN
 10
495.214739
 20
314.204475
 30
0.0
 11
494.628249
 21
313.007058
 31
0.0
 12
498.513745
 22
311.846297
 32
0.0
 13
498.513745
 23
311.846297
 33
0.0
  0
LINE
  8
L-ZISSEN
 10
494.921494
 20
313.605767
 30
0.0
 11
449.513745
 21
335.846297
 31
0.0
  0
CIRCLE
  8
L-ZISSEN
 10
498.513745
 20
311.846297
 30
0.0
 40
27.0
  0
TEXT
  8
L-ZISSEN
 10
580.870887
 20
160.596297
 30
0.0
 40
4.5
  1
P.P
  0
LINE
  8
L-ZISSEN
 10
597.513745
 20
162.846297
 30
0.0
 11
594.513745
 21
162.846297
 31
0.0
  0
LINE
  8
L-ZISSEN
 10
607.34487
 20
130.671703
 30
0.0
 11
597.513745
 21
162.846297
 31
0.0
  0
SOLID
  8
L-ZISSEN
 10
607.982438
 20
130.866516
 30
0.0
 11
606.707303
 21
130.476891
 31
0.0
 12
608.513745
 22
126.846297
 32
0.0
 13
608.513745
 23
126.846297
 33
0.0
  0
TEXT
  8
L-ZISSEN
 10
550.870887
 20
345.596297
 30
0.0
 40
4.5
  1
P.P
  0
LINE
  8
L-ZISSEN
 10
567.513745
 20
347.846297
 30
0.0
 11
564.513745
 21
347.846297
 31
0.0
  0
LINE
  8
L-ZISSEN
 10
577.34487
 20
315.671703
 30
0.0
 11
567.513745
 21
347.846297
 31
0.0
  0
SOLID
  8
L-ZISSEN
 10
577.982438
 20
315.866516
 30
0.0
 11
576.707303
 21
315.476891
 31
0.0
 12
578.513745
 22
311.846297
 32
0.0
 13
578.513745
 23
311.846297
 33
0.0
  0
LINE
  8
L-ZISSEN
  6
CONTINUOUS
 62
     7
 10
543.513745
 20
338.846297
 30
0.0
 11
567.013745
 21
338.846297
 31
0.0
  0
LINE
  8
L-ZISSEN
  6
CONTINUOUS
 62
     7
 10
567.013745
 20
338.846297
 30
0.0
 11
567.013745
 21
284.846297
 31
0.0
  0
LINE
  8
L-ZISSEN
  6
CONTINUOUS
 62
     7
 10
543.513745
 20
284.846297
 30
0.0
 11
567.013745
 21
284.846297
 31
0.0
  0
LINE
  8
L-ZISSEN
  6
CONTINUOUS
 62
     7
 10
543.513745
 20
284.846297
 30
0.0
 11
543.513745
 21
338.846297
 31
0.0
  0
LINE
  8
L-TYUSIN
 10
404.0785
 20
441.569322
 30
0.0
 11
404.0785
 21
88.505877
 31
0.0
  0
LINE
  8
L-TYUSIN
 10
404.0785
 20
88.505877
 30
0.0
 11
504.0785
 21
88.505877
 31
0.0
  0
LINE
  8
L-TYUSIN
 10
504.0785
 20
88.505877
 30
0.0
 11
604.0785
 21
88.505877
 31
0.0
  0
LINE
  8
L-TYUSIN
 10
604.0785
 20
88.505877
 30
0.0
 11
634.0785
 21
88.505877
 31
0.0
  0
LINE
  8
L-TYUSIN
 10
634.0785
 20
88.505877
 30
0.0
 11
634.0785
 21
441.569322
 31
0.0
  0
LINE
  8
L-TYUSIN
 10
404.0785
 20
269.772167
 30
0.0
 11
634.0785
 21
269.772167
 31
0.0
  0
LINE
  8
L-TYUSIN
 10
204.707044
 20
441.569322
 30
0.0
 11
204.707044
 21
304.646293
 31
0.0
  0
LINE
  8
L-TYUSIN
 10
204.707044
 20
304.646293
 30
0.0
 11
404.0785
 21
304.646293
 31
0.0
  0
TEXT
  8
L-ZISSEN
 10
217.639399
 20
430.979178
 30
0.0
 40
4.5
  1
PILOT LAMP
  0
LINE
  8
L-ZISSEN
  6
CONTINUOUS
 62
     7
 10
297.979274
 20
207.7
 30
0.0
 11
295.958548
 21
204.2
 31
0.0
  0
LINE
  8
L-ZISSEN
  6
CONTINUOUS
 62
     7
 10
295.958548
 20
204.2
 30
0.0
 11
297.979274
 21
200.7
 31
0.0
  0
LINE
  8
L-ZISSEN
  6
CONTINUOUS
 62
     7
 10
297.979274
 20
200.7
 30
0.0
 11
302.020726
 21
200.7
 31
0.0
  0
LINE
  8
L-ZISSEN
  6
CONTINUOUS
 62
     7
 10
302.020726
 20
200.7
 30
0.0
 11
304.041452
 21
204.2
 31
0.0
  0
LINE
  8
L-ZISSEN
  6
CONTINUOUS
 62
     7
 10
304.041452
 20
204.2
 30
0.0
 11
302.020726
 21
207.7
 31
0.0
  0
LINE
  8
L-ZISSEN
  6
CONTINUOUS
 62
     7
 10
302.020726
 20
207.7
 30
0.0
 11
297.979274
 21
207.7
 31
0.0
  0
SOLID
  8
L-ZISSEN
 10
298.528393
 20
87.605194
 30
0.0
 11
299.060308
 21
87.203311
 31
0.0
 12
300.0
 22
89.0
 32
0.0
 13
300.0
 23
89.0
 33
0.0
  0
LINE
  8
L-ZISSEN
 10
298.79435
 20
87.404253
 30
0.0
 11
279.210858
 21
61.484365
 31
0.0
  0
LINE
  8
L-ZISSEN
 10
279.210858
 20
61.484365
 30
0.0
 11
277.210858
 21
61.484365
 31
0.0
  0
TEXT
  8
L-ZISSEN
 10
259.971642
 20
54.29274
 30
0.0
 40
4.5
  1
Rc1/4
  0
TEXT
  8
L-ZISSEN
 10
59.294038
 20
477.630517
 30
0.0
 40
4.5
  1
MODEL NO.
  0
TEXT
  8
L-ZISSEN
 10
59.294038
 20
466.756997
 30
0.0
 40
4.5
  1
PSD-101
  0
TEXT
  8
L-ZISSEN
 10
428.482805
 20
413.613196
 30
0.0
 40
4.5
  1
T TYPE GAUGE
  0
TEXT
  8
L-ZISSEN
 10
432.051091
 20
249.375791
 30
0.0
 40
4.5
  1
Q TYPE GAUGE
  0
LINE
  8
L-ZISSEN
 10
89.0
 20
89.0
 30
0.0
 11
111.0
 21
89.0
 31
0.0
  0
ENDSEC
  0
EOF
