  0
SECTION
  2
HEADER
  9
$ACADVER
  1
AC1012
  9
$DWGCODEPAGE
  3
dos932
  9
$INSBASE
 10
0.0
 20
0.0
 30
0.0
  9
$EXTMIN
 10
44.37592928715036
 20
57.9807748914543
 30
-0.0000000000000058
  9
$EXTMAX
 10
340.0079183303339
 20
390.0178558706473
 30
0.0000000000000104
  9
$LIMMIN
 10
0.0
 20
0.0
  9
$LIMMAX
 10
12.0
 20
9.0
  9
$ORTHOMODE
 70
     1
  9
$REGENMODE
 70
     1
  9
$FILLMODE
 70
     1
  9
$QTEXTMODE
 70
     0
  9
$MIRRTEXT
 70
     1
  9
$DRAGMODE
 70
     2
  9
$LTSCALE
 40
1.0
  9
$OSMODE
 70
    39
  9
$ATTMODE
 70
     1
  9
$TEXTSIZE
 40
4.5
  9
$TRACEWID
 40
0.05
  9
$TEXTSTYLE
  7
STANDARD
  9
$CLAYER
  8
L-ZISSEN
  9
$CELTYPE
  6
BYLAYER
  9
$CECOLOR
 62
   256
  9
$CELTSCALE
 40
1.0
  9
$DELOBJ
 70
     1
  9
$DISPSILH
 70
     0
  9
$DIMSCALE
 40
0.0
  9
$DIMASZ
 40
2.0
  9
$DIMEXO
 40
1.0
  9
$DIMDLI
 40
8.0
  9
$DIMRND
 40
0.0
  9
$DIMDLE
 40
0.0
  9
$DIMEXE
 40
1.0
  9
$DIMTP
 40
0.0
  9
$DIMTM
 40
0.0
  9
$DIMTXT
 40
4.5
  9
$DIMCEN
 40
1.5
  9
$DIMTSZ
 40
0.0
  9
$DIMTOL
 70
     0
  9
$DIMLIM
 70
     0
  9
$DIMTIH
 70
     0
  9
$DIMTOH
 70
     0
  9
$DIMSE1
 70
     0
  9
$DIMSE2
 70
     0
  9
$DIMTAD
 70
     1
  9
$DIMZIN
 70
     8
  9
$DIMBLK
  1

  9
$DIMASO
 70
     1
  9
$DIMSHO
 70
     0
  9
$DIMPOST
  1

  9
$DIMAPOST
  1

  9
$DIMALT
 70
     0
  9
$DIMALTD
 70
     2
  9
$DIMALTF
 40
25.4
  9
$DIMLFAC
 40
1.0
  9
$DIMTOFL
 70
     1
  9
$DIMTVP
 40
0.0
  9
$DIMTIX
 70
     1
  9
$DIMSOXD
 70
     0
  9
$DIMSAH
 70
     0
  9
$DIMBLK1
  1

  9
$DIMBLK2
  1

  9
$DIMSTYLE
  2
STANDARD
  9
$DIMCLRD
 70
     0
  9
$DIMCLRE
 70
     0
  9
$DIMCLRT
 70
     0
  9
$DIMTFAC
 40
1.0
  9
$DIMGAP
 40
1.399999999999999
  9
$DIMJUST
 70
     0
  9
$DIMSD1
 70
     0
  9
$DIMSD2
 70
     0
  9
$DIMTOLJ
 70
     1
  9
$DIMTZIN
 70
     8
  9
$DIMALTZ
 70
     0
  9
$DIMALTTZ
 70
     0
  9
$DIMFIT
 70
     3
  9
$DIMUPT
 70
     0
  9
$DIMUNIT
 70
     2
  9
$DIMDEC
 70
     4
  9
$DIMTDEC
 70
     4
  9
$DIMALTU
 70
     2
  9
$DIMALTTD
 70
     2
  9
$DIMTXSTY
  7
KANJI
  9
$DIMAUNIT
 70
     0
  9
$LUNITS
 70
     2
  9
$LUPREC
 70
     4
  9
$SKETCHINC
 40
0.1
  9
$FILLETRAD
 40
2.299999999999999
  9
$AUNITS
 70
     0
  9
$AUPREC
 70
     0
  9
$MENU
  1
acad
  9
$ELEVATION
 40
0.0
  9
$PELEVATION
 40
0.0
  9
$THICKNESS
 40
0.0
  9
$LIMCHECK
 70
     0
  9
$BLIPMODE
 70
     0
  9
$CHAMFERA
 40
1.0
  9
$CHAMFERB
 40
1.0
  9
$CHAMFERC
 40
0.0
  9
$CHAMFERD
 40
0.0
  9
$SKPOLY
 70
     0
  9
$TDCREATE
 40
2450178.569598264
  9
$TDUPDATE
 40
2455065.480890289
  9
$TDINDWG
 40
0.8200153819
  9
$TDUSRTIMER
 40
0.8200153819
  9
$USRTIMER
 70
     1
  9
$ANGBASE
 50
0.0
  9
$ANGDIR
 70
     0
  9
$PDMODE
 70
     0
  9
$PDSIZE
 40
0.0
  9
$PLINEWID
 40
0.0
  9
$COORDS
 70
     2
  9
$SPLFRAME
 70
     0
  9
$SPLINETYPE
 70
     6
  9
$SPLINESEGS
 70
     8
  9
$ATTDIA
 70
     0
  9
$ATTREQ
 70
     1
  9
$HANDLING
 70
-16383
  9
$HANDSEED
  5
468
  9
$SURFTAB1
 70
     6
  9
$SURFTAB2
 70
     6
  9
$SURFTYPE
 70
     6
  9
$SURFU
 70
     6
  9
$SURFV
 70
     6
  9
$UCSNAME
  2

  9
$UCSORG
 10
0.0
 20
0.0
 30
0.0
  9
$UCSXDIR
 10
1.0
 20
0.0
 30
0.0
  9
$UCSYDIR
 10
0.0
 20
1.0
 30
0.0
  9
$PUCSNAME
  2

  9
$PUCSORG
 10
0.0
 20
0.0
 30
0.0
  9
$PUCSXDIR
 10
1.0
 20
0.0
 30
0.0
  9
$PUCSYDIR
 10
0.0
 20
1.0
 30
0.0
  9
$USERI1
 70
     0
  9
$USERI2
 70
     0
  9
$USERI3
 70
     0
  9
$USERI4
 70
     0
  9
$USERI5
 70
     0
  9
$USERR1
 40
0.0
  9
$USERR2
 40
0.0
  9
$USERR3
 40
0.0
  9
$USERR4
 40
0.0
  9
$USERR5
 40
0.0
  9
$WORLDVIEW
 70
     1
  9
$SHADEDGE
 70
     3
  9
$SHADEDIF
 70
    70
  9
$TILEMODE
 70
     1
  9
$MAXACTVP
 70
    16
  9
$PINSBASE
 10
0.0
 20
0.0
 30
0.0
  9
$PLIMCHECK
 70
     0
  9
$PEXTMIN
 10
1.000000000000000E+20
 20
1.000000000000000E+20
 30
1.000000000000000E+20
  9
$PEXTMAX
 10
-1.000000000000000E+20
 20
-1.000000000000000E+20
 30
-1.000000000000000E+20
  9
$PLIMMIN
 10
0.0
 20
0.0
  9
$PLIMMAX
 10
12.0
 20
9.0
  9
$UNITMODE
 70
     0
  9
$VISRETAIN
 70
     0
  9
$PLINEGEN
 70
     0
  9
$PSLTSCALE
 70
     0
  9
$TREEDEPTH
 70
  3020
  9
$PICKSTYLE
 70
     1
  9
$CMLSTYLE
  2
STANDARD
  9
$CMLJUST
 70
     0
  9
$CMLSCALE
 40
1.0
  9
$SAVEIMAGES
 70
     1
  0
ENDSEC
  0
SECTION
  2
CLASSES
  0
CLASS
  1
ACDBDICTIONARYWDFLT
  2
AcDbDictionaryWithDefault
  3
AutoCAD 2000
 90
    32768
280
     0
281
     0
  0
CLASS
  1
ACDBPLACEHOLDER
  2
AcDbPlaceHolder
  3
AutoCAD 2000
 90
    32768
280
     0
281
     0
  0
CLASS
  1
LAYOUT
  2
AcDbLayout
  3
AutoCAD 2000
 90
    32768
280
     0
281
     0
  0
CLASS
  1
LONG_TRANSACTION
  2
AcDbLongTransaction
  3
AutoCAD 2000
 90
    32768
280
     0
281
     0
  0
CLASS
  1
LWPOLYLINE
  2
AcDbPolyline
  3
AutoCAD 2000
 90
    32768
280
     0
281
     1
  0
CLASS
  1
HATCH
  2
AcDbHatch
  3
AutoCAD 2000
 90
    32768
280
     0
281
     1
  0
CLASS
  1
XRECORD
  2
AcDbXrecord
  3
AutoCAD 2000
 90
    32768
280
     0
281
     0
  0
CLASS
  1
LONG_TRANSACTION
  2
AcDbLongTransaction
  3
AutoCAD 2000
 90
    32768
280
     0
281
     0
  0
CLASS
  1
LWPOLYLINE
  2
AcDbPolyline
  3
AutoCAD 2000
 90
    32768
280
     0
281
     1
  0
CLASS
  1
HATCH
  2
AcDbHatch
  3
AutoCAD 2000
 90
    32768
280
     0
281
     1
  0
CLASS
  1
XRECORD
  2
AcDbXrecord
  3
AutoCAD 2000
 90
    32768
280
     0
281
     0
  0
CLASS
  1
LONG_TRANSACTION
  2
AcDbLongTransaction
  3
AutoCAD 2000
 90
    32768
280
     0
281
     0
  0
CLASS
  1
LWPOLYLINE
  2
AcDbPolyline
  3
AutoCAD 2000
 90
    32768
280
     0
281
     1
  0
CLASS
  1
HATCH
  2
AcDbHatch
  3
AutoCAD 2000
 90
    32768
280
     0
281
     1
  0
CLASS
  1
XRECORD
  2
AcDbXrecord
  3
AutoCAD 2000
 90
    32768
280
     0
281
     0
  0
CLASS
  1
LONG_TRANSACTION
  2
AcDbLongTransaction
  3
AutoCAD 2000
 90
    32768
280
     0
281
     0
  0
CLASS
  1
LWPOLYLINE
  2
AcDbPolyline
  3
AutoCAD 2000
 90
    32768
280
     0
281
     1
  0
CLASS
  1
HATCH
  2
AcDbHatch
  3
AutoCAD 2000
 90
    32768
280
     0
281
     1
  0
CLASS
  1
XRECORD
  2
AcDbXrecord
  3
AutoCAD 2000
 90
    32768
280
     0
281
     0
  0
CLASS
  1
LONG_TRANSACTION
  2
AcDbLongTransaction
  3
AutoCAD 2000
 90
    32768
280
     0
281
     0
  0
CLASS
  1
LWPOLYLINE
  2
AcDbPolyline
  3
AutoCAD 2000
 90
    32768
280
     0
281
     1
  0
CLASS
  1
HATCH
  2
AcDbHatch
  3
AutoCAD 2000
 90
    32768
280
     0
281
     1
  0
CLASS
  1
XRECORD
  2
AcDbXrecord
  3
AutoCAD 2000
 90
    32768
280
     0
281
     0
  0
CLASS
  1
LONG_TRANSACTION
  2
AcDbLongTransaction
  3
AutoCAD 2000
 90
    32768
280
     0
281
     0
  0
CLASS
  1
LWPOLYLINE
  2
AcDbPolyline
  3
AutoCAD 2000
 90
    32768
280
     0
281
     1
  0
CLASS
  1
HATCH
  2
AcDbHatch
  3
AutoCAD 2000
 90
    32768
280
     0
281
     1
  0
CLASS
  1
XRECORD
  2
AcDbXrecord
  3
AutoCAD 2000
 90
    32768
280
     0
281
     0
  0
CLASS
  1
LONG_TRANSACTION
  2
AcDbLongTransaction
  3
AutoCAD 2000
 90
    32768
280
     0
281
     0
  0
CLASS
  1
LWPOLYLINE
  2
AcDbPolyline
  3
AutoCAD 2000
 90
    32768
280
     0
281
     1
  0
CLASS
  1
HATCH
  2
AcDbHatch
  3
AutoCAD 2000
 90
    32768
280
     0
281
     1
  0
CLASS
  1
XRECORD
  2
AcDbXrecord
  3
AutoCAD 2000
 90
    32768
280
     0
281
     0
  0
CLASS
  1
LONG_TRANSACTION
  2
AcDbLongTransaction
  3
AutoCAD 2000
 90
    32768
280
     0
281
     0
  0
CLASS
  1
LWPOLYLINE
  2
AcDbPolyline
  3
AutoCAD 2000
 90
    32768
280
     0
281
     1
  0
CLASS
  1
HATCH
  2
AcDbHatch
  3
AutoCAD 2000
 90
    32768
280
     0
281
     1
  0
CLASS
  1
XRECORD
  2
AcDbXrecord
  3
AutoCAD 2000
 90
    32768
280
     0
281
     0
  0
CLASS
  1
LONG_TRANSACTION
  2
AcDbLongTransaction
  3
AutoCAD 2000
 90
    32768
280
     0
281
     0
  0
CLASS
  1
LWPOLYLINE
  2
AcDbPolyline
  3
AutoCAD 2000
 90
    32768
280
     0
281
     1
  0
CLASS
  1
HATCH
  2
AcDbHatch
  3
AutoCAD 2000
 90
    32768
280
     0
281
     1
  0
CLASS
  1
XRECORD
  2
AcDbXrecord
  3
AutoCAD 2000
 90
    32768
280
     0
281
     0
  0
CLASS
  1
LONG_TRANSACTION
  2
AcDbLongTransaction
  3
AutoCAD 2000
 90
    32768
280
     0
281
     0
  0
CLASS
  1
LWPOLYLINE
  2
AcDbPolyline
  3
AutoCAD 2000
 90
    32768
280
     0
281
     1
  0
CLASS
  1
HATCH
  2
AcDbHatch
  3
AutoCAD 2000
 90
    32768
280
     0
281
     1
  0
CLASS
  1
XRECORD
  2
AcDbXrecord
  3
AutoCAD 2000
 90
    32768
280
     0
281
     0
  0
CLASS
  1
LONG_TRANSACTION
  2
AcDbLongTransaction
  3
AutoCAD 2000
 90
    32768
280
     0
281
     0
  0
CLASS
  1
LWPOLYLINE
  2
AcDbPolyline
  3
AutoCAD 2000
 90
    32768
280
     0
281
     1
  0
CLASS
  1
HATCH
  2
AcDbHatch
  3
AutoCAD 2000
 90
    32768
280
     0
281
     1
  0
CLASS
  1
XRECORD
  2
AcDbXrecord
  3
AutoCAD 2000
 90
    32768
280
     0
281
     0
  0
CLASS
  1
LONG_TRANSACTION
  2
AcDbLongTransaction
  3
AutoCAD 2000
 90
    32768
280
     0
281
     0
  0
CLASS
  1
LWPOLYLINE
  2
AcDbPolyline
  3
AutoCAD 2000
 90
    32768
280
     0
281
     1
  0
CLASS
  1
HATCH
  2
AcDbHatch
  3
AutoCAD 2000
 90
    32768
280
     0
281
     1
  0
CLASS
  1
XRECORD
  2
AcDbXrecord
  3
AutoCAD 2000
 90
    32768
280
     0
281
     0
  0
CLASS
  1
LONG_TRANSACTION
  2
AcDbLongTransaction
  3
AutoCAD 2000
 90
    32768
280
     0
281
     0
  0
CLASS
  1
LWPOLYLINE
  2
AcDbPolyline
  3
AutoCAD 2000
 90
    32768
280
     0
281
     1
  0
CLASS
  1
HATCH
  2
AcDbHatch
  3
AutoCAD 2000
 90
    32768
280
     0
281
     1
  0
CLASS
  1
XRECORD
  2
AcDbXrecord
  3
AutoCAD 2000
 90
    32768
280
     0
281
     0
  0
CLASS
  1
LONG_TRANSACTION
  2
AcDbLongTransaction
  3
AutoCAD 2000
 90
    32768
280
     0
281
     0
  0
CLASS
  1
LWPOLYLINE
  2
AcDbPolyline
  3
AutoCAD 2000
 90
    32768
280
     0
281
     1
  0
CLASS
  1
HATCH
  2
AcDbHatch
  3
AutoCAD 2000
 90
    32768
280
     0
281
     1
  0
CLASS
  1
XRECORD
  2
AcDbXrecord
  3
AutoCAD 2000
 90
    32768
280
     0
281
     0
  0
CLASS
  1
LONG_TRANSACTION
  2
AcDbLongTransaction
  3
AutoCAD 2000
 90
    32768
280
     0
281
     0
  0
CLASS
  1
LWPOLYLINE
  2
AcDbPolyline
  3
AutoCAD 2000
 90
    32768
280
     0
281
     1
  0
CLASS
  1
HATCH
  2
AcDbHatch
  3
AutoCAD 2000
 90
    32768
280
     0
281
     1
  0
CLASS
  1
XRECORD
  2
AcDbXrecord
  3
AutoCAD 2000
 90
    32768
280
     0
281
     0
  0
CLASS
  1
LONG_TRANSACTION
  2
AcDbLongTransaction
  3
AutoCAD 2000
 90
    32768
280
     0
281
     0
  0
CLASS
  1
LWPOLYLINE
  2
AcDbPolyline
  3
AutoCAD 2000
 90
    32768
280
     0
281
     1
  0
CLASS
  1
HATCH
  2
AcDbHatch
  3
AutoCAD 2000
 90
    32768
280
     0
281
     1
  0
CLASS
  1
XRECORD
  2
AcDbXrecord
  3
AutoCAD 2000
 90
    32768
280
     0
281
     0
  0
CLASS
  1
LONG_TRANSACTION
  2
AcDbLongTransaction
  3
AutoCAD 2000
 90
    32768
280
     0
281
     0
  0
CLASS
  1
LWPOLYLINE
  2
AcDbPolyline
  3
AutoCAD 2000
 90
    32768
280
     0
281
     1
  0
CLASS
  1
HATCH
  2
AcDbHatch
  3
AutoCAD 2000
 90
    32768
280
     0
281
     1
  0
CLASS
  1
XRECORD
  2
AcDbXrecord
  3
AutoCAD 2000
 90
    32768
280
     0
281
     0
  0
CLASS
  1
LONG_TRANSACTION
  2
AcDbLongTransaction
  3
AutoCAD 2000
 90
    32768
280
     0
281
     0
  0
CLASS
  1
LWPOLYLINE
  2
AcDbPolyline
  3
AutoCAD 2000
 90
    32768
280
     0
281
     1
  0
CLASS
  1
HATCH
  2
AcDbHatch
  3
AutoCAD 2000
 90
    32768
280
     0
281
     1
  0
CLASS
  1
XRECORD
  2
AcDbXrecord
  3
AutoCAD 2000
 90
    32768
280
     0
281
     0
  0
CLASS
  1
LONG_TRANSACTION
  2
AcDbLongTransaction
  3
AutoCAD 2000
 90
    32768
280
     0
281
     0
  0
CLASS
  1
LWPOLYLINE
  2
AcDbPolyline
  3
AutoCAD 2000
 90
    32768
280
     0
281
     1
  0
CLASS
  1
HATCH
  2
AcDbHatch
  3
AutoCAD 2000
 90
    32768
280
     0
281
     1
  0
CLASS
  1
XRECORD
  2
AcDbXrecord
  3
AutoCAD 2000
 90
    32768
280
     0
281
     0
  0
CLASS
  1
LONG_TRANSACTION
  2
AcDbLongTransaction
  3
AutoCAD 2000
 90
    32768
280
     0
281
     0
  0
CLASS
  1
LWPOLYLINE
  2
AcDbPolyline
  3
AutoCAD 2000
 90
    32768
280
     0
281
     1
  0
CLASS
  1
HATCH
  2
AcDbHatch
  3
AutoCAD 2000
 90
    32768
280
     0
281
     1
  0
CLASS
  1
XRECORD
  2
AcDbXrecord
  3
AutoCAD 2000
 90
    32768
280
     0
281
     0
  0
CLASS
  1
LONG_TRANSACTION
  2
AcDbLongTransaction
  3
AutoCAD 2000
 90
    32768
280
     0
281
     0
  0
CLASS
  1
LWPOLYLINE
  2
AcDbPolyline
  3
AutoCAD 2000
 90
    32768
280
     0
281
     1
  0
CLASS
  1
HATCH
  2
AcDbHatch
  3
AutoCAD 2000
 90
    32768
280
     0
281
     1
  0
CLASS
  1
XRECORD
  2
AcDbXrecord
  3
AutoCAD 2000
 90
    32768
280
     0
281
     0
  0
CLASS
  1
LONG_TRANSACTION
  2
AcDbLongTransaction
  3
AutoCAD 2000
 90
    32768
280
     0
281
     0
  0
CLASS
  1
LWPOLYLINE
  2
AcDbPolyline
  3
AutoCAD 2000
 90
    32768
280
     0
281
     1
  0
CLASS
  1
HATCH
  2
AcDbHatch
  3
AutoCAD 2000
 90
    32768
280
     0
281
     1
  0
CLASS
  1
XRECORD
  2
AcDbXrecord
  3
AutoCAD 2000
 90
    32768
280
     0
281
     0
  0
CLASS
  1
LONG_TRANSACTION
  2
AcDbLongTransaction
  3
AutoCAD 2000
 90
    32768
280
     0
281
     0
  0
CLASS
  1
LWPOLYLINE
  2
AcDbPolyline
  3
AutoCAD 2000
 90
    32768
280
     0
281
     1
  0
CLASS
  1
HATCH
  2
AcDbHatch
  3
AutoCAD 2000
 90
    32768
280
     0
281
     1
  0
CLASS
  1
XRECORD
  2
AcDbXrecord
  3
AutoCAD 2000
 90
    32768
280
     0
281
     0
  0
ENDSEC
  0
SECTION
  2
TABLES
  0
TABLE
  2
VPORT
  5
20
330
0
100
AcDbSymbolTable
 70
     3
  0
VPORT
  5
45C
330
20
100
AcDbSymbolTableRecord
100
AcDbViewportTableRecord
  2
*ACTIVE
 70
     0
 10
0.0
 20
0.0
 11
1.0
 21
1.0
 12
192.1919238087422
 22
223.9993153810508
 13
0.0
 23
0.0
 14
1.0
 24
1.0
 15
0.0
 25
0.0
 16
0.0
 26
0.0
 36
1.0
 17
0.0
 27
0.0
 37
0.0
 40
334.1363670549308
 41
1.60759493670886
 42
50.0
 43
0.0
 44
0.0
 50
0.0
 51
0.0
 71
     0
 72
   100
 73
     1
 74
     0
 75
     0
 76
     0
 77
     0
 78
     0
  0
ENDTAB
  0
TABLE
  2
LTYPE
  5
1B
330
0
100
AcDbSymbolTable
 70
     3
  0
LTYPE
  5
1C
330
1B
100
AcDbSymbolTableRecord
100
AcDbLinetypeTableRecord
  2
BYBLOCK
 70
     0
  3

 72
    65
 73
     0
 40
0.0
  0
LTYPE
  5
1D
330
1B
100
AcDbSymbolTableRecord
100
AcDbLinetypeTableRecord
  2
BYLAYER
 70
     0
  3

 72
    65
 73
     0
 40
0.0
  0
LTYPE
  5
B
330
1B
100
AcDbSymbolTableRecord
100
AcDbLinetypeTableRecord
  2
CONTINUOUS
 70
     0
  3
Solid line
 72
    65
 73
     0
 40
0.0
  0
LTYPE
  5
30
330
1B
100
AcDbSymbolTableRecord
100
AcDbLinetypeTableRecord
  2
CENTER
 70
     0
  3
----- - ----- - ----- - ----- - -----
 72
    65
 73
     4
 40
35.0
 49
30.0
 74
     0
 49
-1.5
 74
     0
 49
2.0
 74
     0
 49
-1.5
 74
     0
  0
LTYPE
  5
33
330
1B
100
AcDbSymbolTableRecord
100
AcDbLinetypeTableRecord
  2
PHANTOM
 70
     0
  3
----- - - ----- - - ----- - - ----- - - -----
 72
    65
 73
     6
 40
22.5
 49
15.0
 74
     0
 49
-1.5
 74
     0
 49
1.5
 74
     0
 49
-1.5
 74
     0
 49
1.5
 74
     0
 49
-1.5
 74
     0
  0
ENDTAB
  0
TABLE
  2
LAYER
  5
15
102
{ACAD_XDICTIONARY
360
16
102
}
330
0
100
AcDbSymbolTable
 70
     5
  0
LAYER
  5
6
330
15
100
AcDbSymbolTableRecord
100
AcDbLayerTableRecord
  2
0
 70
     0
 62
     7
  6
CONTINUOUS
  0
LAYER
  5
29
330
15
100
AcDbSymbolTableRecord
100
AcDbLayerTableRecord
  2
L-ZISSEN
 70
     0
 62
     7
  6
CONTINUOUS
  0
LAYER
  5
2F
330
15
100
AcDbSymbolTableRecord
100
AcDbLayerTableRecord
  2
L-TYUSIN
 70
     0
 62
     1
  6
CENTER
  0
LAYER
  5
5B
330
15
100
AcDbSymbolTableRecord
100
AcDbLayerTableRecord
  2
L-SAISEN
 70
     0
 62
     6
  6
CONTINUOUS
  0
LAYER
  5
32
330
15
100
AcDbSymbolTableRecord
100
AcDbLayerTableRecord
  2
L-SOUZOU
 70
     0
 62
     2
  6
PHANTOM
  0
ENDTAB
  0
TABLE
  2
STYLE
  5
18
330
0
100
AcDbSymbolTable
 70
     2
  0
STYLE
  5
19
330
18
100
AcDbSymbolTableRecord
100
AcDbTextStyleTableRecord
  2
STANDARD
 70
     0
 40
0.0
 41
1.0
 50
0.0
 71
     0
 42
4.5
  3
txt.shx
  4

  0
STYLE
  5
2A
330
18
100
AcDbSymbolTableRecord
100
AcDbTextStyleTableRecord
  2
KANJI
 70
     0
 40
0.0
 41
0.8
 50
0.0
 71
     0
 42
1.5
  3
C:\Program Files\AutoCAD LT\ROMANS
  4
BIGFONT
  0
ENDTAB
  0
TABLE
  2
VIEW
  5
1E
330
0
100
AcDbSymbolTable
 70
     0
  0
ENDTAB
  0
TABLE
  2
UCS
  5
1F
330
0
100
AcDbSymbolTable
 70
     0
  0
ENDTAB
  0
TABLE
  2
APPID
  5
22
330
0
100
AcDbSymbolTable
 70
     1
  0
APPID
  5
A
330
22
100
AcDbSymbolTableRecord
100
AcDbRegAppTableRecord
  2
ACAD
 70
     0
  0
ENDTAB
  0
TABLE
  2
DIMSTYLE
  5
23
330
0
100
AcDbSymbolTable
 70
     1
  0
DIMSTYLE
105
24
330
23
100
AcDbSymbolTableRecord
100
AcDbDimStyleTableRecord
  2
STANDARD
 70
     0
  3

  4

  5

  6

  7

 40
1.0
 41
0.18
 42
0.0625
 43
0.38
 44
0.18
 45
0.0
 46
0.0
 47
0.0
 48
0.0
140
0.18
141
0.09
142
0.0
143
25.4
144
1.0
145
0.0
146
1.0
147
0.09
 71
     0
 72
     0
 73
     1
 74
     1
 75
     0
 76
     0
 77
     0
 78
     0
170
     0
171
     2
172
     0
173
     0
174
     0
175
     0
176
     0
177
     0
178
     0
270
     2
271
     4
272
     4
273
     2
274
     2
340
19
275
     0
280
     0
281
     0
282
     0
283
     1
284
     0
285
     0
286
     0
287
     3
288
     0
  0
ENDTAB
  0
TABLE
  2
BLOCK_RECORD
  5
1
330
0
100
AcDbSymbolTable
 70
     0
  0
BLOCK_RECORD
  5
2
102
{ACAD_XDICTIONARY
360
3
102
}
330
1
100
AcDbSymbolTableRecord
100
AcDbBlockTableRecord
  2
*MODEL_SPACE
  0
BLOCK_RECORD
  5
F
102
{ACAD_XDICTIONARY
360
10
102
}
330
1
100
AcDbSymbolTableRecord
100
AcDbBlockTableRecord
  2
*PAPER_SPACE
  0
ENDTAB
  0
ENDSEC
  0
SECTION
  2
BLOCKS
  0
BLOCK
  5
5
330
2
100
AcDbEntity
  8
0
100
AcDbBlockBegin
  2
*MODEL_SPACE
 70
     0
 10
0.0
 20
0.0
 30
0.0
  3
*MODEL_SPACE
  1

  0
ENDBLK
  5
C
330
2
100
AcDbEntity
  8
0
100
AcDbBlockEnd
  0
BLOCK
  5
12
330
F
100
AcDbEntity
 67
     1
  8
0
100
AcDbBlockBegin
  2
*PAPER_SPACE
 70
     0
 10
0.0
 20
0.0
 30
0.0
  3
*PAPER_SPACE
  1

  0
ENDBLK
  5
13
330
F
100
AcDbEntity
 67
     1
  8
0
100
AcDbBlockEnd
  0
ENDSEC
  0
SECTION
  2
ENTITIES
  0
LINE
  5
2C
330
2
100
AcDbEntity
  8
L-ZISSEN
100
AcDbLine
 10
123.9999999999963
 20
208.600000000004
 30
0.0
 11
124.7391289476395
 21
161.3359636814347
 31
0.0
  0
LINE
  5
2D
330
2
100
AcDbEntity
  8
L-ZISSEN
100
AcDbLine
 10
75.99999999999636
 20
208.600000000004
 30
0.0
 11
75.26087105235319
 21
161.3359636814347
 31
0.0
  0
LINE
  5
2E
330
2
100
AcDbEntity
  8
L-TYUSIN
100
AcDbLine
 10
100.0
 20
61.23787349977874
 30
0.0
 11
100.0
 21
213.2530432270154
 31
0.0
  0
LINE
  5
31
330
2
100
AcDbEntity
  8
L-SOUZOU
100
AcDbLine
 10
54.99999999999817
 20
137.0000000000041
 30
0.0
 11
134.9999999999981
 21
137.0000000000041
 31
0.0
  0
LINE
  5
34
330
2
100
AcDbEntity
  8
L-SOUZOU
100
AcDbLine
 10
134.9999999999981
 20
135.0000000000041
 30
0.0
 11
52.99999999999659
 21
135.0000000000041
 31
0.0
  0
LINE
  5
35
330
2
100
AcDbEntity
  8
L-SOUZOU
100
AcDbLine
 10
51.99999999999636
 20
162.0000000000041
 30
0.0
 11
51.99999999999636
 21
135.9837202006745
 31
0.0
  0
LINE
  5
36
330
2
100
AcDbEntity
  8
L-SOUZOU
100
AcDbLine
 10
54.0
 20
162.0000000000041
 30
0.0
 11
54.0
 21
137.8839194430763
 31
0.0
  0
ARC
  5
37
330
2
100
AcDbEntity
  8
L-SOUZOU
100
AcDbCircle
 10
54.99999999999817
 20
138.0000000000043
 30
0.0
 40
1.000000000000227
100
AcDbArc
 50
180.0
 51
270.0
  0
ARC
  5
38
330
2
100
AcDbEntity
  8
L-SOUZOU
100
AcDbCircle
 10
52.99999999999659
 20
136.0000000000043
 30
0.0
 40
1.000000000000227
100
AcDbArc
 50
180.0
 51
270.0
  0
LINE
  5
39
330
2
100
AcDbEntity
  8
L-TYUSIN
100
AcDbLine
 10
49.89770103310002
 20
153.0000000000041
 30
0.0
 11
56.70946303595702
 21
153.0000000000041
 31
0.0
  0
LINE
  5
3A
330
2
100
AcDbEntity
  8
L-SOUZOU
100
AcDbLine
 10
51.99999999999636
 20
162.0000000000041
 30
0.0
 11
54.0
 21
162.0000000000041
 31
0.0
  0
LINE
  5
3B
330
2
100
AcDbEntity
  8
L-ZISSEN
100
AcDbLine
 10
125.0
 20
70.50000000000597
 30
0.0
 11
124.9999999999999
 21
86.50000000000369
 31
0.0
  0
LINE
  5
3C
330
2
100
AcDbEntity
  8
L-ZISSEN
100
AcDbLine
 10
74.99999999999551
 20
70.50000000000498
 30
0.0
 11
74.99999999999795
 21
86.50000000000369
 31
0.0
  0
LINE
  5
3D
330
2
100
AcDbEntity
  8
L-ZISSEN
100
AcDbLine
 10
123.4999999999963
 20
69.00000000000415
 30
0.0
 11
76.49999999999636
 21
69.00000000000415
 31
0.0
  0
LINE
  5
3E
330
2
100
AcDbEntity
  8
L-ZISSEN
100
AcDbLine
 10
74.99999999999636
 20
74.00000000000416
 30
0.0
 11
124.9999999999982
 21
74.00000000000415
 31
0.0
  0
LINE
  5
3F
330
2
100
AcDbEntity
  8
L-ZISSEN
100
AcDbLine
 10
87.99999999999817
 20
64.0000000000046
 30
0.0
 11
99.99999999999817
 21
64.0000000000046
 31
0.0
  0
LINE
  5
40
330
2
100
AcDbEntity
  8
L-ZISSEN
100
AcDbLine
 10
110.9999999999963
 20
63.00000000000414
 30
0.0
 11
88.99999999999634
 21
63.00000000000414
 31
0.0
  0
LINE
  5
41
330
2
100
AcDbEntity
  8
L-ZISSEN
100
AcDbLine
 10
74.99999999999636
 20
70.50000000000415
 30
0.0
 11
76.49999999999636
 21
69.00000000000415
 31
0.0
  0
LINE
  5
42
330
2
100
AcDbEntity
  8
L-ZISSEN
100
AcDbLine
 10
87.99999999999817
 20
64.0000000000046
 30
0.0
 11
88.0
 21
69.01627979932891
 31
0.0
  0
LINE
  5
43
330
2
100
AcDbEntity
  8
L-ZISSEN
100
AcDbLine
 10
88.99999999999634
 20
63.00000000000414
 30
0.0
 11
87.99999999999817
 21
64.0000000000046
 31
0.0
  0
LINE
  5
44
330
2
100
AcDbEntity
  8
L-ZISSEN
100
AcDbLine
 10
99.99999999999817
 20
64.0000000000046
 30
0.0
 11
111.9999999999963
 21
64.0000000000046
 31
0.0
  0
LINE
  5
45
330
2
100
AcDbEntity
  8
L-ZISSEN
100
AcDbLine
 10
99.99999999999817
 20
63.00000000000414
 30
0.0
 11
100.0
 21
69.00000000000415
 31
0.0
  0
LINE
  5
46
330
2
100
AcDbEntity
  8
L-ZISSEN
100
AcDbLine
 10
111.9999999999963
 20
64.0000000000046
 30
0.0
 11
111.9999999999963
 21
69.01627979932891
 31
0.0
  0
LINE
  5
47
330
2
100
AcDbEntity
  8
L-ZISSEN
100
AcDbLine
 10
110.9999999999963
 20
63.00000000000414
 30
0.0
 11
111.9999999999963
 21
64.0000000000046
 31
0.0
  0
LINE
  5
48
330
2
100
AcDbEntity
  8
L-ZISSEN
100
AcDbLine
 10
123.4999999999963
 20
69.00000000000415
 30
0.0
 11
124.9999999999981
 21
70.50000000000415
 31
0.0
  0
LINE
  5
49
330
2
100
AcDbEntity
  8
L-ZISSEN
100
AcDbLine
 10
121.2132034355964
 20
137.000000000004
 30
0.0
 11
78.78679656440358
 21
137.000000000004
 31
0.0
  0
LINE
  5
4A
330
2
100
AcDbEntity
  8
L-ZISSEN
100
AcDbLine
 10
121.2132034355964
 20
143.0000000000041
 30
0.0
 11
78.78679656440356
 21
143.0000000000041
 31
0.0
  0
LINE
  5
4B
330
2
100
AcDbEntity
  8
L-ZISSEN
100
AcDbLine
 10
78.5
 20
157.0000000000041
 30
0.0
 11
121.5
 21
157.0000000000041
 31
0.0
  0
LINE
  5
4C
330
2
100
AcDbEntity
  8
L-ZISSEN
100
AcDbLine
 10
75.68865872680181
 20
148.0000000000041
 30
0.0
 11
124.3113412731927
 21
148.0000000000041
 31
0.0
  0
LINE
  5
4D
330
2
100
AcDbEntity
  8
L-ZISSEN
100
AcDbLine
 10
122.4394101357805
 20
159.0000000000041
 30
0.0
 11
77.56058986421215
 21
159.0000000000041
 31
0.0
  0
LINE
  5
4E
330
2
100
AcDbEntity
  8
L-ZISSEN
100
AcDbLine
 10
117.9999999999963
 20
116.5000000000036
 30
0.0
 11
81.99999999999818
 21
116.5000000000036
 31
0.0
  0
LINE
  5
4F
330
2
100
AcDbEntity
  8
L-ZISSEN
100
AcDbLine
 10
81.99999999999818
 20
120.0000000000041
 30
0.0
 11
117.9999999999963
 21
120.0000000000041
 31
0.0
  0
ARC
  5
50
330
2
100
AcDbEntity
  8
L-ZISSEN
100
AcDbCircle
 10
121.2132034355964
 20
108.8680453825166
 30
0.0
 40
34.1319546174875
100
AcDbArc
 50
75.08201763927906
 51
104.917982360721
  0
ARC
  5
51
330
2
100
AcDbEntity
  8
L-ZISSEN
100
AcDbCircle
 10
121.2132034355964
 20
171.1319546174915
 30
0.0
 40
34.1319546174875
100
AcDbArc
 50
255.082017639279
 51
284.9179823607209
  0
LINE
  5
52
330
2
100
AcDbEntity
  8
L-ZISSEN
100
AcDbLine
 10
64.99999999999818
 20
123.0000000000041
 30
0.0
 11
134.9999999999981
 21
123.0000000000041
 31
0.0
  0
LINE
  5
53
330
2
100
AcDbEntity
  8
L-ZISSEN
100
AcDbLine
 10
134.9999999999981
 20
135.0000000000041
 30
0.0
 11
64.99999999999818
 21
135.0000000000041
 31
0.0
  0
LINE
  5
54
330
2
100
AcDbEntity
  8
L-ZISSEN
100
AcDbLine
 10
118.0
 20
86.50000000000369
 30
0.0
 11
112.4999999999981
 21
81.00000000000415
 31
0.0
  0
LINE
  5
55
330
2
100
AcDbEntity
  8
L-TYUSIN
100
AcDbLine
 10
63.0
 20
100.0
 30
0.0
 11
174.0
 21
100.0000000000049
 31
0.0
  0
LINE
  5
56
330
2
100
AcDbEntity
  8
L-ZISSEN
100
AcDbLine
 10
112.4264068711928
 20
141.8495937413492
 30
0.0
 11
112.4264068711928
 21
138.150406258659
 31
0.0
  0
LINE
  5
57
330
2
100
AcDbEntity
  8
L-ZISSEN
100
AcDbLine
 10
87.57359312880716
 20
141.8495937413492
 30
0.0
 11
87.57359312880716
 21
138.150406258659
 31
0.0
  0
LINE
  5
58
330
2
100
AcDbEntity
  8
L-ZISSEN
100
AcDbLine
 10
70.00000000000003
 20
141.8495937413492
 30
0.0
 11
70.00000000000003
 21
138.150406258659
 31
0.0
  0
ARC
  5
59
330
2
100
AcDbEntity
  8
L-ZISSEN
100
AcDbCircle
 10
100.0
 20
204.6887061056514
 30
0.0
 40
67.68870610564736
100
AcDbArc
 50
259.42154710243
 51
280.5784528975699
  0
CIRCLE
  5
5A
330
2
100
AcDbEntity
  8
L-SAISEN
100
AcDbCircle
 10
100.0
 20
100.0
 30
0.0
 40
10.48
  0
LINE
  5
5C
330
2
100
AcDbEntity
  8
L-ZISSEN
100
AcDbLine
 10
87.49999999999818
 20
81.00000000000415
 30
0.0
 11
100.0
 21
81.00000000000415
 31
0.0
  0
LINE
  5
5D
330
2
100
AcDbEntity
  8
L-ZISSEN
100
AcDbLine
 10
68.0
 20
111.0000000000041
 30
0.0
 11
68.0
 21
87.0000000000037
 31
0.0
  0
LINE
  5
5E
330
2
100
AcDbEntity
  8
L-ZISSEN
100
AcDbLine
 10
81.99999999999818
 20
123.0000000000041
 30
0.0
 11
81.99999999999818
 21
86.50000000000369
 31
0.0
  0
LINE
  5
5F
330
2
100
AcDbEntity
  8
L-ZISSEN
100
AcDbLine
 10
68.5
 20
86.50000000000369
 30
0.0
 11
81.99999999999818
 21
86.50000000000369
 31
0.0
  0
ARC
  5
60
330
2
100
AcDbEntity
  8
L-ZISSEN
100
AcDbCircle
 10
68.5
 20
87.0000000000037
 30
0.0
 40
0.5000000000001137
100
AcDbArc
 50
180.0
 51
270.0
  0
LINE
  5
61
330
2
100
AcDbEntity
  8
L-ZISSEN
100
AcDbLine
 10
81.99999999999818
 20
86.50000000000369
 30
0.0
 11
87.49999999999818
 21
81.00000000000415
 31
0.0
  0
ARC
  5
62
330
2
100
AcDbEntity
  8
L-ZISSEN
100
AcDbCircle
 10
78.78679656440356
 20
171.1319546174915
 30
0.0
 40
34.1319546174875
100
AcDbArc
 50
255.082017639279
 51
284.9179823607209
  0
LINE
  5
63
330
2
100
AcDbEntity
  8
L-ZISSEN
100
AcDbLine
 10
65.49999999999818
 20
111.0000000000041
 30
0.0
 11
81.99999999999818
 21
111.0000000000041
 31
0.0
  0
LINE
  5
64
330
2
100
AcDbEntity
  8
L-ZISSEN
100
AcDbLine
 10
64.99999999999818
 20
135.0000000000041
 30
0.0
 11
64.99999999999818
 21
123.0000000000041
 31
0.0
  0
LINE
  5
65
330
2
100
AcDbEntity
  8
L-ZISSEN
100
AcDbLine
 10
64.99999999999818
 20
123.016279799329
 30
0.0
 11
64.99999999999818
 21
111.5162797993286
 31
0.0
  0
ARC
  5
66
330
2
100
AcDbEntity
  8
L-ZISSEN
100
AcDbCircle
 10
65.49999999999818
 20
111.5000000000042
 30
0.0
 40
0.5000000000001137
100
AcDbArc
 50
180.0
 51
270.0
  0
ARC
  5
67
330
2
100
AcDbEntity
  8
L-ZISSEN
100
AcDbCircle
 10
65.49999999999818
 20
111.5000000000042
 30
0.0
 40
0.5000000000001137
100
AcDbArc
 50
180.0
 51
270.0
  0
LINE
  5
68
330
2
100
AcDbEntity
  8
L-ZISSEN
100
AcDbLine
 10
70.64589198683825
 20
132.1199420327407
 30
0.0
 11
69.43098243022723
 21
132.1199420327407
 31
0.0
  0
LINE
  5
69
330
2
100
AcDbEntity
  8
L-ZISSEN
100
AcDbLine
 10
66.66730259226824
 20
130.1488068996259
 30
0.0
 11
73.4095718247936
 21
130.1488068996259
 31
0.0
  0
LINE
  5
6A
330
2
100
AcDbEntity
  8
L-ZISSEN
100
AcDbLine
 10
73.40957182479178
 20
129.0056729915227
 30
0.0
 11
66.66730259226824
 21
129.0056729915227
 31
0.0
  0
LINE
  5
6B
330
2
100
AcDbEntity
  8
L-ZISSEN
100
AcDbLine
 10
75.0768744170673
 20
129.0056729915227
 30
0.0
 11
64.99999999999818
 21
129.0056729915227
 31
0.0
  0
ARC
  5
6C
330
2
100
AcDbEntity
  8
L-ZISSEN
100
AcDbCircle
 10
69.37206319064717
 20
130.3900934112175
 30
0.0
 40
2.715501624969813
100
AcDbArc
 50
88.75673479208753
 51
185.0977525317111
  0
LINE
  5
6D
330
2
100
AcDbEntity
  8
L-ZISSEN
100
AcDbLine
 10
64.99999999999818
 20
129.0056729915227
 30
0.0
 11
64.99999999999818
 21
134.0162797993289
 31
0.0
  0
LINE
  5
6E
330
2
100
AcDbEntity
  8
L-ZISSEN
100
AcDbLine
 10
66.66730259226824
 20
129.0056729915227
 30
0.0
 11
66.66730259226824
 21
130.1488068996259
 31
0.0
  0
LINE
  5
6F
330
2
100
AcDbEntity
  8
L-ZISSEN
100
AcDbLine
 10
69.43098243022723
 20
132.1199420327407
 30
0.0
 11
69.43098243022723
 21
133.1049557647106
 31
0.0
  0
LINE
  5
70
330
2
100
AcDbEntity
  8
L-ZISSEN
100
AcDbLine
 10
75.0768744170673
 20
135.0000000000041
 30
0.0
 11
75.0768744170673
 21
129.0056729915227
 31
0.0
  0
ARC
  5
71
330
2
100
AcDbEntity
  8
L-ZISSEN
100
AcDbCircle
 10
70.70481122641467
 20
130.3900934112175
 30
0.0
 40
2.715501624969247
100
AcDbArc
 50
354.9022474682888
 51
91.24326520780833
  0
LINE
  5
72
330
2
100
AcDbEntity
  8
L-ZISSEN
100
AcDbLine
 10
73.4095718247936
 20
130.1488068996259
 30
0.0
 11
73.40957182479178
 21
129.0056729915227
 31
0.0
  0
LINE
  5
73
330
2
100
AcDbEntity
  8
L-ZISSEN
100
AcDbLine
 10
70.64589198683825
 20
133.1049557647106
 30
0.0
 11
70.64589198683825
 21
132.1199420327407
 31
0.0
  0
LINE
  5
74
330
2
100
AcDbEntity
  8
L-SAISEN
100
AcDbLine
 10
75.68865872680181
 20
137.1408989123587
 30
0.0
 11
75.68865872680181
 21
135.0000000000041
 31
0.0
  0
LINE
  5
75
330
2
100
AcDbEntity
  8
L-ZISSEN
100
AcDbLine
 10
74.0
 20
137.3373262771585
 30
0.0
 11
74.0
 21
135.0000000000041
 31
0.0
  0
CIRCLE
  5
77
330
2
100
AcDbEntity
  8
L-ZISSEN
100
AcDbCircle
 10
100.0
 20
100.0
 30
0.0
 40
9.314999999999999
  0
LINE
  5
78
330
2
100
AcDbEntity
  8
L-ZISSEN
100
AcDbLine
 10
112.4999999999981
 20
81.00000000000415
 30
0.0
 11
100.0
 21
81.00000000000415
 31
0.0
  0
ARC
  5
79
330
2
100
AcDbEntity
  8
L-ZISSEN
100
AcDbCircle
 10
100.0
 20
75.3112938943568
 30
0.0
 40
67.68870610564736
100
AcDbArc
 50
79.42154710243007
 51
100.57845289757
  0
ARC
  5
7A
330
2
100
AcDbEntity
  8
L-ZISSEN
100
AcDbCircle
 10
77.56058986421215
 20
161.3000000000041
 30
0.0
 40
2.299999999999999
100
AcDbArc
 50
179.1040647226659
 51
269.9999999999999
  0
ARC
  5
7B
330
2
100
AcDbEntity
  8
L-ZISSEN
100
AcDbCircle
 10
78.78679656440356
 20
108.8680453825166
 30
0.0
 40
34.1319546174875
100
AcDbArc
 50
75.082017639279
 51
104.9179823607209
  0
LINE
  5
7C
330
2
100
AcDbEntity
  8
L-ZISSEN
100
AcDbLine
 10
75.68865872680181
 20
148.0000000000041
 30
0.0
 11
74.0
 21
147.2685621409705
 31
0.0
  0
LINE
  5
7D
330
2
100
AcDbEntity
  8
L-ZISSEN
100
AcDbLine
 10
74.0
 20
147.2848419402953
 30
0.0
 11
74.0
 21
142.6626737228496
 31
0.0
  0
LINE
  5
7E
330
2
100
AcDbEntity
  8
L-SAISEN
100
AcDbLine
 10
75.68865872680181
 20
148.0162797993289
 30
0.0
 11
75.68865872680181
 21
142.8591010876495
 31
0.0
  0
LINE
  5
7F
330
2
100
AcDbEntity
  8
L-ZISSEN
100
AcDbLine
 10
79.74999999999638
 20
159.0000000000041
 30
0.0
 11
79.74999999999638
 21
157.0000000000041
 31
0.0
  0
LINE
  5
80
330
2
100
AcDbEntity
  8
L-ZISSEN
100
AcDbLine
 10
78.5
 20
157.0000000000041
 30
0.0
 11
78.5
 21
148.0162797993289
 31
0.0
  0
LINE
  5
81
330
2
100
AcDbEntity
  8
L-ZISSEN
100
AcDbLine
 10
130.0
 20
141.8495937413492
 30
0.0
 11
130.0
 21
138.150406258659
 31
0.0
  0
LINE
  5
82
330
2
100
AcDbEntity
  8
L-SOUZOU
100
AcDbLine
 10
145.5
 20
120.400000000003
 30
0.0
 11
160.0
 21
120.400000000003
 31
0.0
  0
LINE
  5
83
330
2
100
AcDbEntity
  8
L-SOUZOU
100
AcDbLine
 10
145.5
 20
79.60000000000286
 30
0.0
 11
160.0
 21
79.60000000000286
 31
0.0
  0
LINE
  5
85
330
2
100
AcDbEntity
  8
L-SOUZOU
100
AcDbLine
 10
144.0
 20
118.900000000003
 30
0.0
 11
144.0
 21
81.10000000000287
 31
0.0
  0
LINE
  5
86
330
2
100
AcDbEntity
  8
L-ZISSEN
100
AcDbLine
 10
132.0
 20
111.0000000000041
 30
0.0
 11
132.0
 21
87.0000000000037
 31
0.0
  0
LINE
  5
87
330
2
100
AcDbEntity
  8
L-ZISSEN
100
AcDbLine
 10
117.9999999999963
 20
123.0000000000041
 30
0.0
 11
118.0
 21
86.50000000000369
 31
0.0
  0
LINE
  5
88
330
2
100
AcDbEntity
  8
L-SOUZOU
100
AcDbLine
 10
135.0
 20
105.8784452929064
 30
0.0
 11
135.8836143276843
 21
106.7620596205908
 31
0.0
  0
LINE
  5
89
330
2
100
AcDbEntity
  8
L-SOUZOU
100
AcDbLine
 10
135.0
 20
94.12155470709922
 30
0.0
 11
135.8836143276843
 21
93.23794037941501
 31
0.0
  0
LINE
  5
8A
330
2
100
AcDbEntity
  8
L-SOUZOU
100
AcDbLine
 10
132.0
 20
106.6406906077941
 30
0.0
 11
136.4999999999998
 21
106.7813226354626
 31
0.0
  0
LINE
  5
8B
330
2
100
AcDbEntity
  8
L-SOUZOU
100
AcDbLine
 10
132.0
 20
93.35930939221141
 30
0.0
 11
136.4999999999998
 21
93.21867736454283
 31
0.0
  0
LINE
  5
8C
330
2
100
AcDbEntity
  8
L-ZISSEN
100
AcDbLine
 10
131.5000000000036
 20
86.50000000000369
 30
0.0
 11
118.0
 21
86.50000000000369
 31
0.0
  0
ARC
  5
8D
330
2
100
AcDbEntity
  8
L-ZISSEN
100
AcDbCircle
 10
131.5000000000036
 20
87.0000000000037
 30
0.0
 40
0.5000000000001137
100
AcDbArc
 50
270.0
 51
0.0
  0
LINE
  5
8E
330
2
100
AcDbEntity
  8
L-SOUZOU
100
AcDbLine
 10
135.0
 20
106.7344452929064
 30
0.0
 11
135.0000000000001
 21
93.26555470709923
 31
0.0
  0
LINE
  5
8F
330
2
100
AcDbEntity
  8
L-SOUZOU
100
AcDbLine
 10
132.0
 20
94.2153093922116
 30
0.0
 11
135.0
 21
94.12155470709922
 31
0.0
  0
LINE
  5
90
330
2
100
AcDbEntity
  8
L-SOUZOU
100
AcDbLine
 10
131.9999999999999
 20
105.784690607794
 30
0.0
 11
135.0
 21
105.8784452929064
 31
0.0
  0
ARC
  5
91
330
2
100
AcDbEntity
  8
L-SOUZOU
100
AcDbCircle
 10
145.5
 20
81.10000000000287
 30
0.0
 40
1.5
100
AcDbArc
 50
180.0
 51
270.0
  0
LINE
  5
92
330
2
100
AcDbEntity
  8
L-SOUZOU
100
AcDbLine
 10
136.4999999999999
 20
106.8000000000029
 30
0.0
 11
144.0
 21
106.8000000000031
 31
0.0
  0
LINE
  5
93
330
2
100
AcDbEntity
  8
L-SOUZOU
100
AcDbLine
 10
136.4999999999999
 20
93.200000000003
 30
0.0
 11
144.0
 21
93.20000000000277
 31
0.0
  0
LINE
  5
94
330
2
100
AcDbEntity
  8
L-SOUZOU
100
AcDbLine
 10
136.4999999999999
 20
106.8000000000029
 30
0.0
 11
136.4999999999999
 21
93.20000000000277
 31
0.0
  0
LINE
  5
95
330
2
100
AcDbEntity
  8
L-ZISSEN
100
AcDbLine
 10
130.5690175697691
 20
132.1199420327407
 30
0.0
 11
129.3541080131617
 21
132.1199420327407
 31
0.0
  0
LINE
  5
96
330
2
100
AcDbEntity
  8
L-ZISSEN
100
AcDbLine
 10
126.5904281752027
 20
130.1488068996259
 30
0.0
 11
133.3326974077244
 21
130.1488068996259
 31
0.0
  0
LINE
  5
97
330
2
100
AcDbEntity
  8
L-ZISSEN
100
AcDbLine
 10
133.3326974077244
 20
129.0056729915227
 30
0.0
 11
126.5904281752027
 21
129.0056729915227
 31
0.0
  0
LINE
  5
98
330
2
100
AcDbEntity
  8
L-ZISSEN
100
AcDbLine
 10
124.923125582929
 20
129.0056729915227
 30
0.0
 11
134.9999999999981
 21
129.0056729915227
 31
0.0
  0
LINE
  5
99
330
2
100
AcDbEntity
  8
L-ZISSEN
100
AcDbLine
 10
134.4999999999981
 20
111.0000000000041
 30
0.0
 11
118.0
 21
111.0000000000041
 31
0.0
  0
LINE
  5
9B
330
2
100
AcDbEntity
  8
L-ZISSEN
100
AcDbLine
 10
124.923125582929
 20
135.0000000000041
 30
0.0
 11
124.923125582929
 21
129.0056729915227
 31
0.0
  0
ARC
  5
9C
330
2
100
AcDbEntity
  8
L-ZISSEN
100
AcDbCircle
 10
129.2951887735816
 20
130.3900934112175
 30
0.0
 40
2.715501624969813
100
AcDbArc
 50
88.7567347921917
 51
185.0977525317111
  0
LINE
  5
9D
330
2
100
AcDbEntity
  8
L-ZISSEN
100
AcDbLine
 10
126.5904281752027
 20
129.0056729915227
 30
0.0
 11
126.5904281752027
 21
130.1488068996259
 31
0.0
  0
LINE
  5
9E
330
2
100
AcDbEntity
  8
L-ZISSEN
100
AcDbLine
 10
129.3541080131617
 20
132.1199420327407
 30
0.0
 11
129.3541080131617
 21
133.1049557647106
 31
0.0
  0
LINE
  5
9F
330
2
100
AcDbEntity
  8
L-SAISEN
100
AcDbLine
 10
124.3113412731982
 20
137.1408989123587
 30
0.0
 11
124.3113412731982
 21
135.0000000000041
 31
0.0
  0
LINE
  5
A0
330
2
100
AcDbEntity
  8
L-ZISSEN
100
AcDbLine
 10
126.0
 20
137.3373262771585
 30
0.0
 11
126.0
 21
135.0000000000041
 31
0.0
  0
LINE
  5
A1
330
2
100
AcDbEntity
  8
L-ZISSEN
100
AcDbLine
 10
134.9999999999982
 20
135.0000000000041
 30
0.0
 11
134.9999999999981
 21
124.0162797993293
 31
0.0
  0
LINE
  5
A2
330
2
100
AcDbEntity
  8
L-ZISSEN
100
AcDbLine
 10
134.9999999999981
 20
124.0162797993293
 30
0.0
 11
134.9999999999981
 21
111.5000000000042
 31
0.0
  0
ARC
  5
A3
330
2
100
AcDbEntity
  8
L-ZISSEN
100
AcDbCircle
 10
134.5000000000018
 20
111.5000000000042
 30
0.0
 40
0.5000000000001137
100
AcDbArc
 50
270.0
 51
0.000000000000007
  0
ARC
  5
A4
330
2
100
AcDbEntity
  8
L-ZISSEN
100
AcDbCircle
 10
134.5000000000018
 20
111.5000000000042
 30
0.0
 40
0.5000000000001137
100
AcDbArc
 50
270.0
 51
0.000000000000007
  0
ARC
  5
A5
330
2
100
AcDbEntity
  8
L-SOUZOU
100
AcDbCircle
 10
145.5
 20
118.900000000003
 30
0.0
 40
1.5
100
AcDbArc
 50
90.0
 51
180.0
  0
LINE
  5
A6
330
2
100
AcDbEntity
  8
L-ZISSEN
100
AcDbLine
 10
134.9999999999981
 20
129.0056729915227
 30
0.0
 11
134.9999999999981
 21
134.0162797993289
 31
0.0
  0
ARC
  5
A7
330
2
100
AcDbEntity
  8
L-ZISSEN
100
AcDbCircle
 10
130.6279368093491
 20
130.3900934112175
 30
0.0
 40
2.715501624968398
100
AcDbArc
 50
354.9022474682888
 51
91.24326520780833
  0
LINE
  5
A8
330
2
100
AcDbEntity
  8
L-ZISSEN
100
AcDbLine
 10
133.3326974077244
 20
130.1488068996259
 30
0.0
 11
133.3326974077244
 21
129.0056729915227
 31
0.0
  0
LINE
  5
A9
330
2
100
AcDbEntity
  8
L-ZISSEN
100
AcDbLine
 10
130.5690175697691
 20
133.1049557647106
 30
0.0
 11
130.5690175697691
 21
132.1199420327407
 31
0.0
  0
LINE
  5
AA
330
2
100
AcDbEntity
  8
L-SOUZOU
 48
0.5
100
AcDbLine
 10
134.9999999999981
 20
137.000000000004
 30
0.0
 11
134.9999999999981
 21
135.0000000000041
 31
0.0
  0
LINE
  5
AB
330
2
100
AcDbEntity
  8
L-SOUZOU
100
AcDbLine
 10
169.0
 20
119.5000000000029
 30
0.0
 11
169.0
 21
80.50000000000295
 31
0.0
  0
LINE
  5
AC
330
2
100
AcDbEntity
  8
L-SOUZOU
100
AcDbLine
 10
160.0
 20
121.0000000000029
 30
0.0
 11
160.0
 21
79.00000000000296
 31
0.0
  0
LINE
  5
AD
330
2
100
AcDbEntity
  8
L-SOUZOU
100
AcDbLine
 10
160.0
 20
79.00000000000296
 30
0.0
 11
167.5
 21
79.00000000000296
 31
0.0
  0
ARC
  5
AE
330
2
100
AcDbEntity
  8
L-SOUZOU
100
AcDbCircle
 10
167.5
 20
80.50000000000295
 30
0.0
 40
1.5
100
AcDbArc
 50
270.0
 51
0.0
  0
LINE
  5
AF
330
2
100
AcDbEntity
  8
L-SOUZOU
100
AcDbLine
 10
160.0
 20
121.0000000000029
 30
0.0
 11
167.5
 21
121.0000000000029
 31
0.0
  0
ARC
  5
B0
330
2
100
AcDbEntity
  8
L-SOUZOU
100
AcDbCircle
 10
167.5
 20
119.5000000000029
 30
0.0
 40
1.5
100
AcDbArc
 50
0.0
 51
90.0
  0
LINE
  5
B1
330
2
100
AcDbEntity
  8
L-ZISSEN
100
AcDbLine
 10
120.2499999999963
 20
159.0000000000041
 30
0.0
 11
120.2499999999963
 21
157.0000000000041
 31
0.0
  0
LINE
  5
B2
330
2
100
AcDbEntity
  8
L-ZISSEN
100
AcDbLine
 10
121.5
 20
157.0000000000041
 30
0.0
 11
121.5
 21
148.0162797993289
 31
0.0
  0
LINE
  5
B3
330
2
100
AcDbEntity
  8
L-ZISSEN
100
AcDbLine
 10
124.3113412731927
 20
148.0000000000041
 30
0.0
 11
126.0
 21
147.2685621409705
 31
0.0
  0
LINE
  5
B4
330
2
100
AcDbEntity
  8
L-ZISSEN
100
AcDbLine
 10
125.9999999999999
 20
147.2685621409705
 30
0.0
 11
125.9999999999999
 21
142.6626737228496
 31
0.0
  0
LINE
  5
B5
330
2
100
AcDbEntity
  8
L-SAISEN
100
AcDbLine
 10
124.3113412731927
 20
148.0000000000041
 30
0.0
 11
124.3113412731927
 21
142.85910108765
 31
0.0
  0
ARC
  5
B6
330
2
100
AcDbEntity
  8
L-ZISSEN
100
AcDbCircle
 10
122.4394101357805
 20
161.3000000000041
 30
0.0
 40
2.299999999999999
100
AcDbArc
 50
270.0
 51
0.8959352773339897
  0
LINE
  5
B7
330
2
100
AcDbEntity
  8
L-SOUZOU
100
AcDbLine
 10
53.99999999999636
 20
385.0000000000004
 30
0.0
 11
103.9357563996326
 21
377.9744941252371
 31
0.0
  0
LINE
  5
B8
330
2
100
AcDbEntity
  8
L-SOUZOU
100
AcDbLine
 10
53.99999999999636
 20
315.0000000000042
 30
0.0
 11
103.9357563996326
 21
322.0255058747675
 31
0.0
  0
LINE
  5
B9
330
2
100
AcDbEntity
  8
L-TYUSIN
100
AcDbLine
 10
44.38766757341091
 20
350.0000000000003
 30
0.0
 11
168.4999999999824
 21
350.0000000000066
 31
0.0
  0
LINE
  5
BA
330
2
100
AcDbEntity
  8
L-SOUZOU
100
AcDbLine
 10
51.99999999999636
 20
315.0000000000042
 30
0.0
 11
51.99999999999636
 21
385.0000000000004
 31
0.0
  0
LINE
  5
BB
330
2
100
AcDbEntity
  8
L-SOUZOU
100
AcDbLine
 10
53.99999999999637
 20
315.0000000000042
 30
0.0
 11
53.99999999999636
 21
385.0000000000004
 31
0.0
  0
LINE
  5
BC
330
2
100
AcDbEntity
  8
L-TYUSIN
100
AcDbLine
 10
46.99999999999638
 20
323.0000000000011
 30
0.0
 11
58.99999999999636
 21
323.0000000000011
 31
0.0
  0
LINE
  5
BD
330
2
100
AcDbEntity
  8
L-SOUZOU
100
AcDbLine
 10
51.99999999999636
 20
315.0000000000042
 30
0.0
 11
53.99999999999636
 21
315.0000000000042
 31
0.0
  0
LINE
  5
BE
330
2
100
AcDbEntity
  8
L-TYUSIN
100
AcDbLine
 10
58.99999999999637
 20
377.000000000001
 30
0.0
 11
46.99999999999637
 21
377.0000000000011
 31
0.0
  0
LINE
  5
BF
330
2
100
AcDbEntity
  8
L-SOUZOU
100
AcDbLine
 10
51.99999999999636
 20
385.0000000000004
 30
0.0
 11
53.99999999999636
 21
385.0000000000004
 31
0.0
  0
LINE
  5
C0
330
2
100
AcDbEntity
  8
L-SOUZOU
100
AcDbLine
 10
163.4999999999824
 20
369.5000000000045
 30
0.0
 11
163.4999999999824
 21
330.5000000000045
 31
0.0
  0
LINE
  5
C1
330
2
100
AcDbEntity
  8
L-SOUZOU
100
AcDbLine
 10
154.4999999999824
 20
371.0000000000044
 30
0.0
 11
154.4999999999824
 21
329.0000000000044
 31
0.0
  0
LINE
  5
C2
330
2
100
AcDbEntity
  8
L-SOUZOU
100
AcDbLine
 10
138.4999999999825
 20
368.9000000000045
 30
0.0
 11
138.4999999999825
 21
331.1000000000043
 31
0.0
  0
LINE
  5
C3
330
2
100
AcDbEntity
  8
L-ZISSEN
100
AcDbLine
 10
135.0
 20
322.2688092649309
 30
0.0
 11
135.0
 21
377.7311907350707
 31
0.0
  0
LINE
  5
C4
330
2
100
AcDbEntity
  8
L-ZISSEN
100
AcDbLine
 10
65.00000000000001
 20
377.7311907350707
 30
0.0
 11
65.00000000000001
 21
322.2688092649308
 31
0.0
  0
POLYLINE
  5
C5
330
2
100
AcDbEntity
  8
L-ZISSEN
100
AcDb2dPolyline
 66
     1
 10
0.0
 20
0.0
 30
0.0
 70
     1
  0
VERTEX
  5
45F
330
C5
100
AcDbEntity
  8
L-ZISSEN
100
AcDbVertex
100
AcDb2dVertex
 10
87.57359312880714
 20
380.0000000000018
 30
0.0
  0
VERTEX
  5
460
330
C5
100
AcDbEntity
  8
L-ZISSEN
100
AcDbVertex
100
AcDb2dVertex
 10
70.0
 20
362.4264068711947
 30
0.0
  0
VERTEX
  5
461
330
C5
100
AcDbEntity
  8
L-ZISSEN
100
AcDbVertex
100
AcDb2dVertex
 10
70.0
 20
337.573593128809
 30
0.0
  0
VERTEX
  5
462
330
C5
100
AcDbEntity
  8
L-ZISSEN
100
AcDbVertex
100
AcDb2dVertex
 10
87.57359312880714
 20
320.0000000000018
 30
0.0
  0
VERTEX
  5
463
330
C5
100
AcDbEntity
  8
L-ZISSEN
100
AcDbVertex
100
AcDb2dVertex
 10
112.4264068711928
 20
320.0000000000018
 30
0.0
  0
VERTEX
  5
464
330
C5
100
AcDbEntity
  8
L-ZISSEN
100
AcDbVertex
100
AcDb2dVertex
 10
130.0
 20
337.573593128809
 30
0.0
  0
VERTEX
  5
465
330
C5
100
AcDbEntity
  8
L-ZISSEN
100
AcDbVertex
100
AcDb2dVertex
 10
130.0
 20
362.4264068711947
 30
0.0
  0
VERTEX
  5
466
330
C5
100
AcDbEntity
  8
L-ZISSEN
100
AcDbVertex
100
AcDb2dVertex
 10
112.4264068711928
 20
380.0000000000018
 30
0.0
  0
SEQEND
  5
467
330
C5
100
AcDbEntity
  8
L-ZISSEN
  0
CIRCLE
  5
C6
330
2
100
AcDbEntity
  8
L-ZISSEN
100
AcDbCircle
 10
100.0
 20
350.0000000000018
 30
0.0
 40
30.0
  0
CIRCLE
  5
C7
330
2
100
AcDbEntity
  8
L-ZISSEN
100
AcDbCircle
 10
100.0
 20
350.0000000000018
 30
0.0
 40
23.96246809175248
  0
CIRCLE
  5
C8
330
2
100
AcDbEntity
  8
L-ZISSEN
100
AcDbCircle
 10
100.0
 20
350.0000000000018
 30
0.0
 40
24.77565943703641
  0
CIRCLE
  5
C9
330
2
100
AcDbEntity
  8
L-SOUZOU
100
AcDbCircle
 10
100.0
 20
350.0000000000031
 30
0.0
 40
26.0
  0
ARC
  5
CA
330
2
100
AcDbEntity
  8
L-SOUZOU
100
AcDbCircle
 10
100.0
 20
350.0000000000031
 30
0.0
 40
28.25
100
AcDbArc
 50
278.0084306809337
 51
81.99156931906628
  0
LINE
  5
CB
330
2
100
AcDbEntity
  8
L-TYUSIN
100
AcDbLine
 10
100.0
 20
310.0000000000031
 30
0.0
 11
100.0
 21
390.0000000000031
 31
0.0
  0
LINE
  5
CC
330
2
100
AcDbEntity
  8
L-ZISSEN
100
AcDbLine
 10
81.99999999999999
 20
315.0000000000005
 30
0.0
 11
118.0
 21
315.0000000000007
 31
0.0
  0
LINE
  5
CD
330
2
100
AcDbEntity
  8
L-ZISSEN
100
AcDbLine
 10
122.0
 20
211.0000000000041
 30
0.0
 11
77.99999999999818
 21
211.0000000000041
 31
0.0
  0
LINE
  5
CE
330
2
100
AcDbEntity
  8
L-ZISSEN
100
AcDbLine
 10
75.99999999999636
 20
208.600000000004
 30
0.0
 11
77.99999999999818
 21
211.0000000000041
 31
0.0
  0
LINE
  5
CF
330
2
100
AcDbEntity
  8
L-ZISSEN
100
AcDbLine
 10
82.00000000000001
 20
318.5000000000009
 30
0.0
 11
64.99999999999994
 21
322.2688092649309
 31
0.0
  0
CIRCLE
  5
D0
330
2
100
AcDbEntity
  8
L-ZISSEN
100
AcDbCircle
 10
70.0
 20
326.5000000000015
 30
0.0
 40
4.45
  0
LINE
  5
D1
330
2
100
AcDbEntity
  8
L-ZISSEN
100
AcDbLine
 10
82.0
 20
315.0000000000005
 30
0.0
 11
82.0
 21
318.5000000000009
 31
0.0
  0
LINE
  5
D2
330
2
100
AcDbEntity
  8
L-ZISSEN
100
AcDbLine
 10
123.9999999999963
 20
208.600000000004
 30
0.0
 11
122.0
 21
211.0000000000041
 31
0.0
  0
LINE
  5
D3
330
2
100
AcDbEntity
  8
L-SOUZOU
100
AcDbLine
 10
139.9999999999824
 20
329.6000000000044
 30
0.0
 11
154.4999999999824
 21
329.6000000000044
 31
0.0
  0
LINE
  5
D4
330
2
100
AcDbEntity
  8
L-ZISSEN
100
AcDbLine
 10
117.9999999999999
 20
318.5000000000009
 30
0.0
 11
135.0
 21
322.2688092649309
 31
0.0
  0
CIRCLE
  5
D5
330
2
100
AcDbEntity
  8
L-ZISSEN
100
AcDbCircle
 10
130.0
 20
326.5000000000015
 30
0.0
 40
4.45
  0
LINE
  5
D6
330
2
100
AcDbEntity
  8
L-ZISSEN
100
AcDbLine
 10
117.9999999999999
 20
318.5000000000009
 30
0.0
 11
118.0
 21
315.0000000000007
 31
0.0
  0
ARC
  5
D7
330
2
100
AcDbEntity
  8
L-SOUZOU
100
AcDbCircle
 10
139.9999999999824
 20
331.1000000000043
 30
0.0
 40
1.5
100
AcDbArc
 50
180.0
 51
270.0
  0
LINE
  5
D8
330
2
100
AcDbEntity
  8
L-SOUZOU
100
AcDbLine
 10
154.4999999999824
 20
329.0000000000044
 30
0.0
 11
161.9999999999824
 21
329.0000000000044
 31
0.0
  0
ARC
  5
D9
330
2
100
AcDbEntity
  8
L-SOUZOU
100
AcDbCircle
 10
161.9999999999824
 20
330.5000000000045
 30
0.0
 40
1.5
100
AcDbArc
 50
270.0
 51
0.0
  0
LINE
  5
DA
330
2
100
AcDbEntity
  8
L-ZISSEN
100
AcDbLine
 10
118.0
 20
385.0000000000006
 30
0.0
 11
82.0
 21
385.0000000000006
 31
0.0
  0
LINE
  5
DB
330
2
100
AcDbEntity
  8
L-ZISSEN
100
AcDbLine
 10
82.00000000000001
 20
381.5000000000007
 30
0.0
 11
64.99999999999994
 21
377.7311907350707
 31
0.0
  0
CIRCLE
  5
DC
330
2
100
AcDbEntity
  8
L-ZISSEN
100
AcDbCircle
 10
70.0
 20
373.5000000000051
 30
0.0
 40
4.45
  0
LINE
  5
DD
330
2
100
AcDbEntity
  8
L-ZISSEN
100
AcDbLine
 10
82.0
 20
381.5000000000007
 30
0.0
 11
82.0
 21
385.0000000000005
 31
0.0
  0
LINE
  5
DE
330
2
100
AcDbEntity
  8
L-SOUZOU
100
AcDbLine
 10
139.9999999999824
 20
370.4000000000045
 30
0.0
 11
154.4999999999824
 21
370.4000000000045
 31
0.0
  0
LINE
  5
DF
330
2
100
AcDbEntity
  8
L-SOUZOU
100
AcDbLine
 10
135.0
 20
343.2000000000043
 30
0.0
 11
138.4999999999825
 21
343.2000000000043
 31
0.0
  0
LINE
  5
E0
330
2
100
AcDbEntity
  8
L-SOUZOU
100
AcDbLine
 10
135.0
 20
356.8000000000045
 30
0.0
 11
138.4999999999825
 21
356.8000000000046
 31
0.0
  0
LINE
  5
E1
330
2
100
AcDbEntity
  8
L-ZISSEN
100
AcDbLine
 10
117.9999999999999
 20
381.5000000000007
 30
0.0
 11
135.0
 21
377.7311907350707
 31
0.0
  0
CIRCLE
  5
E2
330
2
100
AcDbEntity
  8
L-ZISSEN
100
AcDbCircle
 10
130.0
 20
373.5000000000051
 30
0.0
 40
4.45
  0
LINE
  5
E3
330
2
100
AcDbEntity
  8
L-ZISSEN
100
AcDbLine
 10
118.0
 20
385.0000000000006
 30
0.0
 11
117.9999999999999
 21
381.5000000000007
 31
0.0
  0
ARC
  5
E4
330
2
100
AcDbEntity
  8
L-SOUZOU
100
AcDbCircle
 10
139.9999999999824
 20
368.9000000000045
 30
0.0
 40
1.5
100
AcDbArc
 50
90.0
 51
180.0
  0
LINE
  5
E5
330
2
100
AcDbEntity
  8
L-SOUZOU
100
AcDbLine
 10
154.4999999999824
 20
371.0000000000044
 30
0.0
 11
161.9999999999824
 21
371.0000000000044
 31
0.0
  0
ARC
  5
E6
330
2
100
AcDbEntity
  8
L-SOUZOU
100
AcDbCircle
 10
161.9999999999824
 20
369.5000000000045
 30
0.0
 40
1.5
100
AcDbArc
 50
0.0
 51
90.0
  0
LINE
  5
E7
330
2
100
AcDbEntity
  8
L-TYUSIN
100
AcDbLine
 10
300.0
 20
58.00000000000046
 30
0.0
 11
300.0
 21
213.2530432270154
 31
0.0
  0
LINE
  5
E8
330
2
100
AcDbEntity
  8
L-ZISSEN
100
AcDbLine
 10
275.9999999999963
 20
208.600000000004
 30
0.0
 11
275.2608710523531
 21
161.3359636814347
 31
0.0
  0
LINE
  5
E9
330
2
100
AcDbEntity
  8
L-ZISSEN
100
AcDbLine
 10
323.9999999999963
 20
208.600000000004
 30
0.0
 11
324.7391289476395
 21
161.3359636814347
 31
0.0
  0
LINE
  5
EA
330
2
100
AcDbEntity
  8
L-TYUSIN
100
AcDbLine
 10
260.0
 20
100.0
 30
0.0
 11
340.0000000000036
 21
100.0
 31
0.0
  0
LINE
  5
EB
330
2
100
AcDbEntity
  8
L-ZISSEN
100
AcDbLine
 10
275.0
 20
74.00000000000415
 30
0.0
 11
325.0
 21
74.00000000000415
 31
0.0
  0
LINE
  5
EC
330
2
100
AcDbEntity
  8
L-ZISSEN
100
AcDbLine
 10
265.5
 20
82.49999999999955
 30
0.0
 11
278.426201464832
 21
82.49999999999955
 31
0.0
  0
LINE
  5
ED
330
2
100
AcDbEntity
  8
L-ZISSEN
100
AcDbLine
 10
275.0
 20
70.49999999999954
 30
0.0
 11
276.5000000000018
 21
69.0
 31
0.0
  0
LINE
  5
EE
330
2
100
AcDbEntity
  8
L-ZISSEN
100
AcDbLine
 10
270.0
 20
84.50000000000001
 30
0.0
 11
279.5000000000036
 21
84.50000000000001
 31
0.0
  0
LINE
  5
EF
330
2
100
AcDbEntity
  8
L-SOUZOU
100
AcDbLine
 10
335.0
 20
135.0000000000041
 30
0.0
 11
265.0
 21
135.0000000000041
 31
0.0
  0
LINE
  5
F0
330
2
100
AcDbEntity
  8
L-ZISSEN
100
AcDbLine
 10
335.0
 20
123.0000000000041
 30
0.0
 11
265.0
 21
123.0000000000041
 31
0.0
  0
LINE
  5
F1
330
2
100
AcDbEntity
  8
L-SOUZOU
100
AcDbLine
 10
335.0
 20
137.000000000004
 30
0.0
 11
265.0
 21
137.000000000004
 31
0.0
  0
LINE
  5
F2
330
2
100
AcDbEntity
  8
L-ZISSEN
100
AcDbLine
 10
332.0000000000018
 20
111.0000000000041
 30
0.0
 11
268.0000000000036
 21
111.0000000000041
 31
0.0
  0
LINE
  5
F3
330
2
100
AcDbEntity
  8
L-ZISSEN
100
AcDbLine
 10
335.0
 20
135.0000000000041
 30
0.0
 11
264.9999999999999
 21
135.0000000000041
 31
0.0
  0
LINE
  5
F4
330
2
100
AcDbEntity
  8
L-ZISSEN
100
AcDbLine
 10
275.6886587268054
 20
147.0000000000004
 30
0.0
 11
324.3113412731945
 21
147.0000000000004
 31
0.0
  0
ARC
  5
F5
330
2
100
AcDbEntity
  8
L-ZISSEN
100
AcDbCircle
 10
278.7867965644035
 20
171.1319546174915
 30
0.0
 40
34.1319546174875
100
AcDbArc
 50
255.082017639279
 51
284.9179823607209
  0
ARC
  5
F6
330
2
100
AcDbEntity
  8
L-ZISSEN
100
AcDbCircle
 10
278.7867965644035
 20
108.8680453825166
 30
0.0
 40
34.1319546174875
100
AcDbArc
 50
75.082017639279
 51
104.9179823607209
  0
LINE
  5
F7
330
2
100
AcDbEntity
  8
L-TYUSIN
 48
0.5
100
AcDbLine
 10
280.5000000000018
 20
151.9999999999977
 30
0.0
 11
265.5000000000018
 21
151.9999999999977
 31
0.0
  0
ARC
  5
F8
330
2
100
AcDbEntity
  8
L-ZISSEN
100
AcDbCircle
 10
277.5605898642121
 20
161.3000000000041
 30
0.0
 40
2.299999999999999
100
AcDbArc
 50
179.1040647226659
 51
269.9999999999999
  0
ARC
  5
F9
330
2
100
AcDbEntity
  8
L-SOUZOU
100
AcDbCircle
 10
274.0500000000036
 20
151.9999999999977
 30
0.0
 40
4.199999999999988
100
AcDbArc
 50
270.0
 51
90.0
  0
LINE
  5
FA
330
2
100
AcDbEntity
  8
L-ZISSEN
100
AcDbLine
 10
275.0
 20
82.49999999999955
 30
0.0
 11
275.0
 21
74.00000000000416
 31
0.0
  0
LINE
  5
FB
330
2
100
AcDbEntity
  8
L-ZISSEN
100
AcDbLine
 10
275.0
 20
74.00000000000415
 30
0.0
 11
275.0
 21
70.49999999999954
 31
0.0
  0
LINE
  5
FC
330
2
100
AcDbEntity
  8
L-SOUZOU
100
AcDbLine
 10
265.0
 20
135.0000000000041
 30
0.0
 11
265.0
 21
161.0000000000046
 31
0.0
  0
LINE
  5
FD
330
2
100
AcDbEntity
  8
L-ZISSEN
100
AcDbLine
 10
270.0
 20
141.8495937413492
 30
0.0
 11
270.0
 21
138.150406258659
 31
0.0
  0
LINE
  5
FE
330
2
100
AcDbEntity
  8
L-ZISSEN
100
AcDbLine
 10
265.0
 20
116.5000000000041
 30
0.0
 11
265.0
 21
82.99999999999954
 31
0.0
  0
LINE
  5
FF
330
2
100
AcDbEntity
  8
L-ZISSEN
100
AcDbLine
 10
268.0000000000036
 20
88.50000000000045
 30
0.0
 11
268.0000000000036
 21
111.0000000000041
 31
0.0
  0
LINE
  5
100
330
2
100
AcDbEntity
  8
L-ZISSEN
100
AcDbLine
 10
270.0
 20
84.50000000000001
 30
0.0
 11
270.0
 21
111.0000000000041
 31
0.0
  0
LINE
  5
101
330
2
100
AcDbEntity
  8
L-ZISSEN
100
AcDbLine
 10
265.0
 20
82.49999999999955
 30
0.0
 11
270.0
 21
82.49999999999955
 31
0.0
  0
LINE
  5
102
330
2
100
AcDbEntity
  8
L-ZISSEN
100
AcDbLine
 10
268.0000000000036
 20
88.50000000000045
 30
0.0
 11
270.0
 21
84.50000000000001
 31
0.0
  0
LINE
  5
103
330
2
100
AcDbEntity
  8
L-ZISSEN
100
AcDbLine
 10
265.0
 20
82.49999999999955
 30
0.0
 11
265.0
 21
88.50000000000045
 31
0.0
  0
LINE
  5
104
330
2
100
AcDbEntity
  8
L-ZISSEN
100
AcDbLine
 10
265.0
 20
82.49999999999955
 30
0.0
 11
268.0000000000036
 21
82.49999999999955
 31
0.0
  0
ARC
  5
105
330
2
100
AcDbEntity
  8
L-ZISSEN
100
AcDbCircle
 10
265.5
 20
82.99999999999954
 30
0.0
 40
0.5000000000001137
100
AcDbArc
 50
180.0
 51
270.0
  0
LINE
  5
106
330
2
100
AcDbEntity
  8
L-ZISSEN
100
AcDbLine
 10
265.0
 20
88.50000000000045
 30
0.0
 11
268.0000000000036
 21
88.50000000000045
 31
0.0
  0
LINE
  5
107
330
2
100
AcDbEntity
  8
L-ZISSEN
100
AcDbLine
 10
264.9999999999998
 20
135.0000000000041
 30
0.0
 11
265.0
 21
120.0000000000041
 31
0.0
  0
LINE
  5
108
330
2
100
AcDbEntity
  8
L-ZISSEN
100
AcDbLine
 10
267.3893891409461
 20
120.0000000000041
 30
0.0
 11
267.3893891409461
 21
116.5000000000041
 31
0.0
  0
LINE
  5
109
330
2
100
AcDbEntity
  8
L-ZISSEN
100
AcDbLine
 10
268.5
 20
123.0000000000041
 30
0.0
 11
268.5
 21
111.0000000000041
 31
0.0
  0
LINE
  5
10A
330
2
100
AcDbEntity
  8
L-ZISSEN
100
AcDbLine
 10
265.0
 20
116.5000000000041
 30
0.0
 11
267.3893891409461
 21
116.5000000000041
 31
0.0
  0
LINE
  5
10B
330
2
100
AcDbEntity
  8
L-ZISSEN
100
AcDbLine
 10
265.0
 20
120.0000000000041
 30
0.0
 11
267.3893891409461
 21
120.0000000000041
 31
0.0
  0
LINE
  5
10C
330
2
100
AcDbEntity
  8
L-ZISSEN
100
AcDbLine
 10
272.5
 20
111.0000000000041
 30
0.0
 11
272.5
 21
123.0000000000041
 31
0.0
  0
LINE
  5
10D
330
2
100
AcDbEntity
  8
L-ZISSEN
100
AcDbLine
 10
272.5
 20
123.0000000000041
 30
0.0
 11
272.5
 21
111.9999999999995
 31
0.0
  0
LINE
  5
10E
330
2
100
AcDbEntity
  8
L-ZISSEN
100
AcDbLine
 10
275.0768744170672
 20
128.9893931921933
 30
0.0
 11
265.0
 21
128.9893931921933
 31
0.0
  0
LINE
  5
10F
330
2
100
AcDbEntity
  8
L-ZISSEN
100
AcDbLine
 10
273.4095718247936
 20
128.9893931921933
 30
0.0
 11
266.6673025922737
 21
128.9893931921933
 31
0.0
  0
LINE
  5
110
330
2
100
AcDbEntity
  8
L-ZISSEN
100
AcDbLine
 10
266.6673025922737
 20
130.132527100297
 30
0.0
 11
273.4095718247936
 21
130.1325271002965
 31
0.0
  0
LINE
  5
111
330
2
100
AcDbEntity
  8
L-ZISSEN
100
AcDbLine
 10
270.6458919868382
 20
132.1036622334113
 30
0.0
 11
269.430982430229
 21
132.1036622334113
 31
0.0
  0
ARC
  5
112
330
2
100
AcDbEntity
  8
L-ZISSEN
100
AcDbCircle
 10
269.3720631906507
 20
130.3738136118881
 30
0.0
 40
2.715501624969762
100
AcDbArc
 50
88.7567347921917
 51
185.0977525317111
  0
LINE
  5
113
330
2
100
AcDbEntity
  8
L-ZISSEN
100
AcDbLine
 10
266.6673025922737
 20
128.9893931921933
 30
0.0
 11
266.6673025922737
 21
130.132527100297
 31
0.0
  0
LINE
  5
114
330
2
100
AcDbEntity
  8
L-ZISSEN
100
AcDbLine
 10
269.430982430229
 20
132.1036622334113
 30
0.0
 11
269.430982430229
 21
133.0886759653812
 31
0.0
  0
ARC
  5
115
330
2
100
AcDbEntity
  8
L-ZISSEN
100
AcDbCircle
 10
270.7048112264183
 20
130.3738136118881
 30
0.0
 40
2.715501624969247
100
AcDbArc
 50
354.9022474682888
 51
91.24326520780833
  0
LINE
  5
116
330
2
100
AcDbEntity
  8
L-ZISSEN
100
AcDbLine
 10
275.0768744170672
 20
135.0000000000041
 30
0.0
 11
275.0768744170672
 21
128.9893931921933
 31
0.0
  0
LINE
  5
117
330
2
100
AcDbEntity
  8
L-ZISSEN
100
AcDbLine
 10
270.6458919868382
 20
133.0886759653812
 30
0.0
 11
270.6458919868382
 21
132.1036622334113
 31
0.0
  0
LINE
  5
118
330
2
100
AcDbEntity
  8
L-ZISSEN
100
AcDbLine
 10
273.4095718247936
 20
130.1325271002965
 30
0.0
 11
273.4095718247936
 21
128.9893931921933
 31
0.0
  0
LINE
  5
119
330
2
100
AcDbEntity
  8
L-ZISSEN
100
AcDbLine
 10
274.0
 20
137.3373262771585
 30
0.0
 11
274.0
 21
135.0000000000041
 31
0.0
  0
LINE
  5
11A
330
2
100
AcDbEntity
  8
L-SAISEN
100
AcDbLine
 10
275.6886587268017
 20
137.1408989123587
 30
0.0
 11
275.6886587268017
 21
135.0000000000041
 31
0.0
  0
LINE
  5
11B
330
2
100
AcDbEntity
  8
L-TYUSIN
100
AcDbLine
 10
273.0000000000036
 20
158.4999999999972
 30
0.0
 11
273.0000000000036
 21
145.4999999999977
 31
0.0
  0
ARC
  5
11C
330
2
100
AcDbEntity
  8
L-SOUZOU
100
AcDbCircle
 10
271.9500000000036
 20
151.9999999999977
 30
0.0
 40
4.199999999999988
100
AcDbArc
 50
90.0
 51
270.0
  0
LINE
  5
11D
330
2
100
AcDbEntity
  8
L-SOUZOU
100
AcDbLine
 10
274.0500000000036
 20
147.7999999999977
 30
0.0
 11
271.9500000000036
 21
147.7999999999977
 31
0.0
  0
LINE
  5
11E
330
2
100
AcDbEntity
  8
L-SAISEN
100
AcDbLine
 10
275.6886587268054
 20
147.0000000000004
 30
0.0
 11
275.6886587268054
 21
142.8591010876498
 31
0.0
  0
LINE
  5
11F
330
2
100
AcDbEntity
  8
L-ZISSEN
100
AcDbLine
 10
274.0000000000018
 20
146.2685621409655
 30
0.0
 11
274.0000000000018
 21
142.6626737228499
 31
0.0
  0
LINE
  5
120
330
2
100
AcDbEntity
  8
L-ZISSEN
100
AcDbLine
 10
275.6886587268054
 20
147.0000000000004
 30
0.0
 11
274.0000000000018
 21
146.2685621409655
 31
0.0
  0
LINE
  5
121
330
2
100
AcDbEntity
  8
L-SOUZOU
100
AcDbLine
 10
274.0500000000036
 20
156.1999999999977
 30
0.0
 11
271.9500000000036
 21
156.1999999999977
 31
0.0
  0
LINE
  5
122
330
2
100
AcDbEntity
  8
L-SOUZOU
100
AcDbLine
 10
275.2549499339202
 20
162.0000000000041
 30
0.0
 11
266.0000000000018
 21
162.0000000000041
 31
0.0
  0
LINE
  5
123
330
2
100
AcDbEntity
  8
L-SOUZOU
100
AcDbLine
 10
266.0000000000018
 20
162.0000000000041
 30
0.0
 11
265.0
 21
161.0000000000046
 31
0.0
  0
LINE
  5
124
330
2
100
AcDbEntity
  8
L-ZISSEN
100
AcDbLine
 10
325.0
 20
74.00000000000416
 30
0.0
 11
325.0
 21
82.49999999999955
 31
0.0
  0
LINE
  5
125
330
2
100
AcDbEntity
  8
L-ZISSEN
100
AcDbLine
 10
323.4999999999999
 20
69.0
 30
0.0
 11
276.5000000000018
 21
69.0
 31
0.0
  0
LINE
  5
126
330
2
100
AcDbEntity
  8
L-ZISSEN
100
AcDbLine
 10
311.0000000000018
 20
63.000000000005
 30
0.0
 11
289.0000000000018
 21
63.00000000000409
 31
0.0
  0
LINE
  5
127
330
2
100
AcDbEntity
  8
L-ZISSEN
100
AcDbLine
 10
300.0
 20
64.00000000000409
 30
0.0
 11
312.0
 21
64.00000000000455
 31
0.0
  0
LINE
  5
128
330
2
100
AcDbEntity
  8
L-ZISSEN
100
AcDbLine
 10
288.0
 20
64.00000000000409
 30
0.0
 11
300.0
 21
64.00000000000409
 31
0.0
  0
LINE
  5
129
330
2
100
AcDbEntity
  8
L-ZISSEN
100
AcDbLine
 10
288.0
 20
64.00000000000409
 30
0.0
 11
288.0
 21
69.00000000000409
 31
0.0
  0
LINE
  5
12A
330
2
100
AcDbEntity
  8
L-ZISSEN
100
AcDbLine
 10
288.0
 20
64.00000000000409
 30
0.0
 11
289.0000000000018
 21
63.00000000000409
 31
0.0
  0
LINE
  5
12B
330
2
100
AcDbEntity
  8
L-ZISSEN
100
AcDbLine
 10
300.0
 20
63.00000000000409
 30
0.0
 11
300.0
 21
69.00000000000409
 31
0.0
  0
LINE
  5
12C
330
2
100
AcDbEntity
  8
L-ZISSEN
100
AcDbLine
 10
312.0
 20
64.00000000000455
 30
0.0
 11
312.0
 21
69.00000000000409
 31
0.0
  0
LINE
  5
12D
330
2
100
AcDbEntity
  8
L-ZISSEN
100
AcDbLine
 10
311.0000000000018
 20
63.000000000005
 30
0.0
 11
312.0
 21
64.00000000000455
 31
0.0
  0
LINE
  5
12E
330
2
100
AcDbEntity
  8
L-ZISSEN
100
AcDbLine
 10
325.0
 20
70.49999999999954
 30
0.0
 11
325.0
 21
74.00000000000415
 31
0.0
  0
LINE
  5
12F
330
2
100
AcDbEntity
  8
L-ZISSEN
100
AcDbLine
 10
323.4999999999999
 20
69.0
 30
0.0
 11
325.0
 21
70.49999999999954
 31
0.0
  0
LINE
  5
130
330
2
100
AcDbEntity
  8
L-ZISSEN
100
AcDbLine
 10
321.5737985351697
 20
82.49999999999955
 30
0.0
 11
334.5000000000018
 21
82.49999999999955
 31
0.0
  0
LINE
  5
131
330
2
100
AcDbEntity
  8
L-ZISSEN
100
AcDbLine
 10
330.0
 20
84.50000000000001
 30
0.0
 11
320.5000000000036
 21
84.50000000000001
 31
0.0
  0
ARC
  5
132
330
2
100
AcDbEntity
  8
L-ZISSEN
100
AcDbCircle
 10
321.2132034355964
 20
108.8680453825166
 30
0.0
 40
34.1319546174875
100
AcDbArc
 50
75.08201763927906
 51
104.917982360721
  0
ARC
  5
133
330
2
100
AcDbEntity
  8
L-ZISSEN
100
AcDbCircle
 10
321.2132034355964
 20
171.1319546174915
 30
0.0
 40
34.1319546174875
100
AcDbArc
 50
255.082017639279
 51
284.9179823607209
  0
LINE
  5
134
330
2
100
AcDbEntity
  8
L-TYUSIN
 48
0.5
100
AcDbLine
 10
334.5
 20
151.9999999999977
 30
0.0
 11
319.5
 21
151.9999999999977
 31
0.0
  0
LINE
  5
135
330
2
100
AcDbEntity
  8
L-ZISSEN
100
AcDbLine
 10
324.9231255829345
 20
128.9893931921933
 30
0.0
 11
335.0
 21
128.9893931921933
 31
0.0
  0
LINE
  5
136
330
2
100
AcDbEntity
  8
L-ZISSEN
100
AcDbLine
 10
333.3326974077281
 20
128.9893931921933
 30
0.0
 11
326.5904281752046
 21
128.9893931921933
 31
0.0
  0
LINE
  5
137
330
2
100
AcDbEntity
  8
L-ZISSEN
100
AcDbLine
 10
326.5904281752046
 20
130.132527100297
 30
0.0
 11
333.3326974077281
 21
130.1325271002965
 31
0.0
  0
LINE
  5
138
330
2
100
AcDbEntity
  8
L-SOUZOU
100
AcDbLine
 10
334.0000000000018
 20
162.0000000000041
 30
0.0
 11
324.7450500660816
 21
162.0000000000041
 31
0.0
  0
ARC
  5
139
330
2
100
AcDbEntity
  8
L-SOUZOU
100
AcDbCircle
 10
328.0499999999964
 20
151.9999999999977
 30
0.0
 40
4.199999999999988
100
AcDbArc
 50
270.0
 51
90.0
  0
LINE
  5
13A
330
2
100
AcDbEntity
  8
L-ZISSEN
100
AcDbLine
 10
330.5690175697709
 20
132.1036622334113
 30
0.0
 11
329.3541080131635
 21
132.1036622334113
 31
0.0
  0
LINE
  5
13B
330
2
100
AcDbEntity
  8
L-ZISSEN
100
AcDbLine
 10
287.5735931288071
 20
141.8495937413492
 30
0.0
 11
287.5735931288071
 21
138.150406258659
 31
0.0
  0
LINE
  5
13C
330
2
100
AcDbEntity
  8
L-ZISSEN
100
AcDbLine
 10
312.4264068711928
 20
141.8495937413492
 30
0.0
 11
312.4264068711928
 21
138.150406258659
 31
0.0
  0
CIRCLE
  5
13D
330
2
100
AcDbEntity
  8
L-SOUZOU
100
AcDbCircle
 10
300.0
 20
100.0
 30
0.0
 40
21.0
  0
CIRCLE
  5
13E
330
2
100
AcDbEntity
  8
L-SOUZOU
100
AcDbCircle
 10
300.0
 20
100.0
 30
0.0
 40
18.0
  0
LINE
  5
13F
330
2
100
AcDbEntity
  8
L-ZISSEN
100
AcDbLine
 10
320.5000000000036
 20
88.0
 30
0.0
 11
300.0
 21
88.0
 31
0.0
  0
CIRCLE
  5
140
330
2
100
AcDbEntity
  8
L-SAISEN
100
AcDbCircle
 10
300.0
 20
100.0
 30
0.0
 40
6.58
  0
CIRCLE
  5
141
330
2
100
AcDbEntity
  8
L-ZISSEN
100
AcDbCircle
 10
300.0
 20
100.0
 30
0.0
 40
5.724999999999999
  0
LINE
  5
142
330
2
100
AcDbEntity
  8
L-SOUZOU
100
AcDbLine
 10
307.6367999999959
 20
105.94
 30
0.0
 11
301.9175999999977
 21
100.5671999999999
 31
0.0
  0
LINE
  5
143
330
2
100
AcDbEntity
  8
L-SOUZOU
100
AcDbLine
 10
305.9399999999965
 20
107.6368000000002
 30
0.0
 11
300.5671999999961
 21
101.9175999999999
 31
0.0
  0
LINE
  5
146
330
2
100
AcDbEntity
  8
L-ZISSEN
100
AcDbLine
 10
321.2132034355964
 20
137.000000000004
 30
0.0
 11
278.7867965644035
 21
137.000000000004
 31
0.0
  0
ARC
  5
147
330
2
100
AcDbEntity
  8
L-ZISSEN
100
AcDbCircle
 10
300.0
 20
204.6887061056514
 30
0.0
 40
67.68870610564736
100
AcDbArc
 50
259.42154710243
 51
280.5784528975699
  0
LINE
  5
148
330
2
100
AcDbEntity
  8
L-ZISSEN
100
AcDbLine
 10
279.5000000000036
 20
111.0000000000041
 30
0.0
 11
279.5000000000036
 21
84.50000000000001
 31
0.0
  0
LINE
  5
149
330
2
100
AcDbEntity
  8
L-ZISSEN
100
AcDbLine
 10
279.5000000000036
 20
111.0000000000041
 30
0.0
 11
279.5000000000036
 21
88.0
 31
0.0
  0
LINE
  5
14A
330
2
100
AcDbEntity
  8
L-ZISSEN
100
AcDbLine
 10
282.0000000000018
 20
111.0000000000041
 30
0.0
 11
282.0000000000018
 21
88.0
 31
0.0
  0
LINE
  5
14B
330
2
100
AcDbEntity
  8
L-ZISSEN
100
AcDbLine
 10
279.5000000000036
 20
88.0
 30
0.0
 11
300.0
 21
88.0
 31
0.0
  0
LINE
  5
14C
330
2
100
AcDbEntity
  8
L-SOUZOU
100
AcDbLine
 10
298.1215999999956
 20
99.31439999999998
 30
0.0
 11
288.6687999999965
 21
89.25200000000041
 31
0.0
  0
LINE
  5
14D
330
2
100
AcDbEntity
  8
L-SOUZOU
100
AcDbLine
 10
299.3143999999971
 20
98.12159999999995
 30
0.0
 11
289.2519999999961
 21
88.66880000000014
 31
0.0
  0
LINE
  5
14E
330
2
100
AcDbEntity
  8
L-ZISSEN
100
AcDbLine
 10
279.5000000000036
 20
84.50000000000001
 30
0.0
 11
278.426201464832
 21
82.49999999999955
 31
0.0
  0
ARC
  5
14F
330
2
100
AcDbEntity
  8
L-SOUZOU
100
AcDbCircle
 10
288.9607999999949
 20
88.97759999999971
 30
0.0
 40
0.4
100
AcDbArc
 50
136.7899999998975
 51
225.0000000001013
  0
ARC
  5
150
330
2
100
AcDbEntity
  8
L-SOUZOU
100
AcDbCircle
 10
288.9775999999954
 20
88.96080000000006
 30
0.0
 40
0.4
100
AcDbArc
 50
225.0000000001013
 51
313.2099999998256
  0
LINE
  5
151
330
2
100
AcDbEntity
  8
L-SOUZOU
100
AcDbLine
 10
288.6863999999943
 20
88.68640000000004
 30
0.0
 11
288.6951999999931
 21
88.67759999999975
 31
0.0
  0
LINE
  5
152
330
2
100
AcDbEntity
  8
L-SOUZOU
100
AcDbLine
 10
288.6863999999943
 20
88.68640000000004
 30
0.0
 11
288.6775999999954
 21
88.69520000000056
 31
0.0
  0
CIRCLE
  5
153
330
2
100
AcDbEntity
  8
L-SOUZOU
100
AcDbCircle
 10
300.0
 20
100.0
 30
0.0
 40
1.2
  0
ARC
  5
154
330
2
100
AcDbEntity
  8
L-SOUZOU
100
AcDbCircle
 10
300.0
 20
100.0
 30
0.0
 40
2.0
100
AcDbArc
 50
73.51949999986479
 51
200.0599999999713
  0
ARC
  5
155
330
2
100
AcDbEntity
  8
L-SOUZOU
100
AcDbCircle
 10
300.0
 20
100.0
 30
0.0
 40
2.0
100
AcDbArc
 50
249.9399999997831
 51
16.4805000000672
  0
LINE
  5
157
330
2
100
AcDbEntity
  8
L-ZISSEN
100
AcDbLine
 10
318.0000000000036
 20
111.0000000000041
 30
0.0
 11
318.0000000000036
 21
88.0
 31
0.0
  0
LINE
  5
158
330
2
100
AcDbEntity
  8
L-ZISSEN
100
AcDbLine
 10
320.5000000000036
 20
111.0000000000041
 30
0.0
 11
320.5000000000036
 21
84.50000000000001
 31
0.0
  0
LINE
  5
159
330
2
100
AcDbEntity
  8
L-SOUZOU
100
AcDbLine
 10
305.9399999999965
 20
107.6368000000002
 30
0.0
 11
307.6367999999959
 21
105.94
 31
0.0
  0
LINE
  5
15A
330
2
100
AcDbEntity
  8
L-ZISSEN
100
AcDbLine
 10
320.5000000000036
 20
84.50000000000001
 30
0.0
 11
321.5737985351697
 21
82.49999999999955
 31
0.0
  0
LINE
  5
15C
330
2
100
AcDbEntity
  8
L-ZISSEN
100
AcDbLine
 10
327.4999999999999
 20
123.0000000000041
 30
0.0
 11
327.4999999999999
 21
111.0000000000041
 31
0.0
  0
ARC
  5
15D
330
2
100
AcDbEntity
  8
L-ZISSEN
100
AcDbCircle
 10
329.2951887735835
 20
130.3738136118881
 30
0.0
 40
2.715501624970328
100
AcDbArc
 50
88.7567347921917
 51
185.0977525317111
  0
LINE
  5
15E
330
2
100
AcDbEntity
  8
L-ZISSEN
100
AcDbLine
 10
324.9231255829345
 20
135.0000000000041
 30
0.0
 11
324.9231255829345
 21
128.9893931921933
 31
0.0
  0
LINE
  5
15F
330
2
100
AcDbEntity
  8
L-ZISSEN
100
AcDbLine
 10
329.3541080131635
 20
132.1036622334113
 30
0.0
 11
329.3541080131635
 21
133.0886759653812
 31
0.0
  0
LINE
  5
160
330
2
100
AcDbEntity
  8
L-ZISSEN
100
AcDbLine
 10
326.5904281752046
 20
128.9893931921933
 30
0.0
 11
326.5904281752046
 21
130.132527100297
 31
0.0
  0
LINE
  5
161
330
2
100
AcDbEntity
  8
L-SAISEN
100
AcDbLine
 10
324.3113412731982
 20
137.1408989123587
 30
0.0
 11
324.3113412731982
 21
135.0000000000041
 31
0.0
  0
LINE
  5
162
330
2
100
AcDbEntity
  8
L-ZISSEN
100
AcDbLine
 10
326.0
 20
137.3373262771585
 30
0.0
 11
326.0
 21
135.0000000000041
 31
0.0
  0
LINE
  5
163
330
2
100
AcDbEntity
  8
L-ZISSEN
100
AcDbLine
 10
321.2132034355964
 20
143.0000000000041
 30
0.0
 11
278.7867965644035
 21
143.0000000000041
 31
0.0
  0
LINE
  5
164
330
2
100
AcDbEntity
  8
L-ZISSEN
100
AcDbLine
 10
278.5
 20
157.0000000000041
 30
0.0
 11
321.5000000000018
 21
157.0000000000041
 31
0.0
  0
LINE
  5
165
330
2
100
AcDbEntity
  8
L-ZISSEN
100
AcDbLine
 10
277.5605898642121
 20
159.0000000000041
 30
0.0
 11
322.4394101357805
 21
159.0000000000041
 31
0.0
  0
ARC
  5
166
330
2
100
AcDbEntity
  8
L-ZISSEN
100
AcDbCircle
 10
300.0
 20
75.3112938943568
 30
0.0
 40
67.68870610564736
100
AcDbArc
 50
79.42154710243007
 51
100.57845289757
  0
LINE
  5
167
330
2
100
AcDbEntity
  8
L-ZISSEN
100
AcDbLine
 10
279.7500000000018
 20
159.0000000000041
 30
0.0
 11
279.7500000000018
 21
156.9999999999995
 31
0.0
  0
LINE
  5
168
330
2
100
AcDbEntity
  8
L-ZISSEN
100
AcDbLine
 10
278.5
 20
156.9999999999995
 30
0.0
 11
278.5
 21
147.0000000000004
 31
0.0
  0
LINE
  5
169
330
2
100
AcDbEntity
  8
L-ZISSEN
100
AcDbLine
 10
320.2500000000017
 20
159.0000000000041
 30
0.0
 11
320.2500000000018
 21
156.9999999999995
 31
0.0
  0
LINE
  5
16A
330
2
100
AcDbEntity
  8
L-TYUSIN
100
AcDbLine
 10
327.0000000000018
 20
158.4999999999968
 30
0.0
 11
327.0000000000018
 21
145.4999999999977
 31
0.0
  0
ARC
  5
16B
330
2
100
AcDbEntity
  8
L-SOUZOU
100
AcDbCircle
 10
325.9499999999963
 20
151.9999999999977
 30
0.0
 40
4.199999999999988
100
AcDbArc
 50
90.0
 51
270.0
  0
LINE
  5
16C
330
2
100
AcDbEntity
  8
L-ZISSEN
100
AcDbLine
 10
321.5000000000018
 20
156.9999999999995
 30
0.0
 11
321.5000000000018
 21
147.0000000000004
 31
0.0
  0
LINE
  5
16D
330
2
100
AcDbEntity
  8
L-SOUZOU
100
AcDbLine
 10
325.9499999999963
 20
147.7999999999977
 30
0.0
 11
328.0499999999964
 21
147.7999999999977
 31
0.0
  0
LINE
  5
16E
330
2
100
AcDbEntity
  8
L-SAISEN
100
AcDbLine
 10
324.3113412731945
 20
147.0000000000004
 30
0.0
 11
324.3113412731945
 21
142.8591010876498
 31
0.0
  0
LINE
  5
16F
330
2
100
AcDbEntity
  8
L-ZISSEN
100
AcDbLine
 10
326.0
 20
146.2685621409655
 30
0.0
 11
326.0
 21
142.6626737228496
 31
0.0
  0
LINE
  5
170
330
2
100
AcDbEntity
  8
L-ZISSEN
100
AcDbLine
 10
324.3113412731945
 20
147.0000000000004
 30
0.0
 11
326.0
 21
146.2685621409655
 31
0.0
  0
LINE
  5
171
330
2
100
AcDbEntity
  8
L-SOUZOU
100
AcDbLine
 10
325.9499999999963
 20
156.1999999999977
 30
0.0
 11
328.0499999999964
 21
156.1999999999977
 31
0.0
  0
ARC
  5
172
330
2
100
AcDbEntity
  8
L-ZISSEN
100
AcDbCircle
 10
322.4394101357805
 20
161.3000000000041
 30
0.0
 40
2.299999999999999
100
AcDbArc
 50
270.0
 51
0.8959352773339897
  0
LINE
  5
173
330
2
100
AcDbEntity
  8
L-ZISSEN
100
AcDbLine
 10
330.0
 20
141.8495937413492
 30
0.0
 11
330.0
 21
138.150406258659
 31
0.0
  0
LINE
  5
174
330
2
100
AcDbEntity
  8
L-SOUZOU
100
AcDbLine
 10
335.0
 20
134.0
 30
0.0
 11
335.0
 21
161.0000000000046
 31
0.0
  0
LINE
  5
175
330
2
100
AcDbEntity
  8
L-ZISSEN
100
AcDbLine
 10
223.8174874784342
 20
127.5335084126579
 30
0.0
 11
247.9127711467867
 21
127.5335084126579
 31
0.0
  0
TEXT
  5
176
330
2
100
AcDbEntity
  8
L-ZISSEN
100
AcDbText
 10
226.1764659421528
 20
128.5440342154767
 30
0.0
 40
4.5
  1
IN
100
AcDbText
  0
TEXT
  5
177
330
2
100
AcDbEntity
  8
L-ZISSEN
100
AcDbText
 10
226.1764659421528
 20
121.0440342154766
 30
0.0
 40
4.5
  1
Rc3/8
100
AcDbText
  0
TEXT
  5
178
330
2
100
AcDbEntity
  8
L-ZISSEN
100
AcDbText
 10
226.1764659421528
 20
113.5440342154766
 30
0.0
 40
4.5
  1
Rc1/2
100
AcDbText
  0
LINE
  5
179
330
2
100
AcDbEntity
  8
L-ZISSEN
100
AcDbLine
 10
335.0
 20
82.99999999999954
 30
0.0
 11
335.0
 21
116.5000000000041
 31
0.0
  0
LINE
  5
17A
330
2
100
AcDbEntity
  8
L-ZISSEN
100
AcDbLine
 10
332.0000000000018
 20
88.50000000000045
 30
0.0
 11
332.0000000000018
 21
111.0000000000041
 31
0.0
  0
LINE
  5
17B
330
2
100
AcDbEntity
  8
L-ZISSEN
100
AcDbLine
 10
330.0
 20
84.50000000000001
 30
0.0
 11
330.0
 21
111.0000000000041
 31
0.0
  0
LINE
  5
17C
330
2
100
AcDbEntity
  8
L-ZISSEN
100
AcDbLine
 10
263.9453872239174
 20
101.6993504325251
 30
0.0
 11
247.9127711467867
 21
127.5335084126579
 31
0.0
  0
LINE
  5
17D
330
2
100
AcDbEntity
  8
L-ZISSEN
100
AcDbLine
 10
332.0000000000018
 20
88.50000000000045
 30
0.0
 11
330.0
 21
84.50000000000001
 31
0.0
  0
ARC
  5
17E
330
2
100
AcDbEntity
  8
L-ZISSEN
100
AcDbCircle
 10
334.5000000000018
 20
82.99999999999954
 30
0.0
 40
0.5000000000006822
100
AcDbArc
 50
270.0
 51
0.0
  0
LINE
  5
17F
330
2
100
AcDbEntity
  8
L-ZISSEN
100
AcDbLine
 10
335.0
 20
88.50000000000045
 30
0.0
 11
332.0000000000018
 21
88.50000000000045
 31
0.0
  0
SOLID
  5
180
330
2
100
AcDbEntity
  8
L-ZISSEN
100
AcDbTrace
 10
263.6621621518299
 20
101.5235816365114
 30
0.0
 11
264.228612296005
 21
101.8751192285389
 31
0.0
 12
265.0
 22
100.0
 32
0.0
 13
265.0
 23
100.0
 33
0.0
  0
LINE
  5
181
330
2
100
AcDbEntity
  8
L-ZISSEN
100
AcDbLine
 10
335.0
 20
134.0
 30
0.0
 11
335.0
 21
123.999999999999
 31
0.0
  0
LINE
  5
182
330
2
100
AcDbEntity
  8
L-ZISSEN
100
AcDbLine
 10
331.5000000000018
 20
123.0000000000041
 30
0.0
 11
331.5000000000018
 21
111.0000000000041
 31
0.0
  0
LINE
  5
183
330
2
100
AcDbEntity
  8
L-ZISSEN
100
AcDbLine
 10
332.6106108590538
 20
120.0000000000041
 30
0.0
 11
332.6106108590538
 21
116.5000000000041
 31
0.0
  0
LINE
  5
184
330
2
100
AcDbEntity
  8
L-ZISSEN
100
AcDbLine
 10
335.0
 20
116.5000000000041
 30
0.0
 11
332.6106108590538
 21
116.5000000000041
 31
0.0
  0
LINE
  5
185
330
2
100
AcDbEntity
  8
L-ZISSEN
100
AcDbLine
 10
335.0
 20
120.0000000000041
 30
0.0
 11
332.6106108590538
 21
120.0000000000041
 31
0.0
  0
LINE
  5
186
330
2
100
AcDbEntity
  8
L-ZISSEN
100
AcDbLine
 10
335.0
 20
120.0000000000041
 30
0.0
 11
335.0
 21
123.999999999999
 31
0.0
  0
ARC
  5
187
330
2
100
AcDbEntity
  8
L-ZISSEN
100
AcDbCircle
 10
330.6279368093492
 20
130.3738136118881
 30
0.0
 40
2.715501624969247
100
AcDbArc
 50
354.9022474682888
 51
91.24326520780833
  0
LINE
  5
188
330
2
100
AcDbEntity
  8
L-ZISSEN
100
AcDbLine
 10
335.0
 20
128.9893931921933
 30
0.0
 11
335.0
 21
134.0
 31
0.0
  0
LINE
  5
189
330
2
100
AcDbEntity
  8
L-ZISSEN
100
AcDbLine
 10
330.5690175697709
 20
133.0886759653812
 30
0.0
 11
330.5690175697709
 21
132.1036622334113
 31
0.0
  0
LINE
  5
18A
330
2
100
AcDbEntity
  8
L-ZISSEN
100
AcDbLine
 10
333.3326974077281
 20
130.1325271002965
 30
0.0
 11
333.3326974077281
 21
128.9893931921933
 31
0.0
  0
LINE
  5
18B
330
2
100
AcDbEntity
  8
L-SOUZOU
100
AcDbLine
 10
334.0000000000018
 20
162.0000000000041
 30
0.0
 11
335.0
 21
161.0000000000046
 31
0.0
  0
TEXT
  5
18C
330
2
100
AcDbEntity
  8
L-ZISSEN
100
AcDbText
 10
196.0059631056065
 20
358.9374245317873
 30
0.0
 40
4.5
  1
MODEL NO. R64- 00-0***
100
AcDbText
  0
LINE
  5
18D
330
2
100
AcDbEntity
  8
L-ZISSEN
100
AcDbLine
 10
275.9999999999963
 20
208.600000000004
 30
0.0
 11
277.9999999999982
 21
211.0000000000041
 31
0.0
  0
LINE
  5
18E
330
2
100
AcDbEntity
  8
L-ZISSEN
100
AcDbLine
 10
322.0
 20
211.0000000000041
 30
0.0
 11
277.9999999999982
 21
211.0000000000041
 31
0.0
  0
LINE
  5
18F
330
2
100
AcDbEntity
  8
L-ZISSEN
100
AcDbLine
 10
323.9999999999963
 20
208.600000000004
 30
0.0
 11
322.0
 21
211.0000000000041
 31
0.0
  0
TEXT
  5
196
330
2
100
AcDbEntity
  8
L-ZISSEN
100
AcDbText
 10
256.2437534591707
 20
361.6617142833571
 30
0.0
 40
4.5
  1
3
100
AcDbText
  0
TEXT
  5
197
330
2
100
AcDbEntity
  8
L-ZISSEN
100
AcDbText
 10
256.2437534591707
 20
356.0854758291218
 30
0.0
 40
4.5
  1
4
100
AcDbText
  0
ENDSEC
  0
SECTION
  2
OBJECTS
  0
DICTIONARY
  5
9
330
0
100
AcDbDictionary
  3
ACAD_GROUP
350
26
  3
ACAD_LAYOUT
350
E
  3
ACAD_MLINESTYLE
350
27
  3
ACAD_PLOTSETTINGS
350
28
1001
ACAD
1000
TREAT_AS_HARD
1070
     0
  0
DICTIONARY
  5
16
330
15
100
AcDbDictionary
  3
ACAD_LAYERSTATES
350
17
1001
ACAD
1000
TREAT_AS_HARD
1070
     1
  0
DICTIONARY
  5
3
330
2
100
AcDbDictionary
  3
ACAD_LAYOUTSELFREF
350
45D
1001
ACAD
1000
TREAT_AS_HARD
1070
     1
  0
DICTIONARY
  5
10
330
F
100
AcDbDictionary
  3
ACAD_LAYOUTSELFREF
350
45E
1001
ACAD
1000
TREAT_AS_HARD
1070
     1
  0
DICTIONARY
  5
26
102
{ACAD_REACTORS
330
9
102
}
330
9
100
AcDbDictionary
1001
ACAD
1000
TREAT_AS_HARD
1070
     0
  0
DICTIONARY
  5
E
102
{ACAD_REACTORS
330
9
102
}
330
9
100
AcDbDictionary
1001
ACAD
1000
TREAT_AS_HARD
1070
     0
  0
DICTIONARY
  5
27
102
{ACAD_REACTORS
330
9
102
}
330
9
100
AcDbDictionary
  3
STANDARD
350
2B
1001
ACAD
1000
TREAT_AS_HARD
1070
     0
  0
DICTIONARY
  5
28
102
{ACAD_REACTORS
330
9
102
}
330
9
100
AcDbDictionary
1001
ACAD
1000
TREAT_AS_HARD
1070
     0
  0
DICTIONARY
  5
17
102
{ACAD_REACTORS
330
16
102
}
330
16
100
AcDbDictionary
1001
ACAD
1000
TREAT_AS_HARD
1070
     0
  0
XRECORD
  5
45D
102
{ACAD_REACTORS
330
3
102
}
330
3
100
AcDbXrecord
340
2
  0
XRECORD
  5
45E
102
{ACAD_REACTORS
330
10
102
}
330
10
100
AcDbXrecord
340
F
  0
MLINESTYLE
  5
2B
102
{ACAD_REACTORS
330
27
102
}
330
27
100
AcDbMlineStyle
  2
STANDARD
 70
     0
  3

 62
     0
 51
90.0
 52
90.0
 71
     2
 49
0.5
 62
   256
  6
BYLAYER
 49
-0.5
 62
   256
  6
BYLAYER
  0
ENDSEC
  0
EOF
