  0
SECTION
  2
HEADER
  9
$ACADVER
  1
AC1012
  9
$DWGCODEPAGE
  3
dos932
  9
$INSBASE
 10
0.0
 20
0.0
 30
0.0
  9
$EXTMIN
 10
64.98314852752617
 20
78.68625714639927
 30
-0.0015258207003583
  9
$EXTMAX
 10
303.59748694251
 20
277.5084692740446
 30
0.0000000349246037
  9
$LIMMIN
 10
0.0
 20
0.0
  9
$LIMMAX
 10
12.0
 20
9.0
  9
$ORTHOMODE
 70
     0
  9
$REGENMODE
 70
     1
  9
$FILLMODE
 70
     1
  9
$QTEXTMODE
 70
     0
  9
$MIRRTEXT
 70
     1
  9
$DRAGMODE
 70
     2
  9
$LTSCALE
 40
1.0
  9
$OSMODE
 70
    39
  9
$ATTMODE
 70
     1
  9
$TEXTSIZE
 40
4.5
  9
$TRACEWID
 40
0.05
  9
$TEXTSTYLE
  7
STANDARD
  9
$CLAYER
  8
L-ZISSEN
  9
$CELTYPE
  6
BYLAYER
  9
$CECOLOR
 62
   256
  9
$CELTSCALE
 40
1.0
  9
$DELOBJ
 70
     1
  9
$DISPSILH
 70
     0
  9
$DIMSCALE
 40
0.0
  9
$DIMASZ
 40
2.0
  9
$DIMEXO
 40
1.0
  9
$DIMDLI
 40
8.0
  9
$DIMRND
 40
0.0
  9
$DIMDLE
 40
0.0
  9
$DIMEXE
 40
1.0
  9
$DIMTP
 40
0.0
  9
$DIMTM
 40
0.0
  9
$DIMTXT
 40
4.5
  9
$DIMCEN
 40
1.5
  9
$DIMTSZ
 40
0.0
  9
$DIMTOL
 70
     0
  9
$DIMLIM
 70
     0
  9
$DIMTIH
 70
     0
  9
$DIMTOH
 70
     0
  9
$DIMSE1
 70
     0
  9
$DIMSE2
 70
     0
  9
$DIMTAD
 70
     1
  9
$DIMZIN
 70
     8
  9
$DIMBLK
  1

  9
$DIMASO
 70
     1
  9
$DIMSHO
 70
     0
  9
$DIMPOST
  1

  9
$DIMAPOST
  1

  9
$DIMALT
 70
     0
  9
$DIMALTD
 70
     2
  9
$DIMALTF
 40
25.4
  9
$DIMLFAC
 40
1.0
  9
$DIMTOFL
 70
     1
  9
$DIMTVP
 40
0.0
  9
$DIMTIX
 70
     1
  9
$DIMSOXD
 70
     0
  9
$DIMSAH
 70
     0
  9
$DIMBLK1
  1

  9
$DIMBLK2
  1

  9
$DIMSTYLE
  2
STANDARD
  9
$DIMCLRD
 70
     0
  9
$DIMCLRE
 70
     0
  9
$DIMCLRT
 70
     0
  9
$DIMTFAC
 40
1.0
  9
$DIMGAP
 40
1.399999999999999
  9
$DIMJUST
 70
     0
  9
$DIMSD1
 70
     0
  9
$DIMSD2
 70
     0
  9
$DIMTOLJ
 70
     1
  9
$DIMTZIN
 70
     8
  9
$DIMALTZ
 70
     0
  9
$DIMALTTZ
 70
     0
  9
$DIMFIT
 70
     3
  9
$DIMUPT
 70
     0
  9
$DIMUNIT
 70
     2
  9
$DIMDEC
 70
     4
  9
$DIMTDEC
 70
     4
  9
$DIMALTU
 70
     2
  9
$DIMALTTD
 70
     2
  9
$DIMTXSTY
  7
STANDARD
  9
$DIMAUNIT
 70
     0
  9
$LUNITS
 70
     2
  9
$LUPREC
 70
     4
  9
$SKETCHINC
 40
0.1
  9
$FILLETRAD
 40
0.0
  9
$AUNITS
 70
     0
  9
$AUPREC
 70
     0
  9
$MENU
  1
acad
  9
$ELEVATION
 40
0.0
  9
$PELEVATION
 40
0.0
  9
$THICKNESS
 40
0.0
  9
$LIMCHECK
 70
     0
  9
$BLIPMODE
 70
     0
  9
$CHAMFERA
 40
1.0
  9
$CHAMFERB
 40
1.0
  9
$CHAMFERC
 40
0.0
  9
$CHAMFERD
 40
0.0
  9
$SKPOLY
 70
     0
  9
$TDCREATE
 40
2450178.569598264
  9
$TDUPDATE
 40
2455065.476980069
  9
$TDINDWG
 40
0.3764577083
  9
$TDUSRTIMER
 40
0.3764577083
  9
$USRTIMER
 70
     1
  9
$ANGBASE
 50
0.0
  9
$ANGDIR
 70
     0
  9
$PDMODE
 70
     0
  9
$PDSIZE
 40
0.0
  9
$PLINEWID
 40
0.0
  9
$COORDS
 70
     2
  9
$SPLFRAME
 70
     0
  9
$SPLINETYPE
 70
     6
  9
$SPLINESEGS
 70
     8
  9
$ATTDIA
 70
     0
  9
$ATTREQ
 70
     1
  9
$HANDLING
 70
-16383
  9
$HANDSEED
  5
267
  9
$SURFTAB1
 70
     6
  9
$SURFTAB2
 70
     6
  9
$SURFTYPE
 70
     6
  9
$SURFU
 70
     6
  9
$SURFV
 70
     6
  9
$UCSNAME
  2

  9
$UCSORG
 10
0.0
 20
0.0
 30
0.0
  9
$UCSXDIR
 10
1.0
 20
0.0
 30
0.0
  9
$UCSYDIR
 10
0.0
 20
1.0
 30
0.0
  9
$PUCSNAME
  2

  9
$PUCSORG
 10
0.0
 20
0.0
 30
0.0
  9
$PUCSXDIR
 10
1.0
 20
0.0
 30
0.0
  9
$PUCSYDIR
 10
0.0
 20
1.0
 30
0.0
  9
$USERI1
 70
     0
  9
$USERI2
 70
     0
  9
$USERI3
 70
     0
  9
$USERI4
 70
     0
  9
$USERI5
 70
     0
  9
$USERR1
 40
0.0
  9
$USERR2
 40
0.0
  9
$USERR3
 40
0.0
  9
$USERR4
 40
0.0
  9
$USERR5
 40
0.0
  9
$WORLDVIEW
 70
     1
  9
$SHADEDGE
 70
     3
  9
$SHADEDIF
 70
    70
  9
$TILEMODE
 70
     1
  9
$MAXACTVP
 70
    16
  9
$PINSBASE
 10
0.0
 20
0.0
 30
0.0
  9
$PLIMCHECK
 70
     0
  9
$PEXTMIN
 10
1.000000000000000E+20
 20
1.000000000000000E+20
 30
1.000000000000000E+20
  9
$PEXTMAX
 10
-1.000000000000000E+20
 20
-1.000000000000000E+20
 30
-1.000000000000000E+20
  9
$PLIMMIN
 10
0.0
 20
0.0
  9
$PLIMMAX
 10
12.0
 20
9.0
  9
$UNITMODE
 70
     0
  9
$VISRETAIN
 70
     0
  9
$PLINEGEN
 70
     0
  9
$PSLTSCALE
 70
     0
  9
$TREEDEPTH
 70
  3020
  9
$PICKSTYLE
 70
     1
  9
$CMLSTYLE
  2
STANDARD
  9
$CMLJUST
 70
     0
  9
$CMLSCALE
 40
1.0
  9
$SAVEIMAGES
 70
     1
  0
ENDSEC
  0
SECTION
  2
CLASSES
  0
CLASS
  1
ACDBDICTIONARYWDFLT
  2
AcDbDictionaryWithDefault
  3
AutoCAD 2000
 90
    32768
280
     0
281
     0
  0
CLASS
  1
ACDBPLACEHOLDER
  2
AcDbPlaceHolder
  3
AutoCAD 2000
 90
    32768
280
     0
281
     0
  0
CLASS
  1
LAYOUT
  2
AcDbLayout
  3
AutoCAD 2000
 90
    32768
280
     0
281
     0
  0
CLASS
  1
LONG_TRANSACTION
  2
AcDbLongTransaction
  3
AutoCAD 2000
 90
    32768
280
     0
281
     0
  0
CLASS
  1
LWPOLYLINE
  2
AcDbPolyline
  3
AutoCAD 2000
 90
    32768
280
     0
281
     1
  0
CLASS
  1
HATCH
  2
AcDbHatch
  3
AutoCAD 2000
 90
    32768
280
     0
281
     1
  0
CLASS
  1
XRECORD
  2
AcDbXrecord
  3
AutoCAD 2000
 90
    32768
280
     0
281
     0
  0
CLASS
  1
LONG_TRANSACTION
  2
AcDbLongTransaction
  3
AutoCAD 2000
 90
    32768
280
     0
281
     0
  0
CLASS
  1
LWPOLYLINE
  2
AcDbPolyline
  3
AutoCAD 2000
 90
    32768
280
     0
281
     1
  0
CLASS
  1
HATCH
  2
AcDbHatch
  3
AutoCAD 2000
 90
    32768
280
     0
281
     1
  0
CLASS
  1
XRECORD
  2
AcDbXrecord
  3
AutoCAD 2000
 90
    32768
280
     0
281
     0
  0
CLASS
  1
LONG_TRANSACTION
  2
AcDbLongTransaction
  3
AutoCAD 2000
 90
    32768
280
     0
281
     0
  0
CLASS
  1
LWPOLYLINE
  2
AcDbPolyline
  3
AutoCAD 2000
 90
    32768
280
     0
281
     1
  0
CLASS
  1
HATCH
  2
AcDbHatch
  3
AutoCAD 2000
 90
    32768
280
     0
281
     1
  0
CLASS
  1
XRECORD
  2
AcDbXrecord
  3
AutoCAD 2000
 90
    32768
280
     0
281
     0
  0
CLASS
  1
LONG_TRANSACTION
  2
AcDbLongTransaction
  3
AutoCAD 2000
 90
    32768
280
     0
281
     0
  0
CLASS
  1
LWPOLYLINE
  2
AcDbPolyline
  3
AutoCAD 2000
 90
    32768
280
     0
281
     1
  0
CLASS
  1
HATCH
  2
AcDbHatch
  3
AutoCAD 2000
 90
    32768
280
     0
281
     1
  0
CLASS
  1
XRECORD
  2
AcDbXrecord
  3
AutoCAD 2000
 90
    32768
280
     0
281
     0
  0
CLASS
  1
LONG_TRANSACTION
  2
AcDbLongTransaction
  3
AutoCAD 2000
 90
    32768
280
     0
281
     0
  0
CLASS
  1
LWPOLYLINE
  2
AcDbPolyline
  3
AutoCAD 2000
 90
    32768
280
     0
281
     1
  0
CLASS
  1
HATCH
  2
AcDbHatch
  3
AutoCAD 2000
 90
    32768
280
     0
281
     1
  0
CLASS
  1
XRECORD
  2
AcDbXrecord
  3
AutoCAD 2000
 90
    32768
280
     0
281
     0
  0
CLASS
  1
LONG_TRANSACTION
  2
AcDbLongTransaction
  3
AutoCAD 2000
 90
    32768
280
     0
281
     0
  0
CLASS
  1
LWPOLYLINE
  2
AcDbPolyline
  3
AutoCAD 2000
 90
    32768
280
     0
281
     1
  0
CLASS
  1
HATCH
  2
AcDbHatch
  3
AutoCAD 2000
 90
    32768
280
     0
281
     1
  0
CLASS
  1
XRECORD
  2
AcDbXrecord
  3
AutoCAD 2000
 90
    32768
280
     0
281
     0
  0
CLASS
  1
LONG_TRANSACTION
  2
AcDbLongTransaction
  3
AutoCAD 2000
 90
    32768
280
     0
281
     0
  0
CLASS
  1
LWPOLYLINE
  2
AcDbPolyline
  3
AutoCAD 2000
 90
    32768
280
     0
281
     1
  0
CLASS
  1
HATCH
  2
AcDbHatch
  3
AutoCAD 2000
 90
    32768
280
     0
281
     1
  0
CLASS
  1
XRECORD
  2
AcDbXrecord
  3
AutoCAD 2000
 90
    32768
280
     0
281
     0
  0
CLASS
  1
LONG_TRANSACTION
  2
AcDbLongTransaction
  3
AutoCAD 2000
 90
    32768
280
     0
281
     0
  0
CLASS
  1
LWPOLYLINE
  2
AcDbPolyline
  3
AutoCAD 2000
 90
    32768
280
     0
281
     1
  0
CLASS
  1
HATCH
  2
AcDbHatch
  3
AutoCAD 2000
 90
    32768
280
     0
281
     1
  0
CLASS
  1
XRECORD
  2
AcDbXrecord
  3
AutoCAD 2000
 90
    32768
280
     0
281
     0
  0
CLASS
  1
LONG_TRANSACTION
  2
AcDbLongTransaction
  3
AutoCAD 2000
 90
    32768
280
     0
281
     0
  0
CLASS
  1
LWPOLYLINE
  2
AcDbPolyline
  3
AutoCAD 2000
 90
    32768
280
     0
281
     1
  0
CLASS
  1
HATCH
  2
AcDbHatch
  3
AutoCAD 2000
 90
    32768
280
     0
281
     1
  0
CLASS
  1
XRECORD
  2
AcDbXrecord
  3
AutoCAD 2000
 90
    32768
280
     0
281
     0
  0
CLASS
  1
LONG_TRANSACTION
  2
AcDbLongTransaction
  3
AutoCAD 2000
 90
    32768
280
     0
281
     0
  0
CLASS
  1
LWPOLYLINE
  2
AcDbPolyline
  3
AutoCAD 2000
 90
    32768
280
     0
281
     1
  0
CLASS
  1
HATCH
  2
AcDbHatch
  3
AutoCAD 2000
 90
    32768
280
     0
281
     1
  0
CLASS
  1
XRECORD
  2
AcDbXrecord
  3
AutoCAD 2000
 90
    32768
280
     0
281
     0
  0
CLASS
  1
LONG_TRANSACTION
  2
AcDbLongTransaction
  3
AutoCAD 2000
 90
    32768
280
     0
281
     0
  0
CLASS
  1
LWPOLYLINE
  2
AcDbPolyline
  3
AutoCAD 2000
 90
    32768
280
     0
281
     1
  0
CLASS
  1
HATCH
  2
AcDbHatch
  3
AutoCAD 2000
 90
    32768
280
     0
281
     1
  0
CLASS
  1
XRECORD
  2
AcDbXrecord
  3
AutoCAD 2000
 90
    32768
280
     0
281
     0
  0
CLASS
  1
LONG_TRANSACTION
  2
AcDbLongTransaction
  3
AutoCAD 2000
 90
    32768
280
     0
281
     0
  0
CLASS
  1
LWPOLYLINE
  2
AcDbPolyline
  3
AutoCAD 2000
 90
    32768
280
     0
281
     1
  0
CLASS
  1
HATCH
  2
AcDbHatch
  3
AutoCAD 2000
 90
    32768
280
     0
281
     1
  0
CLASS
  1
XRECORD
  2
AcDbXrecord
  3
AutoCAD 2000
 90
    32768
280
     0
281
     0
  0
CLASS
  1
LONG_TRANSACTION
  2
AcDbLongTransaction
  3
AutoCAD 2000
 90
    32768
280
     0
281
     0
  0
CLASS
  1
LWPOLYLINE
  2
AcDbPolyline
  3
AutoCAD 2000
 90
    32768
280
     0
281
     1
  0
CLASS
  1
HATCH
  2
AcDbHatch
  3
AutoCAD 2000
 90
    32768
280
     0
281
     1
  0
CLASS
  1
XRECORD
  2
AcDbXrecord
  3
AutoCAD 2000
 90
    32768
280
     0
281
     0
  0
CLASS
  1
LONG_TRANSACTION
  2
AcDbLongTransaction
  3
AutoCAD 2000
 90
    32768
280
     0
281
     0
  0
CLASS
  1
LWPOLYLINE
  2
AcDbPolyline
  3
AutoCAD 2000
 90
    32768
280
     0
281
     1
  0
CLASS
  1
HATCH
  2
AcDbHatch
  3
AutoCAD 2000
 90
    32768
280
     0
281
     1
  0
CLASS
  1
XRECORD
  2
AcDbXrecord
  3
AutoCAD 2000
 90
    32768
280
     0
281
     0
  0
CLASS
  1
LONG_TRANSACTION
  2
AcDbLongTransaction
  3
AutoCAD 2000
 90
    32768
280
     0
281
     0
  0
CLASS
  1
LWPOLYLINE
  2
AcDbPolyline
  3
AutoCAD 2000
 90
    32768
280
     0
281
     1
  0
CLASS
  1
HATCH
  2
AcDbHatch
  3
AutoCAD 2000
 90
    32768
280
     0
281
     1
  0
CLASS
  1
XRECORD
  2
AcDbXrecord
  3
AutoCAD 2000
 90
    32768
280
     0
281
     0
  0
CLASS
  1
LONG_TRANSACTION
  2
AcDbLongTransaction
  3
AutoCAD 2000
 90
    32768
280
     0
281
     0
  0
CLASS
  1
LWPOLYLINE
  2
AcDbPolyline
  3
AutoCAD 2000
 90
    32768
280
     0
281
     1
  0
CLASS
  1
HATCH
  2
AcDbHatch
  3
AutoCAD 2000
 90
    32768
280
     0
281
     1
  0
CLASS
  1
XRECORD
  2
AcDbXrecord
  3
AutoCAD 2000
 90
    32768
280
     0
281
     0
  0
CLASS
  1
LONG_TRANSACTION
  2
AcDbLongTransaction
  3
AutoCAD 2000
 90
    32768
280
     0
281
     0
  0
CLASS
  1
LWPOLYLINE
  2
AcDbPolyline
  3
AutoCAD 2000
 90
    32768
280
     0
281
     1
  0
CLASS
  1
HATCH
  2
AcDbHatch
  3
AutoCAD 2000
 90
    32768
280
     0
281
     1
  0
CLASS
  1
XRECORD
  2
AcDbXrecord
  3
AutoCAD 2000
 90
    32768
280
     0
281
     0
  0
CLASS
  1
LONG_TRANSACTION
  2
AcDbLongTransaction
  3
AutoCAD 2000
 90
    32768
280
     0
281
     0
  0
CLASS
  1
LWPOLYLINE
  2
AcDbPolyline
  3
AutoCAD 2000
 90
    32768
280
     0
281
     1
  0
CLASS
  1
HATCH
  2
AcDbHatch
  3
AutoCAD 2000
 90
    32768
280
     0
281
     1
  0
CLASS
  1
XRECORD
  2
AcDbXrecord
  3
AutoCAD 2000
 90
    32768
280
     0
281
     0
  0
ENDSEC
  0
SECTION
  2
TABLES
  0
TABLE
  2
VPORT
  5
1F
330
0
100
AcDbSymbolTable
 70
     4
  0
VPORT
  5
25B
330
1F
100
AcDbSymbolTableRecord
100
AcDbViewportTableRecord
  2
*ACTIVE
 70
     0
 10
0.0
 20
0.0
 11
1.0
 21
1.0
 12
184.2903177350181
 22
178.0973632102219
 13
0.0
 23
0.0
 14
1.0
 24
1.0
 15
0.0
 25
0.0
 16
0.0
 26
0.0
 36
1.0
 17
0.0
 27
0.0
 37
0.0
 40
200.079254564701
 41
1.60759493670886
 42
50.0
 43
0.0
 44
0.0
 50
0.0
 51
0.0
 71
     0
 72
   100
 73
     1
 74
     0
 75
     0
 76
     0
 77
     0
 78
     0
  0
ENDTAB
  0
TABLE
  2
LTYPE
  5
1A
330
0
100
AcDbSymbolTable
 70
     3
  0
LTYPE
  5
1B
330
1A
100
AcDbSymbolTableRecord
100
AcDbLinetypeTableRecord
  2
BYBLOCK
 70
     0
  3

 72
    65
 73
     0
 40
0.0
  0
LTYPE
  5
1C
330
1A
100
AcDbSymbolTableRecord
100
AcDbLinetypeTableRecord
  2
BYLAYER
 70
     0
  3

 72
    65
 73
     0
 40
0.0
  0
LTYPE
  5
A
330
1A
100
AcDbSymbolTableRecord
100
AcDbLinetypeTableRecord
  2
CONTINUOUS
 70
     0
  3
Solid line
 72
    65
 73
     0
 40
0.0
  0
LTYPE
  5
2D
330
1A
100
AcDbSymbolTableRecord
100
AcDbLinetypeTableRecord
  2
CENTER
 70
     0
  3
----- - ----- - ----- - ----- - -----
 72
    65
 73
     4
 40
35.0
 49
30.0
 74
     0
 49
-1.5
 74
     0
 49
2.0
 74
     0
 49
-1.5
 74
     0
  0
LTYPE
  5
33
330
1A
100
AcDbSymbolTableRecord
100
AcDbLinetypeTableRecord
  2
PHANTOM
 70
     0
  3
----- - - ----- - - ----- - - ----- - - -----
 72
    65
 73
     6
 40
22.5
 49
15.0
 74
     0
 49
-1.5
 74
     0
 49
1.5
 74
     0
 49
-1.5
 74
     0
 49
1.5
 74
     0
 49
-1.5
 74
     0
  0
ENDTAB
  0
TABLE
  2
LAYER
  5
14
102
{ACAD_XDICTIONARY
360
15
102
}
330
0
100
AcDbSymbolTable
 70
     5
  0
LAYER
  5
6
330
14
100
AcDbSymbolTableRecord
100
AcDbLayerTableRecord
  2
0
 70
     0
 62
     7
  6
CONTINUOUS
  0
LAYER
  5
29
330
14
100
AcDbSymbolTableRecord
100
AcDbLayerTableRecord
  2
L-ZISSEN
 70
     0
 62
     7
  6
CONTINUOUS
  0
LAYER
  5
2C
330
14
100
AcDbSymbolTableRecord
100
AcDbLayerTableRecord
  2
L-TYUSIN
 70
     0
 62
     1
  6
CENTER
  0
LAYER
  5
49
330
14
100
AcDbSymbolTableRecord
100
AcDbLayerTableRecord
  2
L-SAISEN
 70
     0
 62
     6
  6
CONTINUOUS
  0
LAYER
  5
32
330
14
100
AcDbSymbolTableRecord
100
AcDbLayerTableRecord
  2
L-SOUZOU
 70
     0
 62
     2
  6
PHANTOM
  0
ENDTAB
  0
TABLE
  2
STYLE
  5
17
330
0
100
AcDbSymbolTable
 70
     1
  0
STYLE
  5
18
330
17
100
AcDbSymbolTableRecord
100
AcDbTextStyleTableRecord
  2
STANDARD
 70
     0
 40
4.5
 41
1.0
 50
0.0
 71
     0
 42
4.5
  3
txt.shx
  4

  0
ENDTAB
  0
TABLE
  2
VIEW
  5
1D
330
0
100
AcDbSymbolTable
 70
     0
  0
ENDTAB
  0
TABLE
  2
UCS
  5
1E
330
0
100
AcDbSymbolTable
 70
     0
  0
ENDTAB
  0
TABLE
  2
APPID
  5
21
330
0
100
AcDbSymbolTable
 70
     1
  0
APPID
  5
22
330
21
100
AcDbSymbolTableRecord
100
AcDbRegAppTableRecord
  2
ACAD
 70
     0
  0
ENDTAB
  0
TABLE
  2
DIMSTYLE
  5
23
330
0
100
AcDbSymbolTable
 70
     1
  0
DIMSTYLE
105
24
330
23
100
AcDbSymbolTableRecord
100
AcDbDimStyleTableRecord
  2
STANDARD
 70
     0
  3

  4

  5

  6

  7

 40
1.0
 41
0.18
 42
0.0625
 43
0.38
 44
0.18
 45
0.0
 46
0.0
 47
0.0
 48
0.0
140
0.18
141
0.09
142
0.0
143
25.4
144
1.0
145
0.0
146
1.0
147
0.09
 71
     0
 72
     0
 73
     1
 74
     1
 75
     0
 76
     0
 77
     0
 78
     0
170
     0
171
     2
172
     0
173
     0
174
     0
175
     0
176
     0
177
     0
178
     0
270
     2
271
     4
272
     4
273
     2
274
     2
340
18
275
     0
280
     0
281
     0
282
     0
283
     1
284
     0
285
     0
286
     0
287
     3
288
     0
  0
ENDTAB
  0
TABLE
  2
BLOCK_RECORD
  5
1
330
0
100
AcDbSymbolTable
 70
     0
  0
BLOCK_RECORD
  5
2
102
{ACAD_XDICTIONARY
360
3
102
}
330
1
100
AcDbSymbolTableRecord
100
AcDbBlockTableRecord
  2
*MODEL_SPACE
  0
BLOCK_RECORD
  5
E
102
{ACAD_XDICTIONARY
360
F
102
}
330
1
100
AcDbSymbolTableRecord
100
AcDbBlockTableRecord
  2
*PAPER_SPACE
  0
ENDTAB
  0
ENDSEC
  0
SECTION
  2
BLOCKS
  0
BLOCK
  5
5
330
2
100
AcDbEntity
  8
0
100
AcDbBlockBegin
  2
*MODEL_SPACE
 70
     0
 10
0.0
 20
0.0
 30
0.0
  3
*MODEL_SPACE
  1

  0
ENDBLK
  5
B
330
2
100
AcDbEntity
  8
0
100
AcDbBlockEnd
  0
BLOCK
  5
11
330
E
100
AcDbEntity
 67
     1
  8
0
100
AcDbBlockBegin
  2
*PAPER_SPACE
 70
     0
 10
0.0
 20
0.0
 30
0.0
  3
*PAPER_SPACE
  1

  0
ENDBLK
  5
12
330
E
100
AcDbEntity
 67
     1
  8
0
100
AcDbBlockEnd
  0
ENDSEC
  0
SECTION
  2
ENTITIES
  0
LINE
  5
2B
330
2
100
AcDbEntity
  8
L-TYUSIN
100
AcDbLine
 10
65.0
 20
250.0
 30
0.0
 11
160.4999999999999
 21
250.0
 31
0.0
  0
LINE
  5
2E
330
2
100
AcDbEntity
  8
L-TYUSIN
100
AcDbLine
 10
75.0
 20
100.0
 30
0.0
 11
160.4999999999999
 21
100.0
 31
0.0
  0
LINE
  5
2F
330
2
100
AcDbEntity
  8
L-ZISSEN
100
AcDbLine
 10
120.0
 20
270.0
 30
0.0
 11
108.9913780286484
 21
270.0
 31
0.0
  0
LINE
  5
30
330
2
100
AcDbEntity
  8
L-ZISSEN
100
AcDbLine
 10
108.9913780286484
 20
230.0
 30
0.0
 11
120.0
 21
230.0
 31
0.0
  0
ARC
  5
31
330
2
100
AcDbEntity
  8
L-SOUZOU
100
AcDbCircle
 10
100.0
 20
250.0
 30
0.0
 40
20.0
100
AcDbArc
 50
283.846257992443
 51
76.15374200755695
  0
POLYLINE
  5
34
330
2
100
AcDbEntity
  8
L-ZISSEN
100
AcDb2dPolyline
 66
     1
 10
0.0
 20
0.0
 30
0.0
 70
     1
  0
VERTEX
  5
25E
330
34
100
AcDbEntity
  8
L-ZISSEN
100
AcDbVertex
100
AcDb2dVertex
 10
91.50862197135154
 20
270.5
 30
0.0
  0
VERTEX
  5
25F
330
34
100
AcDbEntity
  8
L-ZISSEN
100
AcDbVertex
100
AcDb2dVertex
 10
79.5
 20
258.4913780286484
 30
0.0
  0
VERTEX
  5
260
330
34
100
AcDbEntity
  8
L-ZISSEN
100
AcDbVertex
100
AcDb2dVertex
 10
79.5
 20
241.5086219713515
 30
0.0
  0
VERTEX
  5
261
330
34
100
AcDbEntity
  8
L-ZISSEN
100
AcDbVertex
100
AcDb2dVertex
 10
91.50862197135154
 20
229.4999999999999
 30
0.0
  0
VERTEX
  5
262
330
34
100
AcDbEntity
  8
L-ZISSEN
100
AcDbVertex
100
AcDb2dVertex
 10
108.4913780286484
 20
229.4999999999999
 30
0.0
  0
VERTEX
  5
263
330
34
100
AcDbEntity
  8
L-ZISSEN
100
AcDbVertex
100
AcDb2dVertex
 10
120.5
 20
241.5086219713515
 30
0.0
  0
VERTEX
  5
264
330
34
100
AcDbEntity
  8
L-ZISSEN
100
AcDbVertex
100
AcDb2dVertex
 10
120.5
 20
258.4913780286484
 30
0.0
  0
VERTEX
  5
265
330
34
100
AcDbEntity
  8
L-ZISSEN
100
AcDbVertex
100
AcDb2dVertex
 10
108.4913780286484
 20
270.5
 30
0.0
  0
SEQEND
  5
266
330
34
100
AcDbEntity
  8
L-ZISSEN
  0
LINE
  5
35
330
2
100
AcDbEntity
  8
L-ZISSEN
100
AcDbLine
 10
118.3499999999985
 20
134.2576822736191
 30
0.0
 11
120.0
 21
133.6571313870804
 31
0.0
  0
LINE
  5
36
330
2
100
AcDbEntity
  8
L-ZISSEN
100
AcDbLine
 10
118.3500000000021
 20
127.2576822736191
 30
0.0
 11
120.0
 21
127.8582331601578
 31
0.0
  0
ARC
  5
37
330
2
100
AcDbEntity
  8
L-ZISSEN
100
AcDbCircle
 10
116.6663740178846
 20
121.1421499549701
 30
0.0
 40
2.715501624969262
100
AcDbArc
 50
354.9022474682888
 51
91.24326520780833
  0
LINE
  5
38
330
2
100
AcDbEntity
  8
L-ZISSEN
100
AcDbLine
 10
120.0
 20
119.7577295352753
 30
0.0
 11
112.0
 21
119.7577295352753
 31
0.0
  0
LINE
  5
39
330
2
100
AcDbEntity
  8
L-ZISSEN
100
AcDbLine
 10
114.0000000000036
 20
105.2577295352762
 30
0.0
 11
120.0
 21
105.2577295352762
 31
0.0
  0
LINE
  5
3A
330
2
100
AcDbEntity
  8
L-ZISSEN
100
AcDbLine
 10
112.0
 20
90.31854011392033
 30
0.0
 11
119.5
 21
90.31854011392033
 31
0.0
  0
LINE
  5
3B
330
2
100
AcDbEntity
  8
L-SOUZOU
100
AcDbLine
 10
73.0
 20
127.2577295352752
 30
0.0
 11
120.0
 21
127.2577295352752
 31
0.0
  0
LINE
  5
3C
330
2
100
AcDbEntity
  8
L-SOUZOU
100
AcDbLine
 10
71.0
 20
125.2577295352762
 30
0.0
 11
120.0
 21
125.2577295352762
 31
0.0
  0
LINE
  5
3D
330
2
100
AcDbEntity
  8
L-ZISSEN
100
AcDbLine
 10
120.0
 20
114.2577295352766
 30
0.0
 11
80.0
 21
114.2577295352766
 31
0.0
  0
LINE
  5
3E
330
2
100
AcDbEntity
  8
L-ZISSEN
100
AcDbLine
 10
120.0
 20
114.2577295352766
 30
0.0
 11
80.0
 21
114.2577295352766
 31
0.0
  0
LINE
  5
3F
330
2
100
AcDbEntity
  8
L-SOUZOU
100
AcDbLine
 10
72.0
 20
222.5
 30
0.0
 11
104.7863485832776
 21
230.5811723515718
 31
0.0
  0
LINE
  5
40
330
2
100
AcDbEntity
  8
L-SOUZOU
100
AcDbLine
 10
72.0
 20
222.5
 30
0.0
 11
72.0
 21
277.4999999999999
 31
0.0
  0
LINE
  5
41
330
2
100
AcDbEntity
  8
L-SOUZOU
100
AcDbLine
 10
70.0
 20
222.5
 30
0.0
 11
70.0
 21
277.4999999999999
 31
0.0
  0
LINE
  5
42
330
2
100
AcDbEntity
  8
L-TYUSIN
100
AcDbLine
 10
100.0
 20
225.0
 30
0.0
 11
100.0
 21
275.0
 31
0.0
  0
LINE
  5
43
330
2
100
AcDbEntity
  8
L-ZISSEN
100
AcDbLine
 10
113.9999999999981
 20
92.31854011391988
 30
0.0
 11
114.0000000000036
 21
105.2577295352762
 31
0.0
  0
LINE
  5
44
330
2
100
AcDbEntity
  8
L-ZISSEN
100
AcDbLine
 10
80.0
 20
114.2577295352766
 30
0.0
 11
80.0
 21
100.0577295352759
 31
0.0
  0
LINE
  5
45
330
2
100
AcDbEntity
  8
L-ZISSEN
100
AcDbLine
 10
85.99999999999818
 20
92.31854011391988
 30
0.0
 11
86.0
 21
105.2577295352762
 31
0.0
  0
LINE
  5
46
330
2
100
AcDbEntity
  8
L-ZISSEN
100
AcDbLine
 10
80.0
 20
114.2577295352766
 30
0.0
 11
80.0
 21
90.81854011391943
 31
0.0
  0
CIRCLE
  5
47
330
2
100
AcDbEntity
  8
L-ZISSEN
100
AcDbCircle
 10
100.0
 20
100.0
 30
0.0
 40
5.724999999999999
  0
CIRCLE
  5
48
330
2
100
AcDbEntity
  8
L-SAISEN
100
AcDbCircle
 10
100.0
 20
100.0
 30
0.0
 40
6.58
  0
LINE
  5
4A
330
2
100
AcDbEntity
  8
L-TYUSIN
100
AcDbLine
 10
100.0
 20
79.40953761611718
 30
0.0
 11
100.0
 21
181.8451841781079
 31
0.0
  0
LINE
  5
4B
330
2
100
AcDbEntity
  8
L-ZISSEN
100
AcDbLine
 10
88.0
 20
90.31854011392033
 30
0.0
 11
80.5
 21
90.31854011392033
 31
0.0
  0
ARC
  5
4C
330
2
100
AcDbEntity
  8
L-ZISSEN
100
AcDbCircle
 10
80.5
 20
90.81854011391943
 30
0.0
 40
0.5000000000001137
100
AcDbArc
 50
180.0
 51
270.0
  0
ARC
  5
4D
330
2
100
AcDbEntity
  8
L-ZISSEN
100
AcDbCircle
 10
99.99999999999637
 20
107.1041096389549
 30
0.0
 40
24.10410963895674
100
AcDbArc
 50
258.1422612742299
 51
281.85773872577
  0
LINE
  5
4E
330
2
100
AcDbEntity
  8
L-ZISSEN
100
AcDbLine
 10
107.7224156782867
 20
83.0
 30
0.0
 11
92.27758432170958
 21
83.0
 31
0.0
  0
LINE
  5
4F
330
2
100
AcDbEntity
  8
L-ZISSEN
100
AcDbLine
 10
87.43082177696306
 20
90.88771833695455
 30
0.0
 11
112.5691782230351
 21
90.88771833695455
 31
0.0
  0
LINE
  5
50
330
2
100
AcDbEntity
  8
L-ZISSEN
100
AcDbLine
 10
90.00000000000182
 20
87.00000000000045
 30
0.0
 11
110.0000000000018
 21
87.00000000000045
 31
0.0
  0
LINE
  5
51
330
2
100
AcDbEntity
  8
L-ZISSEN
100
AcDbLine
 10
88.0
 20
90.31854011392033
 30
0.0
 11
112.0
 21
90.31854011392033
 31
0.0
  0
LINE
  5
52
330
2
100
AcDbEntity
  8
L-ZISSEN
100
AcDbLine
 10
89.00000000000364
 20
89.01854011391924
 30
0.0
 11
111.0000000000036
 21
89.01854011391924
 31
0.0
  0
ARC
  5
53
330
2
100
AcDbEntity
  8
L-ZISSEN
100
AcDbCircle
 10
92.42936516463306
 20
89.89562981245581
 30
0.0
 40
6.897300046735938
100
AcDbArc
 50
250.2094656240297
 51
292.3039682475823
  0
LINE
  5
54
330
2
100
AcDbEntity
  8
L-ZISSEN
100
AcDbLine
 10
90.00000000000182
 20
87.00000000000045
 30
0.0
 11
90.00000000000182
 21
89.01854011391924
 31
0.0
  0
LINE
  5
55
330
2
100
AcDbEntity
  8
L-ZISSEN
100
AcDbLine
 10
89.00000000000364
 20
89.01854011391924
 30
0.0
 11
89.00000000000364
 21
90.31854011392033
 31
0.0
  0
LINE
  5
56
330
2
100
AcDbEntity
  8
L-ZISSEN
100
AcDbLine
 10
85.99999999999818
 20
92.31854011391988
 30
0.0
 11
88.0
 21
90.31854011392033
 31
0.0
  0
LINE
  5
57
330
2
100
AcDbEntity
  8
L-ZISSEN
100
AcDbLine
 10
90.09406023579504
 20
83.4057069451137
 30
0.0
 11
90.09406023579504
 21
87.00000000000045
 31
0.0
  0
LINE
  5
58
330
2
100
AcDbEntity
  8
L-ZISSEN
100
AcDbLine
 10
95.04703011789571
 20
87.0370802278394
 30
0.0
 11
95.04703011789571
 21
83.51436206010749
 31
0.0
  0
ARC
  5
59
330
2
100
AcDbEntity
  8
L-ZISSEN
100
AcDbCircle
 10
107.5706348353651
 20
89.89562981245262
 30
0.0
 40
6.897300046733692
100
AcDbArc
 50
247.6960317524176
 51
289.7905343759702
  0
LINE
  5
5A
330
2
100
AcDbEntity
  8
L-ZISSEN
100
AcDbLine
 10
109.9059397642049
 20
87.00000000000045
 30
0.0
 11
109.9059397642049
 21
83.40570694511507
 31
0.0
  0
LINE
  5
5B
330
2
100
AcDbEntity
  8
L-ZISSEN
100
AcDbLine
 10
104.9529698821006
 20
87.00000000000045
 30
0.0
 11
104.9529698821006
 21
83.47728183226763
 31
0.0
  0
LINE
  5
5C
330
2
100
AcDbEntity
  8
L-ZISSEN
100
AcDbLine
 10
113.9999999999981
 20
92.31854011391988
 30
0.0
 11
112.0
 21
90.31854011392033
 31
0.0
  0
LINE
  5
5D
330
2
100
AcDbEntity
  8
L-ZISSEN
100
AcDbLine
 10
111.0000000000036
 20
89.01854011391924
 30
0.0
 11
111.0000000000036
 21
90.31854011392033
 31
0.0
  0
LINE
  5
5E
330
2
100
AcDbEntity
  8
L-ZISSEN
100
AcDbLine
 10
110.0000000000018
 20
87.00000000000045
 30
0.0
 11
110.0000000000018
 21
89.01854011391924
 31
0.0
  0
LINE
  5
5F
330
2
100
AcDbEntity
  8
L-ZISSEN
100
AcDbLine
 10
87.37113461626178
 20
120.9008634433789
 30
0.0
 11
80.62886538374005
 21
120.9008634433789
 31
0.0
  0
LINE
  5
60
330
2
100
AcDbEntity
  8
L-ZISSEN
100
AcDbLine
 10
80.62886538374005
 20
119.7577295352753
 30
0.0
 11
87.37113461626178
 21
119.7577295352753
 31
0.0
  0
LINE
  5
61
330
2
100
AcDbEntity
  8
L-ZISSEN
100
AcDbLine
 10
81.64999999999782
 20
134.2576822736191
 30
0.0
 11
80.0
 21
133.6571313870804
 31
0.0
  0
LINE
  5
62
330
2
100
AcDbEntity
  8
L-ZISSEN
100
AcDbLine
 10
81.64999999999418
 20
127.2576822736191
 30
0.0
 11
80.0
 21
127.8582331601578
 31
0.0
  0
ARC
  5
63
330
2
100
AcDbEntity
  8
L-ZISSEN
100
AcDbCircle
 10
83.33362598211534
 20
121.1421499549701
 30
0.0
 40
2.715501624969262
100
AcDbArc
 50
88.7567347921917
 51
185.0977525317111
  0
LINE
  5
64
330
2
100
AcDbEntity
  8
L-ZISSEN
100
AcDbLine
 10
80.0
 20
119.7577295352753
 30
0.0
 11
88.0
 21
119.7577295352753
 31
0.0
  0
LINE
  5
65
330
2
100
AcDbEntity
  8
L-ZISSEN
100
AcDbLine
 10
83.0
 20
114.2577295352766
 30
0.0
 11
80.0
 21
114.2577295352766
 31
0.0
  0
LINE
  5
66
330
2
100
AcDbEntity
  8
L-ZISSEN
100
AcDbLine
 10
80.0
 20
105.2577295352762
 30
0.0
 11
86.0
 21
105.2577295352762
 31
0.0
  0
LINE
  5
67
330
2
100
AcDbEntity
  8
L-ZISSEN
100
AcDbLine
 10
81.0
 20
114.2577295352766
 30
0.0
 11
119.0
 21
114.2577295352766
 31
0.0
  0
LINE
  5
68
330
2
100
AcDbEntity
  8
L-ZISSEN
100
AcDbLine
 10
80.0
 20
127.8582331601578
 30
0.0
 11
80.0
 21
133.6571313870804
 31
0.0
  0
LINE
  5
69
330
2
100
AcDbEntity
  8
L-SOUZOU
100
AcDbLine
 10
72.0
 20
128.2577295352762
 30
0.0
 11
72.0
 21
148.0
 31
0.0
  0
LINE
  5
6A
330
2
100
AcDbEntity
  8
L-SOUZOU
100
AcDbLine
 10
70.0
 20
126.2577295352762
 30
0.0
 11
70.0
 21
148.0
 31
0.0
  0
ARC
  5
6B
330
2
100
AcDbEntity
  8
L-SOUZOU
100
AcDbCircle
 10
71.0
 20
126.2577295352762
 30
0.0
 40
1.000000000000795
100
AcDbArc
 50
180.0
 51
270.0
  0
LINE
  5
6C
330
2
100
AcDbEntity
  8
L-ZISSEN
100
AcDbLine
 10
80.62886538374005
 20
120.9008634433789
 30
0.0
 11
80.62886538374005
 21
119.7577295352753
 31
0.0
  0
ARC
  5
6D
330
2
100
AcDbEntity
  8
L-SOUZOU
100
AcDbCircle
 10
73.0
 20
128.2577295352762
 30
0.0
 40
1.000000000000511
100
AcDbArc
 50
180.0
 51
270.0
  0
LINE
  5
6E
330
2
100
AcDbEntity
  8
L-ZISSEN
100
AcDbLine
 10
80.0
 20
125.2577295352762
 30
0.0
 11
80.0
 21
114.2577295352766
 31
0.0
  0
LINE
  5
6F
330
2
100
AcDbEntity
  8
L-SOUZOU
100
AcDbLine
 10
70.0
 20
147.0000000000004
 30
0.0
 11
72.0
 21
147.0000000000004
 31
0.0
  0
LINE
  5
70
330
2
100
AcDbEntity
  8
L-SOUZOU
100
AcDbLine
 10
70.0
 20
148.0
 30
0.0
 11
72.0
 21
148.0
 31
0.0
  0
LINE
  5
71
330
2
100
AcDbEntity
  8
L-TYUSIN
100
AcDbLine
 10
68.74806823118706
 20
142.0
 30
0.0
 11
73.53158812477158
 21
142.0
 31
0.0
  0
LINE
  5
72
330
2
100
AcDbEntity
  8
L-SOUZOU
100
AcDbLine
 10
72.0
 20
222.5
 30
0.0
 11
70.0
 21
222.5
 31
0.0
  0
LINE
  5
73
330
2
100
AcDbEntity
  8
L-ZISSEN
100
AcDbLine
 10
114.8638832438676
 20
174.0077295352762
 30
0.0
 11
115.4097337240764
 21
141.0077295352766
 31
0.0
  0
LINE
  5
74
330
2
100
AcDbEntity
  8
L-ZISSEN
100
AcDbLine
 10
85.11171571776868
 20
172.5325375272127
 30
0.0
 11
84.59026627592175
 21
141.0077295352766
 31
0.0
  0
LINE
  5
75
330
2
100
AcDbEntity
  8
L-ZISSEN
100
AcDbLine
 10
111.4999999999981
 20
139.2577295352771
 30
0.0
 11
88.49999999999999
 21
139.2577295352771
 31
0.0
  0
LINE
  5
76
330
2
100
AcDbEntity
  8
L-ZISSEN
100
AcDbLine
 10
84.59026627592175
 20
141.0077295352766
 30
0.0
 11
115.4097337240764
 21
141.0077295352766
 31
0.0
  0
LINE
  5
77
330
2
100
AcDbEntity
  8
L-ZISSEN
100
AcDbLine
 10
81.64999999999782
 20
134.2576822736191
 30
0.0
 11
118.3499999999985
 21
134.2576822736191
 31
0.0
  0
LINE
  5
78
330
2
100
AcDbEntity
  8
L-SAISEN
100
AcDbLine
 10
116.5
 20
137.7577295352762
 30
0.0
 11
83.49999999999818
 21
137.7577295352762
 31
0.0
  0
LINE
  5
79
330
2
100
AcDbEntity
  8
L-ZISSEN
100
AcDbLine
 10
83.49999999999818
 20
114.2577295352766
 30
0.0
 11
116.5
 21
114.2577295352766
 31
0.0
  0
ARC
  5
7A
330
2
100
AcDbEntity
  8
L-ZISSEN
100
AcDbCircle
 10
100.0
 20
76.81438917089917
 30
0.0
 40
57.44324584106258
100
AcDbArc
 50
81.70808147793069
 51
98.29191852206932
  0
ARC
  5
7B
330
2
100
AcDbEntity
  8
L-ZISSEN
100
AcDbCircle
 10
100.0
 20
184.700975376319
 30
0.0
 40
57.4432458410422
100
AcDbArc
 50
261.7080814779307
 51
278.2919185220693
  0
LINE
  5
7C
330
2
100
AcDbEntity
  8
L-ZISSEN
100
AcDbLine
 10
114.0000000000036
 20
109.7577295352766
 30
0.0
 11
86.0
 21
109.7577295352766
 31
0.0
  0
LINE
  5
7D
330
2
100
AcDbEntity
  8
L-ZISSEN
100
AcDbLine
 10
114.0000000000036
 20
111.2577295352762
 30
0.0
 11
86.0
 21
111.2577295352757
 31
0.0
  0
LINE
  5
7E
330
2
100
AcDbEntity
  8
L-ZISSEN
100
AcDbLine
 10
91.71572875253515
 20
127.8582331601578
 30
0.0
 11
91.71572875254241
 21
133.6571313870804
 31
0.0
  0
ARC
  5
7F
330
2
100
AcDbEntity
  8
L-ZISSEN
100
AcDbCircle
 10
85.85786437626849
 20
156.1272062351122
 30
0.0
 40
28.86952396149382
100
AcDbArc
 50
270.0
 51
281.707076902434
  0
LINE
  5
80
330
2
100
AcDbEntity
  8
L-ZISSEN
100
AcDbLine
 10
87.37113461626178
 20
119.7577295352753
 30
0.0
 11
87.37113461626178
 21
120.9008634433789
 31
0.0
  0
LINE
  5
81
330
2
100
AcDbEntity
  8
L-ZISSEN
100
AcDbLine
 10
88.0
 20
125.2577295352762
 30
0.0
 11
88.0
 21
119.7577295352753
 31
0.0
  0
LINE
  5
82
330
2
100
AcDbEntity
  8
L-ZISSEN
100
AcDbLine
 10
84.60745477830277
 20
122.8719985764932
 30
0.0
 11
84.60745477830277
 21
123.8570123084641
 31
0.0
  0
LINE
  5
83
330
2
100
AcDbEntity
  8
L-ZISSEN
100
AcDbLine
 10
83.39254522169539
 20
123.8570123084641
 30
0.0
 11
83.39254522169539
 21
122.8719985764932
 31
0.0
  0
LINE
  5
84
330
2
100
AcDbEntity
  8
L-ZISSEN
100
AcDbLine
 10
83.39254522169539
 20
122.8719985764932
 30
0.0
 11
84.60745477830277
 21
122.8719985764932
 31
0.0
  0
ARC
  5
85
330
2
100
AcDbEntity
  8
L-ZISSEN
100
AcDbCircle
 10
84.66637401788284
 20
121.1421499549701
 30
0.0
 40
2.715501624969221
100
AcDbArc
 50
354.9022474682888
 51
91.24326520780833
  0
LINE
  5
86
330
2
100
AcDbEntity
  8
L-ZISSEN
100
AcDbLine
 10
86.0
 20
109.7577295352766
 30
0.0
 11
86.0
 21
111.2577295352757
 31
0.0
  0
ARC
  5
87
330
2
100
AcDbEntity
  8
L-ZISSEN
100
AcDbCircle
 10
85.8578643762703
 20
105.388158312091
 30
0.0
 40
28.86952396152839
100
AcDbArc
 50
78.29292309756588
 51
90.00000000000003
  0
LINE
  5
88
330
2
100
AcDbEntity
  8
L-ZISSEN
100
AcDbLine
 10
88.49999999999999
 20
141.0077295352766
 30
0.0
 11
88.49999999999999
 21
139.2577295352771
 31
0.0
  0
LINE
  5
89
330
2
100
AcDbEntity
  8
L-ZISSEN
100
AcDbLine
 10
88.49999999999999
 20
139.2577295352771
 30
0.0
 11
85.0
 21
139.2577295352771
 31
0.0
  0
LINE
  5
8A
330
2
100
AcDbEntity
  8
L-SAISEN
100
AcDbLine
 10
84.28482738726234
 20
138.5425569225367
 30
0.0
 11
84.2848273872587
 21
134.2576822736191
 31
0.0
  0
LINE
  5
8B
330
2
100
AcDbEntity
  8
L-ZISSEN
100
AcDbLine
 10
83.49999999999818
 20
137.7577295352762
 30
0.0
 11
83.49999999999818
 21
134.2576822736191
 31
0.0
  0
LINE
  5
8C
330
2
100
AcDbEntity
  8
L-ZISSEN
100
AcDbLine
 10
85.0
 20
139.2577295352771
 30
0.0
 11
83.49999999999818
 21
137.7577295352762
 31
0.0
  0
LINE
  5
8D
330
2
100
AcDbEntity
  8
L-ZISSEN
100
AcDbLine
 10
108.2842712474612
 20
127.8582331601578
 30
0.0
 11
108.2842712474612
 21
133.6571313870804
 31
0.0
  0
ARC
  5
8E
330
2
100
AcDbEntity
  8
L-ZISSEN
100
AcDbCircle
 10
114.1421356237297
 20
156.1272062351076
 30
0.0
 40
28.8695239614883
100
AcDbArc
 50
258.2929230975659
 51
270.0
  0
LINE
  5
8F
330
2
100
AcDbEntity
  8
L-ZISSEN
100
AcDbLine
 10
116.6074547783046
 20
123.8570123084641
 30
0.0
 11
116.6074547783046
 21
122.8719985764932
 31
0.0
  0
LINE
  5
90
330
2
100
AcDbEntity
  8
L-ZISSEN
100
AcDbLine
 10
119.3711346162599
 20
120.9008634433789
 30
0.0
 11
119.3711346162599
 21
119.7577295352753
 31
0.0
  0
LINE
  5
91
330
2
100
AcDbEntity
  8
L-ZISSEN
100
AcDbLine
 10
115.3925452216953
 20
122.8719985764932
 30
0.0
 11
115.3925452216953
 21
123.8570123084641
 31
0.0
  0
LINE
  5
92
330
2
100
AcDbEntity
  8
L-ZISSEN
100
AcDbLine
 10
112.6288653837364
 20
119.7577295352753
 30
0.0
 11
112.6288653837364
 21
120.9008634433789
 31
0.0
  0
LINE
  5
93
330
2
100
AcDbEntity
  8
L-ZISSEN
100
AcDbLine
 10
112.0
 20
125.2577295352762
 30
0.0
 11
112.0
 21
119.7577295352753
 31
0.0
  0
ARC
  5
94
330
2
100
AcDbEntity
  8
L-ZISSEN
100
AcDbCircle
 10
115.3336259821153
 20
121.1421499549701
 30
0.0
 40
2.715501624969788
100
AcDbArc
 50
88.7567347921917
 51
185.0977525317111
  0
LINE
  5
95
330
2
100
AcDbEntity
  8
L-ZISSEN
100
AcDbLine
 10
116.6074547783046
 20
122.8719985764932
 30
0.0
 11
115.3925452216953
 21
122.8719985764932
 31
0.0
  0
LINE
  5
96
330
2
100
AcDbEntity
  8
L-ZISSEN
100
AcDbLine
 10
112.6288653837364
 20
120.9008634433789
 30
0.0
 11
119.3711346162599
 21
120.9008634433789
 31
0.0
  0
LINE
  5
97
330
2
100
AcDbEntity
  8
L-ZISSEN
100
AcDbLine
 10
119.3711346162599
 20
119.7577295352753
 30
0.0
 11
112.6288653837364
 21
119.7577295352753
 31
0.0
  0
LINE
  5
98
330
2
100
AcDbEntity
  8
L-ZISSEN
100
AcDbLine
 10
114.0000000000036
 20
109.7577295352766
 30
0.0
 11
114.0000000000036
 21
111.2577295352762
 31
0.0
  0
ARC
  5
99
330
2
100
AcDbEntity
  8
L-ZISSEN
100
AcDbCircle
 10
114.1421356237278
 20
105.3881583121133
 30
0.0
 40
28.86952396150588
100
AcDbArc
 50
90.00000000000003
 51
101.7070769024341
  0
LINE
  5
9A
330
2
100
AcDbEntity
  8
L-ZISSEN
100
AcDbLine
 10
111.4999999999981
 20
141.0077295352766
 30
0.0
 11
111.4999999999981
 21
139.2577295352771
 31
0.0
  0
LINE
  5
9B
330
2
100
AcDbEntity
  8
L-ZISSEN
100
AcDbLine
 10
111.4999999999981
 20
141.0077295352766
 30
0.0
 11
111.4999999999981
 21
139.2577295352771
 31
0.0
  0
LINE
  5
9C
330
2
100
AcDbEntity
  8
L-ZISSEN
100
AcDbLine
 10
115.0
 20
139.2577295352771
 30
0.0
 11
111.4999999999981
 21
139.2577295352771
 31
0.0
  0
LINE
  5
9D
330
2
100
AcDbEntity
  8
L-ZISSEN
100
AcDbLine
 10
116.5
 20
137.7577295352762
 30
0.0
 11
116.5
 21
134.2576822736191
 31
0.0
  0
LINE
  5
9E
330
2
100
AcDbEntity
  8
L-SAISEN
100
AcDbLine
 10
115.7151726127394
 20
138.5425569225367
 30
0.0
 11
115.7151726127376
 21
134.2576822736191
 31
0.0
  0
LINE
  5
9F
330
2
100
AcDbEntity
  8
L-ZISSEN
100
AcDbLine
 10
115.0
 20
139.2577295352771
 30
0.0
 11
116.5
 21
137.7577295352762
 31
0.0
  0
LINE
  5
A0
330
2
100
AcDbEntity
  8
L-ZISSEN
100
AcDbLine
 10
114.8638832438676
 20
174.0077295352762
 30
0.0
 11
100.0
 21
174.0077295352762
 31
0.0
  0
LINE
  5
A1
330
2
100
AcDbEntity
  8
L-ZISSEN
100
AcDbLine
 10
86.61151055825213
 20
174.0077295352762
 30
0.0
 11
100.0
 21
174.0077295352762
 31
0.0
  0
ARC
  5
A2
330
2
100
AcDbEntity
  8
L-ZISSEN
100
AcDbCircle
 10
86.61151055825213
 20
172.5077295352762
 30
0.0
 40
1.500000000001557
100
AcDbArc
 50
90.00000000000003
 51
179.0523613050515
  0
ARC
  5
A3
330
2
100
AcDbEntity
  8
L-ZISSEN
100
AcDbCircle
 10
113.388489441746
 20
172.5077295352762
 30
0.0
 40
1.499999999999772
100
AcDbArc
 50
0.9476386949484799
 51
90.00000000000003
  0
LINE
  5
A4
330
2
100
AcDbEntity
  8
L-ZISSEN
100
AcDbLine
 10
91.00862197135155
 20
270.0
 30
0.0
 11
80.0
 21
270.0
 31
0.0
  0
ARC
  5
A5
330
2
100
AcDbEntity
  8
L-ZISSEN
100
AcDbCircle
 10
84.0
 20
234.0
 30
0.0
 40
3.35
100
AcDbArc
 50
95.57631814326448
 51
354.4236818567354
  0
LINE
  5
A6
330
2
100
AcDbEntity
  8
L-ZISSEN
100
AcDbLine
 10
80.0
 20
230.0
 30
0.0
 11
91.00862197135155
 21
230.0
 31
0.0
  0
ARC
  5
A7
330
2
100
AcDbEntity
  8
L-ZISSEN
100
AcDbCircle
 10
84.0
 20
266.0
 30
0.0
 40
3.35
100
AcDbArc
 50
5.576318143264516
 51
264.4236818567354
  0
LINE
  5
A8
330
2
100
AcDbEntity
  8
L-SOUZOU
100
AcDbLine
 10
72.0
 20
277.4999999999999
 30
0.0
 11
104.7863485832776
 21
269.4188276484281
 31
0.0
  0
LINE
  5
A9
330
2
100
AcDbEntity
  8
L-TYUSIN
100
AcDbLine
 10
65.0
 20
233.0
 30
0.0
 11
75.0
 21
233.0
 31
0.0
  0
LINE
  5
AA
330
2
100
AcDbEntity
  8
L-ZISSEN
100
AcDbLine
 10
80.0
 20
241.0086219713515
 30
0.0
 11
80.0
 21
230.0
 31
0.0
  0
LINE
  5
AB
330
2
100
AcDbEntity
  8
L-SOUZOU
100
AcDbLine
 10
70.0
 20
277.4999999999999
 30
0.0
 11
72.0
 21
277.4999999999999
 31
0.0
  0
LINE
  5
AC
330
2
100
AcDbEntity
  8
L-TYUSIN
100
AcDbLine
 10
65.0
 20
267.0
 30
0.0
 11
75.0
 21
267.0
 31
0.0
  0
LINE
  5
AD
330
2
100
AcDbEntity
  8
L-ZISSEN
100
AcDbLine
 10
80.0
 20
270.0
 30
0.0
 11
80.0
 21
258.9913780286484
 31
0.0
  0
CIRCLE
  5
AE
330
2
100
AcDbEntity
  8
L-ZISSEN
100
AcDbCircle
 10
100.0
 20
250.0
 30
0.0
 40
14.86388324386761
  0
CIRCLE
  5
AF
330
2
100
AcDbEntity
  8
L-ZISSEN
100
AcDbCircle
 10
100.0
 20
250.0
 30
0.0
 40
15.40973372407643
  0
ARC
  5
B0
330
2
100
AcDbEntity
  8
L-ZISSEN
100
AcDbCircle
 10
116.0
 20
234.0
 30
0.0
 40
3.35
100
AcDbArc
 50
185.5763181432644
 51
84.42368185673551
  0
ARC
  5
B1
330
2
100
AcDbEntity
  8
L-ZISSEN
100
AcDbCircle
 10
116.0
 20
266.0
 30
0.0
 40
3.35
100
AcDbArc
 50
275.5763181432645
 51
174.4236818567355
  0
CIRCLE
  5
B2
330
2
100
AcDbEntity
  8
L-SOUZOU
100
AcDbCircle
 10
259.525245136163
 20
100.0
 30
0.0
 40
21.0
  0
CIRCLE
  5
B3
330
2
100
AcDbEntity
  8
L-SOUZOU
100
AcDbCircle
 10
259.525245136163
 20
100.0
 30
0.0
 40
18.0
  0
LINE
  5
B5
330
2
100
AcDbEntity
  8
L-ZISSEN
100
AcDbLine
 10
274.5252451361611
 20
139.2577295352771
 30
0.0
 11
271.0252451361611
 21
139.2577295352771
 31
0.0
  0
LINE
  5
B6
330
2
100
AcDbEntity
  8
L-TYUSIN
100
AcDbLine
 10
286.525245136163
 20
142.0
 30
0.0
 11
266.525245136163
 21
142.0
 31
0.0
  0
LINE
  5
B7
330
2
100
AcDbEntity
  8
L-ZISSEN
100
AcDbLine
 10
246.1367556944133
 20
173.9999885352763
 30
0.0
 11
272.9137345786785
 21
173.9999885352763
 31
0.0
  0
TEXT
  5
B8
330
2
100
AcDbEntity
  8
L-ZISSEN
100
AcDbText
 10
211.3382214583866
 20
265.427488246898
 30
0.0
 40
4.5
  1
MODEL NO. R62- 00-0 **
100
AcDbText
  0
LINE
  5
B9
330
2
100
AcDbEntity
  8
L-ZISSEN
100
AcDbLine
 10
244.1155114120829
 20
141.0077295352766
 30
0.0
 11
274.9349788602375
 21
141.0077295352766
 31
0.0
  0
ARC
  5
BA
330
2
100
AcDbEntity
  8
L-ZISSEN
100
AcDbCircle
 10
274.8588711182765
 20
121.1421499549701
 30
0.0
 40
2.715501624969221
100
AcDbArc
 50
88.7567347921917
 51
185.0977525317111
  0
LINE
  5
BB
330
2
100
AcDbEntity
  8
L-ZISSEN
100
AcDbLine
 10
279.5252451361611
 20
119.7577295352753
 30
0.0
 11
271.5252451361629
 21
119.7577295352753
 31
0.0
  0
LINE
  5
BC
330
2
100
AcDbEntity
  8
L-ZISSEN
100
AcDbLine
 10
278.8963797524211
 20
119.7577295352753
 30
0.0
 11
272.1541105198975
 21
119.7577295352753
 31
0.0
  0
LINE
  5
BD
330
2
100
AcDbEntity
  8
L-ZISSEN
100
AcDbLine
 10
272.1541105198975
 20
120.9008634433789
 30
0.0
 11
278.8963797524211
 21
120.9008634433789
 31
0.0
  0
ARC
  5
BE
330
2
100
AcDbEntity
  8
L-ZISSEN
100
AcDbCircle
 10
273.6673807598908
 20
156.1272062351076
 30
0.0
 40
28.86952396148853
100
AcDbArc
 50
258.2929230975659
 51
270.0
  0
ARC
  5
BF
330
2
100
AcDbEntity
  8
L-ZISSEN
100
AcDbCircle
 10
273.6673807598908
 20
105.3881583121133
 30
0.0
 40
28.86952396150588
100
AcDbArc
 50
90.00000000000003
 51
101.7070769024341
  0
LINE
  5
C0
330
2
100
AcDbEntity
  8
L-ZISSEN
100
AcDbLine
 10
241.4252451361608
 20
89.01854011391924
 30
0.0
 11
277.6252451361597
 21
89.01854011391924
 31
0.0
  0
LINE
  5
C1
330
2
100
AcDbEntity
  8
L-ZISSEN
100
AcDbLine
 10
240.9252451361608
 20
90.31854011392033
 30
0.0
 11
278.1252451361615
 21
90.31854011392033
 31
0.0
  0
LINE
  5
C2
330
2
100
AcDbEntity
  8
L-ZISSEN
100
AcDbLine
 10
239.5252451361611
 20
105.2577295352762
 30
0.0
 11
279.5252451361611
 21
105.2577295352762
 31
0.0
  0
LINE
  5
C3
330
2
100
AcDbEntity
  8
L-TYUSIN
100
AcDbLine
 10
284.5252451361593
 20
100.0
 30
0.0
 11
234.5252451361611
 21
100.0
 31
0.0
  0
LINE
  5
C4
330
2
100
AcDbEntity
  8
L-ZISSEN
100
AcDbLine
 10
243.0252451361611
 20
114.2577295352766
 30
0.0
 11
276.0252451361612
 21
114.2577295352766
 31
0.0
  0
LINE
  5
C5
330
2
100
AcDbEntity
  8
L-SAISEN
100
AcDbLine
 10
276.0252451361612
 20
137.7577295352762
 30
0.0
 11
243.0252451361611
 21
137.7577295352762
 31
0.0
  0
LINE
  5
C6
330
2
100
AcDbEntity
  8
L-ZISSEN
100
AcDbLine
 10
279.5252451361611
 20
114.2577295352766
 30
0.0
 11
239.5252451361611
 21
114.2577295352766
 31
0.0
  0
LINE
  5
C7
330
2
100
AcDbEntity
  8
L-ZISSEN
100
AcDbLine
 10
240.5252451361593
 20
114.2577295352766
 30
0.0
 11
278.5252451361611
 21
114.2577295352766
 31
0.0
  0
LINE
  5
C8
330
2
100
AcDbEntity
  8
L-ZISSEN
100
AcDbLine
 10
279.5252451361611
 20
114.2577295352766
 30
0.0
 11
239.5252451361611
 21
114.2577295352766
 31
0.0
  0
LINE
  5
C9
330
2
100
AcDbEntity
  8
L-SOUZOU
100
AcDbLine
 10
239.5252451361611
 20
125.2577295352762
 30
0.0
 11
286.0252451361611
 21
125.2577295352762
 31
0.0
  0
LINE
  5
CA
330
2
100
AcDbEntity
  8
L-SOUZOU
100
AcDbLine
 10
232.0252451361629
 20
127.2577295352766
 30
0.0
 11
287.025245136163
 21
127.2577295352766
 31
0.0
  0
LINE
  5
CB
330
2
100
AcDbEntity
  8
L-ZISSEN
100
AcDbLine
 10
241.1752451361589
 20
134.2576822736191
 30
0.0
 11
277.8752451361579
 21
134.2576822736191
 31
0.0
  0
LINE
  5
CC
330
2
100
AcDbEntity
  8
L-SOUZOU
100
AcDbLine
 10
155.4999999999999
 20
119.5
 30
0.0
 11
155.4999999999999
 21
80.5
 31
0.0
  0
LINE
  5
CD
330
2
100
AcDbEntity
  8
L-SOUZOU
100
AcDbLine
 10
146.5
 20
121.0
 30
0.0
 11
146.5
 21
79.0
 31
0.0
  0
LINE
  5
CE
330
2
100
AcDbEntity
  8
L-SOUZOU
100
AcDbLine
 10
124.5
 20
105.3499999999999
 30
0.0
 11
124.5
 21
94.65000000000008
 31
0.0
  0
LINE
  5
CF
330
2
100
AcDbEntity
  8
L-SOUZOU
100
AcDbLine
 10
130.4999999999999
 20
118.9
 30
0.0
 11
130.4999999999999
 21
81.0999999999999
 31
0.0
  0
LINE
  5
D0
330
2
100
AcDbEntity
  8
L-SOUZOU
100
AcDbLine
 10
123.0
 20
104.9899437936674
 30
0.0
 11
122.9999999999998
 21
95.01005620633259
 31
0.0
  0
LINE
  5
D1
330
2
100
AcDbEntity
  8
L-ZISSEN
100
AcDbLine
 10
120.0
 20
90.81854011391943
 30
0.0
 11
120.0
 21
114.2577295352766
 31
0.0
  0
LINE
  5
D2
330
2
100
AcDbEntity
  8
L-SOUZOU
100
AcDbLine
 10
132.0
 20
79.59999999999991
 30
0.0
 11
146.5
 21
79.59999999999991
 31
0.0
  0
LINE
  5
D3
330
2
100
AcDbEntity
  8
L-SOUZOU
100
AcDbLine
 10
124.5
 20
94.65000000000008
 30
0.0
 11
130.4999999999999
 21
94.65000000000008
 31
0.0
  0
LINE
  5
D4
330
2
100
AcDbEntity
  8
L-SOUZOU
100
AcDbLine
 10
120.0
 20
95.10381089144468
 30
0.0
 11
124.5
 21
94.96317886377619
 31
0.0
  0
LINE
  5
D5
330
2
100
AcDbEntity
  8
L-SOUZOU
100
AcDbLine
 10
120.0
 20
95.68981089144466
 30
0.0
 11
123.0
 21
95.59605620633238
 31
0.0
  0
LINE
  5
D6
330
2
100
AcDbEntity
  8
L-SOUZOU
100
AcDbLine
 10
123.0
 20
95.59605620633238
 30
0.0
 11
123.6049042009613
 21
94.99115200537108
 31
0.0
  0
ARC
  5
D7
330
2
100
AcDbEntity
  8
L-ZISSEN
100
AcDbCircle
 10
119.5
 20
90.81854011391943
 30
0.0
 40
0.4999999999989769
100
AcDbArc
 50
270.0
 51
0.0
  0
ARC
  5
D8
330
2
100
AcDbEntity
  8
L-SOUZOU
100
AcDbCircle
 10
132.0
 20
81.0999999999999
 30
0.0
 40
1.5
100
AcDbArc
 50
180.0
 51
270.0
  0
LINE
  5
D9
330
2
100
AcDbEntity
  8
L-SOUZOU
100
AcDbLine
 10
146.5
 20
79.0
 30
0.0
 11
154.0
 21
79.0
 31
0.0
  0
ARC
  5
DA
330
2
100
AcDbEntity
  8
L-SOUZOU
100
AcDbCircle
 10
154.0
 20
80.5
 30
0.0
 40
1.5
100
AcDbArc
 50
270.0
 51
0.0
  0
LINE
  5
DB
330
2
100
AcDbEntity
  8
L-SOUZOU
100
AcDbLine
 10
132.0
 20
120.4
 30
0.0
 11
146.5
 21
120.4
 31
0.0
  0
LINE
  5
DC
330
2
100
AcDbEntity
  8
L-ZISSEN
100
AcDbLine
 10
120.0
 20
133.6571313870804
 30
0.0
 11
120.0
 21
127.8582331601578
 31
0.0
  0
LINE
  5
DD
330
2
100
AcDbEntity
  8
L-SOUZOU
100
AcDbLine
 10
130.4999999999999
 20
105.3499999999999
 30
0.0
 11
124.5
 21
105.3499999999999
 31
0.0
  0
LINE
  5
DE
330
2
100
AcDbEntity
  8
L-SOUZOU
100
AcDbLine
 10
120.0
 20
104.8961891085552
 30
0.0
 11
124.5
 21
105.0368211362238
 31
0.0
  0
LINE
  5
DF
330
2
100
AcDbEntity
  8
L-SOUZOU
100
AcDbLine
 10
120.0
 20
104.3101891085553
 30
0.0
 11
123.0
 21
104.4039437936676
 31
0.0
  0
LINE
  5
E0
330
2
100
AcDbEntity
  8
L-SOUZOU
100
AcDbLine
 10
123.0
 20
104.4039437936676
 30
0.0
 11
123.6049042009613
 21
105.0088479946289
 31
0.0
  0
LINE
  5
E1
330
2
100
AcDbEntity
  8
L-SOUZOU
 48
0.5
100
AcDbLine
 10
120.0
 20
125.2577295352762
 30
0.0
 11
120.0
 21
127.2577295352752
 31
0.0
  0
LINE
  5
E2
330
2
100
AcDbEntity
  8
L-ZISSEN
100
AcDbLine
 10
120.0
 20
125.2577295352762
 30
0.0
 11
120.0
 21
114.2577295352766
 31
0.0
  0
ARC
  5
E3
330
2
100
AcDbEntity
  8
L-SOUZOU
100
AcDbCircle
 10
132.0
 20
118.9
 30
0.0
 40
1.5
100
AcDbArc
 50
90.0
 51
180.0
  0
LINE
  5
E4
330
2
100
AcDbEntity
  8
L-SOUZOU
100
AcDbLine
 10
146.5
 20
121.0
 30
0.0
 11
154.0
 21
121.0
 31
0.0
  0
ARC
  5
E5
330
2
100
AcDbEntity
  8
L-SOUZOU
100
AcDbCircle
 10
154.0
 20
119.5
 30
0.0
 40
1.5
100
AcDbArc
 50
0.0
 51
90.0
  0
ARC
  5
E6
330
2
100
AcDbEntity
  8
L-SOUZOU
100
AcDbCircle
 10
259.525245136163
 20
100.0
 30
0.0
 40
2.0
100
AcDbArc
 50
249.9399999997831
 51
16.4805000000672
  0
CIRCLE
  5
E7
330
2
100
AcDbEntity
  8
L-SOUZOU
100
AcDbCircle
 10
259.525245136163
 20
100.0
 30
0.0
 40
1.2
  0
ARC
  5
E8
330
2
100
AcDbEntity
  8
L-SOUZOU
100
AcDbCircle
 10
259.525245136163
 20
100.0
 30
0.0
 40
2.0
100
AcDbArc
 50
73.51949999986479
 51
200.0599999999713
  0
LINE
  5
E9
330
2
100
AcDbEntity
  8
L-SOUZOU
100
AcDbLine
 10
267.9468451361586
 20
108.4216000000001
 30
0.0
 11
247.2236451361568
 21
87.69840000000044
 31
0.0
  0
CIRCLE
  5
EA
330
2
100
AcDbEntity
  8
L-ZISSEN
100
AcDbCircle
 10
259.525245136163
 20
100.0
 30
0.0
 40
4.285
  0
LINE
  5
EB
330
2
100
AcDbEntity
  8
L-ZISSEN
100
AcDbLine
 10
268.5252451361611
 20
90.31854011392033
 30
0.0
 11
268.5252451361611
 21
105.2577295352762
 31
0.0
  0
LINE
  5
EC
330
2
100
AcDbEntity
  8
L-ZISSEN
100
AcDbLine
 10
272.0252451361611
 20
90.31854011392033
 30
0.0
 11
272.0252451361611
 21
105.2577295352762
 31
0.0
  0
LINE
  5
ED
330
2
100
AcDbEntity
  8
L-ZISSEN
100
AcDbLine
 10
250.5252451361611
 20
90.31854011392033
 30
0.0
 11
250.5252451361611
 21
105.2577295352762
 31
0.0
  0
LINE
  5
EE
330
2
100
AcDbEntity
  8
L-ZISSEN
100
AcDbLine
 10
247.0252451361611
 20
90.31854011392033
 30
0.0
 11
247.0252451361611
 21
105.2577295352762
 31
0.0
  0
CIRCLE
  5
EF
330
2
100
AcDbEntity
  8
L-SAISEN
100
AcDbCircle
 10
259.525245136163
 20
100.0
 30
0.0
 40
4.865
  0
SOLID
  5
F0
330
2
100
AcDbEntity
  8
L-ZISSEN
100
AcDbTrace
 10
238.316744431262
 20
101.6280777491782
 30
0.0
 11
237.8540435777393
 21
101.1481273719581
 31
0.0
 12
239.5252451361611
 22
100.0
 32
0.0
 13
239.5252451361611
 23
100.0
 33
0.0
  0
LINE
  5
F1
330
2
100
AcDbEntity
  8
L-ZISSEN
100
AcDbLine
 10
239.5252451361611
 20
114.2577295352766
 30
0.0
 11
239.5252451361611
 21
100.0577295352759
 31
0.0
  0
LINE
  5
F2
330
2
100
AcDbEntity
  8
L-ZISSEN
100
AcDbLine
 10
243.5252451361611
 20
105.2577295352762
 30
0.0
 11
243.5252451361611
 21
90.31854011392033
 31
0.0
  0
LINE
  5
F3
330
2
100
AcDbEntity
  8
L-ZISSEN
100
AcDbLine
 10
241.793194328593
 20
105.2577295352762
 30
0.0
 11
241.793194328593
 21
92.05059092148848
 31
0.0
  0
LINE
  5
F4
330
2
100
AcDbEntity
  8
L-ZISSEN
100
AcDbLine
 10
239.5252451361611
 20
114.2577295352766
 30
0.0
 11
239.5252451361611
 21
90.81854011391943
 31
0.0
  0
LINE
  5
F5
330
2
100
AcDbEntity
  8
L-TYUSIN
100
AcDbLine
 10
259.525245136163
 20
80.60032297188945
 30
0.0
 11
259.5252451361611
 21
178.0359695338802
 31
0.0
  0
LINE
  5
F6
330
2
100
AcDbEntity
  8
L-SOUZOU
100
AcDbLine
 10
257.6468451361586
 20
99.31439999999998
 30
0.0
 11
248.1940451361595
 21
89.25200000000041
 31
0.0
  0
LINE
  5
F7
330
2
100
AcDbEntity
  8
L-SOUZOU
100
AcDbLine
 10
258.8396451361601
 20
98.12159999999995
 30
0.0
 11
248.777245136159
 21
88.66880000000014
 31
0.0
  0
ARC
  5
F8
330
2
100
AcDbEntity
  8
L-ZISSEN
100
AcDbCircle
 10
251.9546103007942
 20
89.89562981245581
 30
0.0
 40
6.89730004673613
100
AcDbArc
 50
250.2094656240297
 51
292.3039682475823
  0
LINE
  5
F9
330
2
100
AcDbEntity
  8
L-ZISSEN
100
AcDbLine
 10
267.2476608144516
 20
83.0
 30
0.0
 11
251.8028294578707
 21
83.0
 31
0.0
  0
LINE
  5
FA
330
2
100
AcDbEntity
  8
L-ZISSEN
100
AcDbLine
 10
248.3067356715309
 20
87.00000000000045
 30
0.0
 11
270.7437546007895
 21
87.00000000000045
 31
0.0
  0
LINE
  5
FB
330
2
100
AcDbEntity
  8
L-ZISSEN
100
AcDbLine
 10
243.5252451361611
 20
90.31854011392033
 30
0.0
 11
241.793194328593
 21
92.05059092148848
 31
0.0
  0
ARC
  5
FC
330
2
100
AcDbEntity
  8
L-ZISSEN
100
AcDbCircle
 10
241.4252451361608
 20
89.5185401139197
 30
0.0
 40
0.5000000000001137
100
AcDbArc
 50
180.0
 51
270.0
  0
LINE
  5
FD
330
2
100
AcDbEntity
  8
L-ZISSEN
100
AcDbLine
 10
240.9252451361608
 20
89.5185401139197
 30
0.0
 11
240.9252451361608
 21
90.31854011392033
 31
0.0
  0
ARC
  5
FE
330
2
100
AcDbEntity
  8
L-ZISSEN
100
AcDbCircle
 10
240.0252451361611
 20
90.81854011391943
 30
0.0
 40
0.5000000000001137
100
AcDbArc
 50
180.0
 51
270.0
  0
LINE
  5
FF
330
2
100
AcDbEntity
  8
L-ZISSEN
100
AcDbLine
 10
240.9252451361608
 20
90.31854011392033
 30
0.0
 11
240.0252451361611
 21
90.31854011392033
 31
0.0
  0
LINE
  5
100
330
2
100
AcDbEntity
  8
L-ZISSEN
100
AcDbLine
 10
241.793194328593
 20
92.05059092148848
 30
0.0
 11
239.5252451361611
 21
92.05059092148848
 31
0.0
  0
ARC
  5
101
330
2
100
AcDbEntity
  8
L-SOUZOU
100
AcDbCircle
 10
248.5028451361583
 20
88.96080000000006
 30
0.0
 40
0.4
100
AcDbArc
 50
225.0000000001013
 51
313.2099999998256
  0
LINE
  5
102
330
2
100
AcDbEntity
  8
L-SOUZOU
100
AcDbLine
 10
248.2116451361573
 20
88.68640000000004
 30
0.0
 11
248.2204451361561
 21
88.67759999999975
 31
0.0
  0
LINE
  5
103
330
2
100
AcDbEntity
  8
L-SOUZOU
100
AcDbLine
 10
248.2116451361573
 20
88.68640000000004
 30
0.0
 11
248.2028451361584
 21
88.69520000000056
 31
0.0
  0
ARC
  5
104
330
2
100
AcDbEntity
  8
L-SOUZOU
100
AcDbCircle
 10
248.4860451361579
 20
88.97759999999971
 30
0.0
 40
0.4
100
AcDbArc
 50
136.7899999998975
 51
225.0000000001013
  0
LINE
  5
105
330
2
100
AcDbEntity
  8
L-ZISSEN
100
AcDbLine
 10
248.3067356715309
 20
87.00000000000045
 30
0.0
 11
248.3067356715309
 21
89.01854011391924
 31
0.0
  0
LINE
  5
106
330
2
100
AcDbEntity
  8
L-ZISSEN
100
AcDbLine
 10
249.6193053719562
 20
83.4057069451137
 30
0.0
 11
249.6193053719562
 21
87.00000000000045
 31
0.0
  0
ARC
  5
107
330
2
100
AcDbEntity
  8
L-ZISSEN
100
AcDbCircle
 10
259.5252451361611
 20
107.1041096389549
 30
0.0
 40
24.10410963895663
100
AcDbArc
 50
258.1422612742299
 51
281.85773872577
  0
LINE
  5
108
330
2
100
AcDbEntity
  8
L-ZISSEN
100
AcDbLine
 10
254.5722752540569
 20
87.0370802278394
 30
0.0
 11
254.5722752540569
 21
83.51436206010749
 31
0.0
  0
LINE
  5
109
330
2
100
AcDbEntity
  8
L-ZISSEN
100
AcDbLine
 10
270.7437546007895
 20
87.00000000000045
 30
0.0
 11
270.7437546007895
 21
89.01854011391924
 31
0.0
  0
ARC
  5
10A
330
2
100
AcDbEntity
  8
L-ZISSEN
100
AcDbCircle
 10
267.0958799715244
 20
89.89562981245262
 30
0.0
 40
6.897300046733692
100
AcDbArc
 50
247.6960317524176
 51
289.7905343759702
  0
LINE
  5
10B
330
2
100
AcDbEntity
  8
L-ZISSEN
100
AcDbLine
 10
269.4311849003661
 20
87.00000000000045
 30
0.0
 11
269.4311849003661
 21
83.40570694511507
 31
0.0
  0
LINE
  5
10C
330
2
100
AcDbEntity
  8
L-ZISSEN
100
AcDbLine
 10
264.4782150182618
 20
87.00000000000045
 30
0.0
 11
264.4782150182618
 21
83.47728183226763
 31
0.0
  0
LINE
  5
10D
330
2
100
AcDbEntity
  8
L-SOUZOU
100
AcDbLine
 10
244.2890296940277
 20
148.0
 30
0.0
 11
233.0252451361611
 21
148.0
 31
0.0
  0
LINE
  5
10E
330
2
100
AcDbEntity
  8
L-TYUSIN
100
AcDbLine
 10
252.5252451361593
 20
142.0
 30
0.0
 11
232.5252451361611
 21
142.0
 31
0.0
  0
LINE
  5
10F
330
2
100
AcDbEntity
  8
L-SOUZOU
100
AcDbLine
 10
243.8100725234198
 20
125.2577295352762
 30
0.0
 11
233.0252451361648
 21
125.2577295352762
 31
0.0
  0
LINE
  5
110
330
2
100
AcDbEntity
  8
L-ZISSEN
100
AcDbLine
 10
238.0853940045006
 20
101.3881025605682
 30
0.0
 11
223.1281253242727
 21
115.8078036654924
 31
0.0
  0
TEXT
  5
111
330
2
100
AcDbEntity
  8
L-ZISSEN
100
AcDbText
 10
202.5974287246719
 20
109.6107921644643
 30
0.0
 40
4.5
  1
Rc1/8
100
AcDbText
  0
TEXT
  5
112
330
2
100
AcDbEntity
  8
L-ZISSEN
100
AcDbText
 10
202.5974287246719
 20
102.1107921644643
 30
0.0
 40
4.5
  1
Rc1/4
100
AcDbText
  0
LINE
  5
113
330
2
100
AcDbEntity
  8
L-ZISSEN
100
AcDbLine
 10
223.1281253242727
 20
115.8078036654924
 30
0.0
 11
202.2925167474368
 21
115.8078036654924
 31
0.0
  0
TEXT
  5
114
330
2
100
AcDbEntity
  8
L-ZISSEN
100
AcDbText
 10
202.8007033761621
 20
116.4173460836245
 30
0.0
 40
4.5
  1
IN
100
AcDbText
  0
LINE
  5
115
330
2
100
AcDbEntity
  8
L-SOUZOU
100
AcDbLine
 10
232.0252451361629
 20
126.2577295352762
 30
0.0
 11
232.0252451361614
 21
147.0000000000009
 31
0.0
  0
ARC
  5
116
330
2
100
AcDbEntity
  8
L-SOUZOU
100
AcDbCircle
 10
233.0252451361648
 20
126.2577295352762
 30
0.0
 40
1.000000000000227
100
AcDbArc
 50
180.0
 51
270.0
  0
LINE
  5
117
330
2
100
AcDbEntity
  8
L-SOUZOU
100
AcDbLine
 10
233.0252451361611
 20
148.0
 30
0.0
 11
232.0252451361611
 21
147.0000000000004
 31
0.0
  0
LINE
  5
118
330
2
100
AcDbEntity
  8
L-ZISSEN
100
AcDbLine
 10
244.6369608539298
 20
172.5325375272127
 30
0.0
 11
244.1155114120829
 21
141.0077295352766
 31
0.0
  0
LINE
  5
119
330
2
100
AcDbEntity
  8
L-ZISSEN
100
AcDbLine
 10
271.0252451361611
 20
139.2577295352771
 30
0.0
 11
248.0252451361611
 21
139.2577295352771
 31
0.0
  0
ARC
  5
11A
330
2
100
AcDbEntity
  8
L-ZISSEN
100
AcDbCircle
 10
259.525245136163
 20
76.81438917089917
 30
0.0
 40
57.44324584106249
100
AcDbArc
 50
81.70808147793069
 51
98.29191852206932
  0
ARC
  5
11B
330
2
100
AcDbEntity
  8
L-ZISSEN
100
AcDbCircle
 10
259.5252451361611
 20
184.700975376319
 30
0.0
 40
57.4432458410422
100
AcDbArc
 50
261.7080814779307
 51
278.2919185220693
  0
LINE
  5
11C
330
2
100
AcDbEntity
  8
L-ZISSEN
100
AcDbLine
 10
251.2409738886981
 20
127.8582331601578
 30
0.0
 11
251.2409738887054
 21
133.6571313870804
 31
0.0
  0
LINE
  5
11D
330
2
100
AcDbEntity
  8
L-ZISSEN
100
AcDbLine
 10
239.5252451361611
 20
127.8582331601578
 30
0.0
 11
239.5252451361611
 21
133.6571313870804
 31
0.0
  0
LINE
  5
11E
330
2
100
AcDbEntity
  8
L-ZISSEN
100
AcDbLine
 10
242.9177903578547
 20
122.8719985764932
 30
0.0
 11
244.1326999144675
 21
122.8719985764932
 31
0.0
  0
LINE
  5
11F
330
2
100
AcDbEntity
  8
L-ZISSEN
100
AcDbLine
 10
239.5252451361611
 20
119.7577295352753
 30
0.0
 11
247.5252451361611
 21
119.7577295352753
 31
0.0
  0
LINE
  5
120
330
2
100
AcDbEntity
  8
L-ZISSEN
100
AcDbLine
 10
240.1541105198976
 20
119.7577295352753
 30
0.0
 11
246.8963797524211
 21
119.7577295352753
 31
0.0
  0
LINE
  5
121
330
2
100
AcDbEntity
  8
L-ZISSEN
100
AcDbLine
 10
246.8963797524211
 20
120.9008634433789
 30
0.0
 11
240.1541105198976
 21
120.9008634433789
 31
0.0
  0
LINE
  5
122
330
2
100
AcDbEntity
  8
L-ZISSEN
100
AcDbLine
 10
242.9177903578547
 20
123.8570123084641
 30
0.0
 11
242.9177903578547
 21
122.8719985764932
 31
0.0
  0
LINE
  5
123
330
2
100
AcDbEntity
  8
L-ZISSEN
100
AcDbLine
 10
240.1541105198976
 20
120.9008634433789
 30
0.0
 11
240.1541105198976
 21
119.7577295352753
 31
0.0
  0
LINE
  5
124
330
2
100
AcDbEntity
  8
L-ZISSEN
100
AcDbLine
 10
241.1752451361571
 20
127.2576822736191
 30
0.0
 11
239.5252451361611
 21
127.8582331601578
 31
0.0
  0
ARC
  5
125
330
2
100
AcDbEntity
  8
L-ZISSEN
100
AcDbCircle
 10
242.8588711182765
 20
121.1421499549701
 30
0.0
 40
2.7155016249693
100
AcDbArc
 50
88.7567347921917
 51
185.0977525317111
  0
LINE
  5
126
330
2
100
AcDbEntity
  8
L-ZISSEN
100
AcDbLine
 10
242.5252451361611
 20
114.2577295352766
 30
0.0
 11
239.5252451361611
 21
114.2577295352766
 31
0.0
  0
ARC
  5
127
330
2
100
AcDbEntity
  8
L-ZISSEN
100
AcDbCircle
 10
242.7839307727172
 20
105.7577295352762
 30
0.0
 40
0.5000000000001137
100
AcDbArc
 50
180.0
 51
270.0
  0
LINE
  5
128
330
2
100
AcDbEntity
  8
L-ZISSEN
100
AcDbLine
 10
242.2839307727172
 20
114.2577295352766
 30
0.0
 11
242.2839307727172
 21
105.7577295352762
 31
0.0
  0
LINE
  5
129
330
2
100
AcDbEntity
  8
L-ZISSEN
100
AcDbLine
 10
239.5252451361611
 20
125.2577295352762
 30
0.0
 11
239.5252451361611
 21
114.2577295352766
 31
0.0
  0
LINE
  5
12A
330
2
100
AcDbEntity
  8
L-ZISSEN
100
AcDbLine
 10
246.8963797524211
 20
119.7577295352753
 30
0.0
 11
246.8963797524211
 21
120.9008634433789
 31
0.0
  0
LINE
  5
12B
330
2
100
AcDbEntity
  8
L-ZISSEN
100
AcDbLine
 10
247.5252451361611
 20
125.2577295352762
 30
0.0
 11
247.5252451361611
 21
119.7577295352753
 31
0.0
  0
LINE
  5
12C
330
2
100
AcDbEntity
  8
L-ZISSEN
100
AcDbLine
 10
244.1326999144675
 20
122.8719985764932
 30
0.0
 11
244.1326999144675
 21
123.8570123084641
 31
0.0
  0
ARC
  5
12D
330
2
100
AcDbEntity
  8
L-ZISSEN
100
AcDbCircle
 10
245.3831095124296
 20
156.1272062351122
 30
0.0
 40
28.86952396149382
100
AcDbArc
 50
270.0
 51
281.707076902434
  0
ARC
  5
12E
330
2
100
AcDbEntity
  8
L-ZISSEN
100
AcDbCircle
 10
244.191619154044
 20
121.1421499549701
 30
0.0
 40
2.715501624968706
100
AcDbArc
 50
354.9022474682888
 51
91.24326520780833
  0
LINE
  5
12F
330
2
100
AcDbEntity
  8
L-SOUZOU
100
AcDbLine
 10
244.2394069230995
 20
144.5000000000004
 30
0.0
 11
237.5252451361611
 21
144.5
 31
0.0
  0
LINE
  5
130
330
2
100
AcDbEntity
  8
L-SOUZOU
100
AcDbLine
 10
244.1567023048846
 20
139.5000000000004
 30
0.0
 11
237.5252451361611
 21
139.5
 31
0.0
  0
LINE
  5
131
330
2
100
AcDbEntity
  8
L-ZISSEN
100
AcDbLine
 10
244.5252451361629
 20
139.2577295352771
 30
0.0
 11
243.0252451361611
 21
137.7577295352762
 31
0.0
  0
ARC
  5
132
330
2
100
AcDbEntity
  8
L-SOUZOU
100
AcDbCircle
 10
237.5252451361611
 20
142.0
 30
0.0
 40
2.500000000000284
100
AcDbArc
 50
90.00000000000003
 51
270.0
  0
LINE
  5
133
330
2
100
AcDbEntity
  8
L-SAISEN
100
AcDbLine
 10
243.8100725234217
 20
138.5425569225367
 30
0.0
 11
243.8100725234198
 21
134.2576822736191
 31
0.0
  0
LINE
  5
134
330
2
100
AcDbEntity
  8
L-ZISSEN
100
AcDbLine
 10
243.0252451361611
 20
137.7577295352762
 30
0.0
 11
243.0252451361611
 21
134.2576822736191
 31
0.0
  0
LINE
  5
135
330
2
100
AcDbEntity
  8
L-ZISSEN
100
AcDbLine
 10
241.1752451361589
 20
134.2576822736191
 30
0.0
 11
239.5252451361611
 21
133.6571313870804
 31
0.0
  0
LINE
  5
136
330
2
100
AcDbEntity
  8
L-TYUSIN
 48
0.5
100
AcDbLine
 10
242.5252451361611
 20
137.0
 30
0.0
 11
242.5252451361611
 21
147.0
 31
0.0
  0
LINE
  5
137
330
2
100
AcDbEntity
  8
L-ZISSEN
100
AcDbLine
 10
248.0252451361611
 20
141.0077295352766
 30
0.0
 11
248.0252451361611
 21
139.2577295352771
 31
0.0
  0
LINE
  5
138
330
2
100
AcDbEntity
  8
L-ZISSEN
100
AcDbLine
 10
248.0252451361611
 20
139.2577295352771
 30
0.0
 11
244.5252451361629
 21
139.2577295352771
 31
0.0
  0
ARC
  5
139
330
2
100
AcDbEntity
  8
L-ZISSEN
100
AcDbCircle
 10
245.3831095124332
 20
105.388158312091
 30
0.0
 40
28.86952396152828
100
AcDbArc
 50
78.29292309756588
 51
90.00000000000003
  0
LINE
  5
13A
330
2
100
AcDbEntity
  8
L-ZISSEN
100
AcDbLine
 10
267.8095163836224
 20
127.8582331601578
 30
0.0
 11
267.8095163836224
 21
133.6571313870804
 31
0.0
  0
LINE
  5
13B
330
2
100
AcDbEntity
  8
L-SOUZOU
100
AcDbLine
 10
265.4652451361595
 20
107.6368000000002
 30
0.0
 11
260.0924451361592
 21
101.9175999999999
 31
0.0
  0
LINE
  5
13C
330
2
100
AcDbEntity
  8
L-SOUZOU
100
AcDbLine
 10
267.1620451361588
 20
105.94
 30
0.0
 11
261.4428451361607
 21
100.5671999999999
 31
0.0
  0
LINE
  5
13D
330
2
100
AcDbEntity
  8
L-SOUZOU
100
AcDbLine
 10
265.4652451361595
 20
107.6368000000002
 30
0.0
 11
267.1620451361588
 21
105.94
 31
0.0
  0
LINE
  5
13E
330
2
100
AcDbEntity
  8
L-ZISSEN
100
AcDbLine
 10
272.1541105198975
 20
119.7577295352753
 30
0.0
 11
272.1541105198975
 21
120.9008634433789
 31
0.0
  0
LINE
  5
13F
330
2
100
AcDbEntity
  8
L-ZISSEN
100
AcDbLine
 10
271.5252451361629
 20
125.2577295352762
 30
0.0
 11
271.5252451361629
 21
119.7577295352753
 31
0.0
  0
LINE
  5
140
330
2
100
AcDbEntity
  8
L-ZISSEN
100
AcDbLine
 10
271.0252451361611
 20
141.0077295352766
 30
0.0
 11
271.0252451361611
 21
139.2577295352771
 31
0.0
  0
LINE
  5
141
330
2
100
AcDbEntity
  8
L-ZISSEN
100
AcDbLine
 10
271.0252451361611
 20
141.0077295352766
 30
0.0
 11
271.0252451361611
 21
139.2577295352771
 31
0.0
  0
ARC
  5
142
330
2
100
AcDbEntity
  8
L-ZISSEN
100
AcDbCircle
 10
246.1367556944151
 20
172.4999885352754
 30
0.0
 40
1.500000000003391
100
AcDbArc
 50
90.00000000010423
 51
179.0523613050254
  0
LINE
  5
143
330
2
100
AcDbEntity
  8
L-SOUZOU
100
AcDbLine
 10
132.0
 20
270.4000000000001
 30
0.0
 11
146.5
 21
270.4000000000001
 31
0.0
  0
LINE
  5
144
330
2
100
AcDbEntity
  8
L-SOUZOU
100
AcDbLine
 10
132.0
 20
229.5999999999998
 30
0.0
 11
146.5
 21
229.5999999999998
 31
0.0
  0
LINE
  5
145
330
2
100
AcDbEntity
  8
L-SOUZOU
100
AcDbLine
 10
130.4999999999999
 20
268.9
 30
0.0
 11
130.4999999999999
 21
231.0999999999999
 31
0.0
  0
LINE
  5
146
330
2
100
AcDbEntity
  8
L-SOUZOU
100
AcDbLine
 10
130.4999999999999
 20
255.3499999999999
 30
0.0
 11
124.5
 21
255.3499999999999
 31
0.0
  0
LINE
  5
147
330
2
100
AcDbEntity
  8
L-SOUZOU
100
AcDbLine
 10
124.5
 20
244.65
 30
0.0
 11
130.4999999999999
 21
244.65
 31
0.0
  0
LINE
  5
148
330
2
100
AcDbEntity
  8
L-SOUZOU
100
AcDbLine
 10
123.0
 20
254.4039437936676
 30
0.0
 11
123.6049042009613
 21
255.0088479946289
 31
0.0
  0
LINE
  5
149
330
2
100
AcDbEntity
  8
L-SOUZOU
100
AcDbLine
 10
120.0
 20
254.3101891085553
 30
0.0
 11
123.0
 21
254.4039437936676
 31
0.0
  0
LINE
  5
14A
330
2
100
AcDbEntity
  8
L-SOUZOU
100
AcDbLine
 10
120.0
 20
254.8961891085553
 30
0.0
 11
124.5
 21
255.0368211362238
 31
0.0
  0
LINE
  5
14B
330
2
100
AcDbEntity
  8
L-SOUZOU
100
AcDbLine
 10
123.0
 20
245.5960562063324
 30
0.0
 11
123.6049042009613
 21
244.991152005371
 31
0.0
  0
LINE
  5
14C
330
2
100
AcDbEntity
  8
L-SOUZOU
100
AcDbLine
 10
120.0
 20
245.6898108914446
 30
0.0
 11
123.0
 21
245.5960562063324
 31
0.0
  0
LINE
  5
14D
330
2
100
AcDbEntity
  8
L-SOUZOU
100
AcDbLine
 10
120.0
 20
245.1038108914446
 30
0.0
 11
124.5
 21
244.9631788637761
 31
0.0
  0
LINE
  5
14E
330
2
100
AcDbEntity
  8
L-SOUZOU
100
AcDbLine
 10
123.0
 20
254.9899437936673
 30
0.0
 11
122.9999999999998
 21
245.0100562063326
 31
0.0
  0
LINE
  5
14F
330
2
100
AcDbEntity
  8
L-SOUZOU
100
AcDbLine
 10
124.5
 20
255.3499999999999
 30
0.0
 11
124.5
 21
244.65
 31
0.0
  0
LINE
  5
150
330
2
100
AcDbEntity
  8
L-ZISSEN
100
AcDbLine
 10
120.0
 20
230.0
 30
0.0
 11
120.0
 21
241.0086219713515
 31
0.0
  0
ARC
  5
151
330
2
100
AcDbEntity
  8
L-SOUZOU
100
AcDbCircle
 10
132.0
 20
231.0999999999999
 30
0.0
 40
1.5
100
AcDbArc
 50
180.0
 51
270.0
  0
LINE
  5
152
330
2
100
AcDbEntity
  8
L-ZISSEN
100
AcDbLine
 10
120.0
 20
258.9913780286484
 30
0.0
 11
120.0
 21
270.0
 31
0.0
  0
ARC
  5
153
330
2
100
AcDbEntity
  8
L-SOUZOU
100
AcDbCircle
 10
132.0
 20
268.9
 30
0.0
 40
1.5
100
AcDbArc
 50
90.0
 51
180.0
  0
LINE
  5
154
330
2
100
AcDbEntity
  8
L-SOUZOU
100
AcDbLine
 10
146.5
 20
271.0
 30
0.0
 11
146.5
 21
229.0
 31
0.0
  0
LINE
  5
155
330
2
100
AcDbEntity
  8
L-SOUZOU
100
AcDbLine
 10
155.4999999999999
 20
269.4999999999999
 30
0.0
 11
155.4999999999999
 21
230.5
 31
0.0
  0
LINE
  5
156
330
2
100
AcDbEntity
  8
L-SOUZOU
100
AcDbLine
 10
146.5
 20
229.0
 30
0.0
 11
154.0
 21
229.0
 31
0.0
  0
ARC
  5
157
330
2
100
AcDbEntity
  8
L-SOUZOU
100
AcDbCircle
 10
154.0
 20
230.5
 30
0.0
 40
1.5
100
AcDbArc
 50
270.0
 51
0.0
  0
LINE
  5
158
330
2
100
AcDbEntity
  8
L-SOUZOU
100
AcDbLine
 10
146.5
 20
271.0
 30
0.0
 11
154.0
 21
271.0
 31
0.0
  0
ARC
  5
159
330
2
100
AcDbEntity
  8
L-SOUZOU
100
AcDbCircle
 10
154.0
 20
269.4999999999999
 30
0.0
 40
1.5
100
AcDbArc
 50
0.0
 51
90.0
  0
LINE
  5
15A
330
2
100
AcDbEntity
  8
L-ZISSEN
100
AcDbLine
 10
277.2572959437293
 20
105.2577295352762
 30
0.0
 11
277.2572959437293
 21
92.05059092148848
 31
0.0
  0
LINE
  5
15B
330
2
100
AcDbEntity
  8
L-ZISSEN
100
AcDbLine
 10
275.5252451361593
 20
105.2577295352762
 30
0.0
 11
275.5252451361593
 21
90.31854011392033
 31
0.0
  0
LINE
  5
15C
330
2
100
AcDbEntity
  8
L-ZISSEN
100
AcDbLine
 10
279.5252451361611
 20
90.81854011391943
 30
0.0
 11
279.5252451361611
 21
114.2577295352766
 31
0.0
  0
ARC
  5
15D
330
2
100
AcDbEntity
  8
L-ZISSEN
100
AcDbCircle
 10
279.025245136163
 20
90.81854011391943
 30
0.0
 40
0.4999999999995453
100
AcDbArc
 50
270.0
 51
0.0
  0
LINE
  5
15E
330
2
100
AcDbEntity
  8
L-ZISSEN
100
AcDbLine
 10
278.1252451361615
 20
90.31854011392033
 30
0.0
 11
279.025245136163
 21
90.31854011392033
 31
0.0
  0
LINE
  5
15F
330
2
100
AcDbEntity
  8
L-ZISSEN
100
AcDbLine
 10
277.2572959437293
 20
92.05059092148848
 30
0.0
 11
279.5252451361611
 21
92.05059092148848
 31
0.0
  0
ARC
  5
160
330
2
100
AcDbEntity
  8
L-ZISSEN
100
AcDbCircle
 10
277.6252451361597
 20
89.5185401139197
 30
0.0
 40
0.5000000000001137
100
AcDbArc
 50
270.0
 51
0.0
  0
LINE
  5
161
330
2
100
AcDbEntity
  8
L-ZISSEN
100
AcDbLine
 10
278.1252451361615
 20
89.5185401139197
 30
0.0
 11
278.1252451361615
 21
90.31854011392033
 31
0.0
  0
LINE
  5
162
330
2
100
AcDbEntity
  8
L-ZISSEN
100
AcDbLine
 10
275.5252451361593
 20
90.31854011392033
 30
0.0
 11
277.2572959437293
 21
92.05059092148848
 31
0.0
  0
LINE
  5
163
330
2
100
AcDbEntity
  8
L-ZISSEN
100
AcDbLine
 10
274.4135294183888
 20
172.5325375272127
 30
0.0
 11
274.9349788602376
 21
141.0077295352766
 31
0.0
  0
LINE
  5
164
330
2
100
AcDbEntity
  8
L-ZISSEN
100
AcDbLine
 10
279.5252451361611
 20
133.6571313870804
 30
0.0
 11
279.5252451361611
 21
127.8582331601578
 31
0.0
  0
LINE
  5
165
330
2
100
AcDbEntity
  8
L-SOUZOU
100
AcDbLine
 10
287.0252451361611
 20
126.2577295352762
 30
0.0
 11
287.0252451361611
 21
147.0000000000004
 31
0.0
  0
LINE
  5
166
330
2
100
AcDbEntity
  8
L-ZISSEN
100
AcDbLine
 10
276.1326999144639
 20
123.8570123084641
 30
0.0
 11
276.1326999144639
 21
122.8719985764932
 31
0.0
  0
LINE
  5
167
330
2
100
AcDbEntity
  8
L-ZISSEN
100
AcDbLine
 10
277.8752451361633
 20
127.2576822736191
 30
0.0
 11
279.5252451361611
 21
127.8582331601578
 31
0.0
  0
LINE
  5
168
330
2
100
AcDbEntity
  8
L-ZISSEN
100
AcDbLine
 10
278.8963797524211
 20
120.9008634433789
 30
0.0
 11
278.8963797524211
 21
119.7577295352753
 31
0.0
  0
ARC
  5
169
330
2
100
AcDbEntity
  8
L-ZISSEN
100
AcDbCircle
 10
276.191619154044
 20
121.1421499549701
 30
0.0
 40
2.715501624969275
100
AcDbArc
 50
354.9022474682888
 51
91.24326520780833
  0
LINE
  5
16A
330
2
100
AcDbEntity
  8
L-ZISSEN
100
AcDbLine
 10
274.9177903578565
 20
122.8719985764932
 30
0.0
 11
274.9177903578565
 21
123.8570123084641
 31
0.0
  0
LINE
  5
16B
330
2
100
AcDbEntity
  8
L-ZISSEN
100
AcDbLine
 10
276.1326999144639
 20
122.8719985764932
 30
0.0
 11
274.9177903578565
 21
122.8719985764932
 31
0.0
  0
ARC
  5
16C
330
2
100
AcDbEntity
  8
L-ZISSEN
100
AcDbCircle
 10
276.2665594996051
 20
105.7577295352762
 30
0.0
 40
0.5000000000001137
100
AcDbArc
 50
270.0
 51
0.0
  0
LINE
  5
16D
330
2
100
AcDbEntity
  8
L-ZISSEN
100
AcDbLine
 10
276.7665594996033
 20
114.2577295352766
 30
0.0
 11
276.7665594996033
 21
105.7577295352762
 31
0.0
  0
LINE
  5
16E
330
2
100
AcDbEntity
  8
L-ZISSEN
100
AcDbLine
 10
279.5252451361611
 20
125.2577295352762
 30
0.0
 11
279.5252451361611
 21
114.2577295352766
 31
0.0
  0
ARC
  5
16F
330
2
100
AcDbEntity
  8
L-SOUZOU
100
AcDbCircle
 10
286.0252451361611
 20
126.2577295352762
 30
0.0
 40
1.000000000000227
100
AcDbArc
 50
270.0
 51
0.0
  0
ARC
  5
170
330
2
100
AcDbEntity
  8
L-SOUZOU
100
AcDbCircle
 10
281.5252451361629
 20
142.0
 30
0.0
 40
2.500000000000284
100
AcDbArc
 50
270.0
 51
90.00000000000003
  0
LINE
  5
171
330
2
100
AcDbEntity
  8
L-SOUZOU
100
AcDbLine
 10
286.0252451361611
 20
148.0
 30
0.0
 11
274.7614605782928
 21
148.0
 31
0.0
  0
LINE
  5
172
330
2
100
AcDbEntity
  8
L-SOUZOU
100
AcDbLine
 10
281.5252451361629
 20
139.5
 30
0.0
 11
274.893787967434
 21
139.5000000000004
 31
0.0
  0
LINE
  5
173
330
2
100
AcDbEntity
  8
L-SOUZOU
100
AcDbLine
 10
281.5252451361629
 20
144.5
 30
0.0
 11
274.8110833492228
 21
144.5000000000004
 31
0.0
  0
LINE
  5
174
330
2
100
AcDbEntity
  8
L-ZISSEN
100
AcDbLine
 10
276.0252451361612
 20
137.7577295352762
 30
0.0
 11
276.0252451361612
 21
134.2576822736191
 31
0.0
  0
LINE
  5
175
330
2
100
AcDbEntity
  8
L-ZISSEN
100
AcDbLine
 10
277.8752451361579
 20
134.2576822736191
 30
0.0
 11
279.5252451361611
 21
133.6571313870804
 31
0.0
  0
LINE
  5
176
330
2
100
AcDbEntity
  8
L-SAISEN
100
AcDbLine
 10
275.2404177489006
 20
138.5425569225367
 30
0.0
 11
275.2404177488988
 21
134.2576822736191
 31
0.0
  0
LINE
  5
177
330
2
100
AcDbEntity
  8
L-ZISSEN
100
AcDbLine
 10
274.5252451361611
 20
139.2577295352771
 30
0.0
 11
276.0252451361612
 21
137.7577295352762
 31
0.0
  0
LINE
  5
178
330
2
100
AcDbEntity
  8
L-TYUSIN
 48
0.5
100
AcDbLine
 10
276.5252451361611
 20
137.0
 30
0.0
 11
276.5252451361611
 21
147.0
 31
0.0
  0
LINE
  5
179
330
2
100
AcDbEntity
  8
L-SOUZOU
100
AcDbLine
 10
286.0252451361611
 20
148.0
 30
0.0
 11
287.0252451361611
 21
147.0000000000004
 31
0.0
  0
ARC
  5
17A
330
2
100
AcDbEntity
  8
L-ZISSEN
100
AcDbCircle
 10
272.9136280925831
 20
172.499728420053
 30
0.0
 40
1.500260119002053
100
AcDbArc
 50
1.253098190189814
 51
89.99593326528161
  0
TEXT
  5
183
330
2
100
AcDbEntity
  8
L-ZISSEN
100
AcDbText
 10
272.3649677192518
 20
268.4051916435124
 30
0.0
 40
4.5
  1
1
100
AcDbText
  0
TEXT
  5
184
330
2
100
AcDbEntity
  8
L-ZISSEN
100
AcDbText
 10
271.6287528083648
 20
262.4118920399437
 30
0.0
 40
4.5
  1
2
100
AcDbText
  0
TEXT
  5
185
330
2
100
AcDbEntity
  8
L-ZISSEN
100
AcDbText
 10
292.1046492460211
 20
268.4051916435124
 30
0.0
 40
4.5
  1
0
100
AcDbText
  0
TEXT
  5
186
330
2
100
AcDbEntity
  8
L-ZISSEN
100
AcDbText
 10
292.6122238254804
 20
262.4118920399437
 30
0.0
 40
4.5
  1
1
100
AcDbText
  0
ENDSEC
  0
SECTION
  2
OBJECTS
  0
DICTIONARY
  5
9
330
0
100
AcDbDictionary
  3
ACAD_GROUP
350
26
  3
ACAD_LAYOUT
350
D
  3
ACAD_MLINESTYLE
350
27
  3
ACAD_PLOTSETTINGS
350
28
1001
ACAD
1000
TREAT_AS_HARD
1070
     0
  0
DICTIONARY
  5
15
330
14
100
AcDbDictionary
  3
ACAD_LAYERSTATES
350
16
1001
ACAD
1000
TREAT_AS_HARD
1070
     1
  0
DICTIONARY
  5
3
330
2
100
AcDbDictionary
  3
ACAD_LAYOUTSELFREF
350
25C
1001
ACAD
1000
TREAT_AS_HARD
1070
     1
  0
DICTIONARY
  5
F
330
E
100
AcDbDictionary
  3
ACAD_LAYOUTSELFREF
350
25D
1001
ACAD
1000
TREAT_AS_HARD
1070
     1
  0
DICTIONARY
  5
26
102
{ACAD_REACTORS
330
9
102
}
330
9
100
AcDbDictionary
1001
ACAD
1000
TREAT_AS_HARD
1070
     0
  0
DICTIONARY
  5
D
102
{ACAD_REACTORS
330
9
102
}
330
9
100
AcDbDictionary
1001
ACAD
1000
TREAT_AS_HARD
1070
     0
  0
DICTIONARY
  5
27
102
{ACAD_REACTORS
330
9
102
}
330
9
100
AcDbDictionary
  3
STANDARD
350
2A
1001
ACAD
1000
TREAT_AS_HARD
1070
     0
  0
DICTIONARY
  5
28
102
{ACAD_REACTORS
330
9
102
}
330
9
100
AcDbDictionary
1001
ACAD
1000
TREAT_AS_HARD
1070
     0
  0
DICTIONARY
  5
16
102
{ACAD_REACTORS
330
15
102
}
330
15
100
AcDbDictionary
1001
ACAD
1000
TREAT_AS_HARD
1070
     0
  0
XRECORD
  5
25C
102
{ACAD_REACTORS
330
3
102
}
330
3
100
AcDbXrecord
340
2
  0
XRECORD
  5
25D
102
{ACAD_REACTORS
330
F
102
}
330
F
100
AcDbXrecord
340
E
  0
MLINESTYLE
  5
2A
102
{ACAD_REACTORS
330
27
102
}
330
27
100
AcDbMlineStyle
  2
STANDARD
 70
     0
  3

 62
     0
 51
90.0
 52
90.0
 71
     2
 49
0.5
 62
   256
  6
BYLAYER
 49
-0.5
 62
   256
  6
BYLAYER
  0
ENDSEC
  0
EOF
