  0
SECTION
  2
HEADER
  9
$ACADVER
  1
AC1006
  9
$INSBASE
 10
0.0
 20
0.0
 30
0.0
  9
$EXTMIN
 10
10.0
 20
5.0
  9
$EXTMAX
 10
510.0
 20
399.5
  9
$LIMMIN
 10
0.0
 20
0.0
  9
$LIMMAX
 10
594.0
 20
420.0
  9
$ORTHOMODE
 70
     0
  9
$REGENMODE
 70
     1
  9
$FILLMODE
 70
     1
  9
$QTEXTMODE
 70
     0
  9
$MIRRTEXT
 70
     1
  9
$DRAGMODE
 70
     2
  9
$LTSCALE
 40
1.0
  9
$OSMODE
 70
     0
  9
$ATTMODE
 70
     1
  9
$TEXTSIZE
 40
4.5
  9
$TRACEWID
 40
0.05
  9
$TEXTSTYLE
  7
STANDARD
  9
$CLAYER
  8
L-ZISSEN
  9
$CELTYPE
  6
BYLAYER
  9
$CECOLOR
 62
   256
  9
$DIMSCALE
 40
1.0
  9
$DIMASZ
 40
2.0
  9
$DIMEXO
 40
2.0
  9
$DIMDLI
 40
0.38
  9
$DIMRND
 40
0.0
  9
$DIMDLE
 40
1.0
  9
$DIMEXE
 40
1.0
  9
$DIMTP
 40
0.0
  9
$DIMTM
 40
0.0
  9
$DIMTXT
 40
4.5
  9
$DIMCEN
 40
0.09
  9
$DIMTSZ
 40
0.0
  9
$DIMTOL
 70
     0
  9
$DIMLIM
 70
     0
  9
$DIMTIH
 70
     1
  9
$DIMTOH
 70
     0
  9
$DIMSE1
 70
     0
  9
$DIMSE2
 70
     0
  9
$DIMTAD
 70
     1
  9
$DIMZIN
 70
     0
  9
$DIMBLK
  1

  9
$DIMASO
 70
     1
  9
$DIMSHO
 70
     0
  9
$DIMPOST
  1

  9
$DIMAPOST
  1

  9
$DIMALT
 70
     0
  9
$DIMALTD
 70
     2
  9
$DIMALTF
 40
25.4
  9
$DIMLFAC
 40
1.0
  9
$DIMTOFL
 70
     0
  9
$DIMTVP
 40
0.0
  9
$DIMTIX
 70
     0
  9
$DIMSOXD
 70
     0
  9
$DIMSAH
 70
     0
  9
$DIMBLK1
  1

  9
$DIMBLK2
  1

  9
$LUNITS
 70
     2
  9
$LUPREC
 70
     4
  9
$AXISMODE
 70
     0
  9
$AXISUNIT
 10
0.0
 20
0.0
  9
$SKETCHINC
 40
0.1
  9
$FILLETRAD
 40
0.0
  9
$AUNITS
 70
     0
  9
$AUPREC
 70
     0
  9
$MENU
  1
acad
  9
$ELEVATION
 40
0.0
  9
$THICKNESS
 40
0.0
  9
$LIMCHECK
 70
     0
  9
$BLIPMODE
 70
     1
  9
$CHAMFERA
 40
0.0
  9
$CHAMFERB
 40
0.0
  9
$SKPOLY
 70
     0
  9
$TDCREATE
 40
2449587.7248937502
  9
$TDUPDATE
 40
2449587.7248937502
  9
$TDINDWG
 40
0.0000000000
  9
$TDUSRTIMER
 40
0.0000000000
  9
$USRTIMER
 70
     1
  9
$ANGBASE
 50
0.0
  9
$ANGDIR
 70
     0
  9
$PDMODE
 70
     0
  9
$PDSIZE
 40
0.0
  9
$PLINEWID
 40
0.0
  9
$COORDS
 70
     1
  9
$SPLFRAME
 70
     0
  9
$SPLINETYPE
 70
     6
  9
$SPLINESEGS
 70
     8
  9
$ATTDIA
 70
     0
  9
$ATTREQ
 70
     1
  9
$HANDLING
 70
     0
  9
$HANDSEED
  5
0
  9
$SURFTAB1
 70
     6
  9
$SURFTAB2
 70
     6
  9
$SURFTYPE
 70
     6
  9
$SURFU
 70
     6
  9
$SURFV
 70
     6
  9
$FLATLAND
 70
     0
  9
$UCSNAME
  2

  9
$UCSORG
 10
0.0
 20
0.0
 30
0.0
  9
$UCSXDIR
 10
1.0
 20
0.0
 30
0.0
  9
$UCSYDIR
 10
0.0
 20
1.0
 30
0.0
  9
$USERI1
 70
     0
  9
$USERI2
 70
     0
  9
$USERI3
 70
     0
  9
$USERI4
 70
     0
  9
$USERI5
 70
     0
  9
$USERR1
 40
0.0
  9
$USERR2
 40
0.0
  9
$USERR3
 40
0.0
  9
$USERR4
 40
0.0
  9
$USERR5
 40
0.0
  9
$WORLDVIEW
 70
     1
  0
ENDSEC
  0
SECTION
  2
TABLES
  0
TABLE
  2
VPORT
 70
     2
  0
VPORT
  2
*ACTIVE
 70
     0
 10
0.0
 20
0.0
 11
1.0
 21
1.0
 12
336.888065
 22
217.529623
 13
0.0
 23
0.0
 14
5.0
 24
5.0
 15
0.0
 25
0.0
 16
0.0
 26
0.0
 36
1.0
 17
0.0
 27
0.0
 37
0.0
 40
435.059245
 41
1.5487
 42
50.0
 43
0.0
 44
0.0
 50
0.0
 51
0.0
 71
     0
 72
   100
 73
     1
 74
     0
 75
     0
 76
     0
 77
     0
 78
     0
  0
ENDTAB
  0
TABLE
  2
LTYPE
 70
     2
  0
LTYPE
  2
CONTINUOUS
 70
    64
  3
Solid line
 72
    65
 73
     0
 40
0.0
  0
LTYPE
  2
CENTER
 70
    64
  3
____ _ ____ _ ____ _ 
 72
    65
 73
     4
 40
60.0
 49
45.0
 49
-5.0
 49
5.0
 49
-5.0
  0
ENDTAB
  0
TABLE
  2
LAYER
 70
     3
  0
LAYER
  2
0
 70
     0
 62
     7
  6
CONTINUOUS
  0
LAYER
  2
L-ZISSEN
 70
    64
 62
     7
  6
CONTINUOUS
  0
LAYER
  2
L-TYUSIN
 70
    64
 62
     1
  6
CENTER
  0
ENDTAB
  0
TABLE
  2
STYLE
 70
     1
  0
STYLE
  2
STANDARD
 70
    64
 40
0.0
 41
1.0
 50
0.0
 71
     0
 42
4.5
  3
TXT
  4

  0
ENDTAB
  0
TABLE
  2
VIEW
 70
     0
  0
ENDTAB
  0
TABLE
  2
UCS
 70
     0
  0
ENDTAB
  0
TABLE
  2
DWGMGR
 70
     0
  0
ENDTAB
  0
ENDSEC
  0
SECTION
  2
BLOCKS
  0
ENDSEC
  0
SECTION
  2
ENTITIES
  0
LINE
  8
L-TYUSIN
  6
CENTER
 62
     1
 10
90.0
 20
248.0
 30
0.0
 11
90.0
 21
19.0
 31
0.0
  0
LINE
  8
L-ZISSEN
 10
48.5
 20
79.2
 30
0.0
 11
131.5
 21
79.2
 31
0.0
  0
LINE
  8
L-ZISSEN
 10
395.5
 20
218.0
 30
0.0
 11
395.5
 21
272.0
 31
0.0
  0
LINE
  8
L-ZISSEN
 10
395.5
 20
218.0
 30
0.0
 11
419.0
 21
218.0
 31
0.0
  0
LINE
  8
L-ZISSEN
 10
419.0
 20
272.0
 30
0.0
 11
419.0
 21
218.0
 31
0.0
  0
LINE
  8
L-ZISSEN
 10
395.5
 20
272.0
 30
0.0
 11
419.0
 21
272.0
 31
0.0
  0
LINE
  8
L-TYUSIN
  6
CENTER
 62
     1
 10
42.5
 20
315.0
 30
0.0
 11
137.5
 21
315.0
 31
0.0
  0
ARC
  8
L-ZISSEN
 10
90.0
 20
315.0
 30
0.0
 40
41.5
 50
180.0
 51
0.0
  0
CIRCLE
  8
L-ZISSEN
 10
90.0
 20
351.5
 30
0.0
 40
4.5
  0
CIRCLE
  8
L-ZISSEN
 10
90.0
 20
278.5
 30
0.0
 40
4.5
  0
CIRCLE
  8
L-ZISSEN
 10
121.609927
 20
333.25
 30
0.0
 40
4.5
  0
CIRCLE
  8
L-ZISSEN
 10
121.609927
 20
296.75
 30
0.0
 40
4.5
  0
CIRCLE
  8
L-ZISSEN
 10
58.390073
 20
333.25
 30
0.0
 40
4.5
  0
CIRCLE
  8
L-ZISSEN
 10
58.390073
 20
296.75
 30
0.0
 40
4.5
  0
LINE
  8
L-TYUSIN
  6
CENTER
 62
     1
 10
90.0
 20
269.0
 30
0.0
 11
90.0
 21
380.0
 31
0.0
  0
LINE
  8
L-ZISSEN
 10
251.5
 20
78.0
 30
0.0
 11
251.5
 21
80.8
 31
0.0
  0
LINE
  8
L-ZISSEN
 10
168.5
 20
78.0
 30
0.0
 11
168.5
 21
93.8
 31
0.0
  0
LINE
  8
L-ZISSEN
 10
168.5
 20
79.2
 30
0.0
 11
251.5
 21
79.2
 31
0.0
  0
LINE
  8
L-TYUSIN
  6
CENTER
 62
     1
 10
210.0
 20
248.0
 30
0.0
 11
210.0
 21
19.0
 31
0.0
  0
CIRCLE
  8
L-ZISSEN
 10
350.0
 20
245.0
 30
0.0
 40
27.0
  0
LINE
  8
L-ZISSEN
 10
323.0
 20
55.0
 30
0.0
 11
377.0
 21
55.0
 31
0.0
  0
LINE
  8
L-ZISSEN
 10
323.0
 20
55.0
 30
0.0
 11
323.0
 21
31.5
 31
0.0
  0
LINE
  8
L-ZISSEN
 10
377.0
 20
31.5
 30
0.0
 11
323.0
 21
31.5
 31
0.0
  0
LINE
  8
L-ZISSEN
 10
377.0
 20
55.0
 30
0.0
 11
377.0
 21
31.5
 31
0.0
  0
CIRCLE
  8
L-ZISSEN
 10
350.0
 20
95.0
 30
0.0
 40
27.0
  0
LINE
  8
L-ZISSEN
 10
169.0
 20
98.4
 30
0.0
 11
169.0
 21
93.8
 31
0.0
  0
LINE
  8
L-ZISSEN
 10
169.0
 20
98.4
 30
0.0
 11
178.0
 21
98.4
 31
0.0
  0
LINE
  8
L-ZISSEN
 10
178.0
 20
98.4
 30
0.0
 11
178.0
 21
93.8
 31
0.0
  0
LINE
  8
L-ZISSEN
 10
196.25
 20
98.4
 30
0.0
 11
196.25
 21
93.8
 31
0.0
  0
LINE
  8
L-ZISSEN
 10
187.25
 20
98.4
 30
0.0
 11
196.25
 21
98.4
 31
0.0
  0
LINE
  8
L-ZISSEN
 10
187.25
 20
98.4
 30
0.0
 11
187.25
 21
93.8
 31
0.0
  0
LINE
  8
L-ZISSEN
 10
232.75
 20
98.4
 30
0.0
 11
232.75
 21
93.8
 31
0.0
  0
LINE
  8
L-ZISSEN
 10
232.75
 20
98.4
 30
0.0
 11
223.75
 21
98.4
 31
0.0
  0
LINE
  8
L-ZISSEN
 10
223.75
 20
98.4
 30
0.0
 11
223.75
 21
93.8
 31
0.0
  0
LINE
  8
L-ZISSEN
 10
242.0
 20
98.4
 30
0.0
 11
242.0
 21
93.8
 31
0.0
  0
LINE
  8
L-ZISSEN
 10
251.0
 20
98.4
 30
0.0
 11
242.0
 21
98.4
 31
0.0
  0
LINE
  8
L-ZISSEN
 10
251.0
 20
98.4
 30
0.0
 11
251.0
 21
93.8
 31
0.0
  0
LINE
  8
L-ZISSEN
 10
430.0
 20
249.864
 30
0.0
 11
419.0
 21
249.864
 31
0.0
  0
LINE
  8
L-ZISSEN
 10
430.0
 20
240.136
 30
0.0
 11
419.0
 21
240.136
 31
0.0
  0
LINE
  8
L-ZISSEN
 10
357.071068
 20
237.928932
 30
0.0
 11
335.857864
 21
259.142136
 31
0.0
  0
LINE
  8
L-ZISSEN
 10
342.928932
 20
102.071068
 30
0.0
 11
364.142136
 21
80.857864
 31
0.0
  0
LINE
  8
L-ZISSEN
 10
454.0
 20
55.0
 30
0.0
 11
454.0
 21
31.5
 31
0.0
  0
LINE
  8
L-ZISSEN
 10
400.0
 20
55.0
 30
0.0
 11
454.0
 21
55.0
 31
0.0
  0
LINE
  8
L-ZISSEN
 10
400.0
 20
55.0
 30
0.0
 11
400.0
 21
31.5
 31
0.0
  0
LINE
  8
L-ZISSEN
 10
454.0
 20
31.5
 30
0.0
 11
400.0
 21
31.5
 31
0.0
  0
LINE
  8
L-ZISSEN
 10
465.0
 20
35.136
 30
0.0
 11
454.0
 21
35.136
 31
0.0
  0
LINE
  8
L-ZISSEN
 10
465.0
 20
44.864
 30
0.0
 11
454.0
 21
44.864
 31
0.0
  0
LINE
  8
L-ZISSEN
 10
345.136
 20
132.786028
 30
0.0
 11
345.136
 21
121.558266
 31
0.0
  0
LINE
  8
L-ZISSEN
 10
354.864
 20
132.786028
 30
0.0
 11
354.864
 21
121.558266
 31
0.0
  0
LINE
  8
L-ZISSEN
 10
47.5
 20
78.0
 30
0.0
 11
132.5
 21
78.0
 31
0.0
  0
LINE
  8
L-ZISSEN
 10
131.5
 20
118.8
 30
0.0
 11
131.5
 21
78.0
 31
0.0
  0
LINE
  8
L-ZISSEN
 10
48.5
 20
118.8
 30
0.0
 11
48.5
 21
78.0
 31
0.0
  0
LINE
  8
L-ZISSEN
 10
48.5
 20
93.8
 30
0.0
 11
131.5
 21
93.8
 31
0.0
  0
LINE
  8
L-ZISSEN
 10
131.5
 20
118.8
 30
0.0
 11
115.0
 21
118.8
 31
0.0
  0
LINE
  8
L-ZISSEN
 10
115.0
 20
163.8
 30
0.0
 11
65.0
 21
163.8
 31
0.0
  0
LINE
  8
L-ZISSEN
 10
105.0
 20
176.8
 30
0.0
 11
75.0
 21
176.8
 31
0.0
  0
LINE
  8
L-ZISSEN
 10
65.0
 20
163.8
 30
0.0
 11
65.0
 21
93.8
 31
0.0
  0
LINE
  8
L-ZISSEN
 10
75.0
 20
176.8
 30
0.0
 11
75.0
 21
163.8
 31
0.0
  0
LINE
  8
L-ZISSEN
 10
105.0
 20
176.8
 30
0.0
 11
105.0
 21
163.8
 31
0.0
  0
LINE
  8
L-ZISSEN
 10
115.0
 20
163.8
 30
0.0
 11
115.0
 21
93.8
 31
0.0
  0
LINE
  8
L-ZISSEN
 10
65.0
 20
118.8
 30
0.0
 11
48.5
 21
118.8
 31
0.0
  0
LINE
  8
L-TYUSIN
 10
110.0
 20
106.8
 30
0.0
 11
130.0
 21
106.8
 31
0.0
  0
LINE
  8
L-TYUSIN
  6
CENTER
 62
     1
 10
120.0
 20
116.8
 30
0.0
 11
120.0
 21
96.8
 31
0.0
  0
CIRCLE
  8
L-ZISSEN
 10
120.0
 20
106.8
 30
0.0
 40
4.5
  0
CIRCLE
  8
L-ZISSEN
 10
60.0
 20
106.8
 30
0.0
 40
4.5
  0
LINE
  8
L-TYUSIN
 10
70.0
 20
106.8
 30
0.0
 11
50.0
 21
106.8
 31
0.0
  0
LINE
  8
L-TYUSIN
  6
CENTER
 62
     1
 10
60.0
 20
116.8
 30
0.0
 11
60.0
 21
96.8
 31
0.0
  0
LINE
  8
L-ZISSEN
 10
168.5
 20
93.8
 30
0.0
 11
260.0
 21
93.8
 31
0.0
  0
LINE
  8
L-ZISSEN
 10
185.0
 20
163.8
 30
0.0
 11
185.0
 21
93.8
 31
0.0
  0
LINE
  8
L-ZISSEN
 10
235.0
 20
163.8
 30
0.0
 11
235.0
 21
118.8
 31
0.0
  0
LINE
  8
L-ZISSEN
 10
225.0
 20
176.8
 30
0.0
 11
225.0
 21
163.8
 31
0.0
  0
LINE
  8
L-ZISSEN
 10
195.0
 20
176.8
 30
0.0
 11
195.0
 21
163.8
 31
0.0
  0
LINE
  8
L-ZISSEN
 10
225.0
 20
176.8
 30
0.0
 11
195.0
 21
176.8
 31
0.0
  0
LINE
  8
L-ZISSEN
 10
235.0
 20
163.8
 30
0.0
 11
185.0
 21
163.8
 31
0.0
  0
LINE
  8
L-ZISSEN
 10
270.0
 20
118.8
 30
0.0
 11
270.0
 21
80.8
 31
0.0
  0
LINE
  8
L-ZISSEN
 10
230.0
 20
118.8
 30
0.0
 11
270.0
 21
118.8
 31
0.0
  0
LINE
  8
L-ZISSEN
 10
260.0
 20
118.8
 30
0.0
 11
260.0
 21
93.8
 31
0.0
  0
LINE
  8
L-ZISSEN
 10
251.5
 20
80.8
 30
0.0
 11
270.0
 21
80.8
 31
0.0
  0
LINE
  8
L-TYUSIN
 10
255.0
 20
106.8
 30
0.0
 11
275.0
 21
106.8
 31
0.0
  0
LINE
  8
L-ZISSEN
 10
131.5
 20
315.0
 30
0.0
 11
131.5
 21
375.0
 31
0.0
  0
LINE
  8
L-ZISSEN
 10
131.5
 20
375.0
 30
0.0
 11
48.5
 21
375.0
 31
0.0
  0
LINE
  8
L-ZISSEN
 10
48.5
 20
375.0
 30
0.0
 11
48.5
 21
315.0
 31
0.0
  0
CIRCLE
  8
L-ZISSEN
 10
90.0
 20
315.0
 30
0.0
 40
15.0
  0
CIRCLE
  8
L-ZISSEN
 10
90.0
 20
315.0
 30
0.0
 40
25.0
  0
LINE
  8
L-ZISSEN
 10
85.5
 20
98.4
 30
0.0
 11
85.5
 21
93.8
 31
0.0
  0
LINE
  8
L-ZISSEN
 10
85.5
 20
98.4
 30
0.0
 11
94.5
 21
98.4
 31
0.0
  0
LINE
  8
L-ZISSEN
 10
94.5
 20
98.4
 30
0.0
 11
94.5
 21
93.8
 31
0.0
  0
LINE
  8
L-ZISSEN
 10
117.109927
 20
98.4
 30
0.0
 11
126.109927
 21
98.4
 31
0.0
  0
LINE
  8
L-ZISSEN
 10
117.109927
 20
98.4
 30
0.0
 11
117.109927
 21
93.8
 31
0.0
  0
LINE
  8
L-ZISSEN
 10
126.109927
 20
98.4
 30
0.0
 11
126.109927
 21
93.8
 31
0.0
  0
LINE
  8
L-ZISSEN
 10
53.890073
 20
98.4
 30
0.0
 11
62.890073
 21
98.4
 31
0.0
  0
LINE
  8
L-ZISSEN
 10
62.890073
 20
98.4
 30
0.0
 11
62.890073
 21
93.8
 31
0.0
  0
LINE
  8
L-ZISSEN
 10
53.890073
 20
98.4
 30
0.0
 11
53.890073
 21
93.8
 31
0.0
  0
LINE
  8
L-ZISSEN
 10
131.5
 20
365.0
 30
0.0
 11
105.0
 21
365.0
 31
0.0
  0
LINE
  8
L-ZISSEN
 10
75.0
 20
365.0
 30
0.0
 11
75.0
 21
335.0
 31
0.0
  0
LINE
  8
L-ZISSEN
 10
81.0
 20
375.0
 30
0.0
 11
81.0
 21
351.5
 31
0.0
  0
ARC
  8
L-ZISSEN
 10
90.0
 20
351.5
 30
0.0
 40
9.0
 50
180.0
 51
0.0
  0
LINE
  8
L-ZISSEN
 10
99.0
 20
375.0
 30
0.0
 11
99.0
 21
351.5
 31
0.0
  0
LINE
  8
L-ZISSEN
 10
105.0
 20
365.0
 30
0.0
 11
105.0
 21
335.0
 31
0.0
  0
LINE
  8
L-ZISSEN
 10
75.0
 20
365.0
 30
0.0
 11
48.5
 21
365.0
 31
0.0
  0
LINE
  8
L-TYUSIN
  6
CENTER
 62
     1
 10
60.0
 20
380.0
 30
0.0
 11
60.0
 21
360.0
 31
0.0
  0
LINE
  8
L-TYUSIN
  6
CENTER
 62
     1
 10
120.0
 20
380.0
 30
0.0
 11
120.0
 21
360.0
 31
0.0
  0
LINE
  8
L-ZISSEN
 10
230.0
 20
118.8
 30
0.0
 11
230.0
 21
98.4
 31
0.0
  0
ARC
  8
L-ZISSEN
 10
90.0
 20
240.6
 30
0.0
 40
2.4
 50
44.163319
 51
135.836681
  0
LINE
  8
L-ZISSEN
 10
96.0
 20
242.272094
 30
0.0
 11
84.0
 21
242.272094
 31
0.0
  0
LINE
  8
L-ZISSEN
 10
100.969655
 20
207.272094
 30
0.0
 11
79.030345
 21
207.272094
 31
0.0
  0
LINE
  8
L-ZISSEN
 10
79.030345
 20
207.272094
 30
0.0
 11
79.030345
 21
234.272094
 31
0.0
  0
LINE
  8
L-ZISSEN
 10
100.969655
 20
207.272094
 30
0.0
 11
100.969655
 21
234.272094
 31
0.0
  0
LINE
  8
L-ZISSEN
 10
100.969655
 20
234.272094
 30
0.0
 11
79.030345
 21
234.272094
 31
0.0
  0
LINE
  8
L-ZISSEN
 10
84.0
 20
242.272094
 30
0.0
 11
84.0
 21
237.789149
 31
0.0
  0
LINE
  8
L-ZISSEN
 10
96.0
 20
242.272094
 30
0.0
 11
96.0
 21
237.789149
 31
0.0
  0
ARC
  8
L-ZISSEN
 10
90.0
 20
224.041422
 30
0.0
 40
15.0
 50
43.003643
 51
66.421822
  0
LINE
  8
L-ZISSEN
 10
84.0
 20
237.789149
 30
0.0
 11
96.0
 21
237.789149
 31
0.0
  0
ARC
  8
L-ZISSEN
 10
90.0
 20
224.041422
 30
0.0
 40
15.0
 50
113.578178
 51
136.996357
  0
CIRCLE
  8
L-ZISSEN
 10
90.0
 20
315.0
 30
0.0
 40
2.4
  0
LINE
  8
L-ZISSEN
 10
84.515172
 20
324.5
 30
0.0
 11
79.030345
 21
315.0
 31
0.0
  0
LINE
  8
L-ZISSEN
 10
79.030345
 20
315.0
 30
0.0
 11
84.515172
 21
305.5
 31
0.0
  0
LINE
  8
L-ZISSEN
 10
84.515172
 20
305.5
 30
0.0
 11
95.484828
 21
305.5
 31
0.0
  0
LINE
  8
L-ZISSEN
 10
95.484828
 20
305.5
 30
0.0
 11
100.969655
 21
315.0
 31
0.0
  0
LINE
  8
L-ZISSEN
 10
100.969655
 20
315.0
 30
0.0
 11
95.484828
 21
324.5
 31
0.0
  0
LINE
  8
L-ZISSEN
 10
95.484828
 20
324.5
 30
0.0
 11
84.515172
 21
324.5
 31
0.0
  0
CIRCLE
  8
L-ZISSEN
 10
90.0
 20
315.0
 30
0.0
 40
6.0
  0
LINE
  8
L-ZISSEN
 10
219.5
 20
207.272094
 30
0.0
 11
200.5
 21
207.272094
 31
0.0
  0
LINE
  8
L-ZISSEN
 10
219.5
 20
234.272094
 30
0.0
 11
200.5
 21
234.272094
 31
0.0
  0
ARC
  8
L-ZISSEN
 10
210.0
 20
224.041422
 30
0.0
 40
15.0
 50
113.578178
 51
129.29648
  0
LINE
  8
L-ZISSEN
 10
204.0
 20
237.789149
 30
0.0
 11
216.0
 21
237.789149
 31
0.0
  0
ARC
  8
L-ZISSEN
 10
210.0
 20
224.041422
 30
0.0
 40
15.0
 50
50.70352
 51
66.421822
  0
LINE
  8
L-ZISSEN
 10
216.0
 20
242.272094
 30
0.0
 11
216.0
 21
237.789149
 31
0.0
  0
LINE
  8
L-ZISSEN
 10
204.0
 20
242.272094
 30
0.0
 11
204.0
 21
237.789149
 31
0.0
  0
LINE
  8
L-ZISSEN
 10
216.0
 20
242.272094
 30
0.0
 11
204.0
 21
242.272094
 31
0.0
  0
ARC
  8
L-ZISSEN
 10
210.0
 20
240.6
 30
0.0
 40
2.4
 50
44.163319
 51
135.836681
  0
LINE
  8
L-ZISSEN
 10
200.5
 20
235.649608
 30
0.0
 11
200.5
 21
207.272094
 31
0.0
  0
LINE
  8
L-ZISSEN
 10
219.5
 20
235.649608
 30
0.0
 11
219.5
 21
207.272094
 31
0.0
  0
LINE
  8
L-ZISSEN
 10
84.0
 20
207.272094
 30
0.0
 11
84.0
 21
176.8
 31
0.0
  0
LINE
  8
L-ZISSEN
 10
96.0
 20
207.272094
 30
0.0
 11
96.0
 21
176.8
 31
0.0
  0
LINE
  8
L-ZISSEN
 10
204.0
 20
207.272094
 30
0.0
 11
204.0
 21
176.8
 31
0.0
  0
LINE
  8
L-ZISSEN
 10
216.0
 20
207.272094
 30
0.0
 11
216.0
 21
176.8
 31
0.0
  0
LINE
  8
L-ZISSEN
 10
100.969655
 20
214.272094
 30
0.0
 11
79.030345
 21
214.272094
 31
0.0
  0
LINE
  8
L-ZISSEN
 10
219.5
 20
214.272094
 30
0.0
 11
200.5
 21
214.272094
 31
0.0
  0
LINE
  8
L-TYUSIN
 10
300.0
 20
310.0
 30
0.0
 11
300.0
 21
5.0
 31
0.0
  0
LINE
  8
L-TYUSIN
 10
300.0
 20
205.0
 30
0.0
 11
510.0
 21
205.0
 31
0.0
  0
TEXT
  8
L-ZISSEN
 10
50.0
 20
395.0
 30
0.0
 40
4.5
  1
MODEL NO. : NRV-304A
  0
TEXT
  8
L-ZISSEN
 10
320.0
 20
300.0
 30
0.0
 40
4.5
  1
T TYPE GAUGE
  0
TEXT
  8
L-ZISSEN
 10
320.0
 20
290.0
 30
0.0
 40
4.5
  1
MODEL NO. : NRV-304ALT
  0
TEXT
  8
L-ZISSEN
 10
320.0
 20
190.0
 30
0.0
 40
4.5
  1
Q TYPE GAUGE
  0
TEXT
  8
L-ZISSEN
 10
320.0
 20
180.0
 30
0.0
 40
4.5
  1
MODEL NO. : NRV-304ALQ
  0
SOLID
  8
L-ZISSEN
 10
90.777332
 20
313.127337
 30
0.0
 11
91.342664
 21
313.48067
 31
0.0
 12
90.0
 22
315.0
 32
0.0
 13
90.0
 23
315.0
 33
0.0
  0
LINE
  8
L-ZISSEN
 10
91.059998
 20
313.304003
 30
0.0
 11
115.0
 21
275.0
 31
0.0
  0
LINE
  8
L-ZISSEN
 10
115.0
 20
275.0
 30
0.0
 11
117.0
 21
275.0
 31
0.0
  0
TEXT
  8
L-ZISSEN
 10
119.0
 20
272.75
 30
0.0
 40
4.5
  1
P.P
  0
LINE
  8
L-ZISSEN
  6
CONTINUOUS
 62
     7
 10
47.5
 20
70.5
 30
0.0
 11
132.5
 21
70.5
 31
0.0
  0
LINE
  8
L-ZISSEN
  6
CONTINUOUS
 62
     7
 10
69.0
 20
34.5
 30
0.0
 11
69.0
 21
46.0
 31
0.0
  0
LINE
  8
L-ZISSEN
  6
CONTINUOUS
 62
     7
 10
47.5
 20
46.0
 30
0.0
 11
69.0
 21
46.0
 31
0.0
  0
LINE
  8
L-ZISSEN
  6
CONTINUOUS
 62
     7
 10
99.5
 20
70.5
 30
0.0
 11
99.5
 21
50.5
 31
0.0
  0
LINE
  8
L-ZISSEN
  6
CONTINUOUS
 62
     7
 10
132.5
 20
78.0
 30
0.0
 11
132.5
 21
46.0
 31
0.0
  0
LINE
  8
L-ZISSEN
  6
CONTINUOUS
 62
     7
 10
132.5
 20
46.0
 30
0.0
 11
111.0
 21
46.0
 31
0.0
  0
LINE
  8
L-ZISSEN
  6
CONTINUOUS
 62
     7
 10
111.0
 20
34.5
 30
0.0
 11
111.0
 21
46.0
 31
0.0
  0
LINE
  8
L-ZISSEN
  6
CONTINUOUS
 62
     7
 10
69.0
 20
34.5
 30
0.0
 11
111.0
 21
34.5
 31
0.0
  0
LINE
  8
L-ZISSEN
  6
CONTINUOUS
 62
     7
 10
70.0
 20
24.0
 30
0.0
 11
70.0
 21
34.5
 31
0.0
  0
LINE
  8
L-ZISSEN
  6
CONTINUOUS
 62
     7
 10
70.0
 20
24.0
 30
0.0
 11
110.0
 21
24.0
 31
0.0
  0
LINE
  8
L-ZISSEN
  6
CONTINUOUS
 62
     7
 10
110.0
 20
24.0
 30
0.0
 11
110.0
 21
34.5
 31
0.0
  0
LINE
  8
L-TYUSIN
  6
CENTER
 62
     1
 10
137.5
 20
60.0
 30
0.0
 11
42.5
 21
60.0
 31
0.0
  0
LINE
  8
L-ZISSEN
 10
80.5
 20
50.5
 30
0.0
 11
99.5
 21
50.5
 31
0.0
  0
LINE
  8
L-ZISSEN
  6
CONTINUOUS
 62
     7
 10
80.5
 20
70.5
 30
0.0
 11
80.5
 21
50.5
 31
0.0
  0
LINE
  8
L-ZISSEN
  6
CONTINUOUS
 62
     7
 10
47.5
 20
78.0
 30
0.0
 11
47.5
 21
46.0
 31
0.0
  0
LINE
  8
L-ZISSEN
 10
195.5
 20
46.0
 30
0.0
 11
224.5
 21
46.0
 31
0.0
  0
LINE
  8
L-ZISSEN
  6
CONTINUOUS
 62
     7
 10
189.0
 20
34.5
 30
0.0
 11
231.0
 21
34.5
 31
0.0
  0
LINE
  8
L-ZISSEN
  6
CONTINUOUS
 62
     7
 10
231.0
 20
34.5
 30
0.0
 11
231.0
 21
50.5
 31
0.0
  0
LINE
  8
L-ZISSEN
  6
CONTINUOUS
 62
     7
 10
251.0
 20
50.5
 30
0.0
 11
231.0
 21
50.5
 31
0.0
  0
LINE
  8
L-ZISSEN
  6
CONTINUOUS
 62
     7
 10
189.0
 20
34.5
 30
0.0
 11
189.0
 21
50.5
 31
0.0
  0
LINE
  8
L-ZISSEN
  6
CONTINUOUS
 62
     7
 10
195.5
 20
46.0
 30
0.0
 11
195.5
 21
78.0
 31
0.0
  0
LINE
  8
L-ZISSEN
  6
CONTINUOUS
 62
     7
 10
224.5
 20
46.0
 30
0.0
 11
224.5
 21
78.0
 31
0.0
  0
LINE
  8
L-ZISSEN
  6
CONTINUOUS
 62
     7
 10
251.0
 20
78.0
 30
0.0
 11
251.0
 21
50.5
 31
0.0
  0
LINE
  8
L-ZISSEN
  6
CONTINUOUS
 62
     7
 10
224.5
 20
70.5
 30
0.0
 11
251.0
 21
70.5
 31
0.0
  0
LINE
  8
L-ZISSEN
  6
CONTINUOUS
 62
     7
 10
169.0
 20
78.0
 30
0.0
 11
169.0
 21
50.5
 31
0.0
  0
LINE
  8
L-ZISSEN
  6
CONTINUOUS
 62
     7
 10
195.5
 20
70.5
 30
0.0
 11
169.0
 21
70.5
 31
0.0
  0
LINE
  8
L-ZISSEN
  6
CONTINUOUS
 62
     7
 10
169.0
 20
50.5
 30
0.0
 11
189.0
 21
50.5
 31
0.0
  0
LINE
  8
L-ZISSEN
  6
CONTINUOUS
 62
     7
 10
190.0
 20
24.0
 30
0.0
 11
190.0
 21
34.5
 31
0.0
  0
LINE
  8
L-ZISSEN
  6
CONTINUOUS
 62
     7
 10
230.0
 20
24.0
 30
0.0
 11
230.0
 21
34.5
 31
0.0
  0
LINE
  8
L-ZISSEN
  6
CONTINUOUS
 62
     7
 10
190.0
 20
24.0
 30
0.0
 11
230.0
 21
24.0
 31
0.0
  0
LINE
  8
L-TYUSIN
  6
CENTER
 62
     1
 10
164.0
 20
60.0
 30
0.0
 11
256.0
 21
60.0
 31
0.0
  0
CIRCLE
  8
L-ZISSEN
 10
90.0
 20
60.0
 30
0.0
 40
4.864
  0
CIRCLE
  8
L-ZISSEN
 10
210.0
 20
60.0
 30
0.0
 40
10.4775
  0
LINE
  8
L-ZISSEN
 10
251.5
 20
78.0
 30
0.0
 11
168.5
 21
78.0
 31
0.0
  0
SOLID
  8
L-ZISSEN
 10
45.963557
 20
58.676952
 30
0.0
 11
46.475705
 21
58.250163
 31
0.0
 12
47.5
 22
60.0
 32
0.0
 13
47.5
 23
60.0
 33
0.0
  0
LINE
  8
L-ZISSEN
 10
46.219631
 20
58.463557
 30
0.0
 11
35.0
 21
45.0
 31
0.0
  0
LINE
  8
L-ZISSEN
 10
35.0
 20
45.0
 30
0.0
 11
33.0
 21
45.0
 31
0.0
  0
TEXT
  8
L-ZISSEN
 10
25.0
 20
42.75
 30
0.0
 40
4.5
  1
IN
  0
TEXT
  8
L-ZISSEN
 10
10.0
 20
35.0
 30
0.0
 40
4.5
  1
Rc 1/2
  0
LINE
  8
L-ZISSEN
 10
132.5
 20
300.5
 30
0.0
 11
132.5
 21
329.5
 31
0.0
  0
LINE
  8
L-ZISSEN
 10
132.5
 20
300.5
 30
0.0
 11
128.884444
 21
300.5
 31
0.0
  0
LINE
  8
L-ZISSEN
 10
132.5
 20
329.5
 30
0.0
 11
131.5
 21
329.5
 31
0.0
  0
LINE
  8
L-ZISSEN
 10
47.5
 20
329.5
 30
0.0
 11
48.5
 21
329.5
 31
0.0
  0
LINE
  8
L-ZISSEN
 10
47.5
 20
300.5
 30
0.0
 11
51.115556
 21
300.5
 31
0.0
  0
LINE
  8
L-ZISSEN
 10
47.5
 20
300.5
 30
0.0
 11
47.5
 21
329.5
 31
0.0
  0
LINE
  8
L-ZISSEN
 10
81.0
 20
274.0
 30
0.0
 11
83.577384
 21
274.0
 31
0.0
  0
LINE
  8
L-ZISSEN
 10
99.0
 20
274.0
 30
0.0
 11
99.0
 21
274.487656
 31
0.0
  0
LINE
  8
L-ZISSEN
 10
81.0
 20
274.0
 30
0.0
 11
81.0
 21
274.487656
 31
0.0
  0
LINE
  8
L-ZISSEN
 10
96.422616
 20
274.0
 30
0.0
 11
99.0
 21
274.0
 31
0.0
  0
SOLID
  8
L-ZISSEN
 10
350.63652
 20
172.074915
 30
0.0
 11
351.226466
 21
172.385412
 31
0.0
 12
350.0
 22
174.0
 32
0.0
 13
350.0
 23
174.0
 33
0.0
  0
LINE
  8
L-ZISSEN
 10
350.931493
 20
172.230164
 30
0.0
 11
360.0
 21
155.0
 31
0.0
  0
LINE
  8
L-ZISSEN
 10
360.0
 20
155.0
 30
0.0
 11
362.0
 21
155.0
 31
0.0
  0
TEXT
  8
L-ZISSEN
 10
364.0
 20
152.75
 30
0.0
 40
4.5
  1
P.P
  0
SOLID
  8
L-ZISSEN
 10
91.323048
 20
58.463557
 30
0.0
 11
91.749837
 21
58.975705
 31
0.0
 12
90.0
 22
60.0
 32
0.0
 13
90.0
 23
60.0
 33
0.0
  0
LINE
  8
L-ZISSEN
 10
91.536443
 20
58.719631
 30
0.0
 11
120.0
 21
35.0
 31
0.0
  0
LINE
  8
L-ZISSEN
 10
120.0
 20
35.0
 30
0.0
 11
122.0
 21
35.0
 31
0.0
  0
TEXT
  8
L-ZISSEN
 10
124.0
 20
32.75
 30
0.0
 40
4.5
  1
P.P
  0
SOLID
  8
L-ZISSEN
 10
208.250163
 20
58.975705
 30
0.0
 11
208.676952
 21
58.463557
 31
0.0
 12
210.0
 22
60.0
 32
0.0
 13
210.0
 23
60.0
 33
0.0
  0
LINE
  8
L-ZISSEN
 10
208.463557
 20
58.719631
 30
0.0
 11
180.0
 21
35.0
 31
0.0
  0
LINE
  8
L-ZISSEN
 10
180.0
 20
35.0
 30
0.0
 11
178.0
 21
35.0
 31
0.0
  0
TEXT
  8
L-ZISSEN
 10
167.0
 20
32.75
 30
0.0
 40
4.5
  1
P.P
  0
SOLID
  8
L-ZISSEN
 10
504.312945
 20
38.875297
 30
0.0
 11
504.768906
 21
38.388939
 31
0.0
 12
506.0
 22
40.0
 32
0.0
 13
506.0
 23
40.0
 33
0.0
  0
LINE
  8
L-ZISSEN
 10
504.540926
 20
38.632118
 30
0.0
 11
490.0
 21
25.0
 31
0.0
  0
LINE
  8
L-ZISSEN
 10
490.0
 20
25.0
 30
0.0
 11
488.0
 21
25.0
 31
0.0
  0
TEXT
  8
L-ZISSEN
 10
477.0
 20
22.75
 30
0.0
 40
4.5
  1
P.P
  0
SOLID
  8
L-ZISSEN
 10
351.178511
 20
38.350084
 30
0.0
 11
351.649916
 21
38.821489
 31
0.0
 12
350.0
 22
40.0
 32
0.0
 13
350.0
 23
40.0
 33
0.0
  0
LINE
  8
L-ZISSEN
 10
351.414214
 20
38.585786
 30
0.0
 11
365.0
 21
25.0
 31
0.0
  0
LINE
  8
L-ZISSEN
 10
365.0
 20
25.0
 30
0.0
 11
367.0
 21
25.0
 31
0.0
  0
TEXT
  8
L-ZISSEN
 10
369.0
 20
22.75
 30
0.0
 40
4.5
  1
P.P
  0
SOLID
  8
L-ZISSEN
 10
469.49032
 20
243.646494
 30
0.0
 11
470.0109
 21
243.230031
 31
0.0
 12
471.0
 22
245.0
 32
0.0
 13
471.0
 23
245.0
 33
0.0
  0
LINE
  8
L-ZISSEN
 10
469.75061
 20
243.438262
 30
0.0
 11
455.0
 21
225.0
 31
0.0
  0
LINE
  8
L-ZISSEN
 10
455.0
 20
225.0
 30
0.0
 11
453.0
 21
225.0
 31
0.0
  0
TEXT
  8
L-ZISSEN
 10
442.0
 20
222.75
 30
0.0
 40
4.5
  1
P.P
  0
SOLID
  8
L-ZISSEN
 10
348.230031
 20
244.0109
 30
0.0
 11
348.646494
 21
243.49032
 31
0.0
 12
350.0
 22
245.0
 32
0.0
 13
350.0
 23
245.0
 33
0.0
  0
LINE
  8
L-ZISSEN
 10
348.438262
 20
243.75061
 30
0.0
 11
325.0
 21
225.0
 31
0.0
  0
LINE
  8
L-ZISSEN
 10
325.0
 20
225.0
 30
0.0
 11
323.0
 21
225.0
 31
0.0
  0
TEXT
  8
L-ZISSEN
 10
312.0
 20
222.75
 30
0.0
 40
4.5
  1
P.P
  0
ENDSEC
  0
EOF
