  0
SECTION
  2
HEADER
  9
$ACADVER
  1
AC1006
  9
$INSBASE
 10
0.0
 20
0.0
 30
0.0
  9
$EXTMIN
 10
5.0
 20
20.0
  9
$EXTMAX
 10
1310.0
 20
690.0
  9
$LIMMIN
 10
0.0
 20
0.0
  9
$LIMMAX
 10
1189.0
 20
841.0
  9
$ORTHOMODE
 70
     1
  9
$REGENMODE
 70
     1
  9
$FILLMODE
 70
     1
  9
$QTEXTMODE
 70
     0
  9
$MIRRTEXT
 70
     1
  9
$DRAGMODE
 70
     2
  9
$LTSCALE
 40
1.0
  9
$OSMODE
 70
     0
  9
$ATTMODE
 70
     1
  9
$TEXTSIZE
 40
4.5
  9
$TRACEWID
 40
0.05
  9
$TEXTSTYLE
  7
STANDARD
  9
$CLAYER
  8
L-ZISSEN
  9
$CELTYPE
  6
BYLAYER
  9
$CECOLOR
 62
   256
  9
$DIMSCALE
 40
1.0
  9
$DIMASZ
 40
2.0
  9
$DIMEXO
 40
1.0
  9
$DIMDLI
 40
0.38
  9
$DIMRND
 40
0.0
  9
$DIMDLE
 40
1.0
  9
$DIMEXE
 40
1.0
  9
$DIMTP
 40
0.0
  9
$DIMTM
 40
0.0
  9
$DIMTXT
 40
4.5
  9
$DIMCEN
 40
0.09
  9
$DIMTSZ
 40
0.0
  9
$DIMTOL
 70
     0
  9
$DIMLIM
 70
     0
  9
$DIMTIH
 70
     0
  9
$DIMTOH
 70
     0
  9
$DIMSE1
 70
     0
  9
$DIMSE2
 70
     0
  9
$DIMTAD
 70
     1
  9
$DIMZIN
 70
     0
  9
$DIMBLK
  1

  9
$DIMASO
 70
     0
  9
$DIMSHO
 70
     0
  9
$DIMPOST
  1

  9
$DIMAPOST
  1

  9
$DIMALT
 70
     0
  9
$DIMALTD
 70
     2
  9
$DIMALTF
 40
25.4
  9
$DIMLFAC
 40
1.0
  9
$DIMTOFL
 70
     1
  9
$DIMTVP
 40
0.0
  9
$DIMTIX
 70
     1
  9
$DIMSOXD
 70
     0
  9
$DIMSAH
 70
     0
  9
$DIMBLK1
  1

  9
$DIMBLK2
  1

  9
$LUNITS
 70
     2
  9
$LUPREC
 70
     4
  9
$AXISMODE
 70
     0
  9
$AXISUNIT
 10
0.0
 20
0.0
  9
$SKETCHINC
 40
0.1
  9
$FILLETRAD
 40
8.0
  9
$AUNITS
 70
     0
  9
$AUPREC
 70
     0
  9
$MENU
  1
acad
  9
$ELEVATION
 40
0.0
  9
$THICKNESS
 40
0.0
  9
$LIMCHECK
 70
     0
  9
$BLIPMODE
 70
     1
  9
$CHAMFERA
 40
1.0
  9
$CHAMFERB
 40
1.0
  9
$SKPOLY
 70
     0
  9
$TDCREATE
 40
2449157.4866449074
  9
$TDUPDATE
 40
2449651.8268777779
  9
$TDINDWG
 40
0.0362291667
  9
$TDUSRTIMER
 40
0.0362291667
  9
$USRTIMER
 70
     1
  9
$ANGBASE
 50
0.0
  9
$ANGDIR
 70
     0
  9
$PDMODE
 70
     0
  9
$PDSIZE
 40
0.0
  9
$PLINEWID
 40
0.0
  9
$COORDS
 70
     2
  9
$SPLFRAME
 70
     0
  9
$SPLINETYPE
 70
     6
  9
$SPLINESEGS
 70
     8
  9
$ATTDIA
 70
     0
  9
$ATTREQ
 70
     1
  9
$HANDLING
 70
     0
  9
$HANDSEED
  5
0
  9
$SURFTAB1
 70
     6
  9
$SURFTAB2
 70
     6
  9
$SURFTYPE
 70
     6
  9
$SURFU
 70
     6
  9
$SURFV
 70
     6
  9
$FLATLAND
 70
     0
  9
$UCSNAME
  2

  9
$UCSORG
 10
0.0
 20
0.0
 30
0.0
  9
$UCSXDIR
 10
1.0
 20
0.0
 30
0.0
  9
$UCSYDIR
 10
0.0
 20
1.0
 30
0.0
  9
$USERI1
 70
     0
  9
$USERI2
 70
     0
  9
$USERI3
 70
     0
  9
$USERI4
 70
     0
  9
$USERI5
 70
     0
  9
$USERR1
 40
0.0
  9
$USERR2
 40
0.0
  9
$USERR3
 40
0.0
  9
$USERR4
 40
0.0
  9
$USERR5
 40
0.0
  9
$WORLDVIEW
 70
     1
  0
ENDSEC
  0
SECTION
  2
TABLES
  0
TABLE
  2
VPORT
 70
     2
  0
VPORT
  2
*ACTIVE
 70
     0
 10
0.0
 20
0.0
 11
1.0
 21
1.0
 12
683.978277
 22
404.79201
 13
0.0
 23
0.0
 14
5.0
 24
5.0
 15
0.0
 25
0.0
 16
0.0
 26
0.0
 36
1.0
 17
0.0
 27
0.0
 37
0.0
 40
924.365452
 41
1.5487
 42
50.0
 43
0.0
 44
0.0
 50
0.0
 51
0.0
 71
     0
 72
   100
 73
     1
 74
     0
 75
     0
 76
     0
 77
     0
 78
     0
  0
ENDTAB
  0
TABLE
  2
LTYPE
 70
     2
  0
LTYPE
  2
CONTINUOUS
 70
    64
  3
Solid line
 72
    65
 73
     0
 40
0.0
  0
LTYPE
  2
CENTER
 70
    64
  3
____ _ ____ _ ____ _ ____ _ 
 72
    65
 73
     4
 40
60.0
 49
45.0
 49
-5.0
 49
5.0
 49
-5.0
  0
ENDTAB
  0
TABLE
  2
LAYER
 70
     3
  0
LAYER
  2
0
 70
     0
 62
     7
  6
CONTINUOUS
  0
LAYER
  2
L-ZISSEN
 70
    64
 62
     7
  6
CONTINUOUS
  0
LAYER
  2
L-TYUSIN
 70
    64
 62
     1
  6
CENTER
  0
ENDTAB
  0
TABLE
  2
STYLE
 70
     1
  0
STYLE
  2
STANDARD
 70
    64
 40
0.0
 41
1.0
 50
0.0
 71
     0
 42
4.5
  3
TXT
  4

  0
ENDTAB
  0
TABLE
  2
VIEW
 70
     0
  0
ENDTAB
  0
TABLE
  2
UCS
 70
     0
  0
ENDTAB
  0
TABLE
  2
DWGMGR
 70
     0
  0
ENDTAB
  0
ENDSEC
  0
SECTION
  2
BLOCKS
  0
ENDSEC
  0
SECTION
  2
ENTITIES
  0
LINE
  8
L-ZISSEN
 10
865.803301
 20
533.487067
 30
0.0
 11
903.987067
 21
495.303301
 31
0.0
  0
LINE
  8
L-ZISSEN
 10
862.267767
 20
529.951533
 30
0.0
 11
900.451533
 21
491.767767
 31
0.0
  0
LINE
  8
L-ZISSEN
 10
849.893398
 20
516.162951
 30
0.0
 11
886.662951
 21
479.393398
 31
0.0
  0
LINE
  8
L-ZISSEN
 10
886.662951
 20
479.393398
 30
0.0
 11
899.744426
 21
492.474874
 31
0.0
  0
LINE
  8
L-ZISSEN
 10
900.451533
 20
491.767767
 30
0.0
 11
903.987067
 21
495.303301
 31
0.0
  0
LINE
  8
L-ZISSEN
 10
849.893398
 20
516.162951
 30
0.0
 11
862.974874
 21
529.244426
 31
0.0
  0
LINE
  8
L-ZISSEN
 10
862.267767
 20
529.951533
 30
0.0
 11
865.803301
 21
533.487067
 31
0.0
  0
LINE
  8
L-ZISSEN
 10
864.035534
 20
502.020815
 30
0.0
 11
859.792893
 21
497.778175
 31
0.0
  0
LINE
  8
L-ZISSEN
 10
859.792893
 20
497.778175
 30
0.0
 11
868.278175
 21
489.292893
 31
0.0
  0
LINE
  8
L-ZISSEN
 10
868.278175
 20
489.292893
 30
0.0
 11
872.520815
 21
493.535534
 31
0.0
  0
TEXT
  8
L-ZISSEN
 10
820.0
 20
680.0
 30
0.0
 40
4.5
  1
T TYPE PRESSURE GAUGE
  0
LINE
  8
L-TYUSIN
 10
20.0
 20
80.0
 30
0.0
 11
135.0
 21
80.0
 31
0.0
  0
LINE
  8
L-TYUSIN
 10
80.0
 20
36.9
 30
0.0
 11
80.0
 21
195.0
 31
0.0
  0
LINE
  8
L-TYUSIN
 10
195.0
 20
36.9
 30
0.0
 11
195.0
 21
195.0
 31
0.0
  0
LINE
  8
L-ZISSEN
 10
215.75
 20
51.5
 30
0.0
 11
174.25
 21
51.5
 31
0.0
  0
LINE
  8
L-ZISSEN
 10
167.0
 20
114.7
 30
0.0
 11
167.0
 21
80.0
 31
0.0
  0
LINE
  8
L-ZISSEN
 10
160.0
 20
111.0
 30
0.0
 11
160.0
 21
49.0
 31
0.0
  0
LINE
  8
L-ZISSEN
 10
160.0
 20
49.0
 30
0.0
 11
168.0
 21
49.0
 31
0.0
  0
LINE
  8
L-ZISSEN
 10
160.0
 20
111.0
 30
0.0
 11
167.0
 21
111.0
 31
0.0
  0
LINE
  8
L-ZISSEN
 10
230.0
 20
111.0
 30
0.0
 11
223.0
 21
111.0
 31
0.0
  0
LINE
  8
L-ZISSEN
 10
230.0
 20
49.0
 30
0.0
 11
222.0
 21
49.0
 31
0.0
  0
LINE
  8
L-ZISSEN
 10
230.0
 20
111.0
 30
0.0
 11
230.0
 21
49.0
 31
0.0
  0
LINE
  8
L-ZISSEN
 10
223.0
 20
114.7
 30
0.0
 11
223.0
 21
80.0
 31
0.0
  0
LINE
  8
L-ZISSEN
 10
174.25
 20
41.9
 30
0.0
 11
174.25
 21
80.0
 31
0.0
  0
LINE
  8
L-ZISSEN
 10
215.75
 20
41.9
 30
0.0
 11
215.75
 21
80.0
 31
0.0
  0
LINE
  8
L-ZISSEN
 10
223.0
 20
114.7
 30
0.0
 11
167.0
 21
114.7
 31
0.0
  0
LINE
  8
L-ZISSEN
 10
168.0
 20
80.0
 30
0.0
 11
168.0
 21
49.0
 31
0.0
  0
LINE
  8
L-ZISSEN
 10
222.0
 20
80.0
 30
0.0
 11
222.0
 21
49.0
 31
0.0
  0
LINE
  8
L-ZISSEN
 10
59.25
 20
41.9
 30
0.0
 11
59.25
 21
56.233333
 31
0.0
  0
LINE
  8
L-ZISSEN
 10
100.75
 20
41.9
 30
0.0
 11
100.75
 21
64.0
 31
0.0
  0
LINE
  8
L-ZISSEN
 10
100.75
 20
51.5
 30
0.0
 11
59.25
 21
51.5
 31
0.0
  0
LINE
  8
L-ZISSEN
 10
52.0
 20
114.7
 30
0.0
 11
52.0
 21
111.0
 31
0.0
  0
LINE
  8
L-ZISSEN
 10
108.0
 20
114.7
 30
0.0
 11
52.0
 21
114.7
 31
0.0
  0
LINE
  8
L-ZISSEN
 10
108.0
 20
114.7
 30
0.0
 11
108.0
 21
96.0
 31
0.0
  0
LINE
  8
L-TYUSIN
 10
45.0
 20
44.0
 30
0.0
 11
45.0
 21
116.0
 31
0.0
  0
LINE
  8
L-ZISSEN
 10
57.5
 20
111.0
 30
0.0
 11
32.5
 21
111.0
 31
0.0
  0
LINE
  8
L-ZISSEN
 10
32.5
 20
111.0
 30
0.0
 11
25.0
 21
80.0
 31
0.0
  0
LINE
  8
L-ZISSEN
 10
57.5
 20
111.0
 30
0.0
 11
65.0
 21
80.0
 31
0.0
  0
LINE
  8
L-ZISSEN
 10
57.5
 20
49.0
 30
0.0
 11
65.0
 21
80.0
 31
0.0
  0
LINE
  8
L-ZISSEN
 10
57.5
 20
49.0
 30
0.0
 11
32.5
 21
49.0
 31
0.0
  0
LINE
  8
L-ZISSEN
 10
32.5
 20
49.0
 30
0.0
 11
25.0
 21
80.0
 31
0.0
  0
LINE
  8
L-TYUSIN
 10
155.0
 20
80.0
 30
0.0
 11
235.0
 21
80.0
 31
0.0
  0
LINE
  8
L-ZISSEN
 10
130.0
 20
96.0
 30
0.0
 11
130.0
 21
64.0
 31
0.0
  0
LINE
  8
L-ZISSEN
 10
123.0
 20
97.0
 30
0.0
 11
123.0
 21
96.0
 31
0.0
  0
LINE
  8
L-ZISSEN
 10
119.5
 20
57.0
 30
0.0
 11
100.75
 21
57.0
 31
0.0
  0
LINE
  8
L-ZISSEN
 10
179.0
 20
91.712813
 30
0.0
 11
179.0
 21
68.287187
 31
0.0
  0
LINE
  8
L-ZISSEN
 10
211.0
 20
91.712813
 30
0.0
 11
211.0
 21
68.287187
 31
0.0
  0
ARC
  8
L-ZISSEN
 10
195.0
 20
64.0
 30
0.0
 40
32.0
 50
60.0
 51
120.0
  0
ARC
  8
L-ZISSEN
 10
195.0
 20
96.0
 30
0.0
 40
32.0
 50
240.0
 51
300.0
  0
LINE
  8
L-ZISSEN
 10
203.5
 20
57.0
 30
0.0
 11
186.5
 21
57.0
 31
0.0
  0
LINE
  8
L-ZISSEN
 10
186.5
 20
57.0
 30
0.0
 11
186.5
 21
65.149554
 31
0.0
  0
LINE
  8
L-ZISSEN
 10
203.5
 20
57.0
 30
0.0
 11
203.5
 21
65.149554
 31
0.0
  0
LINE
  8
L-TYUSIN
 10
111.0
 20
52.0
 30
0.0
 11
111.0
 21
62.0
 31
0.0
  0
LINE
  8
L-ZISSEN
 10
130.0
 20
64.0
 30
0.0
 11
100.75
 21
64.0
 31
0.0
  0
LINE
  8
L-ZISSEN
 10
130.0
 20
96.0
 30
0.0
 11
108.0
 21
96.0
 31
0.0
  0
LINE
  8
L-ZISSEN
 10
119.5
 20
57.0
 30
0.0
 11
119.5
 21
64.0
 31
0.0
  0
LINE
  8
L-ZISSEN
 10
187.5
 20
102.0
 30
0.0
 11
187.5
 21
95.10868
 31
0.0
  0
LINE
  8
L-ZISSEN
 10
202.5
 20
102.0
 30
0.0
 11
202.5
 21
95.10868
 31
0.0
  0
LINE
  8
L-ZISSEN
 10
112.696699
 20
107.303301
 30
0.0
 11
123.0
 21
97.0
 31
0.0
  0
LINE
  8
L-ZISSEN
 10
112.696699
 20
107.303301
 30
0.0
 11
108.0
 21
107.303301
 31
0.0
  0
LINE
  8
L-TYUSIN
 10
185.0
 20
102.0
 30
0.0
 11
205.0
 21
102.0
 31
0.0
  0
ARC
  8
L-ZISSEN
 10
195.0
 20
96.732993
 30
0.0
 40
10.570308
 50
90.0
 51
106.32495
  0
ARC
  8
L-ZISSEN
 10
194.241497
 20
99.322686
 30
0.0
 40
7.87182
 50
106.32495
 51
125.26439
  0
ARC
  8
L-ZISSEN
 10
193.082007
 20
100.962451
 30
0.0
 40
5.863526
 50
125.26439
 51
149.638807
  0
ARC
  8
L-ZISSEN
 10
191.310801
 20
102.0
 30
0.0
 40
3.810801
 50
149.638807
 51
180.0
  0
ARC
  8
L-ZISSEN
 10
198.689199
 20
102.0
 30
0.0
 40
3.810801
 50
0.0
 51
30.361193
  0
ARC
  8
L-ZISSEN
 10
196.917993
 20
100.962451
 30
0.0
 40
5.863526
 50
30.361193
 51
54.73561
  0
ARC
  8
L-ZISSEN
 10
195.758503
 20
99.322686
 30
0.0
 40
7.87182
 50
54.73561
 51
73.67505
  0
ARC
  8
L-ZISSEN
 10
195.0
 20
96.732993
 30
0.0
 40
10.570308
 50
73.67505
 51
90.0
  0
LINE
  8
L-TYUSIN
 10
114.464466
 20
98.464466
 30
0.0
 11
121.535534
 21
105.535534
 31
0.0
  0
LINE
  8
L-TYUSIN
 10
195.0
 20
413.0
 30
0.0
 11
195.0
 21
305.0
 31
0.0
  0
CIRCLE
  8
L-ZISSEN
 10
195.0
 20
360.0
 30
0.0
 40
28.0
  0
LINE
  8
L-ZISSEN
 10
211.0
 20
310.0
 30
0.0
 11
179.0
 21
310.0
 31
0.0
  0
LINE
  8
L-ZISSEN
 10
211.0
 20
310.0
 30
0.0
 11
211.0
 21
337.021749
 31
0.0
  0
LINE
  8
L-ZISSEN
 10
179.0
 20
310.0
 30
0.0
 11
179.0
 21
337.021749
 31
0.0
  0
LINE
  8
L-TYUSIN
 10
185.0
 20
322.0
 30
0.0
 11
205.0
 21
322.0
 31
0.0
  0
LINE
  8
L-ZISSEN
 10
160.0
 20
415.0
 30
0.0
 11
160.0
 21
375.0
 31
0.0
  0
LINE
  8
L-ZISSEN
 10
168.0
 20
415.0
 30
0.0
 11
168.0
 21
375.0
 31
0.0
  0
LINE
  8
L-ZISSEN
 10
222.0
 20
415.0
 30
0.0
 11
222.0
 21
375.0
 31
0.0
  0
LINE
  8
L-ZISSEN
 10
230.0
 20
415.0
 30
0.0
 11
230.0
 21
375.0
 31
0.0
  0
LINE
  8
L-ZISSEN
 10
160.0
 20
415.0
 30
0.0
 11
168.0
 21
415.0
 31
0.0
  0
LINE
  8
L-ZISSEN
 10
160.0
 20
375.0
 30
0.0
 11
168.0
 21
375.0
 31
0.0
  0
LINE
  8
L-ZISSEN
 10
222.0
 20
415.0
 30
0.0
 11
230.0
 21
415.0
 31
0.0
  0
LINE
  8
L-ZISSEN
 10
222.0
 20
375.0
 30
0.0
 11
230.0
 21
375.0
 31
0.0
  0
LINE
  8
L-ZISSEN
 10
222.0
 20
408.0
 30
0.0
 11
168.0
 21
408.0
 31
0.0
  0
LINE
  8
L-TYUSIN
 10
155.0
 20
397.331538
 30
0.0
 11
195.0
 21
378.679232
 31
0.0
  0
LINE
  8
L-TYUSIN
 10
235.0
 20
397.331538
 30
0.0
 11
195.0
 21
378.679232
 31
0.0
  0
LINE
  8
L-ZISSEN
 10
168.0
 20
375.822248
 30
0.0
 11
171.000526
 21
374.42308
 31
0.0
  0
LINE
  8
L-ZISSEN
 10
222.0
 20
375.822248
 30
0.0
 11
218.999474
 21
374.42308
 31
0.0
  0
LINE
  8
L-ZISSEN
 10
168.0
 20
65.0
 30
0.0
 11
174.25
 21
65.0
 31
0.0
  0
LINE
  8
L-ZISSEN
 10
215.75
 20
65.0
 30
0.0
 11
222.0
 21
65.0
 31
0.0
  0
LINE
  8
L-TYUSIN
 10
160.0
 20
360.0
 30
0.0
 11
230.0
 21
360.0
 31
0.0
  0
LINE
  8
L-TYUSIN
 10
1160.0
 20
360.0
 30
0.0
 11
1230.0
 21
360.0
 31
0.0
  0
LINE
  8
L-ZISSEN
 10
1222.0
 20
375.822248
 30
0.0
 11
1218.999474
 21
374.42308
 31
0.0
  0
LINE
  8
L-ZISSEN
 10
1168.0
 20
375.822248
 30
0.0
 11
1171.000526
 21
374.42308
 31
0.0
  0
LINE
  8
L-TYUSIN
 10
1235.0
 20
397.331538
 30
0.0
 11
1195.0
 21
378.679232
 31
0.0
  0
LINE
  8
L-TYUSIN
 10
1155.0
 20
397.331538
 30
0.0
 11
1195.0
 21
378.679232
 31
0.0
  0
LINE
  8
L-ZISSEN
 10
1222.0
 20
408.0
 30
0.0
 11
1168.0
 21
408.0
 31
0.0
  0
LINE
  8
L-ZISSEN
 10
1222.0
 20
375.0
 30
0.0
 11
1230.0
 21
375.0
 31
0.0
  0
LINE
  8
L-ZISSEN
 10
1222.0
 20
415.0
 30
0.0
 11
1230.0
 21
415.0
 31
0.0
  0
LINE
  8
L-ZISSEN
 10
1160.0
 20
375.0
 30
0.0
 11
1168.0
 21
375.0
 31
0.0
  0
LINE
  8
L-ZISSEN
 10
1160.0
 20
415.0
 30
0.0
 11
1168.0
 21
415.0
 31
0.0
  0
LINE
  8
L-ZISSEN
 10
1230.0
 20
415.0
 30
0.0
 11
1230.0
 21
375.0
 31
0.0
  0
LINE
  8
L-ZISSEN
 10
1222.0
 20
415.0
 30
0.0
 11
1222.0
 21
375.0
 31
0.0
  0
LINE
  8
L-ZISSEN
 10
1168.0
 20
415.0
 30
0.0
 11
1168.0
 21
375.0
 31
0.0
  0
LINE
  8
L-ZISSEN
 10
1160.0
 20
415.0
 30
0.0
 11
1160.0
 21
375.0
 31
0.0
  0
LINE
  8
L-TYUSIN
 10
1185.0
 20
322.0
 30
0.0
 11
1205.0
 21
322.0
 31
0.0
  0
LINE
  8
L-ZISSEN
 10
1179.0
 20
310.0
 30
0.0
 11
1179.0
 21
337.021749
 31
0.0
  0
LINE
  8
L-ZISSEN
 10
1211.0
 20
310.0
 30
0.0
 11
1211.0
 21
337.021749
 31
0.0
  0
LINE
  8
L-ZISSEN
 10
1211.0
 20
310.0
 30
0.0
 11
1179.0
 21
310.0
 31
0.0
  0
CIRCLE
  8
L-ZISSEN
 10
1195.0
 20
360.0
 30
0.0
 40
28.0
  0
LINE
  8
L-TYUSIN
 10
1195.0
 20
413.0
 30
0.0
 11
1195.0
 21
305.0
 31
0.0
  0
LINE
  8
L-ZISSEN
 10
100.75
 20
41.9
 30
0.0
 11
59.25
 21
41.9
 31
0.0
  0
LINE
  8
L-ZISSEN
 10
215.75
 20
41.9
 30
0.0
 11
174.25
 21
41.9
 31
0.0
  0
LINE
  8
L-ZISSEN
 10
1215.75
 20
41.9
 30
0.0
 11
1174.25
 21
41.9
 31
0.0
  0
LINE
  8
L-ZISSEN
 10
1100.75
 20
41.9
 30
0.0
 11
1059.25
 21
41.9
 31
0.0
  0
LINE
  8
L-ZISSEN
 10
1215.75
 20
65.0
 30
0.0
 11
1222.0
 21
65.0
 31
0.0
  0
LINE
  8
L-ZISSEN
 10
1168.0
 20
65.0
 30
0.0
 11
1174.25
 21
65.0
 31
0.0
  0
LINE
  8
L-TYUSIN
 10
1114.464466
 20
98.464466
 30
0.0
 11
1121.535534
 21
105.535534
 31
0.0
  0
ARC
  8
L-ZISSEN
 10
1195.0
 20
96.732993
 30
0.0
 40
10.570308
 50
73.67505
 51
90.0
  0
ARC
  8
L-ZISSEN
 10
1195.758503
 20
99.322686
 30
0.0
 40
7.87182
 50
54.73561
 51
73.67505
  0
ARC
  8
L-ZISSEN
 10
1196.917993
 20
100.962451
 30
0.0
 40
5.863526
 50
30.361193
 51
54.73561
  0
ARC
  8
L-ZISSEN
 10
1198.689199
 20
102.0
 30
0.0
 40
3.810801
 50
0.0
 51
30.361193
  0
ARC
  8
L-ZISSEN
 10
1191.310801
 20
102.0
 30
0.0
 40
3.810801
 50
149.638807
 51
180.0
  0
ARC
  8
L-ZISSEN
 10
1193.082007
 20
100.962451
 30
0.0
 40
5.863526
 50
125.26439
 51
149.638807
  0
ARC
  8
L-ZISSEN
 10
1194.241497
 20
99.322686
 30
0.0
 40
7.87182
 50
106.32495
 51
125.26439
  0
ARC
  8
L-ZISSEN
 10
1195.0
 20
96.732993
 30
0.0
 40
10.570308
 50
90.0
 51
106.32495
  0
LINE
  8
L-TYUSIN
 10
1185.0
 20
102.0
 30
0.0
 11
1205.0
 21
102.0
 31
0.0
  0
LINE
  8
L-ZISSEN
 10
1112.696699
 20
107.303301
 30
0.0
 11
1108.0
 21
107.303301
 31
0.0
  0
LINE
  8
L-ZISSEN
 10
1112.696699
 20
107.303301
 30
0.0
 11
1123.0
 21
97.0
 31
0.0
  0
LINE
  8
L-ZISSEN
 10
1202.5
 20
102.0
 30
0.0
 11
1202.5
 21
95.10868
 31
0.0
  0
LINE
  8
L-ZISSEN
 10
1187.5
 20
102.0
 30
0.0
 11
1187.5
 21
95.10868
 31
0.0
  0
LINE
  8
L-ZISSEN
 10
1119.5
 20
57.0
 30
0.0
 11
1119.5
 21
64.0
 31
0.0
  0
LINE
  8
L-ZISSEN
 10
1130.0
 20
96.0
 30
0.0
 11
1108.0
 21
96.0
 31
0.0
  0
LINE
  8
L-ZISSEN
 10
1130.0
 20
64.0
 30
0.0
 11
1100.75
 21
64.0
 31
0.0
  0
LINE
  8
L-TYUSIN
 10
1111.0
 20
52.0
 30
0.0
 11
1111.0
 21
62.0
 31
0.0
  0
LINE
  8
L-ZISSEN
 10
1203.5
 20
57.0
 30
0.0
 11
1203.5
 21
65.149554
 31
0.0
  0
LINE
  8
L-ZISSEN
 10
1186.5
 20
57.0
 30
0.0
 11
1186.5
 21
65.149554
 31
0.0
  0
LINE
  8
L-ZISSEN
 10
1203.5
 20
57.0
 30
0.0
 11
1186.5
 21
57.0
 31
0.0
  0
ARC
  8
L-ZISSEN
 10
1195.0
 20
96.0
 30
0.0
 40
32.0
 50
240.0
 51
300.0
  0
ARC
  8
L-ZISSEN
 10
1195.0
 20
64.0
 30
0.0
 40
32.0
 50
60.0
 51
120.0
  0
LINE
  8
L-ZISSEN
 10
1211.0
 20
91.712813
 30
0.0
 11
1211.0
 21
68.287187
 31
0.0
  0
LINE
  8
L-ZISSEN
 10
1179.0
 20
91.712813
 30
0.0
 11
1179.0
 21
68.287187
 31
0.0
  0
LINE
  8
L-ZISSEN
 10
1119.5
 20
57.0
 30
0.0
 11
1100.75
 21
57.0
 31
0.0
  0
LINE
  8
L-ZISSEN
 10
1123.0
 20
97.0
 30
0.0
 11
1123.0
 21
96.0
 31
0.0
  0
LINE
  8
L-ZISSEN
 10
1130.0
 20
96.0
 30
0.0
 11
1130.0
 21
64.0
 31
0.0
  0
LINE
  8
L-TYUSIN
 10
1155.0
 20
80.0
 30
0.0
 11
1235.0
 21
80.0
 31
0.0
  0
LINE
  8
L-ZISSEN
 10
1032.5
 20
49.0
 30
0.0
 11
1025.0
 21
80.0
 31
0.0
  0
LINE
  8
L-ZISSEN
 10
1057.5
 20
49.0
 30
0.0
 11
1032.5
 21
49.0
 31
0.0
  0
LINE
  8
L-ZISSEN
 10
1057.5
 20
49.0
 30
0.0
 11
1065.0
 21
80.0
 31
0.0
  0
LINE
  8
L-ZISSEN
 10
1057.5
 20
111.0
 30
0.0
 11
1065.0
 21
80.0
 31
0.0
  0
LINE
  8
L-ZISSEN
 10
1032.5
 20
111.0
 30
0.0
 11
1025.0
 21
80.0
 31
0.0
  0
LINE
  8
L-ZISSEN
 10
1057.5
 20
111.0
 30
0.0
 11
1032.5
 21
111.0
 31
0.0
  0
LINE
  8
L-TYUSIN
 10
1045.0
 20
44.0
 30
0.0
 11
1045.0
 21
116.0
 31
0.0
  0
LINE
  8
L-ZISSEN
 10
1108.0
 20
114.7
 30
0.0
 11
1108.0
 21
96.0
 31
0.0
  0
LINE
  8
L-ZISSEN
 10
1108.0
 20
114.7
 30
0.0
 11
1052.0
 21
114.7
 31
0.0
  0
LINE
  8
L-ZISSEN
 10
1052.0
 20
114.7
 30
0.0
 11
1052.0
 21
111.0
 31
0.0
  0
LINE
  8
L-ZISSEN
 10
1100.75
 20
51.5
 30
0.0
 11
1059.25
 21
51.5
 31
0.0
  0
LINE
  8
L-ZISSEN
 10
1100.75
 20
41.9
 30
0.0
 11
1100.75
 21
64.0
 31
0.0
  0
LINE
  8
L-ZISSEN
 10
1059.25
 20
41.9
 30
0.0
 11
1059.25
 21
56.233333
 31
0.0
  0
LINE
  8
L-ZISSEN
 10
1222.0
 20
80.0
 30
0.0
 11
1222.0
 21
49.0
 31
0.0
  0
LINE
  8
L-ZISSEN
 10
1168.0
 20
80.0
 30
0.0
 11
1168.0
 21
49.0
 31
0.0
  0
LINE
  8
L-ZISSEN
 10
1223.0
 20
114.7
 30
0.0
 11
1167.0
 21
114.7
 31
0.0
  0
LINE
  8
L-ZISSEN
 10
1215.75
 20
41.9
 30
0.0
 11
1215.75
 21
80.0
 31
0.0
  0
LINE
  8
L-ZISSEN
 10
1174.25
 20
41.9
 30
0.0
 11
1174.25
 21
80.0
 31
0.0
  0
LINE
  8
L-ZISSEN
 10
1223.0
 20
114.7
 30
0.0
 11
1223.0
 21
80.0
 31
0.0
  0
LINE
  8
L-ZISSEN
 10
1230.0
 20
111.0
 30
0.0
 11
1230.0
 21
49.0
 31
0.0
  0
LINE
  8
L-ZISSEN
 10
1230.0
 20
49.0
 30
0.0
 11
1222.0
 21
49.0
 31
0.0
  0
LINE
  8
L-ZISSEN
 10
1230.0
 20
111.0
 30
0.0
 11
1223.0
 21
111.0
 31
0.0
  0
LINE
  8
L-ZISSEN
 10
1160.0
 20
111.0
 30
0.0
 11
1167.0
 21
111.0
 31
0.0
  0
LINE
  8
L-ZISSEN
 10
1160.0
 20
49.0
 30
0.0
 11
1168.0
 21
49.0
 31
0.0
  0
LINE
  8
L-ZISSEN
 10
1160.0
 20
111.0
 30
0.0
 11
1160.0
 21
49.0
 31
0.0
  0
LINE
  8
L-ZISSEN
 10
1167.0
 20
114.7
 30
0.0
 11
1167.0
 21
80.0
 31
0.0
  0
LINE
  8
L-ZISSEN
 10
1215.75
 20
51.5
 30
0.0
 11
1174.25
 21
51.5
 31
0.0
  0
LINE
  8
L-TYUSIN
 10
1195.0
 20
36.9
 30
0.0
 11
1195.0
 21
152.4
 31
0.0
  0
LINE
  8
L-TYUSIN
 10
1080.0
 20
36.9
 30
0.0
 11
1080.0
 21
152.4
 31
0.0
  0
LINE
  8
L-TYUSIN
 10
1020.0
 20
80.0
 30
0.0
 11
1135.0
 21
80.0
 31
0.0
  0
CIRCLE
  8
L-ZISSEN
 10
195.0
 20
80.0
 30
0.0
 40
9.3155
  0
ARC
  8
L-ZISSEN
 10
195.0
 20
98.992188
 30
0.0
 40
6.03635
 50
90.0
 51
106.32495
  0
ARC
  8
L-ZISSEN
 10
194.566844
 20
100.471075
 30
0.0
 40
4.495334
 50
106.32495
 51
125.26439
  0
ARC
  8
L-ZISSEN
 10
193.904698
 20
101.40749
 30
0.0
 40
3.348464
 50
125.26439
 51
149.638807
  0
ARC
  8
L-ZISSEN
 10
192.893221
 20
102.0
 30
0.0
 40
2.176221
 50
149.638807
 51
180.0
  0
ARC
  8
L-ZISSEN
 10
192.893221
 20
102.0
 30
0.0
 40
2.176221
 50
180.0
 51
210.361193
  0
ARC
  8
L-ZISSEN
 10
193.904698
 20
102.59251
 30
0.0
 40
3.348464
 50
210.361193
 51
234.73561
  0
ARC
  8
L-ZISSEN
 10
194.566844
 20
103.528925
 30
0.0
 40
4.495334
 50
234.73561
 51
253.67505
  0
ARC
  8
L-ZISSEN
 10
195.0
 20
105.007812
 30
0.0
 40
6.03635
 50
253.67505
 51
270.0
  0
ARC
  8
L-ZISSEN
 10
195.0
 20
105.007812
 30
0.0
 40
6.03635
 50
270.0
 51
286.32495
  0
ARC
  8
L-ZISSEN
 10
195.433156
 20
103.528925
 30
0.0
 40
4.495334
 50
286.32495
 51
305.26439
  0
ARC
  8
L-ZISSEN
 10
196.095302
 20
102.59251
 30
0.0
 40
3.348464
 50
305.26439
 51
329.638807
  0
ARC
  8
L-ZISSEN
 10
197.106779
 20
102.0
 30
0.0
 40
2.176221
 50
329.638807
 51
0.0
  0
ARC
  8
L-ZISSEN
 10
197.106779
 20
102.0
 30
0.0
 40
2.176221
 50
0.0
 51
30.361193
  0
ARC
  8
L-ZISSEN
 10
196.095302
 20
101.40749
 30
0.0
 40
3.348464
 50
30.361193
 51
54.73561
  0
ARC
  8
L-ZISSEN
 10
195.433156
 20
100.471075
 30
0.0
 40
4.495334
 50
54.73561
 51
73.67505
  0
ARC
  8
L-ZISSEN
 10
195.0
 20
98.992188
 30
0.0
 40
6.03635
 50
73.67505
 51
90.0
  0
ARC
  8
L-ZISSEN
 10
195.0
 20
318.992188
 30
0.0
 40
6.03635
 50
90.0
 51
106.32495
  0
ARC
  8
L-ZISSEN
 10
194.566844
 20
320.471075
 30
0.0
 40
4.495334
 50
106.32495
 51
125.26439
  0
ARC
  8
L-ZISSEN
 10
193.904698
 20
321.40749
 30
0.0
 40
3.348464
 50
125.26439
 51
149.638807
  0
ARC
  8
L-ZISSEN
 10
192.893221
 20
322.0
 30
0.0
 40
2.176221
 50
149.638807
 51
180.0
  0
ARC
  8
L-ZISSEN
 10
192.893221
 20
322.0
 30
0.0
 40
2.176221
 50
180.0
 51
210.361193
  0
ARC
  8
L-ZISSEN
 10
193.904698
 20
322.59251
 30
0.0
 40
3.348464
 50
210.361193
 51
234.73561
  0
ARC
  8
L-ZISSEN
 10
194.566844
 20
323.528925
 30
0.0
 40
4.495334
 50
234.73561
 51
253.67505
  0
ARC
  8
L-ZISSEN
 10
195.0
 20
325.007812
 30
0.0
 40
6.03635
 50
253.67505
 51
270.0
  0
ARC
  8
L-ZISSEN
 10
195.0
 20
325.007812
 30
0.0
 40
6.03635
 50
270.0
 51
286.32495
  0
ARC
  8
L-ZISSEN
 10
195.433156
 20
323.528925
 30
0.0
 40
4.495334
 50
286.32495
 51
305.26439
  0
ARC
  8
L-ZISSEN
 10
196.095302
 20
322.59251
 30
0.0
 40
3.348464
 50
305.26439
 51
329.638807
  0
ARC
  8
L-ZISSEN
 10
197.106779
 20
322.0
 30
0.0
 40
2.176221
 50
329.638807
 51
0.0
  0
ARC
  8
L-ZISSEN
 10
197.106779
 20
322.0
 30
0.0
 40
2.176221
 50
0.0
 51
30.361193
  0
ARC
  8
L-ZISSEN
 10
196.095302
 20
321.40749
 30
0.0
 40
3.348464
 50
30.361193
 51
54.73561
  0
ARC
  8
L-ZISSEN
 10
195.433156
 20
320.471075
 30
0.0
 40
4.495334
 50
54.73561
 51
73.67505
  0
ARC
  8
L-ZISSEN
 10
195.0
 20
318.992188
 30
0.0
 40
6.03635
 50
73.67505
 51
90.0
  0
ARC
  8
L-ZISSEN
 10
1195.0
 20
318.992188
 30
0.0
 40
6.03635
 50
73.67505
 51
90.0
  0
ARC
  8
L-ZISSEN
 10
1195.433156
 20
320.471075
 30
0.0
 40
4.495334
 50
54.73561
 51
73.67505
  0
ARC
  8
L-ZISSEN
 10
1196.095302
 20
321.40749
 30
0.0
 40
3.348464
 50
30.361193
 51
54.73561
  0
ARC
  8
L-ZISSEN
 10
1197.106779
 20
322.0
 30
0.0
 40
2.176221
 50
0.0
 51
30.361193
  0
ARC
  8
L-ZISSEN
 10
1197.106779
 20
322.0
 30
0.0
 40
2.176221
 50
329.638807
 51
0.0
  0
ARC
  8
L-ZISSEN
 10
1196.095302
 20
322.59251
 30
0.0
 40
3.348464
 50
305.26439
 51
329.638807
  0
ARC
  8
L-ZISSEN
 10
1195.433156
 20
323.528925
 30
0.0
 40
4.495334
 50
286.32495
 51
305.26439
  0
ARC
  8
L-ZISSEN
 10
1195.0
 20
325.007812
 30
0.0
 40
6.03635
 50
270.0
 51
286.32495
  0
ARC
  8
L-ZISSEN
 10
1195.0
 20
325.007812
 30
0.0
 40
6.03635
 50
253.67505
 51
270.0
  0
ARC
  8
L-ZISSEN
 10
1194.566844
 20
323.528925
 30
0.0
 40
4.495334
 50
234.73561
 51
253.67505
  0
ARC
  8
L-ZISSEN
 10
1193.904698
 20
322.59251
 30
0.0
 40
3.348464
 50
210.361193
 51
234.73561
  0
ARC
  8
L-ZISSEN
 10
1192.893221
 20
322.0
 30
0.0
 40
2.176221
 50
180.0
 51
210.361193
  0
ARC
  8
L-ZISSEN
 10
1192.893221
 20
322.0
 30
0.0
 40
2.176221
 50
149.638807
 51
180.0
  0
ARC
  8
L-ZISSEN
 10
1193.904698
 20
321.40749
 30
0.0
 40
3.348464
 50
125.26439
 51
149.638807
  0
ARC
  8
L-ZISSEN
 10
1194.566844
 20
320.471075
 30
0.0
 40
4.495334
 50
106.32495
 51
125.26439
  0
ARC
  8
L-ZISSEN
 10
1195.0
 20
318.992188
 30
0.0
 40
6.03635
 50
90.0
 51
106.32495
  0
ARC
  8
L-ZISSEN
 10
1195.0
 20
98.992188
 30
0.0
 40
6.03635
 50
73.67505
 51
90.0
  0
ARC
  8
L-ZISSEN
 10
1195.433156
 20
100.471075
 30
0.0
 40
4.495334
 50
54.73561
 51
73.67505
  0
ARC
  8
L-ZISSEN
 10
1196.095302
 20
101.40749
 30
0.0
 40
3.348464
 50
30.361193
 51
54.73561
  0
ARC
  8
L-ZISSEN
 10
1197.106779
 20
102.0
 30
0.0
 40
2.176221
 50
0.0
 51
30.361193
  0
ARC
  8
L-ZISSEN
 10
1197.106779
 20
102.0
 30
0.0
 40
2.176221
 50
329.638807
 51
0.0
  0
ARC
  8
L-ZISSEN
 10
1196.095302
 20
102.59251
 30
0.0
 40
3.348464
 50
305.26439
 51
329.638807
  0
ARC
  8
L-ZISSEN
 10
1195.433156
 20
103.528925
 30
0.0
 40
4.495334
 50
286.32495
 51
305.26439
  0
ARC
  8
L-ZISSEN
 10
1195.0
 20
105.007812
 30
0.0
 40
6.03635
 50
270.0
 51
286.32495
  0
ARC
  8
L-ZISSEN
 10
1195.0
 20
105.007812
 30
0.0
 40
6.03635
 50
253.67505
 51
270.0
  0
ARC
  8
L-ZISSEN
 10
1194.566844
 20
103.528925
 30
0.0
 40
4.495334
 50
234.73561
 51
253.67505
  0
ARC
  8
L-ZISSEN
 10
1193.904698
 20
102.59251
 30
0.0
 40
3.348464
 50
210.361193
 51
234.73561
  0
ARC
  8
L-ZISSEN
 10
1192.893221
 20
102.0
 30
0.0
 40
2.176221
 50
180.0
 51
210.361193
  0
ARC
  8
L-ZISSEN
 10
1192.893221
 20
102.0
 30
0.0
 40
2.176221
 50
149.638807
 51
180.0
  0
ARC
  8
L-ZISSEN
 10
1193.904698
 20
101.40749
 30
0.0
 40
3.348464
 50
125.26439
 51
149.638807
  0
ARC
  8
L-ZISSEN
 10
1194.566844
 20
100.471075
 30
0.0
 40
4.495334
 50
106.32495
 51
125.26439
  0
ARC
  8
L-ZISSEN
 10
1195.0
 20
98.992188
 30
0.0
 40
6.03635
 50
90.0
 51
106.32495
  0
CIRCLE
  8
L-ZISSEN
 10
1195.0
 20
80.0
 30
0.0
 40
9.3155
  0
LINE
  8
L-ZISSEN
 10
171.771513
 20
114.7
 30
0.0
 11
172.97084
 21
159.3
 31
0.0
  0
LINE
  8
L-ZISSEN
 10
217.02916
 20
159.3
 30
0.0
 11
218.228487
 21
114.7
 31
0.0
  0
LINE
  8
L-ZISSEN
 10
466.65
 20
174.1
 30
0.0
 11
468.247311
 21
114.7
 31
0.0
  0
LINE
  8
L-ZISSEN
 10
421.752689
 20
114.7
 30
0.0
 11
423.35
 21
174.1
 31
0.0
  0
LINE
  8
L-ZISSEN
 10
457.2
 20
177.9
 30
0.0
 11
457.2
 21
174.1
 31
0.0
  0
LINE
  8
L-ZISSEN
 10
432.8
 20
177.9
 30
0.0
 11
432.8
 21
174.1
 31
0.0
  0
LINE
  8
L-ZISSEN
 10
466.65
 20
174.1
 30
0.0
 11
423.35
 21
174.1
 31
0.0
  0
LINE
  8
L-ZISSEN
 10
457.2
 20
177.9
 30
0.0
 11
432.8
 21
177.9
 31
0.0
  0
CIRCLE
  8
L-ZISSEN
 10
695.0
 20
80.0
 30
0.0
 40
9.3155
  0
ARC
  8
L-ZISSEN
 10
695.0
 20
98.992188
 30
0.0
 40
6.03635
 50
90.0
 51
106.32495
  0
ARC
  8
L-ZISSEN
 10
694.566844
 20
100.471075
 30
0.0
 40
4.495334
 50
106.32495
 51
125.26439
  0
ARC
  8
L-ZISSEN
 10
693.904698
 20
101.40749
 30
0.0
 40
3.348464
 50
125.26439
 51
149.638807
  0
ARC
  8
L-ZISSEN
 10
692.893221
 20
102.0
 30
0.0
 40
2.176221
 50
149.638807
 51
180.0
  0
ARC
  8
L-ZISSEN
 10
692.893221
 20
102.0
 30
0.0
 40
2.176221
 50
180.0
 51
210.361193
  0
ARC
  8
L-ZISSEN
 10
693.904698
 20
102.59251
 30
0.0
 40
3.348464
 50
210.361193
 51
234.73561
  0
ARC
  8
L-ZISSEN
 10
694.566844
 20
103.528925
 30
0.0
 40
4.495334
 50
234.73561
 51
253.67505
  0
ARC
  8
L-ZISSEN
 10
695.0
 20
105.007812
 30
0.0
 40
6.03635
 50
253.67505
 51
270.0
  0
ARC
  8
L-ZISSEN
 10
695.0
 20
105.007812
 30
0.0
 40
6.03635
 50
270.0
 51
286.32495
  0
ARC
  8
L-ZISSEN
 10
695.433156
 20
103.528925
 30
0.0
 40
4.495334
 50
286.32495
 51
305.26439
  0
ARC
  8
L-ZISSEN
 10
696.095302
 20
102.59251
 30
0.0
 40
3.348464
 50
305.26439
 51
329.638807
  0
ARC
  8
L-ZISSEN
 10
697.106779
 20
102.0
 30
0.0
 40
2.176221
 50
329.638807
 51
0.0
  0
ARC
  8
L-ZISSEN
 10
697.106779
 20
102.0
 30
0.0
 40
2.176221
 50
0.0
 51
30.361193
  0
ARC
  8
L-ZISSEN
 10
696.095302
 20
101.40749
 30
0.0
 40
3.348464
 50
30.361193
 51
54.73561
  0
ARC
  8
L-ZISSEN
 10
695.433156
 20
100.471075
 30
0.0
 40
4.495334
 50
54.73561
 51
73.67505
  0
ARC
  8
L-ZISSEN
 10
695.0
 20
98.992188
 30
0.0
 40
6.03635
 50
73.67505
 51
90.0
  0
ARC
  8
L-ZISSEN
 10
695.0
 20
318.992188
 30
0.0
 40
6.03635
 50
90.0
 51
106.32495
  0
ARC
  8
L-ZISSEN
 10
694.566844
 20
320.471075
 30
0.0
 40
4.495334
 50
106.32495
 51
125.26439
  0
ARC
  8
L-ZISSEN
 10
693.904698
 20
321.40749
 30
0.0
 40
3.348464
 50
125.26439
 51
149.638807
  0
ARC
  8
L-ZISSEN
 10
692.893221
 20
322.0
 30
0.0
 40
2.176221
 50
149.638807
 51
180.0
  0
ARC
  8
L-ZISSEN
 10
692.893221
 20
322.0
 30
0.0
 40
2.176221
 50
180.0
 51
210.361193
  0
ARC
  8
L-ZISSEN
 10
693.904698
 20
322.59251
 30
0.0
 40
3.348464
 50
210.361193
 51
234.73561
  0
ARC
  8
L-ZISSEN
 10
694.566844
 20
323.528925
 30
0.0
 40
4.495334
 50
234.73561
 51
253.67505
  0
ARC
  8
L-ZISSEN
 10
695.0
 20
325.007812
 30
0.0
 40
6.03635
 50
253.67505
 51
270.0
  0
ARC
  8
L-ZISSEN
 10
695.0
 20
325.007812
 30
0.0
 40
6.03635
 50
270.0
 51
286.32495
  0
ARC
  8
L-ZISSEN
 10
695.433156
 20
323.528925
 30
0.0
 40
4.495334
 50
286.32495
 51
305.26439
  0
ARC
  8
L-ZISSEN
 10
696.095302
 20
322.59251
 30
0.0
 40
3.348464
 50
305.26439
 51
329.638807
  0
ARC
  8
L-ZISSEN
 10
697.106779
 20
322.0
 30
0.0
 40
2.176221
 50
329.638807
 51
0.0
  0
ARC
  8
L-ZISSEN
 10
697.106779
 20
322.0
 30
0.0
 40
2.176221
 50
0.0
 51
30.361193
  0
ARC
  8
L-ZISSEN
 10
696.095302
 20
321.40749
 30
0.0
 40
3.348464
 50
30.361193
 51
54.73561
  0
ARC
  8
L-ZISSEN
 10
695.433156
 20
320.471075
 30
0.0
 40
4.495334
 50
54.73561
 51
73.67505
  0
ARC
  8
L-ZISSEN
 10
695.0
 20
318.992188
 30
0.0
 40
6.03635
 50
73.67505
 51
90.0
  0
ARC
  8
L-ZISSEN
 10
445.0
 20
318.992188
 30
0.0
 40
6.03635
 50
73.67505
 51
90.0
  0
ARC
  8
L-ZISSEN
 10
445.433156
 20
320.471075
 30
0.0
 40
4.495334
 50
54.73561
 51
73.67505
  0
ARC
  8
L-ZISSEN
 10
446.095302
 20
321.40749
 30
0.0
 40
3.348464
 50
30.361193
 51
54.73561
  0
ARC
  8
L-ZISSEN
 10
447.106779
 20
322.0
 30
0.0
 40
2.176221
 50
0.0
 51
30.361193
  0
ARC
  8
L-ZISSEN
 10
447.106779
 20
322.0
 30
0.0
 40
2.176221
 50
329.638807
 51
0.0
  0
ARC
  8
L-ZISSEN
 10
446.095302
 20
322.59251
 30
0.0
 40
3.348464
 50
305.26439
 51
329.638807
  0
ARC
  8
L-ZISSEN
 10
445.433156
 20
323.528925
 30
0.0
 40
4.495334
 50
286.32495
 51
305.26439
  0
ARC
  8
L-ZISSEN
 10
445.0
 20
325.007812
 30
0.0
 40
6.03635
 50
270.0
 51
286.32495
  0
ARC
  8
L-ZISSEN
 10
445.0
 20
325.007812
 30
0.0
 40
6.03635
 50
253.67505
 51
270.0
  0
ARC
  8
L-ZISSEN
 10
444.566844
 20
323.528925
 30
0.0
 40
4.495334
 50
234.73561
 51
253.67505
  0
ARC
  8
L-ZISSEN
 10
443.904698
 20
322.59251
 30
0.0
 40
3.348464
 50
210.361193
 51
234.73561
  0
ARC
  8
L-ZISSEN
 10
442.893221
 20
322.0
 30
0.0
 40
2.176221
 50
180.0
 51
210.361193
  0
ARC
  8
L-ZISSEN
 10
442.893221
 20
322.0
 30
0.0
 40
2.176221
 50
149.638807
 51
180.0
  0
ARC
  8
L-ZISSEN
 10
443.904698
 20
321.40749
 30
0.0
 40
3.348464
 50
125.26439
 51
149.638807
  0
ARC
  8
L-ZISSEN
 10
444.566844
 20
320.471075
 30
0.0
 40
4.495334
 50
106.32495
 51
125.26439
  0
ARC
  8
L-ZISSEN
 10
445.0
 20
318.992188
 30
0.0
 40
6.03635
 50
90.0
 51
106.32495
  0
ARC
  8
L-ZISSEN
 10
445.0
 20
98.992188
 30
0.0
 40
6.03635
 50
73.67505
 51
90.0
  0
ARC
  8
L-ZISSEN
 10
445.433156
 20
100.471075
 30
0.0
 40
4.495334
 50
54.73561
 51
73.67505
  0
ARC
  8
L-ZISSEN
 10
446.095302
 20
101.40749
 30
0.0
 40
3.348464
 50
30.361193
 51
54.73561
  0
ARC
  8
L-ZISSEN
 10
447.106779
 20
102.0
 30
0.0
 40
2.176221
 50
0.0
 51
30.361193
  0
ARC
  8
L-ZISSEN
 10
447.106779
 20
102.0
 30
0.0
 40
2.176221
 50
329.638807
 51
0.0
  0
ARC
  8
L-ZISSEN
 10
446.095302
 20
102.59251
 30
0.0
 40
3.348464
 50
305.26439
 51
329.638807
  0
ARC
  8
L-ZISSEN
 10
445.433156
 20
103.528925
 30
0.0
 40
4.495334
 50
286.32495
 51
305.26439
  0
ARC
  8
L-ZISSEN
 10
445.0
 20
105.007812
 30
0.0
 40
6.03635
 50
270.0
 51
286.32495
  0
ARC
  8
L-ZISSEN
 10
445.0
 20
105.007812
 30
0.0
 40
6.03635
 50
253.67505
 51
270.0
  0
ARC
  8
L-ZISSEN
 10
444.566844
 20
103.528925
 30
0.0
 40
4.495334
 50
234.73561
 51
253.67505
  0
ARC
  8
L-ZISSEN
 10
443.904698
 20
102.59251
 30
0.0
 40
3.348464
 50
210.361193
 51
234.73561
  0
ARC
  8
L-ZISSEN
 10
442.893221
 20
102.0
 30
0.0
 40
2.176221
 50
180.0
 51
210.361193
  0
ARC
  8
L-ZISSEN
 10
442.893221
 20
102.0
 30
0.0
 40
2.176221
 50
149.638807
 51
180.0
  0
ARC
  8
L-ZISSEN
 10
443.904698
 20
101.40749
 30
0.0
 40
3.348464
 50
125.26439
 51
149.638807
  0
ARC
  8
L-ZISSEN
 10
444.566844
 20
100.471075
 30
0.0
 40
4.495334
 50
106.32495
 51
125.26439
  0
ARC
  8
L-ZISSEN
 10
445.0
 20
98.992188
 30
0.0
 40
6.03635
 50
90.0
 51
106.32495
  0
CIRCLE
  8
L-ZISSEN
 10
445.0
 20
80.0
 30
0.0
 40
9.3155
  0
LINE
  8
L-TYUSIN
 10
520.0
 20
80.0
 30
0.0
 11
635.0
 21
80.0
 31
0.0
  0
LINE
  8
L-TYUSIN
 10
580.0
 20
36.9
 30
0.0
 11
580.0
 21
242.0
 31
0.0
  0
LINE
  8
L-TYUSIN
 10
695.0
 20
36.9
 30
0.0
 11
695.0
 21
242.0
 31
0.0
  0
LINE
  8
L-ZISSEN
 10
715.75
 20
51.5
 30
0.0
 11
674.25
 21
51.5
 31
0.0
  0
LINE
  8
L-ZISSEN
 10
667.0
 20
114.7
 30
0.0
 11
667.0
 21
80.0
 31
0.0
  0
LINE
  8
L-ZISSEN
 10
660.0
 20
111.0
 30
0.0
 11
660.0
 21
49.0
 31
0.0
  0
LINE
  8
L-ZISSEN
 10
660.0
 20
49.0
 30
0.0
 11
668.0
 21
49.0
 31
0.0
  0
LINE
  8
L-ZISSEN
 10
660.0
 20
111.0
 30
0.0
 11
667.0
 21
111.0
 31
0.0
  0
LINE
  8
L-ZISSEN
 10
730.0
 20
111.0
 30
0.0
 11
723.0
 21
111.0
 31
0.0
  0
LINE
  8
L-ZISSEN
 10
730.0
 20
49.0
 30
0.0
 11
722.0
 21
49.0
 31
0.0
  0
LINE
  8
L-ZISSEN
 10
730.0
 20
111.0
 30
0.0
 11
730.0
 21
49.0
 31
0.0
  0
LINE
  8
L-ZISSEN
 10
723.0
 20
114.7
 30
0.0
 11
723.0
 21
80.0
 31
0.0
  0
LINE
  8
L-ZISSEN
 10
674.25
 20
41.9
 30
0.0
 11
674.25
 21
80.0
 31
0.0
  0
LINE
  8
L-ZISSEN
 10
715.75
 20
41.9
 30
0.0
 11
715.75
 21
80.0
 31
0.0
  0
LINE
  8
L-ZISSEN
 10
723.0
 20
114.7
 30
0.0
 11
667.0
 21
114.7
 31
0.0
  0
LINE
  8
L-ZISSEN
 10
668.0
 20
80.0
 30
0.0
 11
668.0
 21
49.0
 31
0.0
  0
LINE
  8
L-ZISSEN
 10
722.0
 20
80.0
 30
0.0
 11
722.0
 21
49.0
 31
0.0
  0
LINE
  8
L-ZISSEN
 10
559.25
 20
41.9
 30
0.0
 11
559.25
 21
56.233333
 31
0.0
  0
LINE
  8
L-ZISSEN
 10
600.75
 20
41.9
 30
0.0
 11
600.75
 21
64.0
 31
0.0
  0
LINE
  8
L-ZISSEN
 10
600.75
 20
51.5
 30
0.0
 11
559.25
 21
51.5
 31
0.0
  0
LINE
  8
L-ZISSEN
 10
552.0
 20
114.7
 30
0.0
 11
552.0
 21
111.0
 31
0.0
  0
LINE
  8
L-ZISSEN
 10
608.0
 20
114.7
 30
0.0
 11
552.0
 21
114.7
 31
0.0
  0
LINE
  8
L-ZISSEN
 10
608.0
 20
114.7
 30
0.0
 11
608.0
 21
96.0
 31
0.0
  0
LINE
  8
L-TYUSIN
 10
545.0
 20
44.0
 30
0.0
 11
545.0
 21
116.0
 31
0.0
  0
LINE
  8
L-ZISSEN
 10
557.5
 20
111.0
 30
0.0
 11
532.5
 21
111.0
 31
0.0
  0
LINE
  8
L-ZISSEN
 10
532.5
 20
111.0
 30
0.0
 11
525.0
 21
80.0
 31
0.0
  0
LINE
  8
L-ZISSEN
 10
557.5
 20
111.0
 30
0.0
 11
565.0
 21
80.0
 31
0.0
  0
LINE
  8
L-ZISSEN
 10
557.5
 20
49.0
 30
0.0
 11
565.0
 21
80.0
 31
0.0
  0
LINE
  8
L-ZISSEN
 10
557.5
 20
49.0
 30
0.0
 11
532.5
 21
49.0
 31
0.0
  0
LINE
  8
L-ZISSEN
 10
532.5
 20
49.0
 30
0.0
 11
525.0
 21
80.0
 31
0.0
  0
LINE
  8
L-TYUSIN
 10
655.0
 20
80.0
 30
0.0
 11
735.0
 21
80.0
 31
0.0
  0
LINE
  8
L-ZISSEN
 10
630.0
 20
96.0
 30
0.0
 11
630.0
 21
64.0
 31
0.0
  0
LINE
  8
L-ZISSEN
 10
623.0
 20
97.0
 30
0.0
 11
623.0
 21
96.0
 31
0.0
  0
LINE
  8
L-ZISSEN
 10
619.5
 20
57.0
 30
0.0
 11
600.75
 21
57.0
 31
0.0
  0
LINE
  8
L-ZISSEN
 10
679.0
 20
91.712813
 30
0.0
 11
679.0
 21
68.287187
 31
0.0
  0
LINE
  8
L-ZISSEN
 10
711.0
 20
91.712813
 30
0.0
 11
711.0
 21
68.287187
 31
0.0
  0
ARC
  8
L-ZISSEN
 10
695.0
 20
64.0
 30
0.0
 40
32.0
 50
60.0
 51
120.0
  0
ARC
  8
L-ZISSEN
 10
695.0
 20
96.0
 30
0.0
 40
32.0
 50
240.0
 51
300.0
  0
LINE
  8
L-ZISSEN
 10
703.5
 20
57.0
 30
0.0
 11
686.5
 21
57.0
 31
0.0
  0
LINE
  8
L-ZISSEN
 10
686.5
 20
57.0
 30
0.0
 11
686.5
 21
65.149554
 31
0.0
  0
LINE
  8
L-ZISSEN
 10
703.5
 20
57.0
 30
0.0
 11
703.5
 21
65.149554
 31
0.0
  0
LINE
  8
L-TYUSIN
 10
611.0
 20
52.0
 30
0.0
 11
611.0
 21
62.0
 31
0.0
  0
LINE
  8
L-ZISSEN
 10
630.0
 20
64.0
 30
0.0
 11
600.75
 21
64.0
 31
0.0
  0
LINE
  8
L-ZISSEN
 10
630.0
 20
96.0
 30
0.0
 11
608.0
 21
96.0
 31
0.0
  0
LINE
  8
L-ZISSEN
 10
619.5
 20
57.0
 30
0.0
 11
619.5
 21
64.0
 31
0.0
  0
LINE
  8
L-ZISSEN
 10
687.5
 20
102.0
 30
0.0
 11
687.5
 21
95.10868
 31
0.0
  0
LINE
  8
L-ZISSEN
 10
702.5
 20
102.0
 30
0.0
 11
702.5
 21
95.10868
 31
0.0
  0
LINE
  8
L-ZISSEN
 10
612.696699
 20
107.303301
 30
0.0
 11
623.0
 21
97.0
 31
0.0
  0
LINE
  8
L-ZISSEN
 10
612.696699
 20
107.303301
 30
0.0
 11
608.0
 21
107.303301
 31
0.0
  0
LINE
  8
L-TYUSIN
 10
685.0
 20
102.0
 30
0.0
 11
705.0
 21
102.0
 31
0.0
  0
ARC
  8
L-ZISSEN
 10
695.0
 20
96.732993
 30
0.0
 40
10.570308
 50
90.0
 51
106.32495
  0
ARC
  8
L-ZISSEN
 10
694.241497
 20
99.322686
 30
0.0
 40
7.87182
 50
106.32495
 51
125.26439
  0
ARC
  8
L-ZISSEN
 10
693.082007
 20
100.962451
 30
0.0
 40
5.863526
 50
125.26439
 51
149.638807
  0
ARC
  8
L-ZISSEN
 10
691.310801
 20
102.0
 30
0.0
 40
3.810801
 50
149.638807
 51
180.0
  0
ARC
  8
L-ZISSEN
 10
698.689199
 20
102.0
 30
0.0
 40
3.810801
 50
0.0
 51
30.361193
  0
ARC
  8
L-ZISSEN
 10
696.917993
 20
100.962451
 30
0.0
 40
5.863526
 50
30.361193
 51
54.73561
  0
ARC
  8
L-ZISSEN
 10
695.758503
 20
99.322686
 30
0.0
 40
7.87182
 50
54.73561
 51
73.67505
  0
ARC
  8
L-ZISSEN
 10
695.0
 20
96.732993
 30
0.0
 40
10.570308
 50
73.67505
 51
90.0
  0
LINE
  8
L-TYUSIN
 10
614.464466
 20
98.464466
 30
0.0
 11
621.535534
 21
105.535534
 31
0.0
  0
LINE
  8
L-ZISSEN
 10
668.0
 20
65.0
 30
0.0
 11
674.25
 21
65.0
 31
0.0
  0
LINE
  8
L-ZISSEN
 10
715.75
 20
65.0
 30
0.0
 11
722.0
 21
65.0
 31
0.0
  0
LINE
  8
L-ZISSEN
 10
600.75
 20
41.9
 30
0.0
 11
559.25
 21
41.9
 31
0.0
  0
LINE
  8
L-ZISSEN
 10
715.75
 20
41.9
 30
0.0
 11
674.25
 21
41.9
 31
0.0
  0
LINE
  8
L-ZISSEN
 10
465.75
 20
41.9
 30
0.0
 11
424.25
 21
41.9
 31
0.0
  0
LINE
  8
L-ZISSEN
 10
350.75
 20
41.9
 30
0.0
 11
309.25
 21
41.9
 31
0.0
  0
LINE
  8
L-TYUSIN
 10
695.0
 20
413.0
 30
0.0
 11
695.0
 21
305.0
 31
0.0
  0
LINE
  8
L-ZISSEN
 10
711.0
 20
310.0
 30
0.0
 11
679.0
 21
310.0
 31
0.0
  0
LINE
  8
L-ZISSEN
 10
711.0
 20
310.0
 30
0.0
 11
711.0
 21
335.813227
 31
0.0
  0
LINE
  8
L-ZISSEN
 10
679.0
 20
310.0
 30
0.0
 11
679.0
 21
335.813227
 31
0.0
  0
LINE
  8
L-TYUSIN
 10
685.0
 20
322.0
 30
0.0
 11
705.0
 21
322.0
 31
0.0
  0
LINE
  8
L-ZISSEN
 10
660.0
 20
415.0
 30
0.0
 11
660.0
 21
375.0
 31
0.0
  0
LINE
  8
L-ZISSEN
 10
668.0
 20
415.0
 30
0.0
 11
668.0
 21
375.0
 31
0.0
  0
LINE
  8
L-ZISSEN
 10
722.0
 20
415.0
 30
0.0
 11
722.0
 21
375.0
 31
0.0
  0
LINE
  8
L-ZISSEN
 10
730.0
 20
415.0
 30
0.0
 11
730.0
 21
375.0
 31
0.0
  0
LINE
  8
L-ZISSEN
 10
660.0
 20
415.0
 30
0.0
 11
668.0
 21
415.0
 31
0.0
  0
LINE
  8
L-ZISSEN
 10
660.0
 20
375.0
 30
0.0
 11
668.0
 21
375.0
 31
0.0
  0
LINE
  8
L-ZISSEN
 10
722.0
 20
415.0
 30
0.0
 11
730.0
 21
415.0
 31
0.0
  0
LINE
  8
L-ZISSEN
 10
722.0
 20
375.0
 30
0.0
 11
730.0
 21
375.0
 31
0.0
  0
LINE
  8
L-ZISSEN
 10
722.0
 20
408.0
 30
0.0
 11
668.0
 21
408.0
 31
0.0
  0
LINE
  8
L-TYUSIN
 10
655.0
 20
397.331538
 30
0.0
 11
695.0
 21
378.679232
 31
0.0
  0
LINE
  8
L-TYUSIN
 10
735.0
 20
397.331538
 30
0.0
 11
695.0
 21
378.679232
 31
0.0
  0
LINE
  8
L-ZISSEN
 10
668.0
 20
375.822248
 30
0.0
 11
670.089391
 21
374.847949
 31
0.0
  0
LINE
  8
L-ZISSEN
 10
722.0
 20
375.822248
 30
0.0
 11
719.910609
 21
374.847949
 31
0.0
  0
LINE
  8
L-TYUSIN
 10
660.0
 20
360.0
 30
0.0
 11
730.0
 21
360.0
 31
0.0
  0
LINE
  8
L-TYUSIN
 10
405.0
 20
360.0
 30
0.0
 11
485.0
 21
360.0
 31
0.0
  0
LINE
  8
L-ZISSEN
 10
465.75
 20
65.0
 30
0.0
 11
472.0
 21
65.0
 31
0.0
  0
LINE
  8
L-ZISSEN
 10
418.0
 20
65.0
 30
0.0
 11
424.25
 21
65.0
 31
0.0
  0
LINE
  8
L-ZISSEN
 10
472.0
 20
375.822248
 30
0.0
 11
468.999474
 21
374.42308
 31
0.0
  0
LINE
  8
L-ZISSEN
 10
418.0
 20
375.822248
 30
0.0
 11
421.000526
 21
374.42308
 31
0.0
  0
LINE
  8
L-TYUSIN
 10
485.0
 20
397.331538
 30
0.0
 11
445.0
 21
378.679232
 31
0.0
  0
LINE
  8
L-TYUSIN
 10
405.0
 20
397.331538
 30
0.0
 11
445.0
 21
378.679232
 31
0.0
  0
LINE
  8
L-ZISSEN
 10
472.0
 20
408.0
 30
0.0
 11
418.0
 21
408.0
 31
0.0
  0
LINE
  8
L-ZISSEN
 10
472.0
 20
375.0
 30
0.0
 11
480.0
 21
375.0
 31
0.0
  0
LINE
  8
L-ZISSEN
 10
472.0
 20
415.0
 30
0.0
 11
480.0
 21
415.0
 31
0.0
  0
LINE
  8
L-ZISSEN
 10
410.0
 20
375.0
 30
0.0
 11
418.0
 21
375.0
 31
0.0
  0
LINE
  8
L-ZISSEN
 10
410.0
 20
415.0
 30
0.0
 11
418.0
 21
415.0
 31
0.0
  0
LINE
  8
L-ZISSEN
 10
480.0
 20
415.0
 30
0.0
 11
480.0
 21
375.0
 31
0.0
  0
LINE
  8
L-ZISSEN
 10
472.0
 20
415.0
 30
0.0
 11
472.0
 21
375.0
 31
0.0
  0
LINE
  8
L-ZISSEN
 10
418.0
 20
415.0
 30
0.0
 11
418.0
 21
375.0
 31
0.0
  0
LINE
  8
L-ZISSEN
 10
410.0
 20
415.0
 30
0.0
 11
410.0
 21
375.0
 31
0.0
  0
LINE
  8
L-TYUSIN
 10
435.0
 20
322.0
 30
0.0
 11
455.0
 21
322.0
 31
0.0
  0
LINE
  8
L-ZISSEN
 10
429.0
 20
310.0
 30
0.0
 11
429.0
 21
337.021749
 31
0.0
  0
LINE
  8
L-ZISSEN
 10
461.0
 20
310.0
 30
0.0
 11
461.0
 21
337.021749
 31
0.0
  0
LINE
  8
L-ZISSEN
 10
461.0
 20
310.0
 30
0.0
 11
429.0
 21
310.0
 31
0.0
  0
ARC
  8
L-ZISSEN
 10
445.0
 20
360.0
 30
0.0
 40
28.0
 50
6.15064
 51
173.84936
  0
LINE
  8
L-TYUSIN
 10
445.0
 20
413.0
 30
0.0
 11
445.0
 21
305.0
 31
0.0
  0
LINE
  8
L-TYUSIN
 10
364.464466
 20
98.464466
 30
0.0
 11
371.535534
 21
105.535534
 31
0.0
  0
ARC
  8
L-ZISSEN
 10
445.0
 20
96.732993
 30
0.0
 40
10.570308
 50
73.67505
 51
90.0
  0
ARC
  8
L-ZISSEN
 10
445.758503
 20
99.322686
 30
0.0
 40
7.87182
 50
54.73561
 51
73.67505
  0
ARC
  8
L-ZISSEN
 10
446.917993
 20
100.962451
 30
0.0
 40
5.863526
 50
30.361193
 51
54.73561
  0
ARC
  8
L-ZISSEN
 10
448.689199
 20
102.0
 30
0.0
 40
3.810801
 50
0.0
 51
30.361193
  0
ARC
  8
L-ZISSEN
 10
441.310801
 20
102.0
 30
0.0
 40
3.810801
 50
149.638807
 51
180.0
  0
ARC
  8
L-ZISSEN
 10
443.082007
 20
100.962451
 30
0.0
 40
5.863526
 50
125.26439
 51
149.638807
  0
ARC
  8
L-ZISSEN
 10
444.241497
 20
99.322686
 30
0.0
 40
7.87182
 50
106.32495
 51
125.26439
  0
ARC
  8
L-ZISSEN
 10
445.0
 20
96.732993
 30
0.0
 40
10.570308
 50
90.0
 51
106.32495
  0
LINE
  8
L-TYUSIN
 10
435.0
 20
102.0
 30
0.0
 11
455.0
 21
102.0
 31
0.0
  0
LINE
  8
L-ZISSEN
 10
362.696699
 20
107.303301
 30
0.0
 11
358.0
 21
107.303301
 31
0.0
  0
LINE
  8
L-ZISSEN
 10
362.696699
 20
107.303301
 30
0.0
 11
373.0
 21
97.0
 31
0.0
  0
LINE
  8
L-ZISSEN
 10
452.5
 20
102.0
 30
0.0
 11
452.5
 21
95.10868
 31
0.0
  0
LINE
  8
L-ZISSEN
 10
437.5
 20
102.0
 30
0.0
 11
437.5
 21
95.10868
 31
0.0
  0
LINE
  8
L-ZISSEN
 10
369.5
 20
57.0
 30
0.0
 11
369.5
 21
64.0
 31
0.0
  0
LINE
  8
L-ZISSEN
 10
380.0
 20
96.0
 30
0.0
 11
358.0
 21
96.0
 31
0.0
  0
LINE
  8
L-ZISSEN
 10
380.0
 20
64.0
 30
0.0
 11
350.75
 21
64.0
 31
0.0
  0
LINE
  8
L-TYUSIN
 10
361.0
 20
52.0
 30
0.0
 11
361.0
 21
62.0
 31
0.0
  0
LINE
  8
L-ZISSEN
 10
453.5
 20
57.0
 30
0.0
 11
453.5
 21
65.149554
 31
0.0
  0
LINE
  8
L-ZISSEN
 10
436.5
 20
57.0
 30
0.0
 11
436.5
 21
65.149554
 31
0.0
  0
LINE
  8
L-ZISSEN
 10
453.5
 20
57.0
 30
0.0
 11
436.5
 21
57.0
 31
0.0
  0
ARC
  8
L-ZISSEN
 10
445.0
 20
96.0
 30
0.0
 40
32.0
 50
240.0
 51
300.0
  0
ARC
  8
L-ZISSEN
 10
445.0
 20
64.0
 30
0.0
 40
32.0
 50
60.0
 51
120.0
  0
LINE
  8
L-ZISSEN
 10
461.0
 20
91.712813
 30
0.0
 11
461.0
 21
68.287187
 31
0.0
  0
LINE
  8
L-ZISSEN
 10
429.0
 20
91.712813
 30
0.0
 11
429.0
 21
68.287187
 31
0.0
  0
LINE
  8
L-ZISSEN
 10
369.5
 20
57.0
 30
0.0
 11
350.75
 21
57.0
 31
0.0
  0
LINE
  8
L-ZISSEN
 10
373.0
 20
97.0
 30
0.0
 11
373.0
 21
96.0
 31
0.0
  0
LINE
  8
L-ZISSEN
 10
380.0
 20
96.0
 30
0.0
 11
380.0
 21
64.0
 31
0.0
  0
LINE
  8
L-TYUSIN
 10
405.0
 20
80.0
 30
0.0
 11
485.0
 21
80.0
 31
0.0
  0
LINE
  8
L-ZISSEN
 10
282.5
 20
49.0
 30
0.0
 11
275.0
 21
80.0
 31
0.0
  0
LINE
  8
L-ZISSEN
 10
307.5
 20
49.0
 30
0.0
 11
282.5
 21
49.0
 31
0.0
  0
LINE
  8
L-ZISSEN
 10
307.5
 20
49.0
 30
0.0
 11
315.0
 21
80.0
 31
0.0
  0
LINE
  8
L-ZISSEN
 10
307.5
 20
111.0
 30
0.0
 11
315.0
 21
80.0
 31
0.0
  0
LINE
  8
L-ZISSEN
 10
282.5
 20
111.0
 30
0.0
 11
275.0
 21
80.0
 31
0.0
  0
LINE
  8
L-ZISSEN
 10
307.5
 20
111.0
 30
0.0
 11
282.5
 21
111.0
 31
0.0
  0
LINE
  8
L-TYUSIN
 10
295.0
 20
44.0
 30
0.0
 11
295.0
 21
116.0
 31
0.0
  0
LINE
  8
L-ZISSEN
 10
358.0
 20
114.7
 30
0.0
 11
358.0
 21
96.0
 31
0.0
  0
LINE
  8
L-ZISSEN
 10
358.0
 20
114.7
 30
0.0
 11
302.0
 21
114.7
 31
0.0
  0
LINE
  8
L-ZISSEN
 10
302.0
 20
114.7
 30
0.0
 11
302.0
 21
111.0
 31
0.0
  0
LINE
  8
L-ZISSEN
 10
350.75
 20
51.5
 30
0.0
 11
309.25
 21
51.5
 31
0.0
  0
LINE
  8
L-ZISSEN
 10
350.75
 20
41.9
 30
0.0
 11
350.75
 21
64.0
 31
0.0
  0
LINE
  8
L-ZISSEN
 10
309.25
 20
41.9
 30
0.0
 11
309.25
 21
56.233333
 31
0.0
  0
LINE
  8
L-ZISSEN
 10
472.0
 20
80.0
 30
0.0
 11
472.0
 21
49.0
 31
0.0
  0
LINE
  8
L-ZISSEN
 10
418.0
 20
80.0
 30
0.0
 11
418.0
 21
49.0
 31
0.0
  0
LINE
  8
L-ZISSEN
 10
473.0
 20
114.7
 30
0.0
 11
417.0
 21
114.7
 31
0.0
  0
LINE
  8
L-ZISSEN
 10
465.75
 20
41.9
 30
0.0
 11
465.75
 21
80.0
 31
0.0
  0
LINE
  8
L-ZISSEN
 10
424.25
 20
41.9
 30
0.0
 11
424.25
 21
80.0
 31
0.0
  0
LINE
  8
L-ZISSEN
 10
473.0
 20
114.7
 30
0.0
 11
473.0
 21
80.0
 31
0.0
  0
LINE
  8
L-ZISSEN
 10
480.0
 20
111.0
 30
0.0
 11
480.0
 21
49.0
 31
0.0
  0
LINE
  8
L-ZISSEN
 10
480.0
 20
49.0
 30
0.0
 11
472.0
 21
49.0
 31
0.0
  0
LINE
  8
L-ZISSEN
 10
480.0
 20
111.0
 30
0.0
 11
473.0
 21
111.0
 31
0.0
  0
LINE
  8
L-ZISSEN
 10
410.0
 20
111.0
 30
0.0
 11
417.0
 21
111.0
 31
0.0
  0
LINE
  8
L-ZISSEN
 10
410.0
 20
49.0
 30
0.0
 11
418.0
 21
49.0
 31
0.0
  0
LINE
  8
L-ZISSEN
 10
410.0
 20
111.0
 30
0.0
 11
410.0
 21
49.0
 31
0.0
  0
LINE
  8
L-ZISSEN
 10
417.0
 20
114.7
 30
0.0
 11
417.0
 21
80.0
 31
0.0
  0
LINE
  8
L-ZISSEN
 10
465.75
 20
51.5
 30
0.0
 11
424.25
 21
51.5
 31
0.0
  0
LINE
  8
L-TYUSIN
 10
445.0
 20
36.9
 30
0.0
 11
445.0
 21
222.1
 31
0.0
  0
LINE
  8
L-TYUSIN
 10
330.0
 20
36.9
 30
0.0
 11
330.0
 21
222.1
 31
0.0
  0
LINE
  8
L-TYUSIN
 10
270.0
 20
80.0
 30
0.0
 11
385.0
 21
80.0
 31
0.0
  0
LINE
  8
L-ZISSEN
 10
1216.5
 20
147.4
 30
0.0
 11
1173.5
 21
147.4
 31
0.0
  0
LINE
  8
L-ZISSEN
 10
1186.094408
 20
381.5
 30
0.0
 11
1173.5
 21
368.905592
 31
0.0
  0
LINE
  8
L-ZISSEN
 10
1173.5
 20
368.905592
 30
0.0
 11
1173.5
 21
351.094408
 31
0.0
  0
LINE
  8
L-ZISSEN
 10
1173.5
 20
351.094408
 30
0.0
 11
1186.094408
 21
338.5
 31
0.0
  0
LINE
  8
L-ZISSEN
 10
1186.094408
 20
338.5
 30
0.0
 11
1203.905592
 21
338.5
 31
0.0
  0
LINE
  8
L-ZISSEN
 10
1203.905592
 20
338.5
 30
0.0
 11
1216.5
 21
351.094408
 31
0.0
  0
LINE
  8
L-ZISSEN
 10
1216.5
 20
351.094408
 30
0.0
 11
1216.5
 21
368.905592
 31
0.0
  0
LINE
  8
L-ZISSEN
 10
1216.5
 20
368.905592
 30
0.0
 11
1203.905592
 21
381.5
 31
0.0
  0
LINE
  8
L-ZISSEN
 10
1203.905592
 20
381.5
 30
0.0
 11
1186.094408
 21
381.5
 31
0.0
  0
LINE
  8
L-ZISSEN
 10
1173.5
 20
147.4
 30
0.0
 11
1173.5
 21
117.4
 31
0.0
  0
LINE
  8
L-ZISSEN
 10
1216.5
 20
147.4
 30
0.0
 11
1216.5
 21
117.4
 31
0.0
  0
LINE
  8
L-ZISSEN
 10
1220.4
 20
117.4
 30
0.0
 11
1169.6
 21
117.4
 31
0.0
  0
LINE
  8
L-ZISSEN
 10
1169.6
 20
117.4
 30
0.0
 11
1169.6
 21
114.7
 31
0.0
  0
LINE
  8
L-ZISSEN
 10
1220.4
 20
117.4
 30
0.0
 11
1220.4
 21
114.7
 31
0.0
  0
LINE
  8
L-ZISSEN
 10
1105.4
 20
117.4
 30
0.0
 11
1105.4
 21
114.7
 31
0.0
  0
LINE
  8
L-ZISSEN
 10
1054.6
 20
117.4
 30
0.0
 11
1054.6
 21
114.7
 31
0.0
  0
LINE
  8
L-ZISSEN
 10
1105.4
 20
117.4
 30
0.0
 11
1054.6
 21
117.4
 31
0.0
  0
LINE
  8
L-ZISSEN
 10
1101.5
 20
147.4
 30
0.0
 11
1101.5
 21
117.4
 31
0.0
  0
LINE
  8
L-ZISSEN
 10
1058.5
 20
147.4
 30
0.0
 11
1058.5
 21
117.4
 31
0.0
  0
LINE
  8
L-ZISSEN
 10
1101.5
 20
147.4
 30
0.0
 11
1058.5
 21
147.4
 31
0.0
  0
LINE
  8
L-ZISSEN
 10
102.02916
 20
159.3
 30
0.0
 11
103.228487
 21
114.7
 31
0.0
  0
LINE
  8
L-ZISSEN
 10
56.771513
 20
114.7
 30
0.0
 11
57.97084
 21
159.3
 31
0.0
  0
LINE
  8
L-ZISSEN
 10
220.75
 20
190.0
 30
0.0
 11
169.25
 21
190.0
 31
0.0
  0
LINE
  8
L-ZISSEN
 10
222.55
 20
187.7
 30
0.0
 11
167.45
 21
187.7
 31
0.0
  0
LINE
  8
L-ZISSEN
 10
222.55
 20
159.3
 30
0.0
 11
167.45
 21
159.3
 31
0.0
  0
LINE
  8
L-ZISSEN
 10
167.45
 20
159.3
 30
0.0
 11
167.45
 21
187.7
 31
0.0
  0
LINE
  8
L-ZISSEN
 10
222.55
 20
159.3
 30
0.0
 11
222.55
 21
187.7
 31
0.0
  0
LINE
  8
L-ZISSEN
 10
169.25
 20
190.0
 30
0.0
 11
169.25
 21
187.7
 31
0.0
  0
LINE
  8
L-ZISSEN
 10
220.75
 20
190.0
 30
0.0
 11
220.75
 21
187.7
 31
0.0
  0
LINE
  8
L-ZISSEN
 10
105.75
 20
190.0
 30
0.0
 11
105.75
 21
187.7
 31
0.0
  0
LINE
  8
L-ZISSEN
 10
54.25
 20
190.0
 30
0.0
 11
54.25
 21
187.7
 31
0.0
  0
LINE
  8
L-ZISSEN
 10
107.55
 20
159.3
 30
0.0
 11
107.55
 21
187.7
 31
0.0
  0
LINE
  8
L-ZISSEN
 10
52.45
 20
159.3
 30
0.0
 11
52.45
 21
187.7
 31
0.0
  0
LINE
  8
L-ZISSEN
 10
107.55
 20
159.3
 30
0.0
 11
52.45
 21
159.3
 31
0.0
  0
LINE
  8
L-ZISSEN
 10
107.55
 20
187.7
 30
0.0
 11
52.45
 21
187.7
 31
0.0
  0
LINE
  8
L-ZISSEN
 10
105.75
 20
190.0
 30
0.0
 11
54.25
 21
190.0
 31
0.0
  0
LINE
  8
L-ZISSEN
 10
342.2
 20
177.9
 30
0.0
 11
317.8
 21
177.9
 31
0.0
  0
LINE
  8
L-ZISSEN
 10
351.65
 20
174.1
 30
0.0
 11
308.35
 21
174.1
 31
0.0
  0
LINE
  8
L-ZISSEN
 10
317.8
 20
177.9
 30
0.0
 11
317.8
 21
174.1
 31
0.0
  0
LINE
  8
L-ZISSEN
 10
342.2
 20
177.9
 30
0.0
 11
342.2
 21
174.1
 31
0.0
  0
LINE
  8
L-ZISSEN
 10
351.65
 20
174.1
 30
0.0
 11
353.247311
 21
114.7
 31
0.0
  0
LINE
  8
L-ZISSEN
 10
306.752689
 20
114.7
 30
0.0
 11
308.35
 21
174.1
 31
0.0
  0
LINE
  8
L-ZISSEN
 10
806.752689
 20
114.7
 30
0.0
 11
808.35
 21
174.1
 31
0.0
  0
LINE
  8
L-ZISSEN
 10
851.65
 20
174.1
 30
0.0
 11
853.247311
 21
114.7
 31
0.0
  0
LINE
  8
L-ZISSEN
 10
842.2
 20
177.9
 30
0.0
 11
842.2
 21
174.1
 31
0.0
  0
LINE
  8
L-ZISSEN
 10
817.8
 20
177.9
 30
0.0
 11
817.8
 21
174.1
 31
0.0
  0
LINE
  8
L-ZISSEN
 10
851.65
 20
174.1
 30
0.0
 11
808.35
 21
174.1
 31
0.0
  0
LINE
  8
L-ZISSEN
 10
842.2
 20
177.9
 30
0.0
 11
817.8
 21
177.9
 31
0.0
  0
LINE
  8
L-TYUSIN
 10
770.0
 20
80.0
 30
0.0
 11
885.0
 21
80.0
 31
0.0
  0
LINE
  8
L-TYUSIN
 10
830.0
 20
36.9
 30
0.0
 11
830.0
 21
292.0
 31
0.0
  0
LINE
  8
L-TYUSIN
 10
945.0
 20
36.9
 30
0.0
 11
945.0
 21
292.0
 31
0.0
  0
LINE
  8
L-ZISSEN
 10
965.75
 20
51.5
 30
0.0
 11
924.25
 21
51.5
 31
0.0
  0
LINE
  8
L-ZISSEN
 10
917.0
 20
114.7
 30
0.0
 11
917.0
 21
80.0
 31
0.0
  0
LINE
  8
L-ZISSEN
 10
910.0
 20
111.0
 30
0.0
 11
910.0
 21
49.0
 31
0.0
  0
LINE
  8
L-ZISSEN
 10
910.0
 20
49.0
 30
0.0
 11
918.0
 21
49.0
 31
0.0
  0
LINE
  8
L-ZISSEN
 10
910.0
 20
111.0
 30
0.0
 11
917.0
 21
111.0
 31
0.0
  0
LINE
  8
L-ZISSEN
 10
980.0
 20
111.0
 30
0.0
 11
973.0
 21
111.0
 31
0.0
  0
LINE
  8
L-ZISSEN
 10
980.0
 20
49.0
 30
0.0
 11
972.0
 21
49.0
 31
0.0
  0
LINE
  8
L-ZISSEN
 10
980.0
 20
111.0
 30
0.0
 11
980.0
 21
49.0
 31
0.0
  0
LINE
  8
L-ZISSEN
 10
973.0
 20
114.7
 30
0.0
 11
973.0
 21
80.0
 31
0.0
  0
LINE
  8
L-ZISSEN
 10
924.25
 20
41.9
 30
0.0
 11
924.25
 21
80.0
 31
0.0
  0
LINE
  8
L-ZISSEN
 10
965.75
 20
41.9
 30
0.0
 11
965.75
 21
80.0
 31
0.0
  0
LINE
  8
L-ZISSEN
 10
973.0
 20
114.7
 30
0.0
 11
917.0
 21
114.7
 31
0.0
  0
LINE
  8
L-ZISSEN
 10
918.0
 20
80.0
 30
0.0
 11
918.0
 21
49.0
 31
0.0
  0
LINE
  8
L-ZISSEN
 10
972.0
 20
80.0
 30
0.0
 11
972.0
 21
49.0
 31
0.0
  0
LINE
  8
L-ZISSEN
 10
809.25
 20
41.9
 30
0.0
 11
809.25
 21
56.233333
 31
0.0
  0
LINE
  8
L-ZISSEN
 10
850.75
 20
41.9
 30
0.0
 11
850.75
 21
64.0
 31
0.0
  0
LINE
  8
L-ZISSEN
 10
850.75
 20
51.5
 30
0.0
 11
809.25
 21
51.5
 31
0.0
  0
LINE
  8
L-ZISSEN
 10
802.0
 20
114.7
 30
0.0
 11
802.0
 21
111.0
 31
0.0
  0
LINE
  8
L-ZISSEN
 10
858.0
 20
114.7
 30
0.0
 11
802.0
 21
114.7
 31
0.0
  0
LINE
  8
L-ZISSEN
 10
858.0
 20
114.7
 30
0.0
 11
858.0
 21
96.0
 31
0.0
  0
LINE
  8
L-TYUSIN
 10
795.0
 20
44.0
 30
0.0
 11
795.0
 21
116.0
 31
0.0
  0
LINE
  8
L-ZISSEN
 10
807.5
 20
111.0
 30
0.0
 11
782.5
 21
111.0
 31
0.0
  0
LINE
  8
L-ZISSEN
 10
782.5
 20
111.0
 30
0.0
 11
775.0
 21
80.0
 31
0.0
  0
LINE
  8
L-ZISSEN
 10
807.5
 20
111.0
 30
0.0
 11
815.0
 21
80.0
 31
0.0
  0
LINE
  8
L-ZISSEN
 10
807.5
 20
49.0
 30
0.0
 11
815.0
 21
80.0
 31
0.0
  0
LINE
  8
L-ZISSEN
 10
807.5
 20
49.0
 30
0.0
 11
782.5
 21
49.0
 31
0.0
  0
LINE
  8
L-ZISSEN
 10
782.5
 20
49.0
 30
0.0
 11
775.0
 21
80.0
 31
0.0
  0
LINE
  8
L-TYUSIN
 10
905.0
 20
80.0
 30
0.0
 11
985.0
 21
80.0
 31
0.0
  0
LINE
  8
L-ZISSEN
 10
880.0
 20
96.0
 30
0.0
 11
880.0
 21
64.0
 31
0.0
  0
LINE
  8
L-ZISSEN
 10
873.0
 20
97.0
 30
0.0
 11
873.0
 21
96.0
 31
0.0
  0
LINE
  8
L-ZISSEN
 10
869.5
 20
57.0
 30
0.0
 11
850.75
 21
57.0
 31
0.0
  0
LINE
  8
L-ZISSEN
 10
929.0
 20
91.712813
 30
0.0
 11
929.0
 21
68.287187
 31
0.0
  0
LINE
  8
L-ZISSEN
 10
961.0
 20
91.712813
 30
0.0
 11
961.0
 21
68.287187
 31
0.0
  0
ARC
  8
L-ZISSEN
 10
945.0
 20
64.0
 30
0.0
 40
32.0
 50
60.0
 51
120.0
  0
ARC
  8
L-ZISSEN
 10
945.0
 20
96.0
 30
0.0
 40
32.0
 50
240.0
 51
300.0
  0
LINE
  8
L-ZISSEN
 10
953.5
 20
57.0
 30
0.0
 11
936.5
 21
57.0
 31
0.0
  0
LINE
  8
L-ZISSEN
 10
936.5
 20
57.0
 30
0.0
 11
936.5
 21
65.149554
 31
0.0
  0
LINE
  8
L-ZISSEN
 10
953.5
 20
57.0
 30
0.0
 11
953.5
 21
65.149554
 31
0.0
  0
LINE
  8
L-TYUSIN
 10
861.0
 20
52.0
 30
0.0
 11
861.0
 21
62.0
 31
0.0
  0
LINE
  8
L-ZISSEN
 10
880.0
 20
64.0
 30
0.0
 11
850.75
 21
64.0
 31
0.0
  0
LINE
  8
L-ZISSEN
 10
880.0
 20
96.0
 30
0.0
 11
858.0
 21
96.0
 31
0.0
  0
LINE
  8
L-ZISSEN
 10
869.5
 20
57.0
 30
0.0
 11
869.5
 21
64.0
 31
0.0
  0
LINE
  8
L-ZISSEN
 10
937.5
 20
102.0
 30
0.0
 11
937.5
 21
95.10868
 31
0.0
  0
LINE
  8
L-ZISSEN
 10
952.5
 20
102.0
 30
0.0
 11
952.5
 21
95.10868
 31
0.0
  0
LINE
  8
L-ZISSEN
 10
862.696699
 20
107.303301
 30
0.0
 11
873.0
 21
97.0
 31
0.0
  0
LINE
  8
L-ZISSEN
 10
862.696699
 20
107.303301
 30
0.0
 11
858.0
 21
107.303301
 31
0.0
  0
LINE
  8
L-TYUSIN
 10
935.0
 20
102.0
 30
0.0
 11
955.0
 21
102.0
 31
0.0
  0
ARC
  8
L-ZISSEN
 10
945.0
 20
96.732993
 30
0.0
 40
10.570308
 50
90.0
 51
106.32495
  0
ARC
  8
L-ZISSEN
 10
944.241497
 20
99.322686
 30
0.0
 40
7.87182
 50
106.32495
 51
125.26439
  0
ARC
  8
L-ZISSEN
 10
943.082007
 20
100.962451
 30
0.0
 40
5.863526
 50
125.26439
 51
149.638807
  0
ARC
  8
L-ZISSEN
 10
941.310801
 20
102.0
 30
0.0
 40
3.810801
 50
149.638807
 51
180.0
  0
ARC
  8
L-ZISSEN
 10
948.689199
 20
102.0
 30
0.0
 40
3.810801
 50
0.0
 51
30.361193
  0
ARC
  8
L-ZISSEN
 10
946.917993
 20
100.962451
 30
0.0
 40
5.863526
 50
30.361193
 51
54.73561
  0
ARC
  8
L-ZISSEN
 10
945.758503
 20
99.322686
 30
0.0
 40
7.87182
 50
54.73561
 51
73.67505
  0
ARC
  8
L-ZISSEN
 10
945.0
 20
96.732993
 30
0.0
 40
10.570308
 50
73.67505
 51
90.0
  0
LINE
  8
L-TYUSIN
 10
864.464466
 20
98.464466
 30
0.0
 11
871.535534
 21
105.535534
 31
0.0
  0
LINE
  8
L-ZISSEN
 10
918.0
 20
65.0
 30
0.0
 11
924.25
 21
65.0
 31
0.0
  0
LINE
  8
L-ZISSEN
 10
965.75
 20
65.0
 30
0.0
 11
972.0
 21
65.0
 31
0.0
  0
LINE
  8
L-ZISSEN
 10
850.75
 20
41.9
 30
0.0
 11
809.25
 21
41.9
 31
0.0
  0
LINE
  8
L-ZISSEN
 10
965.75
 20
41.9
 30
0.0
 11
924.25
 21
41.9
 31
0.0
  0
CIRCLE
  8
L-ZISSEN
 10
945.0
 20
80.0
 30
0.0
 40
9.3155
  0
ARC
  8
L-ZISSEN
 10
945.0
 20
98.992188
 30
0.0
 40
6.03635
 50
90.0
 51
106.32495
  0
ARC
  8
L-ZISSEN
 10
944.566844
 20
100.471075
 30
0.0
 40
4.495334
 50
106.32495
 51
125.26439
  0
ARC
  8
L-ZISSEN
 10
943.904698
 20
101.40749
 30
0.0
 40
3.348464
 50
125.26439
 51
149.638807
  0
ARC
  8
L-ZISSEN
 10
942.893221
 20
102.0
 30
0.0
 40
2.176221
 50
149.638807
 51
180.0
  0
ARC
  8
L-ZISSEN
 10
942.893221
 20
102.0
 30
0.0
 40
2.176221
 50
180.0
 51
210.361193
  0
ARC
  8
L-ZISSEN
 10
943.904698
 20
102.59251
 30
0.0
 40
3.348464
 50
210.361193
 51
234.73561
  0
ARC
  8
L-ZISSEN
 10
944.566844
 20
103.528925
 30
0.0
 40
4.495334
 50
234.73561
 51
253.67505
  0
ARC
  8
L-ZISSEN
 10
945.0
 20
105.007812
 30
0.0
 40
6.03635
 50
253.67505
 51
270.0
  0
ARC
  8
L-ZISSEN
 10
945.0
 20
105.007812
 30
0.0
 40
6.03635
 50
270.0
 51
286.32495
  0
ARC
  8
L-ZISSEN
 10
945.433156
 20
103.528925
 30
0.0
 40
4.495334
 50
286.32495
 51
305.26439
  0
ARC
  8
L-ZISSEN
 10
946.095302
 20
102.59251
 30
0.0
 40
3.348464
 50
305.26439
 51
329.638807
  0
ARC
  8
L-ZISSEN
 10
947.106779
 20
102.0
 30
0.0
 40
2.176221
 50
329.638807
 51
0.0
  0
ARC
  8
L-ZISSEN
 10
947.106779
 20
102.0
 30
0.0
 40
2.176221
 50
0.0
 51
30.361193
  0
ARC
  8
L-ZISSEN
 10
946.095302
 20
101.40749
 30
0.0
 40
3.348464
 50
30.361193
 51
54.73561
  0
ARC
  8
L-ZISSEN
 10
945.433156
 20
100.471075
 30
0.0
 40
4.495334
 50
54.73561
 51
73.67505
  0
ARC
  8
L-ZISSEN
 10
945.0
 20
98.992188
 30
0.0
 40
6.03635
 50
73.67505
 51
90.0
  0
LINE
  8
L-ZISSEN
 10
957.2
 20
177.9
 30
0.0
 11
932.8
 21
177.9
 31
0.0
  0
LINE
  8
L-ZISSEN
 10
966.65
 20
174.1
 30
0.0
 11
923.35
 21
174.1
 31
0.0
  0
LINE
  8
L-ZISSEN
 10
932.8
 20
177.9
 30
0.0
 11
932.8
 21
174.1
 31
0.0
  0
LINE
  8
L-ZISSEN
 10
957.2
 20
177.9
 30
0.0
 11
957.2
 21
174.1
 31
0.0
  0
LINE
  8
L-ZISSEN
 10
921.752689
 20
114.7
 30
0.0
 11
923.35
 21
174.1
 31
0.0
  0
LINE
  8
L-ZISSEN
 10
966.65
 20
174.1
 30
0.0
 11
968.247311
 21
114.7
 31
0.0
  0
LINE
  8
L-ZISSEN
 10
592.2
 20
177.9
 30
0.0
 11
592.2
 21
174.1
 31
0.0
  0
LINE
  8
L-ZISSEN
 10
567.8
 20
177.9
 30
0.0
 11
567.8
 21
174.1
 31
0.0
  0
LINE
  8
L-ZISSEN
 10
601.65
 20
174.1
 30
0.0
 11
558.35
 21
174.1
 31
0.0
  0
LINE
  8
L-ZISSEN
 10
592.2
 20
177.9
 30
0.0
 11
567.8
 21
177.9
 31
0.0
  0
LINE
  8
L-ZISSEN
 10
707.2
 20
177.9
 30
0.0
 11
682.8
 21
177.9
 31
0.0
  0
LINE
  8
L-ZISSEN
 10
716.65
 20
174.1
 30
0.0
 11
673.35
 21
174.1
 31
0.0
  0
LINE
  8
L-ZISSEN
 10
682.8
 20
177.9
 30
0.0
 11
682.8
 21
174.1
 31
0.0
  0
LINE
  8
L-ZISSEN
 10
707.2
 20
177.9
 30
0.0
 11
707.2
 21
174.1
 31
0.0
  0
LINE
  8
L-ZISSEN
 10
716.65
 20
174.1
 30
0.0
 11
718.247311
 21
114.7
 31
0.0
  0
LINE
  8
L-ZISSEN
 10
671.752689
 20
114.7
 30
0.0
 11
673.35
 21
174.1
 31
0.0
  0
LINE
  8
L-ZISSEN
 10
601.65
 20
174.1
 30
0.0
 11
603.247311
 21
114.7
 31
0.0
  0
LINE
  8
L-ZISSEN
 10
556.752689
 20
114.7
 30
0.0
 11
558.35
 21
174.1
 31
0.0
  0
LINE
  8
L-ZISSEN
 10
451.0
 20
217.1
 30
0.0
 11
439.0
 21
217.1
 31
0.0
  0
LINE
  8
L-ZISSEN
 10
439.0
 20
184.9
 30
0.0
 11
439.0
 21
217.1
 31
0.0
  0
LINE
  8
L-ZISSEN
 10
451.0
 20
184.9
 30
0.0
 11
451.0
 21
217.1
 31
0.0
  0
LINE
  8
L-ZISSEN
 10
476.5
 20
213.1
 30
0.0
 11
451.0
 21
213.1
 31
0.0
  0
LINE
  8
L-ZISSEN
 10
476.5
 20
207.1
 30
0.0
 11
451.0
 21
207.1
 31
0.0
  0
LINE
  8
L-ZISSEN
 10
413.5
 20
213.1
 30
0.0
 11
413.5
 21
207.1
 31
0.0
  0
LINE
  8
L-ZISSEN
 10
476.5
 20
213.1
 30
0.0
 11
476.5
 21
207.1
 31
0.0
  0
LINE
  8
L-ZISSEN
 10
336.0
 20
184.9
 30
0.0
 11
336.0
 21
217.1
 31
0.0
  0
LINE
  8
L-ZISSEN
 10
324.0
 20
184.9
 30
0.0
 11
324.0
 21
217.1
 31
0.0
  0
LINE
  8
L-ZISSEN
 10
336.0
 20
217.1
 30
0.0
 11
324.0
 21
217.1
 31
0.0
  0
CIRCLE
  8
L-ZISSEN
 10
330.0
 20
210.1
 30
0.0
 40
3.0
  0
LINE
  8
L-ZISSEN
 10
439.0
 20
213.1
 30
0.0
 11
413.5
 21
213.1
 31
0.0
  0
LINE
  8
L-ZISSEN
 10
439.0
 20
207.1
 30
0.0
 11
413.5
 21
207.1
 31
0.0
  0
LINE
  8
L-ZISSEN
 10
439.803848
 20
357.0
 30
0.0
 11
413.5
 21
357.0
 31
0.0
  0
LINE
  8
L-ZISSEN
 10
439.803848
 20
363.0
 30
0.0
 11
413.5
 21
363.0
 31
0.0
  0
LINE
  8
L-ZISSEN
 10
476.5
 20
363.0
 30
0.0
 11
476.5
 21
357.0
 31
0.0
  0
LINE
  8
L-ZISSEN
 10
413.5
 20
363.0
 30
0.0
 11
413.5
 21
357.0
 31
0.0
  0
LINE
  8
L-ZISSEN
 10
476.5
 20
357.0
 30
0.0
 11
450.196152
 21
357.0
 31
0.0
  0
LINE
  8
L-ZISSEN
 10
476.5
 20
363.0
 30
0.0
 11
450.196152
 21
363.0
 31
0.0
  0
CIRCLE
  8
L-ZISSEN
 10
445.0
 20
360.0
 30
0.0
 40
6.0
  0
ARC
  8
L-ZISSEN
 10
445.0
 20
360.0
 30
0.0
 40
12.2
 50
14.235124
 51
165.764876
  0
ARC
  8
L-ZISSEN
 10
445.0
 20
360.0
 30
0.0
 40
23.25
 50
7.413674
 51
172.586326
  0
ARC
  8
L-ZISSEN
 10
445.0
 20
360.0
 30
0.0
 40
23.25
 50
187.413674
 51
352.586326
  0
ARC
  8
L-ZISSEN
 10
445.0
 20
360.0
 30
0.0
 40
28.0
 50
186.15064
 51
353.84936
  0
ARC
  8
L-ZISSEN
 10
445.0
 20
360.0
 30
0.0
 40
12.2
 50
194.235124
 51
345.764876
  0
LINE
  8
L-ZISSEN
 10
724.0
 20
237.0
 30
0.0
 11
666.0
 21
237.0
 31
0.0
  0
LINE
  8
L-ZISSEN
 10
724.0
 20
224.0
 30
0.0
 11
666.0
 21
224.0
 31
0.0
  0
LINE
  8
L-ZISSEN
 10
724.0
 20
237.0
 30
0.0
 11
724.0
 21
224.0
 31
0.0
  0
LINE
  8
L-ZISSEN
 10
666.0
 20
237.0
 30
0.0
 11
666.0
 21
224.0
 31
0.0
  0
LINE
  8
L-ZISSEN
 10
704.5
 20
215.0
 30
0.0
 11
685.5
 21
215.0
 31
0.0
  0
LINE
  8
L-ZISSEN
 10
704.5
 20
215.0
 30
0.0
 11
704.5
 21
224.0
 31
0.0
  0
LINE
  8
L-ZISSEN
 10
685.5
 20
215.0
 30
0.0
 11
685.5
 21
224.0
 31
0.0
  0
LINE
  8
L-ZISSEN
 10
701.0
 20
215.0
 30
0.0
 11
701.0
 21
184.9
 31
0.0
  0
LINE
  8
L-ZISSEN
 10
689.0
 20
215.0
 30
0.0
 11
689.0
 21
184.9
 31
0.0
  0
CIRCLE
  8
L-ZISSEN
 10
695.0
 20
360.0
 30
0.0
 40
29.0
  0
LINE
  8
L-ZISSEN
 10
435.185045
 20
184.9
 30
0.0
 11
435.185045
 21
177.9
 31
0.0
  0
LINE
  8
L-ZISSEN
 10
454.814955
 20
184.9
 30
0.0
 11
454.814955
 21
177.9
 31
0.0
  0
LINE
  8
L-ZISSEN
 10
440.092523
 20
368.5
 30
0.0
 11
436.917096
 21
363.0
 31
0.0
  0
LINE
  8
L-ZISSEN
 10
436.917096
 20
357.0
 30
0.0
 11
440.092523
 21
351.5
 31
0.0
  0
LINE
  8
L-ZISSEN
 10
440.092523
 20
351.5
 30
0.0
 11
449.907477
 21
351.5
 31
0.0
  0
LINE
  8
L-ZISSEN
 10
449.907477
 20
351.5
 30
0.0
 11
453.082904
 21
357.0
 31
0.0
  0
LINE
  8
L-ZISSEN
 10
453.082904
 20
363.0
 30
0.0
 11
449.907477
 21
368.5
 31
0.0
  0
LINE
  8
L-ZISSEN
 10
449.907477
 20
368.5
 30
0.0
 11
440.092523
 21
368.5
 31
0.0
  0
LINE
  8
L-ZISSEN
 10
454.814955
 20
184.9
 30
0.0
 11
435.185045
 21
184.9
 31
0.0
  0
LINE
  8
L-ZISSEN
 10
338.0
 20
184.9
 30
0.0
 11
322.0
 21
184.9
 31
0.0
  0
LINE
  8
L-ZISSEN
 10
322.0
 20
184.9
 30
0.0
 11
322.0
 21
177.9
 31
0.0
  0
LINE
  8
L-ZISSEN
 10
338.0
 20
184.9
 30
0.0
 11
338.0
 21
177.9
 31
0.0
  0
LINE
  8
L-ZISSEN
 10
704.814955
 20
184.9
 30
0.0
 11
685.185045
 21
184.9
 31
0.0
  0
LINE
  8
L-ZISSEN
 10
704.814955
 20
184.9
 30
0.0
 11
704.814955
 21
177.9
 31
0.0
  0
LINE
  8
L-ZISSEN
 10
685.185045
 20
184.9
 30
0.0
 11
685.185045
 21
177.9
 31
0.0
  0
LINE
  8
L-ZISSEN
 10
570.5
 20
215.0
 30
0.0
 11
570.5
 21
224.0
 31
0.0
  0
LINE
  8
L-ZISSEN
 10
589.5
 20
215.0
 30
0.0
 11
589.5
 21
224.0
 31
0.0
  0
LINE
  8
L-ZISSEN
 10
589.5
 20
215.0
 30
0.0
 11
570.5
 21
215.0
 31
0.0
  0
LINE
  8
L-ZISSEN
 10
551.0
 20
237.0
 30
0.0
 11
551.0
 21
224.0
 31
0.0
  0
LINE
  8
L-ZISSEN
 10
609.0
 20
237.0
 30
0.0
 11
609.0
 21
224.0
 31
0.0
  0
LINE
  8
L-ZISSEN
 10
609.0
 20
224.0
 30
0.0
 11
551.0
 21
224.0
 31
0.0
  0
LINE
  8
L-ZISSEN
 10
609.0
 20
237.0
 30
0.0
 11
551.0
 21
237.0
 31
0.0
  0
LINE
  8
L-ZISSEN
 10
586.0
 20
215.0
 30
0.0
 11
586.0
 21
184.9
 31
0.0
  0
LINE
  8
L-ZISSEN
 10
574.0
 20
215.0
 30
0.0
 11
574.0
 21
184.9
 31
0.0
  0
LINE
  8
L-ZISSEN
 10
588.5
 20
184.9
 30
0.0
 11
571.5
 21
184.9
 31
0.0
  0
LINE
  8
L-ZISSEN
 10
935.5
 20
265.0
 30
0.0
 11
935.5
 21
274.0
 31
0.0
  0
LINE
  8
L-ZISSEN
 10
954.5
 20
265.0
 30
0.0
 11
954.5
 21
274.0
 31
0.0
  0
LINE
  8
L-ZISSEN
 10
954.5
 20
265.0
 30
0.0
 11
935.5
 21
265.0
 31
0.0
  0
LINE
  8
L-ZISSEN
 10
916.0
 20
287.0
 30
0.0
 11
916.0
 21
274.0
 31
0.0
  0
LINE
  8
L-ZISSEN
 10
974.0
 20
287.0
 30
0.0
 11
974.0
 21
274.0
 31
0.0
  0
LINE
  8
L-ZISSEN
 10
974.0
 20
274.0
 30
0.0
 11
916.0
 21
274.0
 31
0.0
  0
LINE
  8
L-ZISSEN
 10
974.0
 20
287.0
 30
0.0
 11
916.0
 21
287.0
 31
0.0
  0
LINE
  8
L-ZISSEN
 10
951.0
 20
265.0
 30
0.0
 11
951.0
 21
184.9
 31
0.0
  0
LINE
  8
L-ZISSEN
 10
939.0
 20
265.0
 30
0.0
 11
939.0
 21
184.9
 31
0.0
  0
LINE
  8
L-ZISSEN
 10
935.185045
 20
184.9
 30
0.0
 11
935.185045
 21
177.9
 31
0.0
  0
LINE
  8
L-ZISSEN
 10
954.814955
 20
184.9
 30
0.0
 11
954.814955
 21
177.9
 31
0.0
  0
LINE
  8
L-ZISSEN
 10
954.814955
 20
184.9
 30
0.0
 11
935.185045
 21
184.9
 31
0.0
  0
LINE
  8
L-ZISSEN
 10
859.0
 20
287.0
 30
0.0
 11
801.0
 21
287.0
 31
0.0
  0
LINE
  8
L-ZISSEN
 10
859.0
 20
274.0
 30
0.0
 11
801.0
 21
274.0
 31
0.0
  0
LINE
  8
L-ZISSEN
 10
859.0
 20
287.0
 30
0.0
 11
859.0
 21
274.0
 31
0.0
  0
LINE
  8
L-ZISSEN
 10
801.0
 20
287.0
 30
0.0
 11
801.0
 21
274.0
 31
0.0
  0
LINE
  8
L-ZISSEN
 10
839.5
 20
265.0
 30
0.0
 11
820.5
 21
265.0
 31
0.0
  0
LINE
  8
L-ZISSEN
 10
839.5
 20
265.0
 30
0.0
 11
839.5
 21
274.0
 31
0.0
  0
LINE
  8
L-ZISSEN
 10
820.5
 20
265.0
 30
0.0
 11
820.5
 21
274.0
 31
0.0
  0
LINE
  8
L-ZISSEN
 10
836.0
 20
265.0
 30
0.0
 11
836.0
 21
184.9
 31
0.0
  0
LINE
  8
L-ZISSEN
 10
824.0
 20
265.0
 30
0.0
 11
824.0
 21
184.9
 31
0.0
  0
LINE
  8
L-ZISSEN
 10
571.5
 20
184.9
 30
0.0
 11
571.5
 21
177.9
 31
0.0
  0
LINE
  8
L-ZISSEN
 10
588.5
 20
184.9
 30
0.0
 11
588.5
 21
177.9
 31
0.0
  0
LINE
  8
L-ZISSEN
 10
838.5
 20
184.9
 30
0.0
 11
838.5
 21
177.9
 31
0.0
  0
LINE
  8
L-ZISSEN
 10
821.5
 20
184.9
 30
0.0
 11
821.5
 21
177.9
 31
0.0
  0
LINE
  8
L-ZISSEN
 10
838.5
 20
184.9
 30
0.0
 11
821.5
 21
184.9
 31
0.0
  0
CIRCLE
  8
L-ZISSEN
 10
945.0
 20
360.0
 30
0.0
 40
29.0
  0
LINE
  8
L-TYUSIN
 10
910.0
 20
360.0
 30
0.0
 11
980.0
 21
360.0
 31
0.0
  0
LINE
  8
L-ZISSEN
 10
972.0
 20
375.822248
 30
0.0
 11
969.910609
 21
374.847949
 31
0.0
  0
LINE
  8
L-ZISSEN
 10
918.0
 20
375.822248
 30
0.0
 11
920.089391
 21
374.847949
 31
0.0
  0
LINE
  8
L-TYUSIN
 10
985.0
 20
397.331538
 30
0.0
 11
945.0
 21
378.679232
 31
0.0
  0
LINE
  8
L-TYUSIN
 10
905.0
 20
397.331538
 30
0.0
 11
945.0
 21
378.679232
 31
0.0
  0
LINE
  8
L-ZISSEN
 10
972.0
 20
408.0
 30
0.0
 11
918.0
 21
408.0
 31
0.0
  0
LINE
  8
L-ZISSEN
 10
972.0
 20
375.0
 30
0.0
 11
980.0
 21
375.0
 31
0.0
  0
LINE
  8
L-ZISSEN
 10
972.0
 20
415.0
 30
0.0
 11
980.0
 21
415.0
 31
0.0
  0
LINE
  8
L-ZISSEN
 10
910.0
 20
375.0
 30
0.0
 11
918.0
 21
375.0
 31
0.0
  0
LINE
  8
L-ZISSEN
 10
910.0
 20
415.0
 30
0.0
 11
918.0
 21
415.0
 31
0.0
  0
LINE
  8
L-ZISSEN
 10
980.0
 20
415.0
 30
0.0
 11
980.0
 21
375.0
 31
0.0
  0
LINE
  8
L-ZISSEN
 10
972.0
 20
415.0
 30
0.0
 11
972.0
 21
375.0
 31
0.0
  0
LINE
  8
L-ZISSEN
 10
918.0
 20
415.0
 30
0.0
 11
918.0
 21
375.0
 31
0.0
  0
LINE
  8
L-ZISSEN
 10
910.0
 20
415.0
 30
0.0
 11
910.0
 21
375.0
 31
0.0
  0
LINE
  8
L-TYUSIN
 10
935.0
 20
322.0
 30
0.0
 11
955.0
 21
322.0
 31
0.0
  0
LINE
  8
L-ZISSEN
 10
929.0
 20
310.0
 30
0.0
 11
929.0
 21
335.813227
 31
0.0
  0
LINE
  8
L-ZISSEN
 10
961.0
 20
310.0
 30
0.0
 11
961.0
 21
335.813227
 31
0.0
  0
LINE
  8
L-ZISSEN
 10
961.0
 20
310.0
 30
0.0
 11
929.0
 21
310.0
 31
0.0
  0
LINE
  8
L-TYUSIN
 10
945.0
 20
413.0
 30
0.0
 11
945.0
 21
305.0
 31
0.0
  0
ARC
  8
L-ZISSEN
 10
945.0
 20
318.992188
 30
0.0
 40
6.03635
 50
73.67505
 51
90.0
  0
ARC
  8
L-ZISSEN
 10
945.433156
 20
320.471075
 30
0.0
 40
4.495334
 50
54.73561
 51
73.67505
  0
ARC
  8
L-ZISSEN
 10
946.095302
 20
321.40749
 30
0.0
 40
3.348464
 50
30.361193
 51
54.73561
  0
ARC
  8
L-ZISSEN
 10
947.106779
 20
322.0
 30
0.0
 40
2.176221
 50
0.0
 51
30.361193
  0
ARC
  8
L-ZISSEN
 10
947.106779
 20
322.0
 30
0.0
 40
2.176221
 50
329.638807
 51
0.0
  0
ARC
  8
L-ZISSEN
 10
946.095302
 20
322.59251
 30
0.0
 40
3.348464
 50
305.26439
 51
329.638807
  0
ARC
  8
L-ZISSEN
 10
945.433156
 20
323.528925
 30
0.0
 40
4.495334
 50
286.32495
 51
305.26439
  0
ARC
  8
L-ZISSEN
 10
945.0
 20
325.007812
 30
0.0
 40
6.03635
 50
270.0
 51
286.32495
  0
ARC
  8
L-ZISSEN
 10
945.0
 20
325.007812
 30
0.0
 40
6.03635
 50
253.67505
 51
270.0
  0
ARC
  8
L-ZISSEN
 10
944.566844
 20
323.528925
 30
0.0
 40
4.495334
 50
234.73561
 51
253.67505
  0
ARC
  8
L-ZISSEN
 10
943.904698
 20
322.59251
 30
0.0
 40
3.348464
 50
210.361193
 51
234.73561
  0
ARC
  8
L-ZISSEN
 10
942.893221
 20
322.0
 30
0.0
 40
2.176221
 50
180.0
 51
210.361193
  0
ARC
  8
L-ZISSEN
 10
942.893221
 20
322.0
 30
0.0
 40
2.176221
 50
149.638807
 51
180.0
  0
ARC
  8
L-ZISSEN
 10
943.904698
 20
321.40749
 30
0.0
 40
3.348464
 50
125.26439
 51
149.638807
  0
ARC
  8
L-ZISSEN
 10
944.566844
 20
320.471075
 30
0.0
 40
4.495334
 50
106.32495
 51
125.26439
  0
ARC
  8
L-ZISSEN
 10
945.0
 20
318.992188
 30
0.0
 40
6.03635
 50
90.0
 51
106.32495
  0
LINE
  8
L-ZISSEN
 10
856.972907
 20
493.527093
 30
0.0
 11
860.397956
 21
497.173112
 31
0.0
  0
LINE
  8
L-ZISSEN
 10
864.027093
 20
486.472907
 30
0.0
 11
867.673112
 21
489.897956
 31
0.0
  0
LINE
  8
L-ZISSEN
 10
944.0
 20
505.717883
 30
0.0
 11
944.0
 21
497.778175
 31
0.0
  0
LINE
  8
L-ZISSEN
 10
996.0
 20
505.717883
 30
0.0
 11
996.0
 21
497.778175
 31
0.0
  0
LINE
  8
L-ZISSEN
 10
943.0
 20
514.395184
 30
0.0
 11
943.0
 21
510.85965
 31
0.0
  0
LINE
  8
L-ZISSEN
 10
997.0
 20
514.395184
 30
0.0
 11
997.0
 21
510.85965
 31
0.0
  0
ARC
  8
L-ZISSEN
 10
983.281118
 20
514.395184
 30
0.0
 40
13.718882
 50
0.0
 51
30.361193
  0
ARC
  8
L-ZISSEN
 10
976.904773
 20
510.660008
 30
0.0
 40
21.108693
 50
30.361193
 51
54.73561
  0
ARC
  8
L-ZISSEN
 10
972.730613
 20
504.756853
 30
0.0
 40
28.338552
 50
54.73561
 51
73.67505
  0
ARC
  8
L-ZISSEN
 10
970.0
 20
495.433959
 30
0.0
 40
38.053108
 50
73.67505
 51
90.0
  0
ARC
  8
L-ZISSEN
 10
970.0
 20
495.433959
 30
0.0
 40
38.053108
 50
90.0
 51
106.32495
  0
ARC
  8
L-ZISSEN
 10
967.269387
 20
504.756853
 30
0.0
 40
28.338552
 50
106.32495
 51
125.26439
  0
ARC
  8
L-ZISSEN
 10
963.095227
 20
510.660008
 30
0.0
 40
21.108693
 50
125.26439
 51
149.638807
  0
ARC
  8
L-ZISSEN
 10
956.718882
 20
514.395184
 30
0.0
 40
13.718882
 50
149.638807
 51
180.0
  0
ARC
  8
L-ZISSEN
 10
956.718882
 20
514.395184
 30
0.0
 40
13.718882
 50
180.0
 51
210.361193
  0
ARC
  8
L-ZISSEN
 10
963.095227
 20
518.13036
 30
0.0
 40
21.108693
 50
210.361193
 51
234.73561
  0
ARC
  8
L-ZISSEN
 10
967.269387
 20
524.033515
 30
0.0
 40
28.338552
 50
234.73561
 51
253.67505
  0
ARC
  8
L-ZISSEN
 10
970.0
 20
533.356409
 30
0.0
 40
38.053108
 50
253.67505
 51
270.0
  0
ARC
  8
L-ZISSEN
 10
970.0
 20
533.356409
 30
0.0
 40
38.053108
 50
270.0
 51
286.32495
  0
ARC
  8
L-ZISSEN
 10
972.730613
 20
524.033515
 30
0.0
 40
28.338552
 50
286.32495
 51
305.26439
  0
ARC
  8
L-ZISSEN
 10
976.904773
 20
518.13036
 30
0.0
 40
21.108693
 50
305.26439
 51
329.638807
  0
ARC
  8
L-ZISSEN
 10
983.281118
 20
514.395184
 30
0.0
 40
13.718882
 50
329.638807
 51
0.0
  0
ARC
  8
L-ZISSEN
 10
956.718882
 20
510.85965
 30
0.0
 40
13.718882
 50
180.0
 51
210.361193
  0
ARC
  8
L-ZISSEN
 10
963.095227
 20
514.594826
 30
0.0
 40
21.108693
 50
210.361193
 51
234.73561
  0
ARC
  8
L-ZISSEN
 10
967.269387
 20
520.497981
 30
0.0
 40
28.338552
 50
234.73561
 51
253.67505
  0
ARC
  8
L-ZISSEN
 10
970.0
 20
529.820875
 30
0.0
 40
38.053108
 50
253.67505
 51
270.0
  0
ARC
  8
L-ZISSEN
 10
970.0
 20
529.820875
 30
0.0
 40
38.053108
 50
270.0
 51
286.32495
  0
ARC
  8
L-ZISSEN
 10
972.730613
 20
520.497981
 30
0.0
 40
28.338552
 50
286.32495
 51
305.26439
  0
ARC
  8
L-ZISSEN
 10
976.904773
 20
514.594826
 30
0.0
 40
21.108693
 50
305.26439
 51
329.638807
  0
ARC
  8
L-ZISSEN
 10
983.281118
 20
510.85965
 30
0.0
 40
13.718882
 50
329.638807
 51
0.0
  0
ARC
  8
L-ZISSEN
 10
970.0
 20
516.037132
 30
0.0
 40
36.643734
 50
270.0
 51
286.32495
  0
ARC
  8
L-ZISSEN
 10
972.629479
 20
507.05953
 30
0.0
 40
27.288976
 50
286.32495
 51
305.26439
  0
ARC
  8
L-ZISSEN
 10
976.649041
 20
501.375011
 30
0.0
 40
20.32689
 50
305.26439
 51
329.638807
  0
ARC
  8
L-ZISSEN
 10
982.789224
 20
497.778175
 30
0.0
 40
13.210776
 50
329.638807
 51
0.0
  0
ARC
  8
L-ZISSEN
 10
957.210776
 20
497.778175
 30
0.0
 40
13.210776
 50
180.0
 51
210.361193
  0
ARC
  8
L-ZISSEN
 10
963.350959
 20
501.375011
 30
0.0
 40
20.32689
 50
210.361193
 51
234.73561
  0
ARC
  8
L-ZISSEN
 10
967.370521
 20
507.05953
 30
0.0
 40
27.288976
 50
234.73561
 51
253.67505
  0
ARC
  8
L-ZISSEN
 10
970.0
 20
516.037132
 30
0.0
 40
36.643734
 50
253.67505
 51
270.0
  0
ARC
  8
L-ZISSEN
 10
970.0
 20
568.962868
 30
0.0
 40
36.643734
 50
90.0
 51
106.32495
  0
ARC
  8
L-ZISSEN
 10
967.370521
 20
577.94047
 30
0.0
 40
27.288976
 50
106.32495
 51
125.26439
  0
ARC
  8
L-ZISSEN
 10
963.350959
 20
583.624989
 30
0.0
 40
20.32689
 50
125.26439
 51
149.638807
  0
ARC
  8
L-ZISSEN
 10
957.210776
 20
587.221825
 30
0.0
 40
13.210776
 50
149.638807
 51
180.0
  0
ARC
  8
L-ZISSEN
 10
982.789224
 20
587.221825
 30
0.0
 40
13.210776
 50
360.0
 51
30.361193
  0
ARC
  8
L-ZISSEN
 10
976.649041
 20
583.624989
 30
0.0
 40
20.32689
 50
30.361193
 51
54.73561
  0
ARC
  8
L-ZISSEN
 10
972.629479
 20
577.94047
 30
0.0
 40
27.288976
 50
54.73561
 51
73.67505
  0
ARC
  8
L-ZISSEN
 10
970.0
 20
568.962868
 30
0.0
 40
36.643734
 50
73.67505
 51
90.0
  0
ARC
  8
L-ZISSEN
 10
983.281118
 20
574.14035
 30
0.0
 40
13.718882
 50
0.0
 51
30.361193
  0
ARC
  8
L-ZISSEN
 10
976.904773
 20
570.405174
 30
0.0
 40
21.108693
 50
30.361193
 51
54.73561
  0
ARC
  8
L-ZISSEN
 10
972.730613
 20
564.502019
 30
0.0
 40
28.338552
 50
54.73561
 51
73.67505
  0
ARC
  8
L-ZISSEN
 10
970.0
 20
555.179125
 30
0.0
 40
38.053108
 50
73.67505
 51
90.0
  0
ARC
  8
L-ZISSEN
 10
970.0
 20
555.179125
 30
0.0
 40
38.053108
 50
90.0
 51
106.32495
  0
ARC
  8
L-ZISSEN
 10
967.269387
 20
564.502019
 30
0.0
 40
28.338552
 50
106.32495
 51
125.26439
  0
ARC
  8
L-ZISSEN
 10
963.095227
 20
570.405174
 30
0.0
 40
21.108693
 50
125.26439
 51
149.638807
  0
ARC
  8
L-ZISSEN
 10
956.718882
 20
574.14035
 30
0.0
 40
13.718882
 50
149.638807
 51
180.0
  0
ARC
  8
L-ZISSEN
 10
983.281118
 20
570.604816
 30
0.0
 40
13.718882
 50
0.0
 51
30.361193
  0
ARC
  8
L-ZISSEN
 10
976.904773
 20
566.86964
 30
0.0
 40
21.108693
 50
30.361193
 51
54.73561
  0
ARC
  8
L-ZISSEN
 10
972.730613
 20
560.966485
 30
0.0
 40
28.338552
 50
54.73561
 51
73.67505
  0
ARC
  8
L-ZISSEN
 10
970.0
 20
551.643591
 30
0.0
 40
38.053108
 50
73.67505
 51
90.0
  0
ARC
  8
L-ZISSEN
 10
970.0
 20
551.643591
 30
0.0
 40
38.053108
 50
90.0
 51
106.32495
  0
ARC
  8
L-ZISSEN
 10
967.269387
 20
560.966485
 30
0.0
 40
28.338552
 50
106.32495
 51
125.26439
  0
ARC
  8
L-ZISSEN
 10
963.095227
 20
566.86964
 30
0.0
 40
21.108693
 50
125.26439
 51
149.638807
  0
ARC
  8
L-ZISSEN
 10
956.718882
 20
570.604816
 30
0.0
 40
13.718882
 50
149.638807
 51
180.0
  0
ARC
  8
L-ZISSEN
 10
956.718882
 20
570.604816
 30
0.0
 40
13.718882
 50
180.0
 51
210.361193
  0
ARC
  8
L-ZISSEN
 10
963.095227
 20
574.339992
 30
0.0
 40
21.108693
 50
210.361193
 51
234.73561
  0
ARC
  8
L-ZISSEN
 10
967.269387
 20
580.243147
 30
0.0
 40
28.338552
 50
234.73561
 51
253.67505
  0
ARC
  8
L-ZISSEN
 10
970.0
 20
589.566041
 30
0.0
 40
38.053108
 50
253.67505
 51
270.0
  0
ARC
  8
L-ZISSEN
 10
970.0
 20
589.566041
 30
0.0
 40
38.053108
 50
270.0
 51
286.32495
  0
ARC
  8
L-ZISSEN
 10
972.730613
 20
580.243147
 30
0.0
 40
28.338552
 50
286.32495
 51
305.26439
  0
ARC
  8
L-ZISSEN
 10
976.904773
 20
574.339992
 30
0.0
 40
21.108693
 50
305.26439
 51
329.638807
  0
ARC
  8
L-ZISSEN
 10
983.281118
 20
570.604816
 30
0.0
 40
13.718882
 50
329.638807
 51
0.0
  0
LINE
  8
L-ZISSEN
 10
997.0
 20
570.604816
 30
0.0
 11
997.0
 21
574.14035
 31
0.0
  0
LINE
  8
L-ZISSEN
 10
943.0
 20
570.604816
 30
0.0
 11
943.0
 21
574.14035
 31
0.0
  0
LINE
  8
L-ZISSEN
 10
996.0
 20
579.282117
 30
0.0
 11
996.0
 21
587.221825
 31
0.0
  0
LINE
  8
L-ZISSEN
 10
944.0
 20
579.282117
 30
0.0
 11
944.0
 21
587.221825
 31
0.0
  0
TEXT
  8
L-ZISSEN
 10
25.0
 20
425.0
 30
0.0
 40
4.5
  1
MODEL No. : RV2-400-RN*BK
  0
TEXT
  8
L-ZISSEN
 10
25.0
 20
435.0
 30
0.0
 40
4.5
  1
ADJUSTING HANDLE : KNOB
  0
TEXT
  8
L-ZISSEN
 10
275.0
 20
425.0
 30
0.0
 40
4.5
  1
MODEL No. : RV2-401-RN*BK
  0
TEXT
  8
L-ZISSEN
 10
275.0
 20
435.0
 30
0.0
 40
4.5
  1
ADJUSTING HANDLE : T HANDLE
  0
TEXT
  8
L-ZISSEN
 10
525.0
 20
425.0
 30
0.0
 40
4.5
  1
MODEL No. : RV2-40M-RN*BK
  0
TEXT
  8
L-ZISSEN
 10
525.0
 20
435.0
 30
0.0
 40
4.5
  1
ADJUSTING HANDLE : ROUND HANDLE
  0
TEXT
  8
L-ZISSEN
 10
775.0
 20
425.0
 30
0.0
 40
4.5
  1
MODEL No. : RV2-40L-RN*BK
  0
TEXT
  8
L-ZISSEN
 10
775.0
 20
435.0
 30
0.0
 40
4.5
  1
ADJUSTING HANDLE : LONG HANDLE
  0
TEXT
  8
L-ZISSEN
 10
1025.0
 20
425.0
 30
0.0
 40
4.5
  1
MODEL No. : RV2-40F-RNGBK
  0
TEXT
  8
L-ZISSEN
 10
1025.0
 20
435.0
 30
0.0
 40
4.5
  1
ADJUSTING SCREW WITH SLIT FOR SCREW DRIVER
  0
LINE
  8
L-TYUSIN
 10
255.0
 20
450.0
 30
0.0
 11
255.0
 21
20.0
 31
0.0
  0
LINE
  8
L-TYUSIN
 10
505.0
 20
450.0
 30
0.0
 11
505.0
 21
20.0
 31
0.0
  0
LINE
  8
L-TYUSIN
 10
755.0
 20
450.0
 30
0.0
 11
755.0
 21
20.0
 31
0.0
  0
LINE
  8
L-TYUSIN
 10
1005.0
 20
450.0
 30
0.0
 11
1005.0
 21
20.0
 31
0.0
  0
LINE
  8
L-ZISSEN
 10
185.0
 20
551.0
 30
0.0
 11
185.0
 21
466.0
 31
0.0
  0
LINE
  8
L-ZISSEN
 10
80.91608
 20
537.0
 30
0.0
 11
69.08392
 21
537.0
 31
0.0
  0
LINE
  8
L-ZISSEN
 10
69.08392
 20
503.0
 30
0.0
 11
80.91608
 21
503.0
 31
0.0
  0
ARC
  8
L-ZISSEN
 10
75.0
 20
520.0
 30
0.0
 40
18.0
 50
199.188136
 51
250.811864
  0
LINE
  8
L-ZISSEN
 10
58.0
 20
525.91608
 30
0.0
 11
58.0
 21
514.08392
 31
0.0
  0
LINE
  8
L-ZISSEN
 10
92.0
 20
525.91608
 30
0.0
 11
92.0
 21
514.08392
 31
0.0
  0
ARC
  8
L-ZISSEN
 10
75.0
 20
520.0
 30
0.0
 40
18.0
 50
109.188136
 51
160.811864
  0
ARC
  8
L-ZISSEN
 10
75.0
 20
520.0
 30
0.0
 40
18.0
 50
19.188136
 51
70.811864
  0
ARC
  8
L-ZISSEN
 10
75.0
 20
520.0
 30
0.0
 40
18.0
 50
289.188136
 51
340.811864
  0
LINE
  8
L-ZISSEN
 10
106.0
 20
507.5
 30
0.0
 11
106.0
 21
532.5
 31
0.0
  0
LINE
  8
L-ZISSEN
 10
91.103896
 20
536.103896
 30
0.0
 11
106.0
 21
532.5
 31
0.0
  0
LINE
  8
L-ZISSEN
 10
91.103896
 20
503.896104
 30
0.0
 11
106.0
 21
507.5
 31
0.0
  0
LINE
  8
L-ZISSEN
 10
91.103896
 20
536.103896
 30
0.0
 11
87.5
 21
551.0
 31
0.0
  0
LINE
  8
L-ZISSEN
 10
58.896104
 20
536.103896
 30
0.0
 11
62.5
 21
551.0
 31
0.0
  0
LINE
  8
L-ZISSEN
 10
62.5
 20
551.0
 30
0.0
 11
87.5
 21
551.0
 31
0.0
  0
LINE
  8
L-ZISSEN
 10
58.896104
 20
503.896104
 30
0.0
 11
63.254546
 21
485.881211
 31
0.0
  0
LINE
  8
L-ZISSEN
 10
58.896104
 20
503.896104
 30
0.0
 11
44.0
 21
507.5
 31
0.0
  0
LINE
  8
L-ZISSEN
 10
44.0
 20
507.5
 30
0.0
 11
44.0
 21
532.5
 31
0.0
  0
LINE
  8
L-ZISSEN
 10
58.896104
 20
536.103896
 30
0.0
 11
44.0
 21
532.5
 31
0.0
  0
CIRCLE
  8
L-ZISSEN
 10
75.0
 20
520.0
 30
0.0
 40
12.0585
  0
LINE
  8
L-ZISSEN
 10
106.0
 20
466.0
 30
0.0
 11
44.0
 21
466.0
 31
0.0
  0
LINE
  8
L-ZISSEN
 10
44.0
 20
476.0
 30
0.0
 11
106.0
 21
476.0
 31
0.0
  0
LINE
  8
L-ZISSEN
 10
44.0
 20
466.0
 30
0.0
 11
44.0
 21
476.0
 31
0.0
  0
LINE
  8
L-ZISSEN
 10
106.0
 20
466.0
 30
0.0
 11
106.0
 21
476.0
 31
0.0
  0
LINE
  8
L-TYUSIN
 10
55.0
 20
461.0
 30
0.0
 11
55.0
 21
481.0
 31
0.0
  0
LINE
  8
L-ZISSEN
 10
49.5
 20
476.0
 30
0.0
 11
49.5
 21
466.0
 31
0.0
  0
LINE
  8
L-ZISSEN
 10
60.5
 20
476.0
 30
0.0
 11
60.5
 21
466.0
 31
0.0
  0
LINE
  8
L-ZISSEN
 10
89.5
 20
476.0
 30
0.0
 11
89.5
 21
466.0
 31
0.0
  0
LINE
  8
L-ZISSEN
 10
100.5
 20
476.0
 30
0.0
 11
100.5
 21
466.0
 31
0.0
  0
LINE
  8
L-TYUSIN
 10
95.0
 20
461.0
 30
0.0
 11
95.0
 21
481.0
 31
0.0
  0
ARC
  8
L-ZISSEN
 10
55.478876
 20
484.0
 30
0.0
 40
8.0
 50
270.0
 51
13.600543
  0
ARC
  8
L-ZISSEN
 10
94.521124
 20
484.0
 30
0.0
 40
8.0
 50
166.399457
 51
270.0
  0
LINE
  8
L-ZISSEN
 10
91.103896
 20
503.896104
 30
0.0
 11
86.745454
 21
485.881211
 31
0.0
  0
LINE
  8
L-ZISSEN
 10
185.0
 20
466.0
 30
0.0
 11
148.0
 21
466.0
 31
0.0
  0
LINE
  8
L-ZISSEN
 10
148.0
 20
476.0
 30
0.0
 11
185.0
 21
476.0
 31
0.0
  0
LINE
  8
L-ZISSEN
 10
175.0
 20
551.0
 30
0.0
 11
185.0
 21
551.0
 31
0.0
  0
LINE
  8
L-ZISSEN
 10
175.0
 20
551.0
 30
0.0
 11
175.0
 21
476.0
 31
0.0
  0
LINE
  8
L-ZISSEN
 10
162.5
 20
537.0
 30
0.0
 11
162.5
 21
503.0
 31
0.0
  0
LINE
  8
L-ZISSEN
 10
162.5
 20
537.0
 30
0.0
 11
175.0
 21
537.0
 31
0.0
  0
LINE
  8
L-ZISSEN
 10
162.5
 20
503.0
 30
0.0
 11
175.0
 21
503.0
 31
0.0
  0
LINE
  8
L-ZISSEN
 10
148.0
 20
476.0
 30
0.0
 11
148.0
 21
466.0
 31
0.0
  0
LINE
  8
L-TYUSIN
 10
160.0
 20
461.0
 30
0.0
 11
160.0
 21
481.0
 31
0.0
  0
LINE
  8
L-ZISSEN
 10
185.0
 20
646.0
 30
0.0
 11
185.0
 21
584.0
 31
0.0
  0
LINE
  8
L-ZISSEN
 10
162.5
 20
632.0
 30
0.0
 11
162.5
 21
598.0
 31
0.0
  0
LINE
  8
L-ZISSEN
 10
162.5
 20
632.0
 30
0.0
 11
175.0
 21
632.0
 31
0.0
  0
LINE
  8
L-ZISSEN
 10
162.5
 20
598.0
 30
0.0
 11
175.0
 21
598.0
 31
0.0
  0
LINE
  8
L-ZISSEN
 10
148.0
 20
646.0
 30
0.0
 11
148.0
 21
640.5
 31
0.0
  0
LINE
  8
L-ZISSEN
 10
175.0
 20
646.0
 30
0.0
 11
175.0
 21
584.0
 31
0.0
  0
LINE
  8
L-ZISSEN
 10
148.0
 20
646.0
 30
0.0
 11
185.0
 21
646.0
 31
0.0
  0
LINE
  8
L-ZISSEN
 10
148.0
 20
584.0
 30
0.0
 11
185.0
 21
584.0
 31
0.0
  0
LINE
  8
L-TYUSIN
 10
143.0
 20
595.0
 30
0.0
 11
170.0
 21
595.0
 31
0.0
  0
LINE
  8
L-TYUSIN
 10
160.0
 20
605.0
 30
0.0
 11
160.0
 21
585.0
 31
0.0
  0
ARC
  8
L-ZISSEN
 10
160.0
 20
595.0
 30
0.0
 40
5.5
 50
270.0
 51
33.055731
  0
LINE
  8
L-ZISSEN
 10
160.0
 20
589.5
 30
0.0
 11
148.0
 21
589.5
 31
0.0
  0
LINE
  8
L-ZISSEN
 10
160.0
 20
600.5
 30
0.0
 11
148.0
 21
600.5
 31
0.0
  0
LINE
  8
L-ZISSEN
 10
148.0
 20
589.5
 30
0.0
 11
148.0
 21
584.0
 31
0.0
  0
LINE
  8
L-ZISSEN
 10
160.0
 20
629.5
 30
0.0
 11
148.0
 21
629.5
 31
0.0
  0
LINE
  8
L-ZISSEN
 10
160.0
 20
640.5
 30
0.0
 11
148.0
 21
640.5
 31
0.0
  0
LINE
  8
L-TYUSIN
 10
143.0
 20
635.0
 30
0.0
 11
170.0
 21
635.0
 31
0.0
  0
LINE
  8
L-TYUSIN
 10
160.0
 20
625.0
 30
0.0
 11
160.0
 21
645.0
 31
0.0
  0
LINE
  8
L-ZISSEN
 10
148.0
 20
629.5
 30
0.0
 11
148.0
 21
600.5
 31
0.0
  0
ARC
  8
L-ZISSEN
 10
160.0
 20
595.0
 30
0.0
 40
5.5
 50
62.964308
 51
90.0
  0
ARC
  8
L-ZISSEN
 10
160.0
 20
635.0
 30
0.0
 40
5.5
 50
326.944269
 51
90.0
  0
ARC
  8
L-ZISSEN
 10
160.0
 20
635.0
 30
0.0
 40
5.5
 50
270.0
 51
297.035692
  0
ARC
  8
L-ZISSEN
 10
270.0
 20
635.0
 30
0.0
 40
5.5
 50
242.964308
 51
270.0
  0
ARC
  8
L-ZISSEN
 10
270.0
 20
635.0
 30
0.0
 40
5.5
 50
90.0
 51
213.055731
  0
ARC
  8
L-ZISSEN
 10
270.0
 20
595.0
 30
0.0
 40
5.5
 50
90.0
 51
117.035692
  0
LINE
  8
L-ZISSEN
 10
282.0
 20
629.5
 30
0.0
 11
282.0
 21
600.5
 31
0.0
  0
LINE
  8
L-TYUSIN
 10
270.0
 20
625.0
 30
0.0
 11
270.0
 21
645.0
 31
0.0
  0
LINE
  8
L-TYUSIN
 10
287.0
 20
635.0
 30
0.0
 11
260.0
 21
635.0
 31
0.0
  0
LINE
  8
L-ZISSEN
 10
270.0
 20
640.5
 30
0.0
 11
282.0
 21
640.5
 31
0.0
  0
LINE
  8
L-ZISSEN
 10
270.0
 20
629.5
 30
0.0
 11
282.0
 21
629.5
 31
0.0
  0
LINE
  8
L-ZISSEN
 10
282.0
 20
589.5
 30
0.0
 11
282.0
 21
584.0
 31
0.0
  0
LINE
  8
L-ZISSEN
 10
270.0
 20
600.5
 30
0.0
 11
282.0
 21
600.5
 31
0.0
  0
LINE
  8
L-ZISSEN
 10
270.0
 20
589.5
 30
0.0
 11
282.0
 21
589.5
 31
0.0
  0
ARC
  8
L-ZISSEN
 10
270.0
 20
595.0
 30
0.0
 40
5.5
 50
146.944269
 51
270.0
  0
LINE
  8
L-TYUSIN
 10
270.0
 20
605.0
 30
0.0
 11
270.0
 21
585.0
 31
0.0
  0
LINE
  8
L-TYUSIN
 10
287.0
 20
595.0
 30
0.0
 11
260.0
 21
595.0
 31
0.0
  0
LINE
  8
L-ZISSEN
 10
282.0
 20
584.0
 30
0.0
 11
245.0
 21
584.0
 31
0.0
  0
LINE
  8
L-ZISSEN
 10
282.0
 20
646.0
 30
0.0
 11
245.0
 21
646.0
 31
0.0
  0
LINE
  8
L-ZISSEN
 10
255.0
 20
646.0
 30
0.0
 11
255.0
 21
584.0
 31
0.0
  0
LINE
  8
L-ZISSEN
 10
282.0
 20
646.0
 30
0.0
 11
282.0
 21
640.5
 31
0.0
  0
LINE
  8
L-ZISSEN
 10
267.5
 20
598.0
 30
0.0
 11
255.0
 21
598.0
 31
0.0
  0
LINE
  8
L-ZISSEN
 10
267.5
 20
632.0
 30
0.0
 11
255.0
 21
632.0
 31
0.0
  0
LINE
  8
L-ZISSEN
 10
267.5
 20
632.0
 30
0.0
 11
267.5
 21
598.0
 31
0.0
  0
LINE
  8
L-ZISSEN
 10
245.0
 20
646.0
 30
0.0
 11
245.0
 21
584.0
 31
0.0
  0
LINE
  8
L-TYUSIN
 10
270.0
 20
461.0
 30
0.0
 11
270.0
 21
481.0
 31
0.0
  0
LINE
  8
L-ZISSEN
 10
282.0
 20
476.0
 30
0.0
 11
282.0
 21
466.0
 31
0.0
  0
LINE
  8
L-ZISSEN
 10
267.5
 20
503.0
 30
0.0
 11
255.0
 21
503.0
 31
0.0
  0
LINE
  8
L-ZISSEN
 10
267.5
 20
537.0
 30
0.0
 11
255.0
 21
537.0
 31
0.0
  0
LINE
  8
L-ZISSEN
 10
267.5
 20
537.0
 30
0.0
 11
267.5
 21
503.0
 31
0.0
  0
LINE
  8
L-ZISSEN
 10
255.0
 20
551.0
 30
0.0
 11
255.0
 21
476.0
 31
0.0
  0
LINE
  8
L-ZISSEN
 10
255.0
 20
551.0
 30
0.0
 11
245.0
 21
551.0
 31
0.0
  0
LINE
  8
L-ZISSEN
 10
282.0
 20
476.0
 30
0.0
 11
245.0
 21
476.0
 31
0.0
  0
LINE
  8
L-ZISSEN
 10
245.0
 20
466.0
 30
0.0
 11
282.0
 21
466.0
 31
0.0
  0
LINE
  8
L-ZISSEN
 10
245.0
 20
551.0
 30
0.0
 11
245.0
 21
466.0
 31
0.0
  0
LINE
  8
L-ZISSEN
 10
72.113249
 20
501.0
 30
0.0
 11
69.226497
 21
496.0
 31
0.0
  0
LINE
  8
L-ZISSEN
 10
69.226497
 20
496.0
 30
0.0
 11
72.113249
 21
491.0
 31
0.0
  0
LINE
  8
L-ZISSEN
 10
72.113249
 20
491.0
 30
0.0
 11
77.886751
 21
491.0
 31
0.0
  0
LINE
  8
L-ZISSEN
 10
77.886751
 20
491.0
 30
0.0
 11
80.773503
 21
496.0
 31
0.0
  0
LINE
  8
L-ZISSEN
 10
80.773503
 20
496.0
 30
0.0
 11
77.886751
 21
501.0
 31
0.0
  0
LINE
  8
L-ZISSEN
 10
77.886751
 20
501.0
 30
0.0
 11
72.113249
 21
501.0
 31
0.0
  0
LINE
  8
L-ZISSEN
 10
72.113249
 20
549.0
 30
0.0
 11
69.226497
 21
544.0
 31
0.0
  0
LINE
  8
L-ZISSEN
 10
69.226497
 20
544.0
 30
0.0
 11
72.113249
 21
539.0
 31
0.0
  0
LINE
  8
L-ZISSEN
 10
72.113249
 20
539.0
 30
0.0
 11
77.886751
 21
539.0
 31
0.0
  0
LINE
  8
L-ZISSEN
 10
77.886751
 20
539.0
 30
0.0
 11
80.773503
 21
544.0
 31
0.0
  0
LINE
  8
L-ZISSEN
 10
80.773503
 20
544.0
 30
0.0
 11
77.886751
 21
549.0
 31
0.0
  0
LINE
  8
L-ZISSEN
 10
77.886751
 20
549.0
 30
0.0
 11
72.113249
 21
549.0
 31
0.0
  0
LINE
  8
L-ZISSEN
 10
169.5
 20
501.0
 30
0.0
 11
169.5
 21
491.0
 31
0.0
  0
LINE
  8
L-ZISSEN
 10
169.5
 20
491.0
 30
0.0
 11
175.0
 21
491.0
 31
0.0
  0
LINE
  8
L-ZISSEN
 10
169.5
 20
501.0
 30
0.0
 11
175.0
 21
501.0
 31
0.0
  0
LINE
  8
L-ZISSEN
 10
169.5
 20
539.0
 30
0.0
 11
175.0
 21
539.0
 31
0.0
  0
LINE
  8
L-ZISSEN
 10
169.5
 20
539.0
 30
0.0
 11
169.5
 21
549.0
 31
0.0
  0
LINE
  8
L-ZISSEN
 10
169.5
 20
549.0
 30
0.0
 11
175.0
 21
549.0
 31
0.0
  0
LINE
  8
L-ZISSEN
 10
260.5
 20
501.0
 30
0.0
 11
255.0
 21
501.0
 31
0.0
  0
LINE
  8
L-ZISSEN
 10
260.5
 20
491.0
 30
0.0
 11
255.0
 21
491.0
 31
0.0
  0
LINE
  8
L-ZISSEN
 10
260.5
 20
501.0
 30
0.0
 11
260.5
 21
491.0
 31
0.0
  0
LINE
  8
L-ZISSEN
 10
260.5
 20
549.0
 30
0.0
 11
255.0
 21
549.0
 31
0.0
  0
LINE
  8
L-ZISSEN
 10
260.5
 20
539.0
 30
0.0
 11
260.5
 21
549.0
 31
0.0
  0
LINE
  8
L-ZISSEN
 10
260.5
 20
539.0
 30
0.0
 11
255.0
 21
539.0
 31
0.0
  0
LINE
  8
L-ZISSEN
 10
169.5
 20
620.773503
 30
0.0
 11
175.0
 21
620.773503
 31
0.0
  0
LINE
  8
L-ZISSEN
 10
169.5
 20
620.773503
 30
0.0
 11
169.5
 21
609.226497
 31
0.0
  0
LINE
  8
L-ZISSEN
 10
169.5
 20
609.226497
 30
0.0
 11
175.0
 21
609.226497
 31
0.0
  0
LINE
  8
L-ZISSEN
 10
260.5
 20
620.773503
 30
0.0
 11
255.0
 21
620.773503
 31
0.0
  0
LINE
  8
L-ZISSEN
 10
260.5
 20
620.773503
 30
0.0
 11
260.5
 21
609.226497
 31
0.0
  0
LINE
  8
L-ZISSEN
 10
260.5
 20
609.226497
 30
0.0
 11
255.0
 21
609.226497
 31
0.0
  0
LINE
  8
L-TYUSIN
 10
350.0
 20
638.0
 30
0.0
 11
350.0
 21
579.0
 31
0.0
  0
LINE
  8
L-ZISSEN
 10
362.5
 20
490.0
 30
0.0
 11
337.5
 21
490.0
 31
0.0
  0
LINE
  8
L-ZISSEN
 10
362.5
 20
489.0
 30
0.0
 11
367.5
 21
489.0
 31
0.0
  0
LINE
  8
L-ZISSEN
 10
362.5
 20
551.0
 30
0.0
 11
367.5
 21
551.0
 31
0.0
  0
LINE
  8
L-ZISSEN
 10
362.5
 20
550.0
 30
0.0
 11
337.5
 21
550.0
 31
0.0
  0
CIRCLE
  8
L-ZISSEN
 10
350.0
 20
520.0
 30
0.0
 40
9.3155
  0
LINE
  8
L-ZISSEN
 10
362.5
 20
529.987492
 30
0.0
 11
362.5
 21
551.0
 31
0.0
  0
LINE
  8
L-ZISSEN
 10
337.5
 20
529.987492
 30
0.0
 11
337.5
 21
551.0
 31
0.0
  0
CIRCLE
  8
L-ZISSEN
 10
350.0
 20
520.0
 30
0.0
 40
16.0
  0
LINE
  8
L-ZISSEN
 10
362.5
 20
489.0
 30
0.0
 11
362.5
 21
510.012508
 31
0.0
  0
LINE
  8
L-ZISSEN
 10
337.5
 20
489.0
 30
0.0
 11
337.5
 21
510.012508
 31
0.0
  0
LINE
  8
L-ZISSEN
 10
332.5
 20
489.0
 30
0.0
 11
337.5
 21
489.0
 31
0.0
  0
LINE
  8
L-ZISSEN
 10
332.5
 20
489.0
 30
0.0
 11
332.5
 21
551.0
 31
0.0
  0
LINE
  8
L-ZISSEN
 10
367.5
 20
489.0
 30
0.0
 11
367.5
 21
551.0
 31
0.0
  0
LINE
  8
L-ZISSEN
 10
332.5
 20
551.0
 30
0.0
 11
337.5
 21
551.0
 31
0.0
  0
LINE
  8
L-TYUSIN
 10
325.0
 20
520.0
 30
0.0
 11
375.0
 21
520.0
 31
0.0
  0
LINE
  8
L-TYUSIN
 10
350.0
 20
485.0
 30
0.0
 11
350.0
 21
555.0
 31
0.0
  0
LINE
  8
L-ZISSEN
 10
367.5
 20
595.0
 30
0.0
 11
367.5
 21
635.0
 31
0.0
  0
LINE
  8
L-ZISSEN
 10
362.5
 20
595.0
 30
0.0
 11
362.5
 21
635.0
 31
0.0
  0
LINE
  8
L-ZISSEN
 10
332.5
 20
595.0
 30
0.0
 11
332.5
 21
635.0
 31
0.0
  0
LINE
  8
L-ZISSEN
 10
337.5
 20
595.0
 30
0.0
 11
337.5
 21
635.0
 31
0.0
  0
LINE
  8
L-ZISSEN
 10
362.5
 20
633.0
 30
0.0
 11
337.5
 21
633.0
 31
0.0
  0
LINE
  8
L-ZISSEN
 10
367.5
 20
635.0
 30
0.0
 11
362.5
 21
635.0
 31
0.0
  0
LINE
  8
L-ZISSEN
 10
337.5
 20
635.0
 30
0.0
 11
332.5
 21
635.0
 31
0.0
  0
LINE
  8
L-ZISSEN
 10
366.0
 20
584.0
 30
0.0
 11
334.0
 21
584.0
 31
0.0
  0
LINE
  8
L-ZISSEN
 10
367.5
 20
595.0
 30
0.0
 11
362.5
 21
595.0
 31
0.0
  0
LINE
  8
L-ZISSEN
 10
337.5
 20
595.0
 30
0.0
 11
332.5
 21
595.0
 31
0.0
  0
LINE
  8
L-ZISSEN
 10
334.0
 20
584.0
 30
0.0
 11
334.0
 21
595.0
 31
0.0
  0
LINE
  8
L-ZISSEN
 10
366.0
 20
584.0
 30
0.0
 11
366.0
 21
595.0
 31
0.0
  0
LINE
  8
L-ZISSEN
 10
437.5
 20
489.0
 30
0.0
 11
437.5
 21
551.0
 31
0.0
  0
LINE
  8
L-ZISSEN
 10
432.5
 20
489.0
 30
0.0
 11
437.5
 21
489.0
 31
0.0
  0
LINE
  8
L-ZISSEN
 10
432.5
 20
551.0
 30
0.0
 11
437.5
 21
551.0
 31
0.0
  0
LINE
  8
L-ZISSEN
 10
432.5
 20
489.0
 30
0.0
 11
432.5
 21
551.0
 31
0.0
  0
LINE
  8
L-ZISSEN
 10
437.5
 20
595.0
 30
0.0
 11
432.5
 21
595.0
 31
0.0
  0
LINE
  8
L-ZISSEN
 10
437.5
 20
635.0
 30
0.0
 11
432.5
 21
635.0
 31
0.0
  0
LINE
  8
L-ZISSEN
 10
432.5
 20
595.0
 30
0.0
 11
432.5
 21
635.0
 31
0.0
  0
LINE
  8
L-ZISSEN
 10
437.5
 20
595.0
 30
0.0
 11
437.5
 21
635.0
 31
0.0
  0
LINE
  8
L-ZISSEN
 10
502.5
 20
595.0
 30
0.0
 11
502.5
 21
635.0
 31
0.0
  0
LINE
  8
L-ZISSEN
 10
517.5
 20
635.0
 30
0.0
 11
502.5
 21
635.0
 31
0.0
  0
LINE
  8
L-ZISSEN
 10
517.5
 20
595.0
 30
0.0
 11
502.5
 21
595.0
 31
0.0
  0
LINE
  8
L-ZISSEN
 10
502.5
 20
489.0
 30
0.0
 11
502.5
 21
551.0
 31
0.0
  0
LINE
  8
L-ZISSEN
 10
502.5
 20
551.0
 30
0.0
 11
517.5
 21
551.0
 31
0.0
  0
LINE
  8
L-ZISSEN
 10
502.5
 20
489.0
 30
0.0
 11
517.5
 21
489.0
 31
0.0
  0
LINE
  8
L-ZISSEN
 10
517.5
 20
595.0
 30
0.0
 11
517.5
 21
635.0
 31
0.0
  0
LINE
  8
L-ZISSEN
 10
517.5
 20
489.0
 30
0.0
 11
517.5
 21
551.0
 31
0.0
  0
SOLID
  8
L-ZISSEN
 10
80.316228
 20
77.997224
 30
0.0
 11
80.948683
 21
78.208043
 31
0.0
 12
80.0
 22
80.0
 32
0.0
 13
80.0
 23
80.0
 33
0.0
  0
LINE
  8
L-ZISSEN
 10
80.632456
 20
78.102633
 30
0.0
 11
95.0
 21
35.0
 31
0.0
  0
LINE
  8
L-ZISSEN
 10
95.0
 20
35.0
 30
0.0
 11
97.0
 21
35.0
 31
0.0
  0
TEXT
  8
L-ZISSEN
 10
99.0
 20
32.75
 30
0.0
 40
4.5
  1
P.P
  0
SOLID
  8
L-ZISSEN
 10
73.350084
 20
518.821489
 30
0.0
 11
73.821489
 21
518.350084
 31
0.0
 12
75.0
 22
520.0
 32
0.0
 13
75.0
 23
520.0
 33
0.0
  0
LINE
  8
L-ZISSEN
 10
73.585786
 20
518.585786
 30
0.0
 11
50.0
 21
495.0
 31
0.0
  0
LINE
  8
L-ZISSEN
 10
50.0
 20
495.0
 30
0.0
 11
48.0
 21
495.0
 31
0.0
  0
TEXT
  8
L-ZISSEN
 10
40.0
 20
492.75
 30
0.0
 40
4.5
  1
IN
  0
TEXT
  8
L-ZISSEN
 10
20.0
 20
485.0
 30
0.0
 40
4.5
  1
Rc 3/4
  0
SOLID
  8
L-ZISSEN
 10
158.61325
 20
78.520799
 30
0.0
 11
159.16795
 21
78.150999
 31
0.0
 12
160.0
 22
80.0
 32
0.0
 13
160.0
 23
80.0
 33
0.0
  0
LINE
  8
L-ZISSEN
 10
158.8906
 20
78.335899
 30
0.0
 11
150.0
 21
65.0
 31
0.0
  0
LINE
  8
L-ZISSEN
 10
150.0
 20
65.0
 30
0.0
 11
148.0
 21
65.0
 31
0.0
  0
TEXT
  8
L-ZISSEN
 10
137.0
 20
62.75
 30
0.0
 40
4.5
  1
P.P
  0
SOLID
  8
L-ZISSEN
 10
230.83205
 20
78.150999
 30
0.0
 11
231.38675
 21
78.520799
 31
0.0
 12
230.0
 22
80.0
 32
0.0
 13
230.0
 23
80.0
 33
0.0
  0
LINE
  8
L-ZISSEN
 10
231.1094
 20
78.335899
 30
0.0
 11
240.0
 21
65.0
 31
0.0
  0
LINE
  8
L-ZISSEN
 10
240.0
 20
65.0
 30
0.0
 11
242.0
 21
65.0
 31
0.0
  0
TEXT
  8
L-ZISSEN
 10
244.0
 20
62.75
 30
0.0
 40
4.5
  1
P.P
  0
SOLID
  8
L-ZISSEN
 10
231.178511
 20
393.350084
 30
0.0
 11
231.649916
 21
393.821489
 31
0.0
 12
230.0
 22
395.0
 32
0.0
 13
230.0
 23
395.0
 33
0.0
  0
LINE
  8
L-ZISSEN
 10
231.414214
 20
393.585786
 30
0.0
 11
240.0
 21
385.0
 31
0.0
  0
LINE
  8
L-ZISSEN
 10
240.0
 20
385.0
 30
0.0
 11
242.0
 21
385.0
 31
0.0
  0
TEXT
  8
L-ZISSEN
 10
244.0
 20
382.75
 30
0.0
 40
4.5
  1
P.P
  0
SOLID
  8
L-ZISSEN
 10
158.350084
 20
393.821489
 30
0.0
 11
158.821489
 21
393.350084
 31
0.0
 12
160.0
 22
395.0
 32
0.0
 13
160.0
 23
395.0
 33
0.0
  0
LINE
  8
L-ZISSEN
 10
158.585786
 20
393.585786
 30
0.0
 11
150.0
 21
385.0
 31
0.0
  0
LINE
  8
L-ZISSEN
 10
150.0
 20
385.0
 30
0.0
 11
148.0
 21
385.0
 31
0.0
  0
TEXT
  8
L-ZISSEN
 10
137.0
 20
382.75
 30
0.0
 40
4.5
  1
P.P
  0
LINE
  8
L-TYUSIN
 10
5.0
 20
450.0
 30
0.0
 11
1310.0
 21
450.0
 31
0.0
  0
LINE
  8
L-TYUSIN
 10
300.0
 20
450.0
 30
0.0
 11
300.0
 21
690.0
 31
0.0
  0
SOLID
  8
L-ZISSEN
 10
243.350084
 20
518.821489
 30
0.0
 11
243.821489
 21
518.350084
 31
0.0
 12
245.0
 22
520.0
 32
0.0
 13
245.0
 23
520.0
 33
0.0
  0
LINE
  8
L-ZISSEN
 10
243.585786
 20
518.585786
 30
0.0
 11
235.0
 21
510.0
 31
0.0
  0
LINE
  8
L-ZISSEN
 10
235.0
 20
510.0
 30
0.0
 11
233.0
 21
510.0
 31
0.0
  0
TEXT
  8
L-ZISSEN
 10
222.0
 20
507.75
 30
0.0
 40
4.5
  1
P.P
  0
SOLID
  8
L-ZISSEN
 10
186.178511
 20
518.350084
 30
0.0
 11
186.649916
 21
518.821489
 31
0.0
 12
185.0
 22
520.0
 32
0.0
 13
185.0
 23
520.0
 33
0.0
  0
LINE
  8
L-ZISSEN
 10
186.414214
 20
518.585786
 30
0.0
 11
195.0
 21
510.0
 31
0.0
  0
LINE
  8
L-ZISSEN
 10
195.0
 20
510.0
 30
0.0
 11
197.0
 21
510.0
 31
0.0
  0
TEXT
  8
L-ZISSEN
 10
199.0
 20
507.75
 30
0.0
 40
4.5
  1
P.P
  0
SOLID
  8
L-ZISSEN
 10
186.639783
 20
613.80743
 30
0.0
 11
186.937926
 21
614.403715
 31
0.0
 12
185.0
 22
615.0
 32
0.0
 13
185.0
 23
615.0
 33
0.0
  0
LINE
  8
L-ZISSEN
 10
186.788854
 20
614.105573
 30
0.0
 11
195.0
 21
610.0
 31
0.0
  0
LINE
  8
L-ZISSEN
 10
195.0
 20
610.0
 30
0.0
 11
197.0
 21
610.0
 31
0.0
  0
TEXT
  8
L-ZISSEN
 10
199.0
 20
607.75
 30
0.0
 40
4.5
  1
P.P
  0
SOLID
  8
L-ZISSEN
 10
243.062074
 20
614.403715
 30
0.0
 11
243.360217
 21
613.80743
 31
0.0
 12
245.0
 22
615.0
 32
0.0
 13
245.0
 23
615.0
 33
0.0
  0
LINE
  8
L-ZISSEN
 10
243.211146
 20
614.105573
 30
0.0
 11
235.0
 21
610.0
 31
0.0
  0
LINE
  8
L-ZISSEN
 10
235.0
 20
610.0
 30
0.0
 11
233.0
 21
610.0
 31
0.0
  0
TEXT
  8
L-ZISSEN
 10
222.0
 20
607.75
 30
0.0
 40
4.5
  1
P.P
  0
SOLID
  8
L-ZISSEN
 10
111.178511
 20
518.350084
 30
0.0
 11
111.649916
 21
518.821489
 31
0.0
 12
110.0
 22
520.0
 32
0.0
 13
110.0
 23
520.0
 33
0.0
  0
LINE
  8
L-ZISSEN
 10
111.414214
 20
518.585786
 30
0.0
 11
120.0
 21
510.0
 31
0.0
  0
LINE
  8
L-ZISSEN
 10
120.0
 20
510.0
 30
0.0
 11
122.0
 21
510.0
 31
0.0
  0
TEXT
  8
L-ZISSEN
 10
124.0
 20
507.75
 30
0.0
 40
4.5
  1
P.P
  0
SOLID
  8
L-ZISSEN
 10
330.316228
 20
77.997224
 30
0.0
 11
330.948683
 21
78.208043
 31
0.0
 12
330.0
 22
80.0
 32
0.0
 13
330.0
 23
80.0
 33
0.0
  0
LINE
  8
L-ZISSEN
 10
330.632456
 20
78.102633
 30
0.0
 11
345.0
 21
35.0
 31
0.0
  0
TEXT
  8
L-ZISSEN
 10
349.0
 20
32.75
 30
0.0
 40
4.5
  1
P.P
  0
LINE
  8
L-ZISSEN
 10
345.0
 20
35.0
 30
0.0
 11
347.0
 21
35.0
 31
0.0
  0
TEXT
  8
L-ZISSEN
 10
387.0
 20
62.75
 30
0.0
 40
4.5
  1
P.P
  0
LINE
  8
L-ZISSEN
 10
400.0
 20
65.0
 30
0.0
 11
398.0
 21
65.0
 31
0.0
  0
LINE
  8
L-ZISSEN
 10
408.8906
 20
78.335899
 30
0.0
 11
400.0
 21
65.0
 31
0.0
  0
SOLID
  8
L-ZISSEN
 10
408.61325
 20
78.520799
 30
0.0
 11
409.16795
 21
78.150999
 31
0.0
 12
410.0
 22
80.0
 32
0.0
 13
410.0
 23
80.0
 33
0.0
  0
TEXT
  8
L-ZISSEN
 10
494.0
 20
62.75
 30
0.0
 40
4.5
  1
P.P
  0
LINE
  8
L-ZISSEN
 10
490.0
 20
65.0
 30
0.0
 11
492.0
 21
65.0
 31
0.0
  0
LINE
  8
L-ZISSEN
 10
481.1094
 20
78.335899
 30
0.0
 11
490.0
 21
65.0
 31
0.0
  0
SOLID
  8
L-ZISSEN
 10
480.83205
 20
78.150999
 30
0.0
 11
481.38675
 21
78.520799
 31
0.0
 12
480.0
 22
80.0
 32
0.0
 13
480.0
 23
80.0
 33
0.0
  0
TEXT
  8
L-ZISSEN
 10
494.0
 20
382.75
 30
0.0
 40
4.5
  1
P.P
  0
LINE
  8
L-ZISSEN
 10
490.0
 20
385.0
 30
0.0
 11
492.0
 21
385.0
 31
0.0
  0
LINE
  8
L-ZISSEN
 10
481.414214
 20
393.585786
 30
0.0
 11
490.0
 21
385.0
 31
0.0
  0
SOLID
  8
L-ZISSEN
 10
481.178511
 20
393.350084
 30
0.0
 11
481.649916
 21
393.821489
 31
0.0
 12
480.0
 22
395.0
 32
0.0
 13
480.0
 23
395.0
 33
0.0
  0
TEXT
  8
L-ZISSEN
 10
387.0
 20
382.75
 30
0.0
 40
4.5
  1
P.P
  0
LINE
  8
L-ZISSEN
 10
400.0
 20
385.0
 30
0.0
 11
398.0
 21
385.0
 31
0.0
  0
LINE
  8
L-ZISSEN
 10
408.585786
 20
393.585786
 30
0.0
 11
400.0
 21
385.0
 31
0.0
  0
SOLID
  8
L-ZISSEN
 10
408.350084
 20
393.821489
 30
0.0
 11
408.821489
 21
393.350084
 31
0.0
 12
410.0
 22
395.0
 32
0.0
 13
410.0
 23
395.0
 33
0.0
  0
SOLID
  8
L-ZISSEN
 10
580.316228
 20
77.997224
 30
0.0
 11
580.948683
 21
78.208043
 31
0.0
 12
580.0
 22
80.0
 32
0.0
 13
580.0
 23
80.0
 33
0.0
  0
LINE
  8
L-ZISSEN
 10
580.632456
 20
78.102633
 30
0.0
 11
595.0
 21
35.0
 31
0.0
  0
LINE
  8
L-ZISSEN
 10
595.0
 20
35.0
 30
0.0
 11
597.0
 21
35.0
 31
0.0
  0
TEXT
  8
L-ZISSEN
 10
599.0
 20
32.75
 30
0.0
 40
4.5
  1
P.P
  0
SOLID
  8
L-ZISSEN
 10
730.83205
 20
78.150999
 30
0.0
 11
731.38675
 21
78.520799
 31
0.0
 12
730.0
 22
80.0
 32
0.0
 13
730.0
 23
80.0
 33
0.0
  0
LINE
  8
L-ZISSEN
 10
731.1094
 20
78.335899
 30
0.0
 11
740.0
 21
65.0
 31
0.0
  0
LINE
  8
L-ZISSEN
 10
740.0
 20
65.0
 30
0.0
 11
742.0
 21
65.0
 31
0.0
  0
TEXT
  8
L-ZISSEN
 10
744.0
 20
62.75
 30
0.0
 40
4.5
  1
P.P
  0
SOLID
  8
L-ZISSEN
 10
658.61325
 20
78.520799
 30
0.0
 11
659.16795
 21
78.150999
 31
0.0
 12
660.0
 22
80.0
 32
0.0
 13
660.0
 23
80.0
 33
0.0
  0
LINE
  8
L-ZISSEN
 10
658.8906
 20
78.335899
 30
0.0
 11
650.0
 21
65.0
 31
0.0
  0
LINE
  8
L-ZISSEN
 10
650.0
 20
65.0
 30
0.0
 11
648.0
 21
65.0
 31
0.0
  0
TEXT
  8
L-ZISSEN
 10
637.0
 20
62.75
 30
0.0
 40
4.5
  1
P.P
  0
SOLID
  8
L-ZISSEN
 10
731.178511
 20
393.350084
 30
0.0
 11
731.649916
 21
393.821489
 31
0.0
 12
730.0
 22
395.0
 32
0.0
 13
730.0
 23
395.0
 33
0.0
  0
LINE
  8
L-ZISSEN
 10
731.414214
 20
393.585786
 30
0.0
 11
740.0
 21
385.0
 31
0.0
  0
LINE
  8
L-ZISSEN
 10
740.0
 20
385.0
 30
0.0
 11
742.0
 21
385.0
 31
0.0
  0
TEXT
  8
L-ZISSEN
 10
744.0
 20
382.75
 30
0.0
 40
4.5
  1
P.P
  0
SOLID
  8
L-ZISSEN
 10
658.350084
 20
393.821489
 30
0.0
 11
658.821489
 21
393.350084
 31
0.0
 12
660.0
 22
395.0
 32
0.0
 13
660.0
 23
395.0
 33
0.0
  0
LINE
  8
L-ZISSEN
 10
658.585786
 20
393.585786
 30
0.0
 11
650.0
 21
385.0
 31
0.0
  0
LINE
  8
L-ZISSEN
 10
650.0
 20
385.0
 30
0.0
 11
648.0
 21
385.0
 31
0.0
  0
TEXT
  8
L-ZISSEN
 10
637.0
 20
382.75
 30
0.0
 40
4.5
  1
P.P
  0
TEXT
  8
L-ZISSEN
 10
994.0
 20
382.75
 30
0.0
 40
4.5
  1
P.P
  0
LINE
  8
L-ZISSEN
 10
990.0
 20
385.0
 30
0.0
 11
992.0
 21
385.0
 31
0.0
  0
LINE
  8
L-ZISSEN
 10
981.414214
 20
393.585786
 30
0.0
 11
990.0
 21
385.0
 31
0.0
  0
SOLID
  8
L-ZISSEN
 10
981.178511
 20
393.350084
 30
0.0
 11
981.649916
 21
393.821489
 31
0.0
 12
980.0
 22
395.0
 32
0.0
 13
980.0
 23
395.0
 33
0.0
  0
TEXT
  8
L-ZISSEN
 10
887.0
 20
382.75
 30
0.0
 40
4.5
  1
P.P
  0
LINE
  8
L-ZISSEN
 10
900.0
 20
385.0
 30
0.0
 11
898.0
 21
385.0
 31
0.0
  0
LINE
  8
L-ZISSEN
 10
908.585786
 20
393.585786
 30
0.0
 11
900.0
 21
385.0
 31
0.0
  0
SOLID
  8
L-ZISSEN
 10
908.350084
 20
393.821489
 30
0.0
 11
908.821489
 21
393.350084
 31
0.0
 12
910.0
 22
395.0
 32
0.0
 13
910.0
 23
395.0
 33
0.0
  0
TEXT
  8
L-ZISSEN
 10
887.0
 20
62.75
 30
0.0
 40
4.5
  1
P.P
  0
LINE
  8
L-ZISSEN
 10
900.0
 20
65.0
 30
0.0
 11
898.0
 21
65.0
 31
0.0
  0
LINE
  8
L-ZISSEN
 10
908.8906
 20
78.335899
 30
0.0
 11
900.0
 21
65.0
 31
0.0
  0
SOLID
  8
L-ZISSEN
 10
908.61325
 20
78.520799
 30
0.0
 11
909.16795
 21
78.150999
 31
0.0
 12
910.0
 22
80.0
 32
0.0
 13
910.0
 23
80.0
 33
0.0
  0
TEXT
  8
L-ZISSEN
 10
994.0
 20
62.75
 30
0.0
 40
4.5
  1
P.P
  0
LINE
  8
L-ZISSEN
 10
990.0
 20
65.0
 30
0.0
 11
992.0
 21
65.0
 31
0.0
  0
LINE
  8
L-ZISSEN
 10
981.1094
 20
78.335899
 30
0.0
 11
990.0
 21
65.0
 31
0.0
  0
SOLID
  8
L-ZISSEN
 10
980.83205
 20
78.150999
 30
0.0
 11
981.38675
 21
78.520799
 31
0.0
 12
980.0
 22
80.0
 32
0.0
 13
980.0
 23
80.0
 33
0.0
  0
SOLID
  8
L-ZISSEN
 10
830.316228
 20
77.997224
 30
0.0
 11
830.948683
 21
78.208043
 31
0.0
 12
830.0
 22
80.0
 32
0.0
 13
830.0
 23
80.0
 33
0.0
  0
LINE
  8
L-ZISSEN
 10
830.632456
 20
78.102633
 30
0.0
 11
845.0
 21
35.0
 31
0.0
  0
TEXT
  8
L-ZISSEN
 10
849.0
 20
32.75
 30
0.0
 40
4.5
  1
P.P
  0
LINE
  8
L-ZISSEN
 10
845.0
 20
35.0
 30
0.0
 11
847.0
 21
35.0
 31
0.0
  0
SOLID
  8
L-ZISSEN
 10
1231.178511
 20
393.350084
 30
0.0
 11
1231.649916
 21
393.821489
 31
0.0
 12
1230.0
 22
395.0
 32
0.0
 13
1230.0
 23
395.0
 33
0.0
  0
LINE
  8
L-ZISSEN
 10
1231.414214
 20
393.585786
 30
0.0
 11
1240.0
 21
385.0
 31
0.0
  0
LINE
  8
L-ZISSEN
 10
1240.0
 20
385.0
 30
0.0
 11
1242.0
 21
385.0
 31
0.0
  0
TEXT
  8
L-ZISSEN
 10
1244.0
 20
382.75
 30
0.0
 40
4.5
  1
P.P
  0
SOLID
  8
L-ZISSEN
 10
1158.350084
 20
393.821489
 30
0.0
 11
1158.821489
 21
393.350084
 31
0.0
 12
1160.0
 22
395.0
 32
0.0
 13
1160.0
 23
395.0
 33
0.0
  0
LINE
  8
L-ZISSEN
 10
1158.585786
 20
393.585786
 30
0.0
 11
1150.0
 21
385.0
 31
0.0
  0
LINE
  8
L-ZISSEN
 10
1150.0
 20
385.0
 30
0.0
 11
1148.0
 21
385.0
 31
0.0
  0
TEXT
  8
L-ZISSEN
 10
1137.0
 20
382.75
 30
0.0
 40
4.5
  1
P.P
  0
SOLID
  8
L-ZISSEN
 10
1080.316228
 20
77.997224
 30
0.0
 11
1080.948683
 21
78.208043
 31
0.0
 12
1080.0
 22
80.0
 32
0.0
 13
1080.0
 23
80.0
 33
0.0
  0
LINE
  8
L-ZISSEN
 10
1080.632456
 20
78.102633
 30
0.0
 11
1095.0
 21
35.0
 31
0.0
  0
LINE
  8
L-ZISSEN
 10
1095.0
 20
35.0
 30
0.0
 11
1097.0
 21
35.0
 31
0.0
  0
TEXT
  8
L-ZISSEN
 10
1099.0
 20
32.75
 30
0.0
 40
4.5
  1
P.P
  0
SOLID
  8
L-ZISSEN
 10
1158.61325
 20
78.520799
 30
0.0
 11
1159.16795
 21
78.150999
 31
0.0
 12
1160.0
 22
80.0
 32
0.0
 13
1160.0
 23
80.0
 33
0.0
  0
LINE
  8
L-ZISSEN
 10
1158.8906
 20
78.335899
 30
0.0
 11
1150.0
 21
65.0
 31
0.0
  0
LINE
  8
L-ZISSEN
 10
1150.0
 20
65.0
 30
0.0
 11
1148.0
 21
65.0
 31
0.0
  0
TEXT
  8
L-ZISSEN
 10
1137.0
 20
62.75
 30
0.0
 40
4.5
  1
P.P
  0
SOLID
  8
L-ZISSEN
 10
1230.83205
 20
78.150999
 30
0.0
 11
1231.38675
 21
78.520799
 31
0.0
 12
1230.0
 22
80.0
 32
0.0
 13
1230.0
 23
80.0
 33
0.0
  0
LINE
  8
L-ZISSEN
 10
1231.1094
 20
78.335899
 30
0.0
 11
1240.0
 21
65.0
 31
0.0
  0
LINE
  8
L-ZISSEN
 10
1240.0
 20
65.0
 30
0.0
 11
1242.0
 21
65.0
 31
0.0
  0
TEXT
  8
L-ZISSEN
 10
1244.0
 20
62.75
 30
0.0
 40
4.5
  1
P.P
  0
SOLID
  8
L-ZISSEN
 10
823.953331
 20
469.413839
 30
0.0
 11
823.416231
 21
469.808766
 31
0.0
 12
822.5
 22
468.0
 32
0.0
 13
822.5
 23
468.0
 33
0.0
  0
LINE
  8
L-ZISSEN
 10
823.684781
 20
469.611302
 30
0.0
 11
835.0
 21
485.0
 31
0.0
  0
LINE
  8
L-ZISSEN
 10
835.0
 20
485.0
 30
0.0
 11
837.0
 21
485.0
 31
0.0
  0
TEXT
  8
L-ZISSEN
 10
839.0
 20
482.75
 30
0.0
 40
4.5
  1
P.P
  0
SOLID
  8
L-ZISSEN
 10
933.975705
 20
469.749837
 30
0.0
 11
933.463557
 21
469.323048
 31
0.0
 12
935.0
 22
468.0
 32
0.0
 13
935.0
 23
468.0
 33
0.0
  0
LINE
  8
L-ZISSEN
 10
933.719631
 20
469.536443
 30
0.0
 11
925.0
 21
480.0
 31
0.0
  0
LINE
  8
L-ZISSEN
 10
925.0
 20
480.0
 30
0.0
 11
923.0
 21
480.0
 31
0.0
  0
TEXT
  8
L-ZISSEN
 10
912.0
 20
477.75
 30
0.0
 40
4.5
  1
P.P
  0
SOLID
  8
L-ZISSEN
 10
935.955214
 20
666.211515
 30
0.0
 11
936.48363
 21
666.617989
 31
0.0
 12
935.0
 22
668.0
 32
0.0
 13
935.0
 23
668.0
 33
0.0
  0
LINE
  8
L-ZISSEN
 10
936.219422
 20
666.414752
 30
0.0
 11
945.0
 21
655.0
 31
0.0
  0
LINE
  8
L-ZISSEN
 10
945.0
 20
655.0
 30
0.0
 11
947.0
 21
655.0
 31
0.0
  0
TEXT
  8
L-ZISSEN
 10
949.0
 20
652.75
 30
0.0
 40
4.5
  1
P.P
  0
TEXT
  8
L-ZISSEN
 10
320.0
 20
680.0
 30
0.0
 40
4.5
  1
IN PORT BLOCK
  0
SOLID
  8
L-ZISSEN
 10
330.730031
 20
519.0109
 30
0.0
 11
331.146494
 21
518.49032
 31
0.0
 12
332.5
 22
520.0
 32
0.0
 13
332.5
 23
520.0
 33
0.0
  0
LINE
  8
L-ZISSEN
 10
330.938262
 20
518.75061
 30
0.0
 11
320.0
 21
510.0
 31
0.0
  0
LINE
  8
L-ZISSEN
 10
320.0
 20
510.0
 30
0.0
 11
318.0
 21
510.0
 31
0.0
  0
TEXT
  8
L-ZISSEN
 10
307.0
 20
507.75
 30
0.0
 40
4.5
  1
P.P
  0
SOLID
  8
L-ZISSEN
 10
368.853506
 20
518.49032
 30
0.0
 11
369.269969
 21
519.0109
 31
0.0
 12
367.5
 22
520.0
 32
0.0
 13
367.5
 23
520.0
 33
0.0
  0
LINE
  8
L-ZISSEN
 10
369.061738
 20
518.75061
 30
0.0
 11
380.0
 21
510.0
 31
0.0
  0
LINE
  8
L-ZISSEN
 10
380.0
 20
510.0
 30
0.0
 11
382.0
 21
510.0
 31
0.0
  0
TEXT
  8
L-ZISSEN
 10
384.0
 20
507.75
 30
0.0
 40
4.5
  1
P.P
  0
SOLID
  8
L-ZISSEN
 10
330.730031
 20
614.0109
 30
0.0
 11
331.146494
 21
613.49032
 31
0.0
 12
332.5
 22
615.0
 32
0.0
 13
332.5
 23
615.0
 33
0.0
  0
LINE
  8
L-ZISSEN
 10
330.938262
 20
613.75061
 30
0.0
 11
320.0
 21
605.0
 31
0.0
  0
LINE
  8
L-ZISSEN
 10
320.0
 20
605.0
 30
0.0
 11
318.0
 21
605.0
 31
0.0
  0
TEXT
  8
L-ZISSEN
 10
307.0
 20
602.75
 30
0.0
 40
4.5
  1
P.P
  0
SOLID
  8
L-ZISSEN
 10
368.853506
 20
613.49032
 30
0.0
 11
369.269969
 21
614.0109
 31
0.0
 12
367.5
 22
615.0
 32
0.0
 13
367.5
 23
615.0
 33
0.0
  0
LINE
  8
L-ZISSEN
 10
369.061738
 20
613.75061
 30
0.0
 11
380.0
 21
605.0
 31
0.0
  0
LINE
  8
L-ZISSEN
 10
380.0
 20
605.0
 30
0.0
 11
382.0
 21
605.0
 31
0.0
  0
TEXT
  8
L-ZISSEN
 10
384.0
 20
602.75
 30
0.0
 40
4.5
  1
P.P
  0
LINE
  8
L-TYUSIN
 10
400.0
 20
450.0
 30
0.0
 11
400.0
 21
690.0
 31
0.0
  0
TEXT
  8
L-ZISSEN
 10
45.0
 20
680.0
 30
0.0
 40
4.5
  1
FLANGE
  0
TEXT
  8
L-ZISSEN
 10
410.0
 20
680.0
 30
0.0
 40
4.5
  1
PLUG PLATE
  0
SOLID
  8
L-ZISSEN
 10
430.730031
 20
614.0109
 30
0.0
 11
431.146494
 21
613.49032
 31
0.0
 12
432.5
 22
615.0
 32
0.0
 13
432.5
 23
615.0
 33
0.0
  0
LINE
  8
L-ZISSEN
 10
430.938262
 20
613.75061
 30
0.0
 11
420.0
 21
605.0
 31
0.0
  0
LINE
  8
L-ZISSEN
 10
420.0
 20
605.0
 30
0.0
 11
418.0
 21
605.0
 31
0.0
  0
TEXT
  8
L-ZISSEN
 10
407.0
 20
602.75
 30
0.0
 40
4.5
  1
P.P
  0
SOLID
  8
L-ZISSEN
 10
438.853506
 20
613.49032
 30
0.0
 11
439.269969
 21
614.0109
 31
0.0
 12
437.5
 22
615.0
 32
0.0
 13
437.5
 23
615.0
 33
0.0
  0
LINE
  8
L-ZISSEN
 10
439.061738
 20
613.75061
 30
0.0
 11
450.0
 21
605.0
 31
0.0
  0
LINE
  8
L-ZISSEN
 10
450.0
 20
605.0
 30
0.0
 11
452.0
 21
605.0
 31
0.0
  0
TEXT
  8
L-ZISSEN
 10
454.0
 20
602.75
 30
0.0
 40
4.5
  1
P.P
  0
SOLID
  8
L-ZISSEN
 10
430.730031
 20
519.0109
 30
0.0
 11
431.146494
 21
518.49032
 31
0.0
 12
432.5
 22
520.0
 32
0.0
 13
432.5
 23
520.0
 33
0.0
  0
LINE
  8
L-ZISSEN
 10
430.938262
 20
518.75061
 30
0.0
 11
420.0
 21
510.0
 31
0.0
  0
LINE
  8
L-ZISSEN
 10
420.0
 20
510.0
 30
0.0
 11
418.0
 21
510.0
 31
0.0
  0
TEXT
  8
L-ZISSEN
 10
407.0
 20
507.75
 30
0.0
 40
4.5
  1
P.P
  0
SOLID
  8
L-ZISSEN
 10
438.853506
 20
518.49032
 30
0.0
 11
439.269969
 21
519.0109
 31
0.0
 12
437.5
 22
520.0
 32
0.0
 13
437.5
 23
520.0
 33
0.0
  0
LINE
  8
L-ZISSEN
 10
439.061738
 20
518.75061
 30
0.0
 11
450.0
 21
510.0
 31
0.0
  0
LINE
  8
L-ZISSEN
 10
450.0
 20
510.0
 30
0.0
 11
452.0
 21
510.0
 31
0.0
  0
TEXT
  8
L-ZISSEN
 10
454.0
 20
507.75
 30
0.0
 40
4.5
  1
P.P
  0
LINE
  8
L-TYUSIN
 10
470.0
 20
450.0
 30
0.0
 11
470.0
 21
690.0
 31
0.0
  0
TEXT
  8
L-ZISSEN
 10
495.0
 20
680.0
 30
0.0
 40
4.5
  1
SPACER
  0
SOLID
  8
L-ZISSEN
 10
500.730031
 20
614.0109
 30
0.0
 11
501.146494
 21
613.49032
 31
0.0
 12
502.5
 22
615.0
 32
0.0
 13
502.5
 23
615.0
 33
0.0
  0
LINE
  8
L-ZISSEN
 10
500.938262
 20
613.75061
 30
0.0
 11
490.0
 21
605.0
 31
0.0
  0
LINE
  8
L-ZISSEN
 10
490.0
 20
605.0
 30
0.0
 11
488.0
 21
605.0
 31
0.0
  0
TEXT
  8
L-ZISSEN
 10
477.0
 20
602.75
 30
0.0
 40
4.5
  1
P.P
  0
SOLID
  8
L-ZISSEN
 10
518.853506
 20
613.49032
 30
0.0
 11
519.269969
 21
614.0109
 31
0.0
 12
517.5
 22
615.0
 32
0.0
 13
517.5
 23
615.0
 33
0.0
  0
LINE
  8
L-ZISSEN
 10
519.061738
 20
613.75061
 30
0.0
 11
530.0
 21
605.0
 31
0.0
  0
LINE
  8
L-ZISSEN
 10
530.0
 20
605.0
 30
0.0
 11
532.0
 21
605.0
 31
0.0
  0
TEXT
  8
L-ZISSEN
 10
534.0
 20
602.75
 30
0.0
 40
4.5
  1
P.P
  0
SOLID
  8
L-ZISSEN
 10
500.730031
 20
519.0109
 30
0.0
 11
501.146494
 21
518.49032
 31
0.0
 12
502.5
 22
520.0
 32
0.0
 13
502.5
 23
520.0
 33
0.0
  0
LINE
  8
L-ZISSEN
 10
500.938262
 20
518.75061
 30
0.0
 11
490.0
 21
510.0
 31
0.0
  0
LINE
  8
L-ZISSEN
 10
490.0
 20
510.0
 30
0.0
 11
488.0
 21
510.0
 31
0.0
  0
TEXT
  8
L-ZISSEN
 10
477.0
 20
507.75
 30
0.0
 40
4.5
  1
P.P
  0
SOLID
  8
L-ZISSEN
 10
518.853506
 20
518.49032
 30
0.0
 11
519.269969
 21
519.0109
 31
0.0
 12
517.5
 22
520.0
 32
0.0
 13
517.5
 23
520.0
 33
0.0
  0
LINE
  8
L-ZISSEN
 10
519.061738
 20
518.75061
 30
0.0
 11
530.0
 21
510.0
 31
0.0
  0
LINE
  8
L-ZISSEN
 10
530.0
 20
510.0
 30
0.0
 11
532.0
 21
510.0
 31
0.0
  0
TEXT
  8
L-ZISSEN
 10
534.0
 20
507.75
 30
0.0
 40
4.5
  1
P.P
  0
LINE
  8
L-TYUSIN
 10
555.0
 20
450.0
 30
0.0
 11
555.0
 21
690.0
 31
0.0
  0
TEXT
  8
L-ZISSEN
 10
644.0
 20
507.75
 30
0.0
 40
4.5
  1
P.P
  0
LINE
  8
L-ZISSEN
 10
640.0
 20
510.0
 30
0.0
 11
642.0
 21
510.0
 31
0.0
  0
LINE
  8
L-ZISSEN
 10
631.414214
 20
518.585786
 30
0.0
 11
640.0
 21
510.0
 31
0.0
  0
SOLID
  8
L-ZISSEN
 10
631.178511
 20
518.350084
 30
0.0
 11
631.649916
 21
518.821489
 31
0.0
 12
630.0
 22
520.0
 32
0.0
 13
630.0
 23
520.0
 33
0.0
  0
TEXT
  8
L-ZISSEN
 10
709.0
 20
607.75
 30
0.0
 40
4.5
  1
P.P
  0
LINE
  8
L-ZISSEN
 10
705.0
 20
610.0
 30
0.0
 11
707.0
 21
610.0
 31
0.0
  0
LINE
  8
L-ZISSEN
 10
696.788854
 20
614.105573
 30
0.0
 11
705.0
 21
610.0
 31
0.0
  0
SOLID
  8
L-ZISSEN
 10
696.639783
 20
613.80743
 30
0.0
 11
696.937926
 21
614.403715
 31
0.0
 12
695.0
 22
615.0
 32
0.0
 13
695.0
 23
615.0
 33
0.0
  0
TEXT
  8
L-ZISSEN
 10
709.0
 20
507.75
 30
0.0
 40
4.5
  1
P.P
  0
LINE
  8
L-ZISSEN
 10
705.0
 20
510.0
 30
0.0
 11
707.0
 21
510.0
 31
0.0
  0
LINE
  8
L-ZISSEN
 10
696.414214
 20
518.585786
 30
0.0
 11
705.0
 21
510.0
 31
0.0
  0
SOLID
  8
L-ZISSEN
 10
696.178511
 20
518.350084
 30
0.0
 11
696.649916
 21
518.821489
 31
0.0
 12
695.0
 22
520.0
 32
0.0
 13
695.0
 23
520.0
 33
0.0
  0
LINE
  8
L-ZISSEN
 10
615.0
 20
475.0
 30
0.0
 11
564.0
 21
475.0
 31
0.0
  0
LINE
  8
L-ZISSEN
 10
615.0
 20
477.3
 30
0.0
 11
564.0
 21
477.3
 31
0.0
  0
LINE
  8
L-ZISSEN
 10
615.0
 20
503.5
 30
0.0
 11
615.0
 21
475.0
 31
0.0
  0
LINE
  8
L-ZISSEN
 10
564.0
 20
485.5
 30
0.0
 11
564.0
 21
475.0
 31
0.0
  0
LINE
  8
L-TYUSIN
 10
575.0
 20
470.0
 30
0.0
 11
575.0
 21
482.3
 31
0.0
  0
LINE
  8
L-ZISSEN
 10
584.0
 20
477.3
 30
0.0
 11
584.0
 21
475.0
 31
0.0
  0
LINE
  8
L-ZISSEN
 10
687.7
 20
477.3
 30
0.0
 11
650.0
 21
477.3
 31
0.0
  0
LINE
  8
L-ZISSEN
 10
690.0
 20
475.0
 30
0.0
 11
650.0
 21
475.0
 31
0.0
  0
LINE
  8
L-ZISSEN
 10
690.0
 20
503.5
 30
0.0
 11
690.0
 21
475.0
 31
0.0
  0
LINE
  8
L-ZISSEN
 10
650.0
 20
477.3
 30
0.0
 11
650.0
 21
475.0
 31
0.0
  0
LINE
  8
L-ZISSEN
 10
687.7
 20
503.5
 30
0.0
 11
687.7
 21
477.3
 31
0.0
  0
LINE
  8
L-TYUSIN
 10
663.0
 20
470.0
 30
0.0
 11
663.0
 21
482.3
 31
0.0
  0
LINE
  8
L-ZISSEN
 10
690.0
 20
646.0
 30
0.0
 11
690.0
 21
595.0
 31
0.0
  0
LINE
  8
L-ZISSEN
 10
650.0
 20
646.0
 30
0.0
 11
650.0
 21
626.0
 31
0.0
  0
LINE
  8
L-ZISSEN
 10
690.0
 20
595.0
 30
0.0
 11
681.0
 21
595.0
 31
0.0
  0
LINE
  8
L-ZISSEN
 10
650.0
 20
646.0
 30
0.0
 11
657.5
 21
646.0
 31
0.0
  0
LINE
  8
L-ZISSEN
 10
650.0
 20
626.0
 30
0.0
 11
681.0
 21
595.0
 31
0.0
  0
LINE
  8
L-ZISSEN
 10
687.7
 20
646.0
 30
0.0
 11
687.7
 21
595.0
 31
0.0
  0
LINE
  8
L-TYUSIN
 10
663.0
 20
625.0
 30
0.0
 11
663.0
 21
651.0
 31
0.0
  0
LINE
  8
L-TYUSIN
 10
673.0
 20
635.0
 30
0.0
 11
653.0
 21
635.0
 31
0.0
  0
ARC
  8
L-ZISSEN
 10
663.0
 20
635.0
 30
0.0
 40
5.5
 50
180.0
 51
0.0
  0
LINE
  8
L-ZISSEN
 10
668.5
 20
635.0
 30
0.0
 11
668.5
 21
646.0
 31
0.0
  0
LINE
  8
L-ZISSEN
 10
657.5
 20
635.0
 30
0.0
 11
657.5
 21
646.0
 31
0.0
  0
LINE
  8
L-ZISSEN
 10
668.5
 20
646.0
 30
0.0
 11
690.0
 21
646.0
 31
0.0
  0
LINE
  8
L-TYUSIN
 10
810.0
 20
450.0
 30
0.0
 11
810.0
 21
690.0
 31
0.0
  0
LINE
  8
L-TYUSIN
 10
787.0
 20
470.0
 30
0.0
 11
787.0
 21
482.3
 31
0.0
  0
LINE
  8
L-ZISSEN
 10
762.3
 20
503.5
 30
0.0
 11
762.3
 21
477.3
 31
0.0
  0
LINE
  8
L-ZISSEN
 10
800.0
 20
477.3
 30
0.0
 11
800.0
 21
475.0
 31
0.0
  0
LINE
  8
L-ZISSEN
 10
760.0
 20
503.5
 30
0.0
 11
760.0
 21
475.0
 31
0.0
  0
LINE
  8
L-ZISSEN
 10
760.0
 20
475.0
 30
0.0
 11
800.0
 21
475.0
 31
0.0
  0
LINE
  8
L-ZISSEN
 10
762.3
 20
477.3
 30
0.0
 11
800.0
 21
477.3
 31
0.0
  0
LINE
  8
L-ZISSEN
 10
781.5
 20
646.0
 30
0.0
 11
760.0
 21
646.0
 31
0.0
  0
LINE
  8
L-ZISSEN
 10
792.5
 20
635.0
 30
0.0
 11
792.5
 21
646.0
 31
0.0
  0
LINE
  8
L-ZISSEN
 10
781.5
 20
635.0
 30
0.0
 11
781.5
 21
646.0
 31
0.0
  0
ARC
  8
L-ZISSEN
 10
787.0
 20
635.0
 30
0.0
 40
5.5
 50
180.0
 51
0.0
  0
LINE
  8
L-TYUSIN
 10
777.0
 20
635.0
 30
0.0
 11
797.0
 21
635.0
 31
0.0
  0
LINE
  8
L-TYUSIN
 10
787.0
 20
625.0
 30
0.0
 11
787.0
 21
651.0
 31
0.0
  0
LINE
  8
L-ZISSEN
 10
762.3
 20
646.0
 30
0.0
 11
762.3
 21
595.0
 31
0.0
  0
LINE
  8
L-ZISSEN
 10
800.0
 20
626.0
 30
0.0
 11
769.0
 21
595.0
 31
0.0
  0
LINE
  8
L-ZISSEN
 10
800.0
 20
646.0
 30
0.0
 11
792.5
 21
646.0
 31
0.0
  0
LINE
  8
L-ZISSEN
 10
760.0
 20
595.0
 30
0.0
 11
769.0
 21
595.0
 31
0.0
  0
LINE
  8
L-ZISSEN
 10
800.0
 20
646.0
 30
0.0
 11
800.0
 21
626.0
 31
0.0
  0
LINE
  8
L-ZISSEN
 10
760.0
 20
646.0
 30
0.0
 11
760.0
 21
595.0
 31
0.0
  0
SOLID
  8
L-ZISSEN
 10
753.350084
 20
518.821489
 30
0.0
 11
753.821489
 21
518.350084
 31
0.0
 12
755.0
 22
520.0
 32
0.0
 13
755.0
 23
520.0
 33
0.0
  0
LINE
  8
L-ZISSEN
 10
753.585786
 20
518.585786
 30
0.0
 11
745.0
 21
510.0
 31
0.0
  0
LINE
  8
L-ZISSEN
 10
745.0
 20
510.0
 30
0.0
 11
743.0
 21
510.0
 31
0.0
  0
TEXT
  8
L-ZISSEN
 10
732.0
 20
507.75
 30
0.0
 40
4.5
  1
P.P
  0
SOLID
  8
L-ZISSEN
 10
753.062074
 20
614.403715
 30
0.0
 11
753.360217
 21
613.80743
 31
0.0
 12
755.0
 22
615.0
 32
0.0
 13
755.0
 23
615.0
 33
0.0
  0
LINE
  8
L-ZISSEN
 10
753.211146
 20
614.105573
 30
0.0
 11
745.0
 21
610.0
 31
0.0
  0
LINE
  8
L-ZISSEN
 10
745.0
 20
610.0
 30
0.0
 11
743.0
 21
610.0
 31
0.0
  0
TEXT
  8
L-ZISSEN
 10
732.0
 20
607.75
 30
0.0
 40
4.5
  1
P.P
  0
TEXT
  8
L-ZISSEN
 10
565.0
 20
680.0
 30
0.0
 40
4.5
  1
BRACKET
  0
LINE
  8
L-ZISSEN
 10
343.0
 20
501.0
 30
0.0
 11
343.0
 21
491.0
 31
0.0
  0
LINE
  8
L-ZISSEN
 10
343.0
 20
491.0
 30
0.0
 11
337.5
 21
491.0
 31
0.0
  0
LINE
  8
L-ZISSEN
 10
343.0
 20
501.0
 30
0.0
 11
337.5
 21
501.0
 31
0.0
  0
LINE
  8
L-ZISSEN
 10
343.0
 20
539.0
 30
0.0
 11
337.5
 21
539.0
 31
0.0
  0
LINE
  8
L-ZISSEN
 10
343.0
 20
539.0
 30
0.0
 11
343.0
 21
549.0
 31
0.0
  0
LINE
  8
L-ZISSEN
 10
343.0
 20
549.0
 30
0.0
 11
337.5
 21
549.0
 31
0.0
  0
LINE
  8
L-ZISSEN
 10
357.0
 20
501.0
 30
0.0
 11
362.5
 21
501.0
 31
0.0
  0
LINE
  8
L-ZISSEN
 10
357.0
 20
491.0
 30
0.0
 11
362.5
 21
491.0
 31
0.0
  0
LINE
  8
L-ZISSEN
 10
357.0
 20
501.0
 30
0.0
 11
357.0
 21
491.0
 31
0.0
  0
LINE
  8
L-ZISSEN
 10
357.0
 20
549.0
 30
0.0
 11
362.5
 21
549.0
 31
0.0
  0
LINE
  8
L-ZISSEN
 10
357.0
 20
539.0
 30
0.0
 11
357.0
 21
549.0
 31
0.0
  0
LINE
  8
L-ZISSEN
 10
357.0
 20
539.0
 30
0.0
 11
362.5
 21
539.0
 31
0.0
  0
LINE
  8
L-ZISSEN
 10
343.0
 20
620.0
 30
0.0
 11
337.5
 21
620.0
 31
0.0
  0
LINE
  8
L-ZISSEN
 10
343.0
 20
610.0
 30
0.0
 11
343.0
 21
620.0
 31
0.0
  0
LINE
  8
L-ZISSEN
 10
343.0
 20
610.0
 30
0.0
 11
337.5
 21
610.0
 31
0.0
  0
LINE
  8
L-ZISSEN
 10
357.0
 20
610.0
 30
0.0
 11
362.5
 21
610.0
 31
0.0
  0
LINE
  8
L-ZISSEN
 10
357.0
 20
610.0
 30
0.0
 11
357.0
 21
620.0
 31
0.0
  0
LINE
  8
L-ZISSEN
 10
357.0
 20
620.0
 30
0.0
 11
362.5
 21
620.0
 31
0.0
  0
LINE
  8
L-ZISSEN
 10
682.2
 20
501.0
 30
0.0
 11
682.2
 21
491.0
 31
0.0
  0
LINE
  8
L-ZISSEN
 10
682.2
 20
491.0
 30
0.0
 11
687.7
 21
491.0
 31
0.0
  0
LINE
  8
L-ZISSEN
 10
682.2
 20
501.0
 30
0.0
 11
687.7
 21
501.0
 31
0.0
  0
LINE
  8
L-ZISSEN
 10
690.0
 20
503.5
 30
0.0
 11
687.7
 21
503.5
 31
0.0
  0
LINE
  8
L-ZISSEN
 10
615.0
 20
503.5
 30
0.0
 11
582.0
 21
503.5
 31
0.0
  0
LINE
  8
L-ZISSEN
 10
582.0
 20
503.5
 30
0.0
 11
564.0
 21
485.5
 31
0.0
  0
LINE
  8
L-ZISSEN
 10
592.113249
 20
501.0
 30
0.0
 11
589.226497
 21
496.0
 31
0.0
  0
LINE
  8
L-ZISSEN
 10
589.226497
 20
496.0
 30
0.0
 11
592.113249
 21
491.0
 31
0.0
  0
LINE
  8
L-ZISSEN
 10
592.113249
 20
491.0
 30
0.0
 11
597.886751
 21
491.0
 31
0.0
  0
LINE
  8
L-ZISSEN
 10
597.886751
 20
491.0
 30
0.0
 11
600.773503
 21
496.0
 31
0.0
  0
LINE
  8
L-ZISSEN
 10
600.773503
 20
496.0
 30
0.0
 11
597.886751
 21
501.0
 31
0.0
  0
LINE
  8
L-ZISSEN
 10
597.886751
 20
501.0
 30
0.0
 11
592.113249
 21
501.0
 31
0.0
  0
LINE
  8
L-ZISSEN
 10
760.0
 20
503.5
 30
0.0
 11
762.3
 21
503.5
 31
0.0
  0
LINE
  8
L-ZISSEN
 10
767.8
 20
501.0
 30
0.0
 11
762.3
 21
501.0
 31
0.0
  0
LINE
  8
L-ZISSEN
 10
767.8
 20
491.0
 30
0.0
 11
762.3
 21
491.0
 31
0.0
  0
LINE
  8
L-ZISSEN
 10
767.8
 20
501.0
 30
0.0
 11
767.8
 21
491.0
 31
0.0
  0
LINE
  8
L-ZISSEN
 10
682.2
 20
610.0
 30
0.0
 11
682.2
 21
620.0
 31
0.0
  0
LINE
  8
L-ZISSEN
 10
682.2
 20
610.0
 30
0.0
 11
687.7
 21
610.0
 31
0.0
  0
LINE
  8
L-ZISSEN
 10
682.2
 20
620.0
 30
0.0
 11
687.7
 21
620.0
 31
0.0
  0
LINE
  8
L-ZISSEN
 10
767.8
 20
610.0
 30
0.0
 11
762.3
 21
610.0
 31
0.0
  0
LINE
  8
L-ZISSEN
 10
767.8
 20
620.0
 30
0.0
 11
762.3
 21
620.0
 31
0.0
  0
LINE
  8
L-ZISSEN
 10
767.8
 20
610.0
 30
0.0
 11
767.8
 21
620.0
 31
0.0
  0
CIRCLE
  8
L-ZISSEN
 10
99.0
 20
520.0
 30
0.0
 40
3.25
  0
CIRCLE
  8
L-ZISSEN
 10
51.0
 20
520.0
 30
0.0
 40
3.25
  0
ENDSEC
  0
EOF
