  0
SECTION
  2
HEADER
  9
$ACADVER
  1
AC1012
  9
$DWGCODEPAGE
  3
dos932
  9
$INSBASE
 10
0.0
 20
0.0
 30
0.0
  9
$EXTMIN
 10
280.9033708159329
 20
216.3899747140084
 30
0.0
  9
$EXTMAX
 10
1007.0
 20
917.2407821622869
 30
0.0
  9
$LIMMIN
 10
0.0
 20
0.0
  9
$LIMMAX
 10
420.0
 20
297.0
  9
$ORTHOMODE
 70
     0
  9
$REGENMODE
 70
     1
  9
$FILLMODE
 70
     1
  9
$QTEXTMODE
 70
     0
  9
$MIRRTEXT
 70
     1
  9
$DRAGMODE
 70
     2
  9
$LTSCALE
 40
1.0
  9
$OSMODE
 70
    37
  9
$ATTMODE
 70
     1
  9
$TEXTSIZE
 40
0.2
  9
$TRACEWID
 40
0.05
  9
$TEXTSTYLE
  7
STANDARD
  9
$CLAYER
  8
L-ZISSEN
  9
$CELTYPE
  6
BYLAYER
  9
$CECOLOR
 62
   256
  9
$CELTSCALE
 40
1.0
  9
$DELOBJ
 70
     1
  9
$DISPSILH
 70
     0
  9
$DIMSCALE
 40
1.0
  9
$DIMASZ
 40
1.5
  9
$DIMEXO
 40
1.0
  9
$DIMDLI
 40
0.38
  9
$DIMRND
 40
0.0
  9
$DIMDLE
 40
0.0
  9
$DIMEXE
 40
1.0
  9
$DIMTP
 40
0.0
  9
$DIMTM
 40
0.0
  9
$DIMTXT
 40
2.5
  9
$DIMCEN
 40
0.09
  9
$DIMTSZ
 40
0.0
  9
$DIMTOL
 70
     0
  9
$DIMLIM
 70
     0
  9
$DIMTIH
 70
     0
  9
$DIMTOH
 70
     0
  9
$DIMSE1
 70
     0
  9
$DIMSE2
 70
     0
  9
$DIMTAD
 70
     1
  9
$DIMZIN
 70
     0
  9
$DIMBLK
  1

  9
$DIMASO
 70
     1
  9
$DIMSHO
 70
     0
  9
$DIMPOST
  1

  9
$DIMAPOST
  1

  9
$DIMALT
 70
     0
  9
$DIMALTD
 70
     2
  9
$DIMALTF
 40
25.4
  9
$DIMLFAC
 40
1.0
  9
$DIMTOFL
 70
     1
  9
$DIMTVP
 40
0.0
  9
$DIMTIX
 70
     1
  9
$DIMSOXD
 70
     0
  9
$DIMSAH
 70
     0
  9
$DIMBLK1
  1

  9
$DIMBLK2
  1

  9
$DIMSTYLE
  2
STANDARD
  9
$DIMCLRD
 70
     0
  9
$DIMCLRE
 70
     0
  9
$DIMCLRT
 70
     0
  9
$DIMTFAC
 40
1.0
  9
$DIMGAP
 40
0.09
  9
$DIMJUST
 70
     0
  9
$DIMSD1
 70
     0
  9
$DIMSD2
 70
     0
  9
$DIMTOLJ
 70
     1
  9
$DIMTZIN
 70
     0
  9
$DIMALTZ
 70
     0
  9
$DIMALTTZ
 70
     0
  9
$DIMFIT
 70
     5
  9
$DIMUPT
 70
     0
  9
$DIMUNIT
 70
     2
  9
$DIMDEC
 70
     4
  9
$DIMTDEC
 70
     4
  9
$DIMALTU
 70
     2
  9
$DIMALTTD
 70
     2
  9
$DIMTXSTY
  7
STANDARD
  9
$DIMAUNIT
 70
     0
  9
$LUNITS
 70
     2
  9
$LUPREC
 70
     4
  9
$SKETCHINC
 40
0.1
  9
$FILLETRAD
 40
0.0
  9
$AUNITS
 70
     0
  9
$AUPREC
 70
     0
  9
$MENU
  1
acad
  9
$ELEVATION
 40
0.0
  9
$PELEVATION
 40
0.0
  9
$THICKNESS
 40
0.0
  9
$LIMCHECK
 70
     0
  9
$BLIPMODE
 70
     0
  9
$CHAMFERA
 40
0.0
  9
$CHAMFERB
 40
0.0
  9
$CHAMFERC
 40
0.0
  9
$CHAMFERD
 40
0.0
  9
$SKPOLY
 70
     0
  9
$TDCREATE
 40
2449643.480722569
  9
$TDUPDATE
 40
2452818.383990856
  9
$TDINDWG
 40
0.0221762731
  9
$TDUSRTIMER
 40
0.0221762731
  9
$USRTIMER
 70
     1
  9
$ANGBASE
 50
0.0
  9
$ANGDIR
 70
     0
  9
$PDMODE
 70
     0
  9
$PDSIZE
 40
0.0
  9
$PLINEWID
 40
0.0
  9
$COORDS
 70
     2
  9
$SPLFRAME
 70
     0
  9
$SPLINETYPE
 70
     6
  9
$SPLINESEGS
 70
     8
  9
$ATTDIA
 70
     0
  9
$ATTREQ
 70
     1
  9
$HANDLING
 70
-16383
  9
$HANDSEED
  5
345
  9
$SURFTAB1
 70
     6
  9
$SURFTAB2
 70
     6
  9
$SURFTYPE
 70
     6
  9
$SURFU
 70
     6
  9
$SURFV
 70
     6
  9
$UCSNAME
  2

  9
$UCSORG
 10
0.0
 20
0.0
 30
0.0
  9
$UCSXDIR
 10
1.0
 20
0.0
 30
0.0
  9
$UCSYDIR
 10
0.0
 20
1.0
 30
0.0
  9
$PUCSNAME
  2

  9
$PUCSORG
 10
0.0
 20
0.0
 30
0.0
  9
$PUCSXDIR
 10
1.0
 20
0.0
 30
0.0
  9
$PUCSYDIR
 10
0.0
 20
1.0
 30
0.0
  9
$USERI1
 70
     0
  9
$USERI2
 70
     0
  9
$USERI3
 70
     0
  9
$USERI4
 70
     0
  9
$USERI5
 70
     0
  9
$USERR1
 40
0.0
  9
$USERR2
 40
0.0
  9
$USERR3
 40
0.0
  9
$USERR4
 40
0.0
  9
$USERR5
 40
0.0
  9
$WORLDVIEW
 70
     1
  9
$SHADEDGE
 70
     3
  9
$SHADEDIF
 70
    70
  9
$TILEMODE
 70
     1
  9
$MAXACTVP
 70
    48
  9
$PINSBASE
 10
0.0
 20
0.0
 30
0.0
  9
$PLIMCHECK
 70
     0
  9
$PEXTMIN
 10
1.000000000000000E+20
 20
1.000000000000000E+20
 30
1.000000000000000E+20
  9
$PEXTMAX
 10
-1.000000000000000E+20
 20
-1.000000000000000E+20
 30
-1.000000000000000E+20
  9
$PLIMMIN
 10
0.0
 20
0.0
  9
$PLIMMAX
 10
12.0
 20
9.0
  9
$UNITMODE
 70
     0
  9
$VISRETAIN
 70
     1
  9
$PLINEGEN
 70
     0
  9
$PSLTSCALE
 70
     0
  9
$TREEDEPTH
 70
  3020
  9
$PICKSTYLE
 70
     1
  9
$CMLSTYLE
  2
STANDARD
  9
$CMLJUST
 70
     0
  9
$CMLSCALE
 40
1.0
  9
$SAVEIMAGES
 70
     1
  0
ENDSEC
  0
SECTION
  2
CLASSES
  0
CLASS
  1
ACDBDICTIONARYWDFLT
  2
AcDbDictionaryWithDefault
  3
AutoCAD 2000
 90
    32768
280
     0
281
     0
  0
CLASS
  1
ACDBPLACEHOLDER
  2
AcDbPlaceHolder
  3
AutoCAD 2000
 90
    32768
280
     0
281
     0
  0
CLASS
  1
LAYOUT
  2
AcDbLayout
  3
AutoCAD 2000
 90
    32768
280
     0
281
     0
  0
CLASS
  1
LONG_TRANSACTION
  2
AcDbLongTransaction
  3
AutoCAD 2000
 90
    32768
280
     0
281
     0
  0
CLASS
  1
LWPOLYLINE
  2
AcDbPolyline
  3
AutoCAD 2000
 90
    32768
280
     0
281
     1
  0
CLASS
  1
HATCH
  2
AcDbHatch
  3
AutoCAD 2000
 90
    32768
280
     0
281
     1
  0
CLASS
  1
XRECORD
  2
AcDbXrecord
  3
AutoCAD 2000
 90
    32768
280
     0
281
     0
  0
CLASS
  1
LONG_TRANSACTION
  2
AcDbLongTransaction
  3
AutoCAD 2000
 90
    32768
280
     0
281
     0
  0
CLASS
  1
LWPOLYLINE
  2
AcDbPolyline
  3
AutoCAD 2000
 90
    32768
280
     0
281
     1
  0
CLASS
  1
HATCH
  2
AcDbHatch
  3
AutoCAD 2000
 90
    32768
280
     0
281
     1
  0
CLASS
  1
XRECORD
  2
AcDbXrecord
  3
AutoCAD 2000
 90
    32768
280
     0
281
     0
  0
ENDSEC
  0
SECTION
  2
TABLES
  0
TABLE
  2
VPORT
  5
19
330
0
100
AcDbSymbolTable
 70
     2
  0
VPORT
  5
323
330
19
100
AcDbSymbolTableRecord
100
AcDbViewportTableRecord
  2
*ACTIVE
 70
     0
 10
0.0
 20
0.0
 11
1.0
 21
1.0
 12
643.9415918635688
 22
566.8093466830794
 13
0.0
 23
0.0
 14
1.0
 24
1.0
 15
0.0
 25
0.0
 16
0.0
 26
0.0
 36
1.0
 17
0.0
 27
0.0
 37
0.0
 40
709.1007913723158
 41
1.84990253411306
 42
50.0
 43
0.0
 44
0.0
 50
0.0
 51
0.0
 71
     0
 72
   100
 73
     1
 74
     0
 75
     0
 76
     0
 77
     0
 78
     0
  0
ENDTAB
  0
TABLE
  2
LTYPE
  5
14
330
0
100
AcDbSymbolTable
 70
     2
  0
LTYPE
  5
15
330
14
100
AcDbSymbolTableRecord
100
AcDbLinetypeTableRecord
  2
BYBLOCK
 70
     0
  3

 72
    65
 73
     0
 40
0.0
  0
LTYPE
  5
16
330
14
100
AcDbSymbolTableRecord
100
AcDbLinetypeTableRecord
  2
BYLAYER
 70
     0
  3

 72
    65
 73
     0
 40
0.0
  0
LTYPE
  5
8
330
14
100
AcDbSymbolTableRecord
100
AcDbLinetypeTableRecord
  2
CONTINUOUS
 70
     0
  3
Solid line
 72
    65
 73
     0
 40
0.0
  0
LTYPE
  5
2D
330
14
100
AcDbSymbolTableRecord
100
AcDbLinetypeTableRecord
  2
CENTER
 70
     0
  3
_____ _ ____ _ ____ _ ____
 72
    65
 73
     4
 40
18.0
 49
15.0
 74
     0
 49
-1.0
 74
     0
 49
1.0
 74
     0
 49
-1.0
 74
     0
  0
ENDTAB
  0
TABLE
  2
LAYER
  5
10
330
0
100
AcDbSymbolTable
 70
     3
  0
LAYER
  5
4
330
10
100
AcDbSymbolTableRecord
100
AcDbLayerTableRecord
  2
0
 70
     0
 62
     7
  6
CONTINUOUS
  0
LAYER
  5
22
330
10
100
AcDbSymbolTableRecord
100
AcDbLayerTableRecord
  2
L-ZISSEN
 70
     0
 62
     7
  6
CONTINUOUS
  0
LAYER
  5
37
330
10
100
AcDbSymbolTableRecord
100
AcDbLayerTableRecord
  2
L-TYUSIN
 70
     0
 62
     7
  6
CONTINUOUS
  0
ENDTAB
  0
TABLE
  2
STYLE
  5
11
330
0
100
AcDbSymbolTable
 70
     1
  0
STYLE
  5
12
330
11
100
AcDbSymbolTableRecord
100
AcDbTextStyleTableRecord
  2
STANDARD
 70
     0
 40
0.0
 41
1.0
 50
0.0
 71
     0
 42
0.2
  3
txt
  4

  0
ENDTAB
  0
TABLE
  2
VIEW
  5
17
330
0
100
AcDbSymbolTable
 70
     0
  0
ENDTAB
  0
TABLE
  2
UCS
  5
18
330
0
100
AcDbSymbolTable
 70
     0
  0
ENDTAB
  0
TABLE
  2
APPID
  5
1B
330
0
100
AcDbSymbolTable
 70
     1
  0
APPID
  5
1C
330
1B
100
AcDbSymbolTableRecord
100
AcDbRegAppTableRecord
  2
ACAD
 70
     0
  0
ENDTAB
  0
TABLE
  2
DIMSTYLE
  5
1D
330
0
100
AcDbSymbolTable
 70
     1
  0
DIMSTYLE
105
24
330
1D
100
AcDbSymbolTableRecord
100
AcDbDimStyleTableRecord
  2
STANDARD
 70
     0
  3

  4

  5

  6

  7

 40
1.0
 41
0.18
 42
0.0625
 43
0.38
 44
0.18
 45
0.0
 46
0.0
 47
0.0
 48
0.0
140
0.18
141
0.09
142
0.0
143
25.4
144
1.0
145
0.0
146
1.0
147
0.09
 71
     0
 72
     0
 73
     1
 74
     1
 75
     0
 76
     0
 77
     0
 78
     0
170
     0
171
     2
172
     0
173
     0
174
     0
175
     0
176
     0
177
     0
178
     0
270
     2
271
     4
272
     4
273
     2
274
     2
340
12
275
     0
280
     0
281
     0
282
     0
283
     1
284
     0
285
     0
286
     0
287
     3
288
     0
  0
ENDTAB
  0
TABLE
  2
BLOCK_RECORD
  5
1
330
0
100
AcDbSymbolTable
 70
     0
  0
BLOCK_RECORD
  5
2
102
{ACAD_XDICTIONARY
360
2CE
102
}
330
1
100
AcDbSymbolTableRecord
100
AcDbBlockTableRecord
  2
*MODEL_SPACE
  0
BLOCK_RECORD
  5
C
102
{ACAD_XDICTIONARY
360
2D0
102
}
330
1
100
AcDbSymbolTableRecord
100
AcDbBlockTableRecord
  2
*PAPER_SPACE
  0
ENDTAB
  0
ENDSEC
  0
SECTION
  2
BLOCKS
  0
BLOCK
  5
3
330
2
100
AcDbEntity
  8
0
100
AcDbBlockBegin
  2
*MODEL_SPACE
 70
     0
 10
0.0
 20
0.0
 30
0.0
  3
*MODEL_SPACE
  1

  0
ENDBLK
  5
9
330
2
100
AcDbEntity
  8
0
100
AcDbBlockEnd
  0
BLOCK
  5
D
330
C
100
AcDbEntity
 67
     1
  8
0
100
AcDbBlockBegin
  2
*PAPER_SPACE
 70
     0
 10
0.0
 20
0.0
 30
0.0
  3
*PAPER_SPACE
  1

  0
ENDBLK
  5
E
330
C
100
AcDbEntity
 67
     1
  8
0
100
AcDbBlockEnd
  0
ENDSEC
  0
SECTION
  2
ENTITIES
  0
LINE
  5
25
330
2
100
AcDbEntity
  8
L-ZISSEN
  6
CONTINUOUS
 62
     7
100
AcDbLine
 10
733.0000000000005
 20
291.5000000000004
 30
0.0
 11
800.0000000000005
 21
291.5000000000002
 31
0.0
  0
LINE
  5
26
330
2
100
AcDbEntity
  8
L-ZISSEN
  6
CONTINUOUS
 62
     7
100
AcDbLine
 10
800.0000000000003
 20
344.5000000000003
 30
0.0
 11
728.5
 21
344.5000000000003
 31
0.0
  0
LINE
  5
27
330
2
100
AcDbEntity
  8
L-ZISSEN
  6
CONTINUOUS
 62
     7
100
AcDbLine
 10
677.0000000000004
 20
422.5000000000003
 30
0.0
 11
892.0000000000005
 21
422.5000000000003
 31
0.0
  0
CIRCLE
  5
28
330
2
100
AcDbEntity
  8
L-ZISSEN
  6
CONTINUOUS
 62
     7
100
AcDbCircle
 10
792.0000000000007
 20
234.5000000000002
 30
0.0
 40
14.0
  0
LINE
  5
29
330
2
100
AcDbEntity
  8
L-ZISSEN
  6
CONTINUOUS
 62
     7
100
AcDbLine
 10
832.0000000000007
 20
216.5000000000002
 30
0.0
 11
752.0000000000006
 21
216.5000000000002
 31
0.0
  0
LINE
  5
2A
330
2
100
AcDbEntity
  8
L-ZISSEN
  6
CONTINUOUS
 62
     7
100
AcDbLine
 10
892.0000000000005
 20
377.5000000000003
 30
0.0
 11
677.0
 21
377.5000000000003
 31
0.0
  0
LINE
  5
2B
330
2
100
AcDbEntity
  8
L-ZISSEN
  6
CONTINUOUS
 62
     7
100
AcDbLine
 10
892.0000000000005
 20
376.5000000000002
 30
0.0
 11
692.0000000000004
 21
376.5000000000002
 31
0.0
  0
LINE
  5
2C
330
2
100
AcDbEntity
  8
L-ZISSEN
  6
CENTER
 62
     1
100
AcDbLine
 10
773.8899747140082
 20
234.5000000000003
 30
0.0
 11
810.1100252859932
 21
234.5000000000002
 31
0.0
  0
LINE
  5
2E
330
2
100
AcDbEntity
  8
L-ZISSEN
  6
CONTINUOUS
 62
     7
100
AcDbLine
 10
789.1132486540525
 20
239.5000000000002
 30
0.0
 11
786.2264973081043
 21
234.5000000000002
 31
0.0
  0
LINE
  5
2F
330
2
100
AcDbEntity
  8
L-ZISSEN
  6
CONTINUOUS
 62
     7
100
AcDbLine
 10
786.2264973081043
 20
234.5000000000002
 30
0.0
 11
789.1132486540525
 21
229.5000000000003
 31
0.0
  0
LINE
  5
30
330
2
100
AcDbEntity
  8
L-ZISSEN
  6
CONTINUOUS
 62
     7
100
AcDbLine
 10
691.4240848987876
 20
563.5000000000011
 30
0.0
 11
792.575915101213
 21
563.5000000000011
 31
0.0
  0
LINE
  5
31
330
2
100
AcDbEntity
  8
L-ZISSEN
  6
CONTINUOUS
 62
     7
100
AcDbLine
 10
678.4000000000003
 20
458.5000000000023
 30
0.0
 11
805.6000000000002
 21
458.4999999999999
 31
0.0
  0
LINE
  5
32
330
2
100
AcDbEntity
  8
L-ZISSEN
  6
CONTINUOUS
 62
     7
100
AcDbLine
 10
678.4000000000003
 20
464.5000000000023
 30
0.0
 11
805.6000000000004
 21
464.4999999999996
 31
0.0
  0
LINE
  5
33
330
2
100
AcDbEntity
  8
L-ZISSEN
  6
CONTINUOUS
 62
     7
100
AcDbLine
 10
682.5000000000003
 20
466.0000000000009
 30
0.0
 11
801.5000000000004
 21
466.000000000001
 31
0.0
  0
POLYLINE
  5
34
330
2
100
AcDbEntity
  8
L-ZISSEN
100
AcDb2dPolyline
 66
     1
 10
0.0
 20
0.0
 30
0.0
  0
VERTEX
  5
326
330
34
100
AcDbEntity
  8
L-ZISSEN
100
AcDbVertex
100
AcDb2dVertex
 10
805.6000000000006
 20
863.9999999999995
 30
0.0
  0
VERTEX
  5
327
330
34
100
AcDbEntity
  8
L-ZISSEN
100
AcDbVertex
100
AcDb2dVertex
 10
805.6000000000006
 20
883.5999999999996
 30
0.0
  0
VERTEX
  5
328
330
34
100
AcDbEntity
  8
L-ZISSEN
100
AcDbVertex
100
AcDb2dVertex
 10
678.4000000000006
 20
883.5999999999996
 30
0.0
  0
SEQEND
  5
329
330
34
100
AcDbEntity
  8
L-ZISSEN
  0
POLYLINE
  5
35
330
2
100
AcDbEntity
  8
L-ZISSEN
100
AcDb2dPolyline
 66
     1
 10
0.0
 20
0.0
 30
0.0
  0
VERTEX
  5
32A
330
35
100
AcDbEntity
  8
L-ZISSEN
100
AcDbVertex
100
AcDb2dVertex
 10
678.4000000000006
 20
883.5999999999996
 30
0.0
  0
VERTEX
  5
32B
330
35
100
AcDbEntity
  8
L-ZISSEN
100
AcDbVertex
100
AcDb2dVertex
 10
678.4000000000006
 20
756.3999999999995
 30
0.0
  0
VERTEX
  5
32C
330
35
100
AcDbEntity
  8
L-ZISSEN
100
AcDbVertex
100
AcDb2dVertex
 10
805.6000000000006
 20
756.3999999999995
 30
0.0
  0
VERTEX
  5
32D
330
35
100
AcDbEntity
  8
L-ZISSEN
100
AcDbVertex
100
AcDb2dVertex
 10
805.6000000000006
 20
821.9999999999995
 30
0.0
  0
SEQEND
  5
32E
330
35
100
AcDbEntity
  8
L-ZISSEN
  0
LINE
  5
36
330
2
100
AcDbEntity
  8
L-TYUSIN
  6
CENTER
 62
     1
100
AcDbLine
 10
839.5947294303498
 20
842.9999999999997
 30
0.0
 11
784.4053145844521
 21
843.0
 31
0.0
  0
LINE
  5
38
330
2
100
AcDbEntity
  8
L-ZISSEN
  6
CONTINUOUS
 62
     7
100
AcDbLine
 10
691.4139165159183
 20
769.4139165159175
 30
0.0
 11
792.5860834840823
 21
769.4139165159175
 31
0.0
  0
LINE
  5
39
330
2
100
AcDbEntity
  8
L-ZISSEN
  6
CONTINUOUS
 62
     7
100
AcDbLine
 10
792.5860834840825
 20
870.5860834840816
 30
0.0
 11
691.4139165159184
 21
870.5860834840816
 31
0.0
  0
LINE
  5
3A
330
2
100
AcDbEntity
  8
L-ZISSEN
  6
CONTINUOUS
 62
     7
100
AcDbLine
 10
682.0000220074006
 20
879.9999999999995
 30
0.0
 11
802.000022007401
 21
879.9999999999993
 31
0.0
  0
LINE
  5
3B
330
2
100
AcDbEntity
  8
L-ZISSEN
  6
CONTINUOUS
 62
     7
100
AcDbLine
 10
802.000022007401
 20
759.9999999999995
 30
0.0
 11
682.0000220074007
 21
759.9999999999996
 31
0.0
  0
LINE
  5
3C
330
2
100
AcDbEntity
  8
L-ZISSEN
  6
CONTINUOUS
 62
     7
100
AcDbLine
 10
892.0000000000005
 20
889.9999999999995
 30
0.0
 11
691.9999999999991
 21
889.9999999999995
 31
0.0
  0
LINE
  5
3D
330
2
100
AcDbEntity
  8
L-ZISSEN
  6
CONTINUOUS
 62
     7
100
AcDbLine
 10
694.2999999999992
 20
891.9999999999996
 30
0.0
 11
889.7000000000003
 21
891.9999999999996
 31
0.0
  0
LINE
  5
3E
330
2
100
AcDbEntity
  8
L-ZISSEN
  6
CONTINUOUS
 62
     7
100
AcDbLine
 10
613.50009
 20
467.5000000000006
 30
0.0
 11
613.5000999999999
 21
458.4786800000001
 31
0.0
  0
LINE
  5
3F
330
2
100
AcDbEntity
  8
L-ZISSEN
  6
CONTINUOUS
 62
     7
100
AcDbLine
 10
649.5
 20
467.5000000000006
 30
0.0
 11
649.5
 21
458.4786800000001
 31
0.0
  0
LINE
  5
40
330
2
100
AcDbEntity
  8
L-ZISSEN
  6
CONTINUOUS
 62
     7
100
AcDbLine
 10
418.00006
 20
467.5000000000006
 30
0.0
 11
418.00006
 21
458.47867
 31
0.0
  0
LINE
  5
41
330
2
100
AcDbEntity
  8
L-ZISSEN
  6
CONTINUOUS
 62
     7
100
AcDbLine
 10
382.0
 20
467.5000000000006
 30
0.0
 11
382.0
 21
458.4786799999999
 31
0.0
  0
LINE
  5
42
330
2
100
AcDbEntity
  8
L-ZISSEN
100
AcDbLine
 10
316.3999999999998
 20
458.5000000000023
 30
0.0
 11
316.3999999999998
 21
464.5000000000023
 31
0.0
  0
LINE
  5
43
330
2
100
AcDbEntity
  8
L-ZISSEN
100
AcDbLine
 10
443.5999999999999
 20
458.4999999999998
 30
0.0
 11
443.5999999999999
 21
464.4999999999996
 31
0.0
  0
LINE
  5
44
330
2
100
AcDbEntity
  8
L-ZISSEN
100
AcDbLine
 10
678.4000000000003
 20
458.5000000000023
 30
0.0
 11
678.4000000000003
 21
464.5000000000023
 31
0.0
  0
LINE
  5
45
330
2
100
AcDbEntity
  8
L-TYUSIN
  6
CENTER
 62
     1
100
AcDbLine
 10
280.9033708159329
 20
359.5000000000005
 30
0.0
 11
302.2988704919947
 21
359.5000000000005
 31
0.0
  0
LINE
  5
46
330
2
100
AcDbEntity
  8
L-TYUSIN
  6
CENTER
 62
     1
100
AcDbLine
 10
280.9033708159329
 20
234.5000000000005
 30
0.0
 11
302.2988704919947
 21
234.5000000000005
 31
0.0
  0
LINE
  5
47
330
2
100
AcDbEntity
  8
L-ZISSEN
  6
CONTINUOUS
 62
     7
100
AcDbLine
 10
310.0
 20
222.0000000000002
 30
0.0
 11
290.0
 21
222.0000000000001
 31
0.0
  0
LINE
  5
48
330
2
100
AcDbEntity
  8
L-ZISSEN
  6
CONTINUOUS
 62
     7
100
AcDbLine
 10
310.0
 20
372.0000000000002
 30
0.0
 11
290.0
 21
372.0
 31
0.0
  0
LINE
  5
49
330
2
100
AcDbEntity
  8
L-ZISSEN
  6
CONTINUOUS
 62
     7
100
AcDbLine
 10
292.2999999999999
 20
222.0000000000001
 30
0.0
 11
292.3
 21
372.0
 31
0.0
  0
LINE
  5
4A
330
2
100
AcDbEntity
  8
L-ZISSEN
  6
CONTINUOUS
 62
     7
100
AcDbLine
 10
290.0
 20
372.0
 30
0.0
 11
290.0
 21
222.0000000000001
 31
0.0
  0
TEXT
  5
4B
330
2
100
AcDbEntity
  8
L-ZISSEN
  6
CONTINUOUS
 62
     7
100
AcDbText
 10
529.4163168376445
 20
436.9063819751871
 30
0.0
 40
4.5
  1
IN PORT
100
AcDbText
  0
TEXT
  5
4C
330
2
100
AcDbEntity
  8
L-ZISSEN
  6
CONTINUOUS
 62
     7
100
AcDbText
 10
537.4163168376445
 20
426.9063819751871
 30
0.0
 40
4.5
  1
Rc3/8
100
AcDbText
  0
LINE
  5
4D
330
2
100
AcDbEntity
  8
L-ZISSEN
  6
CONTINUOUS
 62
     7
100
AcDbLine
 10
455.8
 20
261.5000000000002
 30
0.0
 11
455.8
 21
343.5000000000003
 31
0.0
  0
LINE
  5
4E
330
2
100
AcDbEntity
  8
L-ZISSEN
  6
CONTINUOUS
 62
     7
100
AcDbLine
 10
442.0
 20
259.5000000000002
 30
0.0
 11
442.0
 21
344.5000000000002
 31
0.0
  0
LINE
  5
4F
330
2
100
AcDbEntity
  8
L-ZISSEN
  6
CONTINUOUS
 62
     7
100
AcDbLine
 10
440.0
 20
216.5000000000002
 30
0.0
 11
440.0
 21
395.5000000000001
 31
0.0
  0
LINE
  5
50
330
2
100
AcDbEntity
  8
L-ZISSEN
  6
CONTINUOUS
 62
     7
100
AcDbLine
 10
378.207692307692
 20
281.5000000000001
 30
0.0
 11
376.5
 21
355.5000000000001
 31
0.0
  0
LINE
  5
51
330
2
100
AcDbEntity
  8
L-ZISSEN
  6
CONTINUOUS
 62
     7
100
AcDbLine
 10
422.0
 20
355.5000000000004
 30
0.0
 11
422.0
 21
290.5000000000001
 31
0.0
  0
LINE
  5
52
330
2
100
AcDbEntity
  8
L-ZISSEN
  6
CONTINUOUS
 62
     7
100
AcDbLine
 10
432.9999999999995
 20
330.5000000000001
 30
0.0
 11
432.9999999999995
 21
294.5000000000001
 31
0.0
  0
LINE
  5
53
330
2
100
AcDbEntity
  8
L-ZISSEN
  6
CONTINUOUS
 62
     7
100
AcDbLine
 10
320.0
 20
422.5000000000001
 30
0.0
 11
320.0
 21
216.5000000000002
 31
0.0
  0
LINE
  5
54
330
2
100
AcDbEntity
  8
L-ZISSEN
  6
CONTINUOUS
 62
     7
100
AcDbLine
 10
310.0
 20
372.0000000000001
 30
0.0
 11
310.0
 21
222.0000000000002
 31
0.0
  0
LINE
  5
55
330
2
100
AcDbEntity
  8
L-ZISSEN
  6
CONTINUOUS
 62
     7
100
AcDbLine
 10
378.207692307692
 20
281.5000000000001
 30
0.0
 11
421.792307692308
 21
281.5000000000001
 31
0.0
  0
LINE
  5
56
330
2
100
AcDbEntity
  8
L-ZISSEN
  6
CONTINUOUS
 62
     7
100
AcDbLine
 10
320.0
 20
216.5000000000002
 30
0.0
 11
440.0
 21
216.5000000000002
 31
0.0
  0
LINE
  5
57
330
2
100
AcDbEntity
  8
L-ZISSEN
100
AcDbLine
 10
430.0
 20
243.2503052846793
 30
0.0
 11
329.9999999999999
 21
243.2503052846793
 31
0.0
  0
LINE
  5
58
330
2
100
AcDbEntity
  8
L-ZISSEN
100
AcDbLine
 10
430.0
 20
225.7496947153216
 30
0.0
 11
329.9999999999999
 21
225.7496947153216
 31
0.0
  0
ARC
  5
59
330
2
100
AcDbEntity
  8
L-ZISSEN
100
AcDbCircle
 10
329.9999999999999
 20
234.5000000000005
 30
0.0
 40
8.750305284678873
100
AcDbArc
 50
90.0
 51
270.0000000000004
  0
LINE
  5
5A
330
2
100
AcDbEntity
  8
L-ZISSEN
  6
CONTINUOUS
 62
     7
100
AcDbLine
 10
310.0
 20
226.5000000000002
 30
0.0
 11
320.0
 21
226.5000000000002
 31
0.0
  0
LINE
  5
5B
330
2
100
AcDbEntity
  8
L-ZISSEN
  6
CONTINUOUS
 62
     7
100
AcDbLine
 10
310.0
 20
242.5000000000002
 30
0.0
 11
320.0
 21
242.5000000000002
 31
0.0
  0
LINE
  5
5C
330
2
100
AcDbEntity
  8
L-ZISSEN
  6
CONTINUOUS
 62
     7
100
AcDbLine
 10
410.9999999999995
 20
281.5000000000001
 30
0.0
 11
409.9999999999995
 21
276.5000000000001
 31
0.0
  0
LINE
  5
5D
330
2
100
AcDbEntity
  8
L-ZISSEN
  6
CONTINUOUS
 62
     7
100
AcDbLine
 10
389.0
 20
281.5000000000001
 30
0.0
 11
389.9999999999995
 21
276.5000000000004
 31
0.0
  0
LINE
  5
5E
330
2
100
AcDbEntity
  8
L-ZISSEN
  6
CONTINUOUS
 62
     7
100
AcDbLine
 10
408.4999999999995
 20
254.0000000000001
 30
0.0
 11
408.4999999999996
 21
276.5000000000001
 31
0.0
  0
LINE
  5
5F
330
2
100
AcDbEntity
  8
L-ZISSEN
  6
CONTINUOUS
 62
     7
100
AcDbLine
 10
391.4999999999995
 20
254.0000000000001
 30
0.0
 11
391.4999999999995
 21
276.5000000000004
 31
0.0
  0
LINE
  5
60
330
2
100
AcDbEntity
  8
L-ZISSEN
  6
CONTINUOUS
 62
     7
100
AcDbLine
 10
391.4999999999995
 20
254.0000000000001
 30
0.0
 11
408.4999999999995
 21
254.0000000000004
 31
0.0
  0
LINE
  5
61
330
2
100
AcDbEntity
  8
L-ZISSEN
  6
CONTINUOUS
 62
     7
100
AcDbLine
 10
389.9999999999995
 20
276.5000000000004
 30
0.0
 11
409.9999999999995
 21
276.5000000000001
 31
0.0
  0
ARC
  5
62
330
2
100
AcDbEntity
  8
L-ZISSEN
100
AcDbCircle
 10
430.0
 20
234.5000000000005
 30
0.0
 40
8.750305284678873
100
AcDbArc
 50
269.9999999999996
 51
90.0
  0
LINE
  5
63
330
2
100
AcDbEntity
  8
L-ZISSEN
100
AcDbLine
 10
442.0
 20
261.5000000000002
 30
0.0
 11
455.8
 21
261.5000000000002
 31
0.0
  0
LINE
  5
64
330
2
100
AcDbEntity
  8
L-ZISSEN
100
AcDbLine
 10
440.0
 20
259.5000000000002
 30
0.0
 11
442.0
 21
259.5000000000002
 31
0.0
  0
LINE
  5
65
330
2
100
AcDbEntity
  8
L-ZISSEN
  6
CONTINUOUS
 62
     7
100
AcDbLine
 10
421.792307692308
 20
281.5000000000001
 30
0.0
 11
422.0
 21
290.5000000000001
 31
0.0
  0
LINE
  5
66
330
2
100
AcDbEntity
  8
L-ZISSEN
  6
CONTINUOUS
 62
     7
100
AcDbLine
 10
422.0
 20
290.5000000000001
 30
0.0
 11
427.9999999999995
 21
290.5000000000001
 31
0.0
  0
LINE
  5
67
330
2
100
AcDbEntity
  8
L-ZISSEN
  6
CONTINUOUS
 62
     7
100
AcDbLine
 10
427.9999999999995
 20
290.5000000000001
 30
0.0
 11
432.9999999999995
 21
294.5000000000001
 31
0.0
  0
LINE
  5
68
330
2
100
AcDbEntity
  8
L-ZISSEN
  6
CONTINUOUS
 62
     7
100
AcDbLine
 10
431.0000299999996
 20
355.5000000000001
 30
0.0
 11
368.9999700000003
 21
355.5000000000004
 31
0.0
  0
LINE
  5
69
330
2
100
AcDbEntity
  8
L-ZISSEN
  6
CONTINUOUS
 62
     7
100
AcDbLine
 10
378.0001400000001
 20
458.4786799999999
 30
0.0
 11
421.9999600000001
 21
458.4786799999999
 31
0.0
  0
LINE
  5
6A
330
2
100
AcDbEntity
  8
L-ZISSEN
  6
CONTINUOUS
 62
     7
100
AcDbLine
 10
431.5
 20
450.9786799999999
 30
0.0
 11
368.5
 21
450.9786799999999
 31
0.0
  0
LINE
  5
6B
330
2
100
AcDbEntity
  8
L-ZISSEN
  6
CONTINUOUS
 62
     7
100
AcDbLine
 10
431.5
 20
436.47868
 30
0.0
 11
368.5
 21
436.47868
 31
0.0
  0
LINE
  5
6C
330
2
100
AcDbEntity
  8
L-ZISSEN
  6
CONTINUOUS
 62
     7
100
AcDbLine
 10
431.89281
 20
422.5
 30
0.0
 11
368.5
 21
422.5
 31
0.0
  0
LINE
  5
6D
330
2
100
AcDbEntity
  8
L-ZISSEN
  6
CONTINUOUS
 62
     7
100
AcDbLine
 10
421.99999
 20
392.0
 30
0.0
 11
417.99999
 21
390.0
 31
0.0
  0
LINE
  5
6E
330
2
100
AcDbEntity
  8
L-ZISSEN
  6
CONTINUOUS
 62
     7
100
AcDbLine
 10
422.0
 20
408.0000199999999
 30
0.0
 11
418.0
 21
410.00002
 31
0.0
  0
LINE
  5
6F
330
2
100
AcDbEntity
  8
L-ZISSEN
  6
CONTINUOUS
 62
     7
100
AcDbLine
 10
431.5
 20
363.7
 30
0.0
 11
368.5
 21
363.7
 31
0.0
  0
LINE
  5
70
330
2
100
AcDbEntity
  8
L-ZISSEN
  6
CONTINUOUS
 62
     7
100
AcDbLine
 10
431.89281
 20
377.5
 30
0.0
 11
368.5
 21
377.5
 31
0.0
  0
LINE
  5
71
330
2
100
AcDbEntity
  8
L-ZISSEN
  6
CONTINUOUS
 62
     7
100
AcDbLine
 10
431.5
 20
445.5
 30
0.0
 11
368.5
 21
445.5
 31
0.0
  0
LINE
  5
72
330
2
100
AcDbEntity
  8
L-TYUSIN
  6
CENTER
 62
     1
100
AcDbLine
 10
400.0
 20
385.1515407637516
 30
0.0
 11
400.0
 21
414.8484592362484
 31
0.0
  0
LINE
  5
73
330
2
100
AcDbEntity
  8
L-ZISSEN
  6
CONTINUOUS
 62
     7
100
AcDbLine
 10
368.5000000000002
 20
363.7
 30
0.0
 11
368.5
 21
445.5
 31
0.0
  0
LINE
  5
74
330
2
100
AcDbEntity
  8
L-ZISSEN
  6
CONTINUOUS
 62
     7
100
AcDbLine
 10
382.0
 20
390.0
 30
0.0
 11
382.0
 21
377.5
 31
0.0
  0
LINE
  5
75
330
2
100
AcDbEntity
  8
L-ZISSEN
  6
CONTINUOUS
 62
     7
100
AcDbLine
 10
418.0
 20
390.0
 30
0.0
 11
418.0
 21
377.5
 31
0.0
  0
LINE
  5
76
330
2
100
AcDbEntity
  8
L-ZISSEN
  6
CONTINUOUS
 62
     7
100
AcDbLine
 10
368.4999999999997
 20
376.5000000000001
 30
0.0
 11
320.0
 21
376.5000000000001
 31
0.0
  0
LINE
  5
77
330
2
100
AcDbEntity
  8
L-ZISSEN
  6
CONTINUOUS
 62
     7
100
AcDbLine
 10
368.4999999999997
 20
377.5000000000001
 30
0.0
 11
320.0
 21
377.5000000000001
 31
0.0
  0
LINE
  5
78
330
2
100
AcDbEntity
  8
L-ZISSEN
100
AcDbLine
 10
376.6096224296464
 20
350.7496947153216
 30
0.0
 11
329.9999999999999
 21
350.7496947153216
 31
0.0
  0
LINE
  5
79
330
2
100
AcDbEntity
  8
L-ZISSEN
100
AcDbLine
 10
368.5000000000002
 20
368.2503052846793
 30
0.0
 11
329.9999999999999
 21
368.2503052846793
 31
0.0
  0
ARC
  5
7A
330
2
100
AcDbEntity
  8
L-ZISSEN
100
AcDbCircle
 10
329.9999999999999
 20
359.5000000000005
 30
0.0
 40
8.750305284678873
100
AcDbArc
 50
90.0
 51
270.0000000000004
  0
LINE
  5
7B
330
2
100
AcDbEntity
  8
L-ZISSEN
  6
CONTINUOUS
 62
     7
100
AcDbLine
 10
310.0
 20
351.5000000000002
 30
0.0
 11
320.0
 21
351.5000000000002
 31
0.0
  0
LINE
  5
7C
330
2
100
AcDbEntity
  8
L-ZISSEN
  6
CONTINUOUS
 62
     7
100
AcDbLine
 10
310.0
 20
367.5000000000002
 30
0.0
 11
320.0
 21
367.5000000000001
 31
0.0
  0
LINE
  5
7D
330
2
100
AcDbEntity
  8
L-ZISSEN
  6
CONTINUOUS
 62
     7
100
AcDbLine
 10
368.9999700000003
 20
355.5000000000004
 30
0.0
 11
368.9999700000003
 21
363.7
 31
0.0
  0
LINE
  5
7E
330
2
100
AcDbEntity
  8
L-ZISSEN
  6
CONTINUOUS
 62
     7
100
AcDbLine
 10
320.0
 20
422.5000000000001
 30
0.0
 11
368.4999999999995
 21
422.5000000000001
 31
0.0
  0
LINE
  5
7F
330
2
100
AcDbEntity
  8
L-ZISSEN
  6
CONTINUOUS
 62
     7
100
AcDbLine
 10
316.3999999999998
 20
458.5000000000023
 30
0.0
 11
377.9834233802839
 21
458.5000000000012
 31
0.0
  0
LINE
  5
80
330
2
100
AcDbEntity
  8
L-TYUSIN
  6
CENTER
 62
     1
100
AcDbLine
 10
335.1515407637513
 20
442.5
 30
0.0
 11
364.8484592362482
 21
442.5
 31
0.0
  0
CIRCLE
  5
81
330
2
100
AcDbEntity
  8
L-ZISSEN
100
AcDbCircle
 10
350.0
 20
442.5
 30
0.0
 40
9.3155
  0
LINE
  5
82
330
2
100
AcDbEntity
  8
L-ZISSEN
100
AcDbLine
 10
334.0
 20
422.5
 30
0.0
 11
332.7428522982968
 21
458.5000000000021
 31
0.0
  0
LINE
  5
83
330
2
100
AcDbEntity
  8
L-ZISSEN
100
AcDbLine
 10
320.5
 20
422.5
 30
0.0
 11
319.2428522982968
 21
458.5000000000023
 31
0.0
  0
LINE
  5
84
330
2
100
AcDbEntity
  8
L-TYUSIN
  6
CENTER
 62
     1
100
AcDbLine
 10
350.0
 20
427.6515407637517
 30
0.0
 11
350.0
 21
457.3484592362484
 31
0.0
  0
LINE
  5
85
330
2
100
AcDbEntity
  8
L-ZISSEN
100
AcDbLine
 10
366.0
 20
422.5
 30
0.0
 11
367.2571477017029
 21
458.5000000000012
 31
0.0
  0
LINE
  5
86
330
2
100
AcDbEntity
  8
L-TYUSIN
  6
CENTER
 62
     1
100
AcDbLine
 10
413.0300379833012
 20
400.0
 30
0.0
 11
386.9699620166993
 21
400.0
 31
0.0
  0
LINE
  5
87
330
2
100
AcDbEntity
  8
L-ZISSEN
  6
CONTINUOUS
 62
     7
100
AcDbLine
 10
378.0
 20
407.9999800000001
 30
0.0
 11
378.0
 21
392.0
 31
0.0
  0
LINE
  5
88
330
2
100
AcDbEntity
  8
L-ZISSEN
  6
CONTINUOUS
 62
     7
100
AcDbLine
 10
382.0
 20
390.0
 30
0.0
 11
378.0
 21
392.0
 31
0.0
  0
LINE
  5
89
330
2
100
AcDbEntity
  8
L-ZISSEN
  6
CONTINUOUS
 62
     7
100
AcDbLine
 10
382.0
 20
422.5
 30
0.0
 11
382.0
 21
409.99998
 31
0.0
  0
LINE
  5
8A
330
2
100
AcDbEntity
  8
L-ZISSEN
  6
CONTINUOUS
 62
     7
100
AcDbLine
 10
382.0000099999999
 20
409.99998
 30
0.0
 11
378.0
 21
407.9999800000001
 31
0.0
  0
CIRCLE
  5
8B
330
2
100
AcDbEntity
  8
L-ZISSEN
100
AcDbCircle
 10
400.0
 20
400.0
 30
0.0
 40
7.474999999999999
  0
LINE
  5
8C
330
2
100
AcDbEntity
  8
L-ZISSEN
  6
CONTINUOUS
 62
     7
100
AcDbLine
 10
418.0
 20
422.5
 30
0.0
 11
418.0
 21
410.0000300000001
 31
0.0
  0
LINE
  5
8D
330
2
100
AcDbEntity
  8
L-ZISSEN
  6
CONTINUOUS
 62
     7
100
AcDbLine
 10
368.5
 20
445.5
 30
0.0
 11
368.5
 21
450.9786799999999
 31
0.0
  0
LINE
  5
8E
330
2
100
AcDbEntity
  8
L-ZISSEN
  6
CONTINUOUS
 62
     7
100
AcDbLine
 10
378.0001400000001
 20
458.4786799999999
 30
0.0
 11
377.74665
 21
451.22
 31
0.0
  0
LINE
  5
8F
330
2
100
AcDbEntity
  8
L-ZISSEN
  6
CONTINUOUS
 62
     7
100
AcDbLine
 10
484.9999999999997
 20
381.4999999999999
 30
0.0
 11
485.0
 21
418.4999999999997
 31
0.0
  0
LINE
  5
90
330
2
100
AcDbEntity
  8
L-ZISSEN
  6
CONTINUOUS
 62
     7
100
AcDbLine
 10
431.5
 20
363.7
 30
0.0
 11
431.5
 21
445.5
 31
0.0
  0
LINE
  5
91
330
2
100
AcDbEntity
  8
L-ZISSEN
  6
CONTINUOUS
 62
     7
100
AcDbLine
 10
452.4999999999997
 20
384.0
 30
0.0
 11
452.5
 21
420.9999999999998
 31
0.0
  0
LINE
  5
92
330
2
100
AcDbEntity
  8
L-ZISSEN
  6
CONTINUOUS
 62
     7
100
AcDbLine
 10
476.4999999999997
 20
384.0
 30
0.0
 11
476.4999999999999
 21
420.9999999999998
 31
0.0
  0
LINE
  5
93
330
2
100
AcDbEntity
  8
L-ZISSEN
  6
CONTINUOUS
 62
     7
100
AcDbLine
 10
484.9999999999997
 20
381.4999999999999
 30
0.0
 11
461.0
 21
381.4999999999999
 31
0.0
  0
LINE
  5
94
330
2
100
AcDbEntity
  8
L-ZISSEN
  6
CONTINUOUS
 62
     7
100
AcDbLine
 10
430.9999699999998
 20
347.2500149999989
 30
0.0
 11
430.9999699999998
 21
363.7
 31
0.0
  0
ARC
  5
95
330
2
100
AcDbEntity
  8
L-ZISSEN
100
AcDbCircle
 10
430.0
 20
359.5000000000005
 30
0.0
 40
8.750305284678873
100
AcDbArc
 50
276.5620001779865
 51
80.12945822185363
  0
LINE
  5
96
330
2
100
AcDbEntity
  8
L-ZISSEN
100
AcDbLine
 10
442.0
 20
343.5000000000002
 30
0.0
 11
455.8
 21
343.5000000000003
 31
0.0
  0
LINE
  5
97
330
2
100
AcDbEntity
  8
L-ZISSEN
  6
CONTINUOUS
 62
     7
100
AcDbLine
 10
427.0
 20
333.5000000000001
 30
0.0
 11
427.0
 21
344.5000000000003
 31
0.0
  0
LINE
  5
98
330
2
100
AcDbEntity
  8
L-ZISSEN
  6
CONTINUOUS
 62
     7
100
AcDbLine
 10
432.9999999999995
 20
330.5000000000004
 30
0.0
 11
422.5527864044997
 21
335.7236067977503
 31
0.0
  0
LINE
  5
99
330
2
100
AcDbEntity
  8
L-ZISSEN
  6
CONTINUOUS
 62
     7
100
AcDbLine
 10
434.5000000000005
 20
338.5000000000001
 30
0.0
 11
430.5000000000005
 21
338.5000000000001
 31
0.0
  0
LINE
  5
9A
330
2
100
AcDbEntity
  8
L-ZISSEN
  6
CONTINUOUS
 62
     7
100
AcDbLine
 10
430.9999699999998
 20
347.2500149999989
 30
0.0
 11
434.5000000000005
 21
345.5000000000001
 31
0.0
  0
LINE
  5
9B
330
2
100
AcDbEntity
  8
L-ZISSEN
  6
CONTINUOUS
 62
     7
100
AcDbLine
 10
427.0
 20
344.5000000000003
 30
0.0
 11
430.9999700000003
 21
351.3570914285723
 31
0.0
  0
ARC
  5
9C
330
2
100
AcDbEntity
  8
L-ZISSEN
  6
CONTINUOUS
 62
     7
100
AcDbCircle
 10
422.9999999999995
 20
336.6180339887502
 30
0.0
 40
1.0
100
AcDbArc
 50
180.0
 51
243.4349488229217
  0
LINE
  5
9D
330
2
100
AcDbEntity
  8
L-ZISSEN
  6
CONTINUOUS
 62
     7
100
AcDbLine
 10
427.0
 20
344.5000000000006
 30
0.0
 11
430.5000000000005
 21
338.5000000000001
 31
0.0
  0
LINE
  5
9E
330
2
100
AcDbEntity
  8
L-ZISSEN
100
AcDbLine
 10
440.0
 20
344.5000000000002
 30
0.0
 11
442.0
 21
344.5000000000002
 31
0.0
  0
LINE
  5
9F
330
2
100
AcDbEntity
  8
L-ZISSEN
  6
CONTINUOUS
 62
     7
100
AcDbLine
 10
434.5000000000005
 20
338.5000000000001
 30
0.0
 11
434.5000000000005
 21
345.5000000000004
 31
0.0
  0
LINE
  5
A0
330
2
100
AcDbEntity
  8
L-ZISSEN
  6
CONTINUOUS
 62
     7
100
AcDbLine
 10
439.9999999999997
 20
376.5000000000001
 30
0.0
 11
431.5
 21
376.5
 31
0.0
  0
LINE
  5
A1
330
2
100
AcDbEntity
  8
L-ZISSEN
  6
CONTINUOUS
 62
     7
100
AcDbLine
 10
440.0
 20
377.5000000000001
 30
0.0
 11
431.89281
 21
377.5000000000001
 31
0.0
  0
LINE
  5
A2
330
2
100
AcDbEntity
  8
L-ZISSEN
  6
CONTINUOUS
 62
     7
100
AcDbLine
 10
476.4999999999997
 20
384.0
 30
0.0
 11
452.5
 21
384.0
 31
0.0
  0
LINE
  5
A3
330
2
100
AcDbEntity
  8
L-ZISSEN
  6
CONTINUOUS
 62
     7
100
AcDbLine
 10
460.9999999999997
 20
381.4999999999999
 30
0.0
 11
460.9999999999997
 21
384.0
 31
0.0
  0
LINE
  5
A4
330
2
100
AcDbEntity
  8
L-ZISSEN
  6
CONTINUOUS
 62
     7
100
AcDbLine
 10
485.0
 20
418.4999999999997
 30
0.0
 11
476.4999999999999
 21
418.4999999999997
 31
0.0
  0
LINE
  5
A5
330
2
100
AcDbEntity
  8
L-ZISSEN
100
AcDbLine
 10
439.5
 20
422.5
 30
0.0
 11
440.7571477017027
 21
458.4999999999998
 31
0.0
  0
LINE
  5
A6
330
2
100
AcDbEntity
  8
L-ZISSEN
  6
CONTINUOUS
 62
     7
100
AcDbLine
 10
452.3928099999999
 20
393.0000000000005
 30
0.0
 11
440.0
 21
393.0000000000002
 31
0.0
  0
LINE
  5
A7
330
2
100
AcDbEntity
  8
L-ZISSEN
  6
CONTINUOUS
 62
     7
100
AcDbLine
 10
452.4999999999998
 20
409.5000000000004
 30
0.0
 11
431.8928099999998
 21
409.5000000000004
 31
0.0
  0
LINE
  5
A8
330
2
100
AcDbEntity
  8
L-ZISSEN
  6
CONTINUOUS
 62
     7
100
AcDbLine
 10
452.4999999999998
 20
395.5000000000006
 30
0.0
 11
431.8928099999998
 21
395.5000000000002
 31
0.0
  0
LINE
  5
A9
330
2
100
AcDbEntity
  8
L-ZISSEN
  6
CONTINUOUS
 62
     7
100
AcDbLine
 10
422.0
 20
408.00003
 30
0.0
 11
422.0
 21
392.0
 31
0.0
  0
LINE
  5
AA
330
2
100
AcDbEntity
  8
L-ZISSEN
  6
CONTINUOUS
 62
     7
100
AcDbLine
 10
431.89281
 20
422.5000000000001
 30
0.0
 11
440.0
 21
422.5
 31
0.0
  0
LINE
  5
AB
330
2
100
AcDbEntity
  8
L-ZISSEN
  6
CONTINUOUS
 62
     7
100
AcDbLine
 10
446.0
 20
409.5000000000001
 30
0.0
 11
446.0
 21
416.5000000000002
 31
0.0
  0
LINE
  5
AC
330
2
100
AcDbEntity
  8
L-ZISSEN
  6
CONTINUOUS
 62
     7
100
AcDbLine
 10
446.0
 20
416.5000000000002
 30
0.0
 11
440.0
 21
416.5000000000002
 31
0.0
  0
LINE
  5
AD
330
2
100
AcDbEntity
  8
L-ZISSEN
  6
CONTINUOUS
 62
     7
100
AcDbLine
 10
440.0
 20
409.5000000000001
 30
0.0
 11
440.0
 21
422.5
 31
0.0
  0
LINE
  5
AE
330
2
100
AcDbEntity
  8
L-ZISSEN
  6
CONTINUOUS
 62
     7
100
AcDbLine
 10
476.4999999999999
 20
420.9999999999998
 30
0.0
 11
452.5
 21
420.9999999999998
 31
0.0
  0
LINE
  5
AF
330
2
100
AcDbEntity
  8
L-ZISSEN
100
AcDbLine
 10
449.1581397002503
 20
441.1895595675632
 30
0.0
 11
445.5603327229815
 21
441.3151977556922
 31
0.0
  0
LINE
  5
B0
330
2
100
AcDbEntity
  8
L-ZISSEN
100
AcDbLine
 10
449.5769336606803
 20
453.1822494917924
 30
0.0
 11
445.9791266834117
 21
453.3078876799214
 31
0.0
  0
LINE
  5
B1
330
2
100
AcDbEntity
  8
L-ZISSEN
100
AcDbLine
 10
446.0210060794546
 20
454.5071566723442
 30
0.0
 11
445.5184533269386
 21
440.1159287632693
 31
0.0
  0
LINE
  5
B2
330
2
100
AcDbEntity
  8
L-ZISSEN
100
AcDbLine
 10
445.5184533269386
 20
440.1159287632693
 30
0.0
 11
440.1217428610356
 21
440.3043860454628
 31
0.0
  0
LINE
  5
B3
330
2
100
AcDbEntity
  8
L-ZISSEN
  6
CONTINUOUS
 62
     7
100
AcDbLine
 10
422.016666596686
 20
458.5000000000002
 30
0.0
 11
443.5999999999999
 21
458.4999999999998
 31
0.0
  0
LINE
  5
B4
330
2
100
AcDbEntity
  8
L-ZISSEN
  6
CONTINUOUS
 62
     7
100
AcDbLine
 10
421.9999499999999
 20
458.4786799999999
 30
0.0
 11
422.2534399999999
 21
451.2199900000001
 31
0.0
  0
LINE
  5
B5
330
2
100
AcDbEntity
  8
L-ZISSEN
  6
CONTINUOUS
 62
     7
100
AcDbLine
 10
431.5
 20
445.5
 30
0.0
 11
431.5
 21
450.9786799999999
 31
0.0
  0
LINE
  5
B6
330
2
100
AcDbEntity
  8
L-ZISSEN
100
AcDbLine
 10
446.0210060794547
 20
454.5071566723442
 30
0.0
 11
440.6242956135515
 21
454.6956139545377
 31
0.0
  0
LINE
  5
B7
330
2
100
AcDbEntity
  8
L-ZISSEN
100
AcDbLine
 10
449.5769336606803
 20
453.1822494917924
 30
0.0
 11
449.1581397002503
 21
441.1895595675632
 31
0.0
  0
LINE
  5
B8
330
2
100
AcDbEntity
  8
L-ZISSEN
  6
CONTINUOUS
 62
     7
100
AcDbLine
 10
710.0000000000005
 20
344.5000000000002
 30
0.0
 11
710.0000000000003
 21
259.5000000000003
 31
0.0
  0
LINE
  5
B9
330
2
100
AcDbEntity
  8
L-ZISSEN
  6
CONTINUOUS
 62
     7
100
AcDbLine
 10
653.2923076923082
 20
281.5
 30
0.0
 11
655.0000000000006
 21
355.4999999999998
 31
0.0
  0
LINE
  5
BA
330
2
100
AcDbEntity
  8
L-ZISSEN
  6
CONTINUOUS
 62
     7
100
AcDbLine
 10
609.7076923076927
 20
281.5
 30
0.0
 11
608.0000000000007
 21
355.4999999999998
 31
0.0
  0
CIRCLE
  5
BB
330
2
100
AcDbEntity
  8
L-ZISSEN
  6
CONTINUOUS
 62
     7
100
AcDbCircle
 10
631.5000000000006
 20
314.5
 30
0.0
 40
11.0
  0
LINE
  5
BC
330
2
100
AcDbEntity
  8
L-ZISSEN
  6
CONTINUOUS
 62
     7
100
AcDbLine
 10
692.0000000000004
 20
377.5000000000003
 30
0.0
 11
692.0000000000006
 21
216.5000000000002
 31
0.0
  0
LINE
  5
BD
330
2
100
AcDbEntity
  8
L-ZISSEN
  6
CONTINUOUS
 62
     7
100
AcDbLine
 10
724.5000000000004
 20
325.5000000000002
 30
0.0
 11
724.5000000000004
 21
279.5000000000002
 31
0.0
  0
LINE
  5
BE
330
2
100
AcDbEntity
  8
L-ZISSEN
  6
CONTINUOUS
 62
     7
100
AcDbLine
 10
718.5000000000004
 20
279.5000000000002
 30
0.0
 11
718.5000000000004
 21
325.5000000000002
 31
0.0
  0
LINE
  5
BF
330
2
100
AcDbEntity
  8
L-ZISSEN
  6
CONTINUOUS
 62
     7
100
AcDbLine
 10
731.8000000000002
 20
261.5000000000002
 30
0.0
 11
731.8000000000002
 21
343.5000000000004
 31
0.0
  0
LINE
  5
C0
330
2
100
AcDbEntity
  8
L-ZISSEN
  6
CONTINUOUS
 62
     7
100
AcDbLine
 10
711.2000000000002
 20
261.5000000000002
 30
0.0
 11
711.2000000000002
 21
343.5000000000004
 31
0.0
  0
LINE
  5
C1
330
2
100
AcDbEntity
  8
L-TYUSIN
  6
CENTER
 62
     1
100
AcDbLine
 10
660.0879385241303
 20
234.5000000000002
 30
0.0
 11
673.9120614758704
 21
234.5000000000002
 31
0.0
  0
LINE
  5
C2
330
2
100
AcDbEntity
  8
L-ZISSEN
  6
CONTINUOUS
 62
     7
100
AcDbLine
 10
692.0000000000004
 20
222.0000000000004
 30
0.0
 11
652.0000000000002
 21
222.0000000000002
 31
0.0
  0
CIRCLE
  5
C3
330
2
100
AcDbEntity
  8
L-ZISSEN
  6
CONTINUOUS
 62
     7
100
AcDbCircle
 10
667.0000000000004
 20
234.5000000000002
 30
0.0
 40
3.5
  0
LINE
  5
C4
330
2
100
AcDbEntity
  8
L-ZISSEN
  6
CONTINUOUS
 62
     7
100
AcDbLine
 10
652.0000000000002
 20
222.0000000000002
 30
0.0
 11
652.0000000000002
 21
281.4999999999997
 31
0.0
  0
LINE
  5
C5
330
2
100
AcDbEntity
  8
L-ZISSEN
  6
CONTINUOUS
 62
     7
100
AcDbLine
 10
642.5000000000006
 20
281.5
 30
0.0
 11
641.3149545762242
 21
275.574772881117
 31
0.0
  0
LINE
  5
C6
330
2
100
AcDbEntity
  8
L-ZISSEN
  6
CONTINUOUS
 62
     7
100
AcDbLine
 10
620.4999999999998
 20
281.5
 30
0.0
 11
621.6850454237771
 21
275.5747728811153
 31
0.0
  0
LINE
  5
C7
330
2
100
AcDbEntity
  8
L-ZISSEN
  6
CONTINUOUS
 62
     7
100
AcDbLine
 10
641.3149545762242
 20
253.9999999999998
 30
0.0
 11
621.6850454237771
 21
253.9999999999998
 31
0.0
  0
LINE
  5
C8
330
2
100
AcDbEntity
  8
L-ZISSEN
  6
CONTINUOUS
 62
     7
100
AcDbLine
 10
621.6850454237771
 20
275.9999999999998
 30
0.0
 11
641.3149545762242
 21
275.9999999999998
 31
0.0
  0
LINE
  5
C9
330
2
100
AcDbEntity
  8
L-ZISSEN
  6
CONTINUOUS
 62
     7
100
AcDbLine
 10
621.6850454237771
 20
275.5747728811153
 30
0.0
 11
621.6850454237771
 21
253.9999999999998
 31
0.0
  0
LINE
  5
CA
330
2
100
AcDbEntity
  8
L-ZISSEN
  6
CONTINUOUS
 62
     7
100
AcDbLine
 10
641.3149545762242
 20
275.574772881117
 30
0.0
 11
641.3149545762242
 21
253.9999999999998
 31
0.0
  0
LINE
  5
CB
330
2
100
AcDbEntity
  8
L-ZISSEN
  6
CONTINUOUS
 62
     7
100
AcDbLine
 10
653.2923076923077
 20
281.4999999999998
 30
0.0
 11
609.7076923076927
 21
281.5
 31
0.0
  0
LINE
  5
CC
330
2
100
AcDbEntity
  8
L-ZISSEN
  6
CONTINUOUS
 62
     7
100
AcDbLine
 10
706.0000000000006
 20
226.5000000000002
 30
0.0
 11
780.510874706925
 21
226.5000000000002
 31
0.0
  0
LINE
  5
CD
330
2
100
AcDbEntity
  8
L-ZISSEN
  6
CONTINUOUS
 62
     7
100
AcDbLine
 10
752.0000000000006
 20
222.0000000000004
 30
0.0
 11
706.0000000000006
 21
222.0000000000004
 31
0.0
  0
LINE
  5
CE
330
2
100
AcDbEntity
  8
L-ZISSEN
  6
CONTINUOUS
 62
     7
100
AcDbLine
 10
692.0000000000006
 20
216.5000000000002
 30
0.0
 11
706.0000000000006
 21
216.5000000000002
 31
0.0
  0
LINE
  5
CF
330
2
100
AcDbEntity
  8
L-ZISSEN
  6
CONTINUOUS
 62
     7
100
AcDbLine
 10
682.0000000000004
 20
243.2503052846791
 30
0.0
 11
682.0000000000004
 21
225.7496947153214
 31
0.0
  0
LINE
  5
D0
330
2
100
AcDbEntity
  8
L-ZISSEN
100
AcDbLine
 10
692.0000000000006
 20
225.7496947153214
 30
0.0
 11
682.0000000000004
 21
225.7496947153214
 31
0.0
  0
LINE
  5
D1
330
2
100
AcDbEntity
  8
L-TYUSIN
  6
CENTER
 62
     1
100
AcDbLine
 10
667.0000000000002
 20
227.5879385241337
 30
0.0
 11
667.0000000000002
 21
241.4120614758678
 31
0.0
  0
LINE
  5
D2
330
2
100
AcDbEntity
  8
L-ZISSEN
100
AcDbLine
 10
692.0000000000006
 20
243.2503052846791
 30
0.0
 11
682.0000000000004
 21
243.2503052846791
 31
0.0
  0
LINE
  5
D3
330
2
100
AcDbEntity
  8
L-ZISSEN
  6
CONTINUOUS
 62
     7
100
AcDbLine
 10
706.0000000000006
 20
216.5000000000002
 30
0.0
 11
706.0000000000006
 21
226.5000000000002
 31
0.0
  0
LINE
  5
D4
330
2
100
AcDbEntity
  8
L-ZISSEN
  6
CONTINUOUS
 62
     7
100
AcDbLine
 10
752.0000000000006
 20
216.5000000000002
 30
0.0
 11
752.0000000000006
 21
226.5000000000002
 31
0.0
  0
LINE
  5
D5
330
2
100
AcDbEntity
  8
L-ZISSEN
  6
CONTINUOUS
 62
     7
100
AcDbLine
 10
710.0000000000003
 20
259.5000000000003
 30
0.0
 11
733.0000000000004
 21
259.5000000000003
 31
0.0
  0
CIRCLE
  5
D6
330
2
100
AcDbEntity
  8
L-ZISSEN
  6
CONTINUOUS
 62
     7
100
AcDbCircle
 10
721.5000000000004
 20
271.5000000000002
 30
0.0
 40
4.5
  0
LINE
  5
D7
330
2
100
AcDbEntity
  8
L-ZISSEN
100
AcDbLine
 10
711.2000000000002
 20
261.5000000000002
 30
0.0
 11
731.8000000000002
 21
261.5000000000002
 31
0.0
  0
LINE
  5
D8
330
2
100
AcDbEntity
  8
L-ZISSEN
  6
CONTINUOUS
 62
     7
100
AcDbLine
 10
724.5000000000004
 20
279.5000000000002
 30
0.0
 11
718.5000000000004
 21
279.5000000000002
 31
0.0
  0
LINE
  5
D9
330
2
100
AcDbEntity
  8
L-ZISSEN
  6
CONTINUOUS
 62
     7
100
AcDbLine
 10
733.0000000000004
 20
259.5000000000003
 30
0.0
 11
733.0000000000004
 21
291.5000000000004
 31
0.0
  0
CIRCLE
  5
DA
330
2
100
AcDbEntity
  8
L-ZISSEN
  6
CONTINUOUS
 62
     7
100
AcDbCircle
 10
663.0
 20
415.364125289105
 30
0.0
 40
3.5
  0
CIRCLE
  5
DB
330
2
100
AcDbEntity
  8
L-ZISSEN
  6
CONTINUOUS
 62
     7
100
AcDbCircle
 10
663.0
 20
383.6349198555345
 30
0.0
 40
3.5
  0
CIRCLE
  5
DC
330
2
100
AcDbEntity
  8
L-ZISSEN
  6
CONTINUOUS
 62
     7
100
AcDbCircle
 10
667.0000000000003
 20
359.5000000000002
 30
0.0
 40
3.5
  0
LINE
  5
DD
330
2
100
AcDbEntity
  8
L-ZISSEN
  6
CONTINUOUS
 62
     7
100
AcDbLine
 10
692.0000000000004
 20
372.0000000000004
 30
0.0
 11
663.1783905853084
 21
372.0000000000001
 31
0.0
  0
LINE
  5
DE
330
2
100
AcDbEntity
  8
L-TYUSIN
  6
CENTER
 62
     1
100
AcDbLine
 10
660.0879385241303
 20
359.5000000000002
 30
0.0
 11
673.9120614758704
 21
359.5000000000002
 31
0.0
  0
LINE
  5
DF
330
2
100
AcDbEntity
  8
L-ZISSEN
100
AcDbLine
 10
677.0
 20
422.0000000000003
 30
0.0
 11
652.9999999999999
 21
422.0000000000002
 31
0.0
  0
LINE
  5
E0
330
2
100
AcDbEntity
  8
L-ZISSEN
100
AcDbLine
 10
677.0
 20
378.0000000000002
 30
0.0
 11
652.9999999999999
 21
378.0000000000002
 31
0.0
  0
LINE
  5
E1
330
2
100
AcDbEntity
  8
L-ZISSEN
  6
CONTINUOUS
 62
     7
100
AcDbLine
 10
652.9999999999999
 20
422.0000000000002
 30
0.0
 11
652.9999999999999
 21
378.0000000000002
 31
0.0
  0
LINE
  5
E2
330
2
100
AcDbEntity
  8
L-ZISSEN
  6
CONTINUOUS
 62
     7
100
AcDbLine
 10
600.0
 20
377.5000000000001
 30
0.0
 11
600.0
 21
422.5000000000001
 31
0.0
  0
CIRCLE
  5
E3
330
2
100
AcDbEntity
  8
L-ZISSEN
100
AcDbCircle
 10
631.5
 20
402.4999800000002
 30
0.0
 40
18.5
  0
LINE
  5
E4
330
2
100
AcDbEntity
  8
L-ZISSEN
  6
CONTINUOUS
 62
     7
100
AcDbLine
 10
600.0
 20
377.5000000000001
 30
0.0
 11
663.0
 21
377.5000000000001
 31
0.0
  0
LINE
  5
E5
330
2
100
AcDbEntity
  8
L-ZISSEN
  6
CONTINUOUS
 62
     7
100
AcDbLine
 10
600.0
 20
355.4999999999998
 30
0.0
 11
625.0000000000007
 21
355.4999999999998
 31
0.0
  0
LINE
  5
E6
330
2
100
AcDbEntity
  8
L-ZISSEN
  6
CONTINUOUS
 62
     7
100
AcDbLine
 10
600.0
 20
363.7
 30
0.0
 11
663.0
 21
363.7
 31
0.0
  0
LINE
  5
E7
330
2
100
AcDbEntity
  8
L-ZISSEN
  6
CONTINUOUS
 62
     7
100
AcDbLine
 10
600.0
 20
355.4999999999998
 30
0.0
 11
600.0
 21
377.5000000000001
 31
0.0
  0
LINE
  5
E8
330
2
100
AcDbEntity
  8
L-ZISSEN
  6
CONTINUOUS
 62
     7
100
AcDbLine
 10
625.0000000000002
 20
363.7
 30
0.0
 11
625.0000000000002
 21
338.0
 31
0.0
  0
LINE
  5
E9
330
2
100
AcDbEntity
  8
L-ZISSEN
  6
CONTINUOUS
 62
     7
100
AcDbLine
 10
638.0000000000002
 20
363.7
 30
0.0
 11
638.0000000000002
 21
338.0
 31
0.0
  0
LINE
  5
EA
330
2
100
AcDbEntity
  8
L-ZISSEN
  6
CONTINUOUS
 62
     7
100
AcDbLine
 10
625.0000000000002
 20
338.0
 30
0.0
 11
638.0000000000002
 21
338.0
 31
0.0
  0
LINE
  5
EB
330
2
100
AcDbEntity
  8
L-ZISSEN
  6
CONTINUOUS
 62
     7
100
AcDbLine
 10
663.0
 20
377.5000000000001
 30
0.0
 11
663.0
 21
355.4999999999998
 31
0.0
  0
LINE
  5
EC
330
2
100
AcDbEntity
  8
L-ZISSEN
  6
CONTINUOUS
 62
     7
100
AcDbLine
 10
638.0000000000006
 20
355.4999999999998
 30
0.0
 11
663.0
 21
355.4999999999998
 31
0.0
  0
LINE
  5
ED
330
2
100
AcDbEntity
  8
L-ZISSEN
  6
CONTINUOUS
 62
     7
100
AcDbLine
 10
663.0
 20
378.0000000000002
 30
0.0
 11
663.0
 21
377.5000000000001
 31
0.0
  0
LINE
  5
EE
330
2
100
AcDbEntity
  8
L-TYUSIN
  6
CENTER
 62
     1
100
AcDbLine
 10
609.0657578644521
 20
400.0000000000002
 30
0.0
 11
590.5
 21
399.9999999999999
 31
0.0
  0
LINE
  5
EF
330
2
100
AcDbEntity
  8
L-ZISSEN
  6
CONTINUOUS
 62
     7
100
AcDbLine
 10
663.0
 20
450.9786800000001
 30
0.0
 11
600.0
 21
450.9786800000001
 31
0.0
  0
LINE
  5
F0
330
2
100
AcDbEntity
  8
L-ZISSEN
  6
CONTINUOUS
 62
     7
100
AcDbLine
 10
663.0
 20
435.9786700000001
 30
0.0
 11
600.0
 21
435.9786900000002
 31
0.0
  0
LINE
  5
F1
330
2
100
AcDbEntity
  8
L-ZISSEN
  6
CONTINUOUS
 62
     7
100
AcDbLine
 10
600.0
 20
422.5000000000001
 30
0.0
 11
663.0
 21
422.5000000000001
 31
0.0
  0
LINE
  5
F2
330
2
100
AcDbEntity
  8
L-ZISSEN
  6
CONTINUOUS
 62
     7
100
AcDbLine
 10
600.0
 20
445.5000000000001
 30
0.0
 11
663.0
 21
445.5000000000001
 31
0.0
  0
LINE
  5
F3
330
2
100
AcDbEntity
  8
L-ZISSEN
  6
CONTINUOUS
 62
     7
100
AcDbLine
 10
600.0
 20
422.5000000000001
 30
0.0
 11
600.0
 21
445.5000000000001
 31
0.0
  0
LINE
  5
F4
330
2
100
AcDbEntity
  8
L-ZISSEN
100
AcDbLine
 10
598.5857864376269
 20
401.4142135623732
 30
0.0
 11
564.6446609406726
 21
435.3553390593274
 31
0.0
  0
SOLID
  5
F5
330
2
100
AcDbEntity
  8
L-ZISSEN
100
AcDbTrace
 10
598.8214886980224
 20
401.6499158227687
 30
0.0
 11
598.3500841772313
 21
401.1785113019777
 31
0.0
 12
600.0
 22
400.0
 32
0.0
 13
600.0
 23
400.0
 33
0.0
  0
LINE
  5
F6
330
2
100
AcDbEntity
  8
L-ZISSEN
100
AcDbLine
 10
564.6446609406726
 20
435.3553390593274
 30
0.0
 11
559.6446609406727
 21
435.3553390593274
 31
0.0
  0
LINE
  5
F7
330
2
100
AcDbEntity
  8
L-ZISSEN
  6
CONTINUOUS
 62
     7
100
AcDbLine
 10
600.0
 20
445.5000000000001
 30
0.0
 11
600.0
 21
450.9786800000001
 31
0.0
  0
LINE
  5
F8
330
2
100
AcDbEntity
  8
L-ZISSEN
  6
CONTINUOUS
 62
     7
100
AcDbLine
 10
663.0
 20
445.5000000000001
 30
0.0
 11
663.0
 21
422.5000000000001
 31
0.0
  0
LINE
  5
F9
330
2
100
AcDbEntity
  8
L-ZISSEN
  6
CONTINUOUS
 62
     7
100
AcDbLine
 10
638.5710678118639
 20
409.5710478118641
 30
0.0
 11
620.7201834388154
 21
391.7201634388158
 31
0.0
  0
LINE
  5
FA
330
2
100
AcDbEntity
  8
L-ZISSEN
  6
CONTINUOUS
 62
     7
100
AcDbLine
 10
663.0
 20
422.5000000000001
 30
0.0
 11
663.0
 21
422.0000000000003
 31
0.0
  0
LINE
  5
FB
330
2
100
AcDbEntity
  8
L-ZISSEN
  6
CONTINUOUS
 62
     7
100
AcDbLine
 10
653.4998599999998
 20
458.4786800000001
 30
0.0
 11
609.50007
 21
458.4786800000001
 31
0.0
  0
LINE
  5
FC
330
2
100
AcDbEntity
  8
L-ZISSEN
  6
CONTINUOUS
 62
     7
100
AcDbLine
 10
609.50007
 20
458.4786800000001
 30
0.0
 11
609.2381600000001
 21
450.9786900000001
 31
0.0
  0
LINE
  5
FD
330
2
100
AcDbEntity
  8
L-ZISSEN
  6
CONTINUOUS
 62
     7
100
AcDbLine
 10
653.49987
 20
458.4786800000001
 30
0.0
 11
653.76178
 21
450.9786800000001
 31
0.0
  0
LINE
  5
FE
330
2
100
AcDbEntity
  8
L-ZISSEN
  6
CONTINUOUS
 62
     7
100
AcDbLine
 10
663.0
 20
450.9786800000001
 30
0.0
 11
663.0
 21
445.5000000000001
 31
0.0
  0
LINE
  5
FF
330
2
100
AcDbEntity
  8
L-ZISSEN
  6
CONTINUOUS
 62
     7
100
AcDbLine
 10
672.9999999999998
 20
422.0000000000003
 30
0.0
 11
673.0
 21
378.0000000000002
 31
0.0
  0
LINE
  5
100
330
2
100
AcDbEntity
  8
L-ZISSEN
  6
CONTINUOUS
 62
     7
100
AcDbLine
 10
677.0
 20
422.5000000000003
 30
0.0
 11
677.0
 21
377.5000000000003
 31
0.0
  0
LINE
  5
101
330
2
100
AcDbEntity
  8
L-ZISSEN
  6
CONTINUOUS
 62
     7
100
AcDbLine
 10
728.5
 20
344.5000000000003
 30
0.0
 11
710.0000000000005
 21
344.5000000000002
 31
0.0
  0
CIRCLE
  5
102
330
2
100
AcDbEntity
  8
L-ZISSEN
  6
CONTINUOUS
 62
     7
100
AcDbCircle
 10
721.5000000000004
 20
333.5000000000002
 30
0.0
 40
4.5
  0
LINE
  5
103
330
2
100
AcDbEntity
  8
L-ZISSEN
100
AcDbLine
 10
711.2000000000002
 20
343.5000000000004
 30
0.0
 11
731.8000000000002
 21
343.5000000000004
 31
0.0
  0
LINE
  5
104
330
2
100
AcDbEntity
  8
L-TYUSIN
  6
CENTER
 62
     1
100
AcDbLine
 10
667.0000000000002
 20
352.5879385241337
 30
0.0
 11
667.0000000000002
 21
366.4120614758679
 31
0.0
  0
LINE
  5
105
330
2
100
AcDbEntity
  8
L-ZISSEN
  6
CONTINUOUS
 62
     7
100
AcDbLine
 10
682.0000000000004
 20
368.2503052846791
 30
0.0
 11
682.0000000000004
 21
350.7496947153213
 31
0.0
  0
LINE
  5
106
330
2
100
AcDbEntity
  8
L-ZISSEN
100
AcDbLine
 10
692.0000000000006
 20
350.7496947153213
 30
0.0
 11
682.0000000000004
 21
350.7496947153213
 31
0.0
  0
LINE
  5
107
330
2
100
AcDbEntity
  8
L-ZISSEN
  6
CONTINUOUS
 62
     7
100
AcDbLine
 10
717.0000000000004
 20
332.9000000000003
 30
0.0
 11
717.0401793758032
 21
332.9000000000003
 31
0.0
  0
LINE
  5
108
330
2
100
AcDbEntity
  8
L-ZISSEN
  6
CONTINUOUS
 62
     7
100
AcDbLine
 10
718.5000000000004
 20
325.5000000000002
 30
0.0
 11
724.5000000000004
 21
325.5000000000002
 31
0.0
  0
LINE
  5
109
330
2
100
AcDbEntity
  8
L-ZISSEN
100
AcDbLine
 10
692.0000000000004
 20
368.2503052846791
 30
0.0
 11
682.0000000000004
 21
368.2503052846791
 31
0.0
  0
LINE
  5
10A
330
2
100
AcDbEntity
  8
L-ZISSEN
  6
CONTINUOUS
 62
     7
100
AcDbLine
 10
692.0000000000004
 20
376.5000000000002
 30
0.0
 11
692.0000000000004
 21
377.5000000000003
 31
0.0
  0
LINE
  5
10B
330
2
100
AcDbEntity
  8
L-ZISSEN
100
AcDbLine
 10
682.5000000000004
 20
422.5
 30
0.0
 11
681.2428522982973
 21
458.5000000000023
 31
0.0
  0
CIRCLE
  5
10C
330
2
100
AcDbEntity
  8
L-ZISSEN
100
AcDbCircle
 10
742.0000000000002
 20
447.5000000000003
 30
0.0
 40
8.0
  0
TEXT
  5
10D
330
2
100
AcDbEntity
  8
L-ZISSEN
  6
CONTINUOUS
 62
     7
100
AcDbText
 10
289.5237550419111
 20
871.0821917808612
 30
0.0
 40
4.5
  1
MC5-A2L2-*M75
100
AcDbText
  0
TEXT
  5
10E
330
2
100
AcDbEntity
  8
L-ZISSEN
  6
CONTINUOUS
 62
     7
100
AcDbText
 10
286.5237550419111
 20
881.0821917808612
 30
0.0
 40
4.5
  1
MODEL No
100
AcDbText
  0
LINE
  5
10F
330
2
100
AcDbEntity
  8
L-ZISSEN
  6
CONTINUOUS
 62
     7
100
AcDbLine
 10
731.800022007401
 20
744.1999999999995
 30
0.0
 11
731.8000220074011
 21
756.3999999999995
 31
0.0
  0
LINE
  5
110
330
2
100
AcDbEntity
  8
L-ZISSEN
  6
CONTINUOUS
 62
     7
100
AcDbLine
 10
711.2000220074011
 20
744.1999999999995
 30
0.0
 11
711.2000220074012
 21
756.3999999999995
 31
0.0
  0
LINE
  5
111
330
2
100
AcDbEntity
  8
L-ZISSEN
  6
CONTINUOUS
 62
     7
100
AcDbLine
 10
638.5000000000003
 20
747.4999999999995
 30
0.0
 11
638.5000000000003
 21
768.4999999999996
 31
0.0
  0
LINE
  5
112
330
2
100
AcDbEntity
  8
L-ZISSEN
  6
CONTINUOUS
 62
     7
100
AcDbLine
 10
624.5000000000003
 20
747.4999999999995
 30
0.0
 11
624.4999999999999
 21
768.4999999999996
 31
0.0
  0
LINE
  5
113
330
2
100
AcDbEntity
  8
L-ZISSEN
  6
CONTINUOUS
 62
     7
100
AcDbLine
 10
370.5
 20
609.5000000000002
 30
0.0
 11
370.5
 21
597.5000000000002
 31
0.0
  0
LINE
  5
114
330
2
100
AcDbEntity
  8
L-ZISSEN
  6
CONTINUOUS
 62
     7
100
AcDbLine
 10
343.5
 20
609.5000000000002
 30
0.0
 11
343.5
 21
597.5000000000002
 31
0.0
  0
LINE
  5
115
330
2
100
AcDbEntity
  8
L-TYUSIN
  6
CENTER
 62
     1
100
AcDbLine
 10
356.9999999999999
 20
614.1927971514378
 30
0.0
 11
356.9999999999999
 21
560.3160379095536
 31
0.0
  0
LINE
  5
116
330
2
100
AcDbEntity
  8
L-ZISSEN
  6
CONTINUOUS
 62
     7
100
AcDbLine
 10
420.36232
 20
504.0000000000007
 30
0.0
 11
379.6375
 21
504.0000000000007
 31
0.0
  0
LINE
  5
117
330
2
100
AcDbEntity
  8
L-ZISSEN
  6
CONTINUOUS
 62
     7
100
AcDbLine
 10
420.9998299999999
 20
467.5000000000006
 30
0.0
 11
379.0000099999999
 21
467.5000000000006
 31
0.0
  0
LINE
  5
118
330
2
100
AcDbEntity
  8
L-ZISSEN
  6
CONTINUOUS
 62
     7
100
AcDbLine
 10
329.4240848987872
 20
563.5000000000011
 30
0.0
 11
430.5759151012125
 21
563.5000000000011
 31
0.0
  0
LINE
  5
119
330
2
100
AcDbEntity
  8
L-ZISSEN
  6
CONTINUOUS
 62
     7
100
AcDbLine
 10
418.00006
 20
464.5000000000002
 30
0.0
 11
443.5999999999999
 21
464.4999999999996
 31
0.0
  0
LINE
  5
11A
330
2
100
AcDbEntity
  8
L-ZISSEN
  6
CONTINUOUS
 62
     7
100
AcDbLine
 10
418.00006
 20
466.0000000000009
 30
0.0
 11
439.4999999999998
 21
466.0000000000009
 31
0.0
  0
LINE
  5
11B
330
2
100
AcDbEntity
  8
L-ZISSEN
100
AcDbLine
 10
321.3937710802817
 20
487.0966676489628
 30
0.0
 11
329.4240848987872
 21
563.5000000000011
 31
0.0
  0
LINE
  5
11C
330
2
100
AcDbEntity
  8
L-ZISSEN
  6
CONTINUOUS
 62
     7
100
AcDbLine
 10
316.3999999999998
 20
464.5000000000023
 30
0.0
 11
382.0
 21
464.5000000000009
 31
0.0
  0
LINE
  5
11D
330
2
100
AcDbEntity
  8
L-ZISSEN
  6
CONTINUOUS
 62
     7
100
AcDbLine
 10
320.4999999999998
 20
466.0000000000009
 30
0.0
 11
382.0
 21
466.0000000000009
 31
0.0
  0
LINE
  5
11E
330
2
100
AcDbEntity
  8
L-ZISSEN
100
AcDbLine
 10
321.0258779413044
 20
466.0000000000009
 30
0.0
 11
321.3941798112897
 21
487.1000000000011
 31
0.0
  0
LINE
  5
11F
330
2
100
AcDbEntity
  8
L-ZISSEN
100
AcDbLine
 10
320.4999999999998
 20
464.500000000001
 30
0.0
 11
320.4999999999998
 21
466.0000000000009
 31
0.0
  0
LINE
  5
120
330
2
100
AcDbEntity
  8
L-ZISSEN
  6
CONTINUOUS
 62
     7
100
AcDbLine
 10
379.63749
 20
504.0000000000007
 30
0.0
 11
379.0
 21
467.4999900000005
 31
0.0
  0
LINE
  5
121
330
2
100
AcDbEntity
  8
L-ZISSEN
  6
CONTINUOUS
 62
     7
100
AcDbLine
 10
379.7302582135405
 20
580.5000000000001
 30
0.0
 11
334.2697858012602
 21
580.5000000000002
 31
0.0
  0
LINE
  5
122
330
2
100
AcDbEntity
  8
L-ZISSEN
  6
CONTINUOUS
 62
     7
100
AcDbLine
 10
343.5
 20
568.5000000000002
 30
0.0
 11
370.5
 21
568.5000000000002
 31
0.0
  0
LINE
  5
123
330
2
100
AcDbEntity
  8
L-ZISSEN
  6
CONTINUOUS
 62
     7
100
AcDbLine
 10
379.7302582135407
 20
597.5000000000002
 30
0.0
 11
334.2697858012602
 21
597.5000000000002
 31
0.0
  0
LINE
  5
124
330
2
100
AcDbEntity
  8
L-ZISSEN
  6
CONTINUOUS
 62
     7
100
AcDbLine
 10
343.5
 20
568.5000000000002
 30
0.0
 11
343.5
 21
580.5000000000002
 31
0.0
  0
LINE
  5
125
330
2
100
AcDbEntity
  8
L-ZISSEN
  6
CONTINUOUS
 62
     7
100
AcDbLine
 10
347.2999999999992
 20
564.5000000000002
 30
0.0
 11
347.2999999999992
 21
568.5000000000002
 31
0.0
  0
LINE
  5
126
330
2
100
AcDbEntity
  8
L-ZISSEN
100
AcDbLine
 10
334.2697858012602
 20
597.5000000000002
 30
0.0
 11
334.2697858012602
 21
580.5000000000002
 31
0.0
  0
LINE
  5
127
330
2
100
AcDbEntity
  8
L-ZISSEN
  6
CONTINUOUS
 62
     7
100
AcDbLine
 10
370.5
 20
568.5000000000002
 30
0.0
 11
370.5
 21
580.5000000000002
 31
0.0
  0
LINE
  5
128
330
2
100
AcDbEntity
  8
L-ZISSEN
  6
CONTINUOUS
 62
     7
100
AcDbLine
 10
366.7674461969204
 20
564.5000000000002
 30
0.0
 11
366.7674461969204
 21
568.5000000000002
 31
0.0
  0
LINE
  5
129
330
2
100
AcDbEntity
  8
L-ZISSEN
100
AcDbLine
 10
379.7302582135407
 20
597.5000000000002
 30
0.0
 11
379.7302582135405
 21
580.5000000000001
 31
0.0
  0
LINE
  5
12A
330
2
100
AcDbEntity
  8
L-ZISSEN
100
AcDbLine
 10
438.606228919718
 20
487.0966676489628
 30
0.0
 11
430.5759151012125
 21
563.5000000000011
 31
0.0
  0
LINE
  5
12B
330
2
100
AcDbEntity
  8
L-ZISSEN
  6
CONTINUOUS
 62
     7
100
AcDbLine
 10
420.36232
 20
504.0000000000007
 30
0.0
 11
420.9998299999999
 21
467.5000000000006
 31
0.0
  0
LINE
  5
12C
330
2
100
AcDbEntity
  8
L-ZISSEN
100
AcDbLine
 10
438.9741220586953
 20
466.0000000000009
 30
0.0
 11
438.60582018871
 21
487.1000000000011
 31
0.0
  0
LINE
  5
12D
330
2
100
AcDbEntity
  8
L-ZISSEN
100
AcDbLine
 10
439.4999999999998
 20
464.500000000001
 30
0.0
 11
439.4999999999998
 21
466.0000000000009
 31
0.0
  0
LINE
  5
12E
330
2
100
AcDbEntity
  8
L-ZISSEN
  6
CONTINUOUS
 62
     7
100
AcDbLine
 10
343.5
 20
609.5000000000002
 30
0.0
 11
370.5
 21
609.5000000000002
 31
0.0
  0
LINE
  5
12F
330
2
100
AcDbEntity
  8
L-ZISSEN
  6
CONTINUOUS
 62
     7
100
AcDbLine
 10
611.13751
 20
504.0000000000007
 30
0.0
 11
610.5000199999999
 21
467.5000000000006
 31
0.0
  0
LINE
  5
130
330
2
100
AcDbEntity
  8
L-ZISSEN
  6
CONTINUOUS
 62
     7
100
AcDbLine
 10
651.86231
 20
504.0000000000007
 30
0.0
 11
652.4998199999999
 21
467.5000000000006
 31
0.0
  0
LINE
  5
131
330
2
100
AcDbEntity
  8
L-ZISSEN
  6
CONTINUOUS
 62
     7
100
AcDbLine
 10
610.5000199999999
 20
467.5000000000006
 30
0.0
 11
652.4998399999999
 21
467.5000000000006
 31
0.0
  0
LINE
  5
132
330
2
100
AcDbEntity
  8
L-ZISSEN
  6
CONTINUOUS
 62
     7
100
AcDbLine
 10
611.13751
 20
504.0000000000007
 30
0.0
 11
651.8623299999999
 21
504.0000000000007
 31
0.0
  0
LINE
  5
133
330
2
100
AcDbEntity
  8
L-ZISSEN
100
AcDbLine
 10
683.3937710802821
 20
487.0966676489628
 30
0.0
 11
691.4240848987876
 21
563.5000000000011
 31
0.0
  0
LINE
  5
134
330
2
100
AcDbEntity
  8
L-ZISSEN
100
AcDbLine
 10
683.0258779413049
 20
466.0000000000009
 30
0.0
 11
683.3941798112902
 21
487.1000000000011
 31
0.0
  0
LINE
  5
135
330
2
100
AcDbEntity
  8
L-ZISSEN
100
AcDbLine
 10
682.5000000000003
 20
464.500000000001
 30
0.0
 11
682.5000000000003
 21
466.0000000000009
 31
0.0
  0
LINE
  5
136
330
2
100
AcDbEntity
  8
L-ZISSEN
  6
CONTINUOUS
 62
     7
100
AcDbLine
 10
612.9999999999996
 20
747.4999999999995
 30
0.0
 11
649.9999999999994
 21
747.4999999999995
 31
0.0
  0
LINE
  5
137
330
2
100
AcDbEntity
  8
L-ZISSEN
  6
CONTINUOUS
 62
     7
100
AcDbLine
 10
612.9999999999999
 20
723.4999999999995
 30
0.0
 11
649.9999999999994
 21
723.4999999999995
 31
0.0
  0
LINE
  5
138
330
2
100
AcDbEntity
  8
L-ZISSEN
  6
CONTINUOUS
 62
     7
100
AcDbLine
 10
612.9999999999999
 20
723.4999999999995
 30
0.0
 11
612.9999999999996
 21
747.4999999999995
 31
0.0
  0
LINE
  5
139
330
2
100
AcDbEntity
  8
L-ZISSEN
  6
CONTINUOUS
 62
     7
100
AcDbLine
 10
649.9999999999994
 20
723.4999999999995
 30
0.0
 11
649.9999999999994
 21
747.4999999999995
 31
0.0
  0
LINE
  5
13A
330
2
100
AcDbEntity
  8
L-ZISSEN
  6
CONTINUOUS
 62
     7
100
AcDbLine
 10
711.2000220074011
 20
744.1999999999995
 30
0.0
 11
731.800022007401
 21
744.1999999999995
 31
0.0
  0
LINE
  5
13B
330
2
100
AcDbEntity
  8
L-ZISSEN
  6
CONTINUOUS
 62
     7
100
AcDbLine
 10
711.2500220074007
 20
897.4999999999999
 30
0.0
 11
711.2500220074007
 21
892.0
 31
0.0
  0
LINE
  5
13C
330
2
100
AcDbEntity
  8
L-ZISSEN
  6
CONTINUOUS
 62
     7
100
AcDbLine
 10
722.7500220074009
 20
897.4999999999999
 30
0.0
 11
722.7500220074007
 21
892.0
 31
0.0
  0
LINE
  5
13D
330
2
100
AcDbEntity
  8
L-ZISSEN
  6
CONTINUOUS
 62
     7
100
AcDbLine
 10
691.9999999999991
 20
889.9999999999995
 30
0.0
 11
692.0000000000002
 21
907.9999999999996
 31
0.0
  0
LINE
  5
13E
330
2
100
AcDbEntity
  8
L-ZISSEN
  6
CONTINUOUS
 62
     7
100
AcDbLine
 10
694.2999999999992
 20
891.9999999999996
 30
0.0
 11
694.3000000000002
 21
909.9999999999996
 31
0.0
  0
LINE
  5
13F
330
2
100
AcDbEntity
  8
L-ZISSEN
  6
CONTINUOUS
 62
     7
100
AcDbLine
 10
677.0000220074006
 20
825.000010789593
 30
0.0
 11
651.0477164251587
 21
825.000010789593
 31
0.0
  0
LINE
  5
140
330
2
100
AcDbEntity
  8
L-ZISSEN
  6
CONTINUOUS
 62
     7
100
AcDbLine
 10
677.0000220074006
 20
774.9999892104065
 30
0.0
 11
651.0477164251587
 21
774.9999892104065
 31
0.0
  0
LINE
  5
141
330
2
100
AcDbEntity
  8
L-ZISSEN
  6
CONTINUOUS
 62
     7
100
AcDbLine
 10
618.4522727852471
 20
831.4999999999995
 30
0.0
 11
599.9999999999999
 21
813.0477272147523
 31
0.0
  0
LINE
  5
142
330
2
100
AcDbEntity
  8
L-ZISSEN
  6
CONTINUOUS
 62
     7
100
AcDbLine
 10
662.9999999999999
 20
813.0477272147523
 30
0.0
 11
644.5477272147521
 21
831.4999999999995
 31
0.0
  0
LINE
  5
143
330
2
100
AcDbEntity
  8
L-ZISSEN
  6
CONTINUOUS
 62
     7
100
AcDbLine
 10
599.9999999999999
 20
786.9522727852472
 30
0.0
 11
618.4522727852471
 21
768.4999999999996
 31
0.0
  0
LINE
  5
144
330
2
100
AcDbEntity
  8
L-TYUSIN
  6
CENTER
 62
     1
100
AcDbLine
 10
609.065757864452
 20
800.0
 30
0.0
 11
590.4999999999999
 21
799.9999999999995
 31
0.0
  0
LINE
  5
145
330
2
100
AcDbEntity
  8
L-ZISSEN
  6
CONTINUOUS
 62
     7
100
AcDbLine
 10
599.9999999999999
 20
813.0477272147523
 30
0.0
 11
599.9999999999999
 21
786.9522727852472
 31
0.0
  0
CIRCLE
  5
146
330
2
100
AcDbEntity
  8
L-ZISSEN
  6
CONTINUOUS
 62
     7
100
AcDbCircle
 10
631.4999999999998
 20
799.9999999999995
 30
0.0
 40
20.0
  0
LINE
  5
147
330
2
100
AcDbEntity
  8
L-ZISSEN
  6
CONTINUOUS
 62
     7
100
AcDbLine
 10
644.5477272147521
 20
768.4999999999996
 30
0.0
 11
662.9999999999999
 21
786.9522727852472
 31
0.0
  0
LINE
  5
148
330
2
100
AcDbEntity
  8
L-ZISSEN
  6
CONTINUOUS
 62
     7
100
AcDbLine
 10
618.4522727852471
 20
768.4999999999996
 30
0.0
 11
644.5477272147521
 21
768.4999999999996
 31
0.0
  0
CIRCLE
  5
149
330
2
100
AcDbEntity
  8
L-ZISSEN
  6
CONTINUOUS
 62
     7
100
AcDbCircle
 10
631.4999999999998
 20
799.9999999999995
 30
0.0
 40
13.0
  0
LINE
  5
14A
330
2
100
AcDbEntity
  8
L-ZISSEN
  6
CONTINUOUS
 62
     7
100
AcDbLine
 10
662.9999999999999
 20
786.9522727852472
 30
0.0
 11
662.9999999999999
 21
813.0477272147523
 31
0.0
  0
LINE
  5
14B
330
2
100
AcDbEntity
  8
L-ZISSEN
  6
CONTINUOUS
 62
     7
100
AcDbLine
 10
644.5477272147521
 20
831.4999999999995
 30
0.0
 11
618.4522727852471
 21
831.4999999999995
 31
0.0
  0
LINE
  5
14C
330
2
100
AcDbEntity
  8
L-ZISSEN
  6
CONTINUOUS
 62
     7
100
AcDbLine
 10
677.0000220074006
 20
774.9999999999995
 30
0.0
 11
677.0000220074006
 21
866.9999999999996
 31
0.0
  0
LINE
  5
14D
330
2
100
AcDbEntity
  8
L-ZISSEN
  6
CONTINUOUS
 62
     7
100
AcDbLine
 10
682.0000220074006
 20
879.9999999999995
 30
0.0
 11
682.0000220074006
 21
759.9999999999995
 31
0.0
  0
LINE
  5
14E
330
2
100
AcDbEntity
  8
L-ZISSEN
  6
CONTINUOUS
 62
     7
100
AcDbLine
 10
691.4139165159183
 20
769.4139165159175
 30
0.0
 11
691.4139165159183
 21
870.5860834840816
 31
0.0
  0
LINE
  5
14F
330
2
100
AcDbEntity
  8
L-ZISSEN
  6
CONTINUOUS
 62
     7
100
AcDbLine
 10
678.0000220074006
 20
759.9999999999995
 30
0.0
 11
678.0000220074006
 21
774.9999999999995
 31
0.0
  0
LINE
  5
150
330
2
100
AcDbEntity
  8
L-ZISSEN
100
AcDbLine
 10
691.4139165159183
 20
769.4139165159175
 30
0.0
 11
682.0000220074007
 21
759.9999999999996
 31
0.0
  0
LINE
  5
151
330
2
100
AcDbEntity
  8
L-ZISSEN
  6
CONTINUOUS
 62
     7
100
AcDbLine
 10
677.0000220074006
 20
774.9999999999995
 30
0.0
 11
678.0000220074006
 21
774.9999999999995
 31
0.0
  0
LINE
  5
152
330
2
100
AcDbEntity
  8
L-ZISSEN
  6
CONTINUOUS
 62
     7
100
AcDbLine
 10
678.0000220074006
 20
867.0
 30
0.0
 11
678.0000220074005
 21
879.9999999999995
 31
0.0
  0
LINE
  5
153
330
2
100
AcDbEntity
  8
L-ZISSEN
100
AcDbLine
 10
682.0000220074006
 20
879.9999999999995
 30
0.0
 11
691.4139165159183
 21
870.5860834840816
 31
0.0
  0
LINE
  5
154
330
2
100
AcDbEntity
  8
L-ZISSEN
  6
CONTINUOUS
 62
     7
100
AcDbLine
 10
677.0000220074006
 20
866.9999999999996
 30
0.0
 11
678.0000220074006
 21
867.0
 31
0.0
  0
LINE
  5
155
330
2
100
AcDbEntity
  8
L-ZISSEN
  6
CONTINUOUS
 62
     7
100
AcDbLine
 10
678.0000220074005
 20
879.9999999999995
 30
0.0
 11
678.4000000000006
 21
879.9999999999995
 31
0.0
  0
LINE
  5
156
330
2
100
AcDbEntity
  8
L-ZISSEN
  6
CONTINUOUS
 62
     7
100
AcDbLine
 10
709.0000220074008
 20
889.9999999999995
 30
0.0
 11
709.0000220074008
 21
883.5999999999996
 31
0.0
  0
LINE
  5
157
330
2
100
AcDbEntity
  8
L-ZISSEN
  6
CONTINUOUS
 62
     7
100
AcDbLine
 10
725.0000220074008
 20
889.9999999999995
 30
0.0
 11
725.0000220074008
 21
883.5999999999996
 31
0.0
  0
LINE
  5
158
330
2
100
AcDbEntity
  8
L-ZISSEN
  6
CONTINUOUS
 62
     7
100
AcDbLine
 10
726.4115647392807
 20
886.9999999999993
 30
0.0
 11
757.5884792755204
 21
886.9999999999993
 31
0.0
  0
LINE
  5
159
330
2
100
AcDbEntity
  8
L-ZISSEN
  6
CONTINUOUS
 62
     7
100
AcDbLine
 10
726.4115647392807
 20
886.9999999999993
 30
0.0
 11
726.4115647392807
 21
883.5999999999996
 31
0.0
  0
LINE
  5
15A
330
2
100
AcDbEntity
  8
L-ZISSEN
  6
CONTINUOUS
 62
     7
100
AcDbLine
 10
757.5884792755204
 20
886.9999999999993
 30
0.0
 11
757.5884792755203
 21
883.5999999999996
 31
0.0
  0
LINE
  5
15B
330
2
100
AcDbEntity
  8
L-ZISSEN
  6
CONTINUOUS
 62
     7
100
AcDbLine
 10
652.0000000000002
 20
909.9999999999996
 30
0.0
 11
694.3000000000002
 21
909.9999999999996
 31
0.0
  0
LINE
  5
15C
330
2
100
AcDbEntity
  8
L-ZISSEN
  6
CONTINUOUS
 62
     7
100
AcDbLine
 10
692.0000000000002
 20
907.9999999999996
 30
0.0
 11
652.0000000000002
 21
907.9999999999996
 31
0.0
  0
LINE
  5
15D
330
2
100
AcDbEntity
  8
L-ZISSEN
  6
CONTINUOUS
 62
     7
100
AcDbLine
 10
652.0000000000002
 20
907.9999999999996
 30
0.0
 11
652.0000000000004
 21
909.9999999999996
 31
0.0
  0
LINE
  5
15E
330
2
100
AcDbEntity
  8
L-TYUSIN
  6
CENTER
 62
     1
100
AcDbLine
 10
667.0000000000002
 20
903.4166592105526
 30
0.0
 11
667.0000000000002
 21
917.2407821622869
 31
0.0
  0
LINE
  5
15F
330
2
100
AcDbEntity
  8
L-ZISSEN
  6
CONTINUOUS
 62
     7
100
AcDbLine
 10
711.2500220074007
 20
897.4999999999999
 30
0.0
 11
722.7500220074007
 21
897.4999999999999
 31
0.0
  0
LINE
  5
160
330
2
100
AcDbEntity
  8
L-ZISSEN
100
AcDbLine
 10
865.082258999986
 20
448.0000000000005
 30
0.0
 11
862.5713343567921
 21
476.7000000000003
 31
0.0
  0
LINE
  5
161
330
2
100
AcDbEntity
  8
L-ZISSEN
100
AcDbLine
 10
828.9177410000151
 20
448.0000000000003
 30
0.0
 11
831.4286656432095
 21
476.7000000000002
 31
0.0
  0
LINE
  5
162
330
2
100
AcDbEntity
  8
L-ZISSEN
100
AcDbLine
 10
851.7500000000266
 20
476.7000000000003
 30
0.0
 11
851.7500000000266
 21
452.1999999999999
 31
0.0
  0
LINE
  5
163
330
2
100
AcDbEntity
  8
L-ZISSEN
100
AcDbLine
 10
805.6000000000002
 20
458.4999999999999
 30
0.0
 11
805.6000000000004
 21
464.4999999999996
 31
0.0
  0
LINE
  5
164
330
2
100
AcDbEntity
  8
L-ZISSEN
  6
CONTINUOUS
 62
     7
100
AcDbLine
 10
821.7674461969208
 20
422.5000000000003
 30
0.0
 11
821.7674461969208
 21
568.5000000000002
 31
0.0
  0
LINE
  5
165
330
2
100
AcDbEntity
  8
L-ZISSEN
100
AcDbLine
 10
898.0
 20
464.5000000000004
 30
0.0
 11
898.0
 21
449.5000000000004
 31
0.0
  0
LINE
  5
166
330
2
100
AcDbEntity
  8
L-ZISSEN
100
AcDbLine
 10
953.0
 20
464.5000000000002
 30
0.0
 11
953.0
 21
449.5000000000002
 31
0.0
  0
LINE
  5
167
330
2
100
AcDbEntity
  8
L-ZISSEN
  6
CONTINUOUS
 62
     7
100
AcDbLine
 10
800.0000000000005
 20
291.5000000000002
 30
0.0
 11
800.0000000000003
 21
344.5000000000003
 31
0.0
  0
LINE
  5
168
330
2
100
AcDbEntity
  8
L-ZISSEN
  6
CONTINUOUS
 62
     7
100
AcDbLine
 10
892.0000000000005
 20
422.5000000000003
 30
0.0
 11
892.0000000000001
 21
216.5000000000002
 31
0.0
  0
LINE
  5
169
330
2
100
AcDbEntity
  8
L-ZISSEN
  6
CONTINUOUS
 62
     7
100
AcDbLine
 10
894.0000000000003
 20
358.5000000000004
 30
0.0
 11
894.0000000000001
 21
220.5000000000002
 31
0.0
  0
LINE
  5
16A
330
2
100
AcDbEntity
  8
L-ZISSEN
  6
CONTINUOUS
 62
     7
100
AcDbLine
 10
1006.999999999999
 20
222.0000000000002
 30
0.0
 11
1007.0
 21
372.0000000000002
 31
0.0
  0
LINE
  5
16B
330
2
100
AcDbEntity
  8
L-ZISSEN
100
AcDbLine
 10
899.4999999999997
 20
324.8365053796569
 30
0.0
 11
899.5
 21
290.5000000000002
 31
0.0
  0
LINE
  5
16C
330
2
100
AcDbEntity
  8
L-ZISSEN
100
AcDbLine
 10
951.5
 20
324.8365053796569
 30
0.0
 11
951.5
 21
290.5000000000002
 31
0.0
  0
LINE
  5
16D
330
2
100
AcDbEntity
  8
L-ZISSEN
100
AcDbLine
 10
950.5
 20
286.5000000000004
 30
0.0
 11
900.5
 21
286.5000000000002
 31
0.0
  0
LINE
  5
16E
330
2
100
AcDbEntity
  8
L-ZISSEN
100
AcDbLine
 10
951.5
 20
290.5000000000002
 30
0.0
 11
899.5
 21
290.5000000000002
 31
0.0
  0
LINE
  5
16F
330
2
100
AcDbEntity
  8
L-ZISSEN
  6
CONTINUOUS
 62
     7
100
AcDbLine
 10
1006.999999999999
 20
222.0000000000002
 30
0.0
 11
894.0
 21
222.0000000000002
 31
0.0
  0
LINE
  5
170
330
2
100
AcDbEntity
  8
L-ZISSEN
  6
CENTER
 62
     1
100
AcDbLine
 10
792.0000000000007
 20
216.3899747140084
 30
0.0
 11
792.0000000000007
 21
252.6100252859911
 31
0.0
  0
LINE
  5
171
330
2
100
AcDbEntity
  8
L-ZISSEN
  6
CONTINUOUS
 62
     7
100
AcDbLine
 10
896.5000000000001
 20
282.5000000000002
 30
0.0
 11
896.5000000000001
 21
222.5000000000002
 31
0.0
  0
LINE
  5
172
330
2
100
AcDbEntity
  8
L-ZISSEN
  6
CONTINUOUS
 62
     7
100
AcDbLine
 10
878.0000000000002
 20
226.5000000000002
 30
0.0
 11
803.4891252930769
 21
226.5000000000002
 31
0.0
  0
LINE
  5
173
330
2
100
AcDbEntity
  8
L-ZISSEN
  6
CONTINUOUS
 62
     7
100
AcDbLine
 10
878.0000000000004
 20
222.0000000000002
 30
0.0
 11
832.0000000000007
 21
222.0000000000002
 31
0.0
  0
LINE
  5
174
330
2
100
AcDbEntity
  8
L-ZISSEN
  6
CONTINUOUS
 62
     7
100
AcDbLine
 10
789.1132486540525
 20
229.5000000000003
 30
0.0
 11
794.8867513459488
 21
229.5000000000003
 31
0.0
  0
LINE
  5
175
330
2
100
AcDbEntity
  8
L-ZISSEN
  6
CONTINUOUS
 62
     7
100
AcDbLine
 10
794.8867513459488
 20
229.5000000000003
 30
0.0
 11
797.773502691897
 21
234.5000000000002
 31
0.0
  0
LINE
  5
176
330
2
100
AcDbEntity
  8
L-ZISSEN
  6
CONTINUOUS
 62
     7
100
AcDbLine
 10
797.773502691897
 20
234.5000000000002
 30
0.0
 11
794.8867513459488
 21
239.5000000000002
 31
0.0
  0
LINE
  5
177
330
2
100
AcDbEntity
  8
L-ZISSEN
  6
CONTINUOUS
 62
     7
100
AcDbLine
 10
794.8867513459488
 20
239.5000000000002
 30
0.0
 11
789.1132486540525
 21
239.5000000000002
 31
0.0
  0
LINE
  5
178
330
2
100
AcDbEntity
  8
L-ZISSEN
  6
CONTINUOUS
 62
     7
100
AcDbLine
 10
832.0000000000007
 20
216.5000000000002
 30
0.0
 11
832.0000000000007
 21
226.5000000000002
 31
0.0
  0
LINE
  5
179
330
2
100
AcDbEntity
  8
L-ZISSEN
  6
CONTINUOUS
 62
     7
100
AcDbLine
 10
892.0000000000003
 20
216.5000000000002
 30
0.0
 11
878.0000000000002
 21
216.5000000000002
 31
0.0
  0
LINE
  5
17A
330
2
100
AcDbEntity
  8
L-ZISSEN
  6
CONTINUOUS
 62
     7
100
AcDbLine
 10
878.0000000000002
 20
216.5000000000002
 30
0.0
 11
878.0000000000002
 21
226.5000000000002
 31
0.0
  0
LINE
  5
17B
330
2
100
AcDbEntity
  8
L-ZISSEN
  6
CONTINUOUS
 62
     7
100
AcDbLine
 10
896.5000000000001
 20
222.5000000000002
 30
0.0
 11
894.0
 21
222.5000000000002
 31
0.0
  0
LINE
  5
17C
330
2
100
AcDbEntity
  8
L-ZISSEN
  6
CONTINUOUS
 62
     7
100
AcDbLine
 10
894.0000000000001
 20
220.5000000000002
 30
0.0
 11
892.0000000000001
 21
220.5000000000002
 31
0.0
  0
LINE
  5
17D
330
2
100
AcDbEntity
  8
L-ZISSEN
  6
CONTINUOUS
 62
     7
100
AcDbLine
 10
900.1000000000001
 20
232.0000000000002
 30
0.0
 11
896.5000000000001
 21
232.0000000000002
 31
0.0
  0
LINE
  5
17E
330
2
100
AcDbEntity
  8
L-ZISSEN
  6
CONTINUOUS
 62
     7
100
AcDbLine
 10
900.1000000000001
 20
239.0000000000002
 30
0.0
 11
896.5000000000001
 21
239.0000000000002
 31
0.0
  0
LINE
  5
17F
330
2
100
AcDbEntity
  8
L-ZISSEN
  6
CONTINUOUS
 62
     7
100
AcDbLine
 10
900.1000000000002
 20
239.0000000000002
 30
0.0
 11
900.1000000000001
 21
232.0000000000002
 31
0.0
  0
LINE
  5
180
330
2
100
AcDbEntity
  8
L-ZISSEN
100
AcDbLine
 10
910.0999999999999
 20
280.2000000000002
 30
0.0
 11
910.0999999999999
 21
286.5000000000002
 31
0.0
  0
LINE
  5
181
330
2
100
AcDbEntity
  8
L-ZISSEN
100
AcDbLine
 10
900.9
 20
280.2000000000002
 30
0.0
 11
900.9
 21
286.5000000000002
 31
0.0
  0
LINE
  5
182
330
2
100
AcDbEntity
  8
L-ZISSEN
  6
CONTINUOUS
 62
     7
100
AcDbLine
 10
900.1000000000002
 20
273.0000000000003
 30
0.0
 11
900.1000000000001
 21
266.0000000000002
 31
0.0
  0
LINE
  5
183
330
2
100
AcDbEntity
  8
L-ZISSEN
  6
CONTINUOUS
 62
     7
100
AcDbLine
 10
900.1000000000001
 20
273.0000000000003
 30
0.0
 11
896.5000000000001
 21
273.0000000000003
 31
0.0
  0
LINE
  5
184
330
2
100
AcDbEntity
  8
L-ZISSEN
  6
CONTINUOUS
 62
     7
100
AcDbLine
 10
900.1000000000001
 20
266.0000000000002
 30
0.0
 11
896.5000000000001
 21
266.0000000000002
 31
0.0
  0
LINE
  5
185
330
2
100
AcDbEntity
  8
L-ZISSEN
100
AcDbLine
 10
900.9
 20
280.2000000000002
 30
0.0
 11
910.0999999999999
 21
280.2000000000002
 31
0.0
  0
LINE
  5
186
330
2
100
AcDbEntity
  8
L-ZISSEN
  6
CONTINUOUS
 62
     7
100
AcDbLine
 10
896.5000000000001
 20
282.5000000000002
 30
0.0
 11
894.0000000000001
 21
282.5000000000002
 31
0.0
  0
LINE
  5
187
330
2
100
AcDbEntity
  8
L-ZISSEN
100
AcDbLine
 10
899.5
 20
293.5000000000002
 30
0.0
 11
894.0
 21
293.5000000000002
 31
0.0
  0
LINE
  5
188
330
2
100
AcDbEntity
  8
L-ZISSEN
100
AcDbLine
 10
900.5
 20
290.5000000000002
 30
0.0
 11
900.5
 21
286.5000000000002
 31
0.0
  0
LINE
  5
189
330
2
100
AcDbEntity
  8
L-TYUSIN
  6
CENTER
 62
     1
100
AcDbLine
 10
985.0879385241302
 20
234.5000000000002
 30
0.0
 11
998.9120614758704
 21
234.5000000000002
 31
0.0
  0
CIRCLE
  5
18A
330
2
100
AcDbEntity
  8
L-ZISSEN
  6
CONTINUOUS
 62
     7
100
AcDbCircle
 10
992.0000000000005
 20
234.5000000000002
 30
0.0
 40
3.5
  0
LINE
  5
18B
330
2
100
AcDbEntity
  8
L-TYUSIN
  6
CENTER
 62
     1
100
AcDbLine
 10
992.0000000000001
 20
227.5879385241337
 30
0.0
 11
992.0000000000001
 21
241.4120614758678
 31
0.0
  0
LINE
  5
18C
330
2
100
AcDbEntity
  8
L-ZISSEN
100
AcDbLine
 10
940.9
 20
280.2000000000002
 30
0.0
 11
940.9
 21
286.5000000000004
 31
0.0
  0
LINE
  5
18D
330
2
100
AcDbEntity
  8
L-ZISSEN
100
AcDbLine
 10
950.0999999999999
 20
280.2000000000002
 30
0.0
 11
950.0999999999999
 21
286.5000000000004
 31
0.0
  0
LINE
  5
18E
330
2
100
AcDbEntity
  8
L-ZISSEN
100
AcDbLine
 10
940.9
 20
280.2000000000002
 30
0.0
 11
950.0999999999999
 21
280.2000000000002
 31
0.0
  0
LINE
  5
18F
330
2
100
AcDbEntity
  8
L-ZISSEN
100
AcDbLine
 10
950.4999999999997
 20
290.5000000000002
 30
0.0
 11
950.5
 21
286.5000000000004
 31
0.0
  0
LINE
  5
190
330
2
100
AcDbEntity
  8
L-ZISSEN
100
AcDbLine
 10
904.7
 20
345.5000000000004
 30
0.0
 11
925.3
 21
345.5000000000004
 31
0.0
  0
LINE
  5
191
330
2
100
AcDbEntity
  8
L-ZISSEN
100
AcDbLine
 10
904.7000000000002
 20
427.5000000000004
 30
0.0
 11
925.3
 21
427.5000000000004
 31
0.0
  0
CIRCLE
  5
192
330
2
100
AcDbEntity
  8
L-ZISSEN
  6
CONTINUOUS
 62
     7
100
AcDbCircle
 10
915.0000000000002
 20
355.5000000000004
 30
0.0
 40
4.5
  0
CIRCLE
  5
193
330
2
100
AcDbEntity
  8
L-ZISSEN
  6
CONTINUOUS
 62
     7
100
AcDbCircle
 10
915.0000000000002
 20
417.5000000000004
 30
0.0
 40
4.5
  0
LINE
  5
194
330
2
100
AcDbEntity
  8
L-ZISSEN
100
AcDbLine
 10
951.5
 20
448.5000000000002
 30
0.0
 11
899.4999919148328
 21
448.5000000000004
 31
0.0
  0
LINE
  5
195
330
2
100
AcDbEntity
  8
L-ZISSEN
100
AcDbLine
 10
953.0
 20
449.5000000000002
 30
0.0
 11
898.0
 21
449.5000000000004
 31
0.0
  0
LINE
  5
196
330
2
100
AcDbEntity
  8
L-ZISSEN
100
AcDbLine
 10
953.0
 20
446.5000000000002
 30
0.0
 11
898.0
 21
446.5000000000004
 31
0.0
  0
LINE
  5
197
330
2
100
AcDbEntity
  8
L-ZISSEN
100
AcDbLine
 10
953.0
 20
443.5000000000002
 30
0.0
 11
898.0
 21
443.5000000000004
 31
0.0
  0
LINE
  5
198
330
2
100
AcDbEntity
  8
L-ZISSEN
100
AcDbLine
 10
911.0
 20
433.5000000000004
 30
0.0
 11
898.0000000000002
 21
433.5000000000004
 31
0.0
  0
LINE
  5
199
330
2
100
AcDbEntity
  8
L-ZISSEN
100
AcDbLine
 10
953.0
 20
438.5000000000004
 30
0.0
 11
909.1000000000001
 21
438.5000000000004
 31
0.0
  0
LINE
  5
19A
330
2
100
AcDbEntity
  8
L-ZISSEN
100
AcDbLine
 10
952.9999999999997
 20
428.5000000000002
 30
0.0
 11
898.0000000000002
 21
428.5000000000004
 31
0.0
  0
LINE
  5
19B
330
2
100
AcDbEntity
  8
L-ZISSEN
100
AcDbLine
 10
925.4999999999995
 20
323.9285653728716
 30
0.0
 11
895.5
 21
324.9761884576241
 31
0.0
  0
LINE
  5
19C
330
2
100
AcDbEntity
  8
L-ZISSEN
100
AcDbLine
 10
912.3181266414592
 20
428.5000000000004
 30
0.0
 11
898.0
 21
428.0000000000004
 31
0.0
  0
LINE
  5
19D
330
2
100
AcDbEntity
  8
L-ZISSEN
  6
CONTINUOUS
 62
     7
100
AcDbLine
 10
854.0710678118642
 20
407.0710678118642
 30
0.0
 11
836.2201834388157
 21
389.2201834388159
 31
0.0
  0
CIRCLE
  5
19E
330
2
100
AcDbEntity
  8
L-ZISSEN
100
AcDbCircle
 10
847.0000000000004
 20
400.0000000000002
 30
0.0
 40
18.5
  0
LINE
  5
19F
330
2
100
AcDbEntity
  8
L-ZISSEN
  6
CONTINUOUS
 62
     7
100
AcDbLine
 10
904.7
 20
345.5000000000004
 30
0.0
 11
904.7000000000002
 21
427.5000000000004
 31
0.0
  0
LINE
  5
1A0
330
2
100
AcDbEntity
  8
L-ZISSEN
100
AcDbLine
 10
895.5
 20
426.0238115423767
 30
0.0
 11
895.5
 21
324.9761884576241
 31
0.0
  0
LINE
  5
1A1
330
2
100
AcDbEntity
  8
L-ZISSEN
  6
CONTINUOUS
 62
     7
100
AcDbLine
 10
894.0000000000003
 20
344.5000000000002
 30
0.0
 11
892.0000000000001
 21
344.5000000000002
 31
0.0
  0
LINE
  5
1A2
330
2
100
AcDbEntity
  8
L-ZISSEN
100
AcDbLine
 10
895.5
 20
358.5000000000004
 30
0.0
 11
894.0000000000003
 21
358.5000000000004
 31
0.0
  0
LINE
  5
1A3
330
2
100
AcDbEntity
  8
L-ZISSEN
  6
CONTINUOUS
 62
     7
100
AcDbLine
 10
895.5000000000001
 20
372.0000000000002
 30
0.0
 11
892.0000000000003
 21
372.0000000000002
 31
0.0
  0
LINE
  5
1A4
330
2
100
AcDbEntity
  8
L-ZISSEN
  6
CONTINUOUS
 62
     7
100
AcDbLine
 10
892.0000000000003
 20
377.5000000000003
 30
0.0
 11
892.0000000000003
 21
376.5000000000002
 31
0.0
  0
LINE
  5
1A5
330
2
100
AcDbEntity
  8
L-ZISSEN
  6
CONTINUOUS
 62
     7
100
AcDbLine
 10
866.7500000000007
 20
426.7000000000003
 30
0.0
 11
827.2500000000007
 21
426.7000000000003
 31
0.0
  0
LINE
  5
1A6
330
2
100
AcDbEntity
  8
L-ZISSEN
100
AcDbLine
 10
827.2500000000007
 20
426.7000000000003
 30
0.0
 11
827.2500000000004
 21
422.5000000000001
 31
0.0
  0
LINE
  5
1A7
330
2
100
AcDbEntity
  8
L-ZISSEN
  6
CONTINUOUS
 62
     7
100
AcDbLine
 10
802.2999999999996
 20
422.5000000000002
 30
0.0
 11
802.2999999999997
 21
445.4090026263124
 31
0.0
  0
LINE
  5
1A8
330
2
100
AcDbEntity
  8
L-ZISSEN
100
AcDbLine
 10
801.5000000000004
 20
422.5
 30
0.0
 11
802.7571477017032
 21
458.4999999999998
 31
0.0
  0
LINE
  5
1A9
330
2
100
AcDbEntity
  8
L-ZISSEN
  6
CONTINUOUS
 62
     7
100
AcDbLine
 10
805.6491470389149
 20
394.5000000000002
 30
0.0
 11
818.3508529610866
 21
394.5000000000002
 31
0.0
  0
LINE
  5
1AA
330
2
100
AcDbEntity
  8
L-ZISSEN
  6
CONTINUOUS
 62
     7
100
AcDbLine
 10
818.3508529610866
 20
416.5000000000002
 30
0.0
 11
805.6491470389149
 21
416.5000000000002
 31
0.0
  0
CIRCLE
  5
1AB
330
2
100
AcDbEntity
  8
L-ZISSEN
  6
CONTINUOUS
 62
     7
100
AcDbCircle
 10
812.0000000000008
 20
405.5000000000003
 30
0.0
 40
6.0
  0
LINE
  5
1AC
330
2
100
AcDbEntity
  8
L-ZISSEN
  6
CONTINUOUS
 62
     7
100
AcDbLine
 10
805.6491470389149
 20
416.5000000000002
 30
0.0
 11
799.298294077829
 21
405.5000000000003
 31
0.0
  0
LINE
  5
1AD
330
2
100
AcDbEntity
  8
L-ZISSEN
  6
CONTINUOUS
 62
     7
100
AcDbLine
 10
799.298294077829
 20
405.5000000000003
 30
0.0
 11
805.6491470389149
 21
394.5000000000002
 31
0.0
  0
LINE
  5
1AE
330
2
100
AcDbEntity
  8
L-ZISSEN
  6
CONTINUOUS
 62
     7
100
AcDbLine
 10
824.7017059221727
 20
405.5000000000005
 30
0.0
 11
818.3508529610866
 21
416.5000000000002
 31
0.0
  0
LINE
  5
1AF
330
2
100
AcDbEntity
  8
L-ZISSEN
  6
CONTINUOUS
 62
     7
100
AcDbLine
 10
818.3508529610866
 20
394.5000000000002
 30
0.0
 11
824.7017059221727
 21
405.5000000000005
 31
0.0
  0
LINE
  5
1B0
330
2
100
AcDbEntity
  8
L-ZISSEN
100
AcDbLine
 10
828.3599808705911
 20
426.7000000000003
 30
0.0
 11
828.9177410000151
 21
448.0000000000003
 31
0.0
  0
LINE
  5
1B1
330
2
100
AcDbEntity
  8
L-ZISSEN
100
AcDbLine
 10
866.7500000000007
 20
426.7000000000003
 30
0.0
 11
866.7500000000007
 21
422.5000000000001
 31
0.0
  0
LINE
  5
1B2
330
2
100
AcDbEntity
  8
L-ZISSEN
100
AcDbLine
 10
881.0000000000016
 20
422.5000000000003
 30
0.0
 11
881.0000000000007
 21
458.5
 31
0.0
  0
LINE
  5
1B3
330
2
100
AcDbEntity
  8
L-ZISSEN
100
AcDbLine
 10
871.0000000000007
 20
422.5000000000003
 30
0.0
 11
871.0000000000007
 21
458.5
 31
0.0
  0
LINE
  5
1B4
330
2
100
AcDbEntity
  8
L-ZISSEN
  6
CONTINUOUS
 62
     7
100
AcDbLine
 10
871.0000000000007
 20
458.5
 30
0.0
 11
881.0000000000007
 21
458.5
 31
0.0
  0
LINE
  5
1B5
330
2
100
AcDbEntity
  8
L-ZISSEN
  6
CONTINUOUS
 62
     7
100
AcDbLine
 10
871.0000000000007
 20
427.0000000000001
 30
0.0
 11
881.0000000000007
 21
427.0000000000001
 31
0.0
  0
CIRCLE
  5
1B6
330
2
100
AcDbEntity
  8
L-ZISSEN
100
AcDbCircle
 10
876.0000000000008
 20
436.0000000000001
 30
0.0
 40
3.799999999999999
  0
LINE
  5
1B7
330
2
100
AcDbEntity
  8
L-ZISSEN
100
AcDbLine
 10
865.64001912941
 20
426.7000000000003
 30
0.0
 11
865.082258999986
 21
448.0000000000005
 31
0.0
  0
CIRCLE
  5
1B8
330
2
100
AcDbEntity
  8
L-ZISSEN
100
AcDbCircle
 10
876.0000000000008
 20
436.0000000000001
 30
0.0
 40
2.1
  0
LINE
  5
1B9
330
2
100
AcDbEntity
  8
L-ZISSEN
  6
CONTINUOUS
 62
     7
100
AcDbLine
 10
864.7148066131766
 20
452.2000000000002
 30
0.0
 11
851.7500000000266
 21
452.1999999999999
 31
0.0
  0
LINE
  5
1BA
330
2
100
AcDbEntity
  8
L-ZISSEN
  6
CONTINUOUS
 62
     7
100
AcDbLine
 10
855.2500000000007
 20
455.7070037358215
 30
0.0
 11
855.2500000000007
 21
452.2000000000002
 31
0.0
  0
LINE
  5
1BB
330
2
100
AcDbEntity
  8
L-ZISSEN
  6
CONTINUOUS
 62
     7
100
AcDbLine
 10
862.2500000000007
 20
455.7070037358215
 30
0.0
 11
855.2500000000007
 21
455.7070037358215
 31
0.0
  0
LINE
  5
1BC
330
2
100
AcDbEntity
  8
L-ZISSEN
  6
CONTINUOUS
 62
     7
100
AcDbLine
 10
862.2500000000007
 20
455.7070037358215
 30
0.0
 11
862.2500000000007
 21
452.2000000000002
 31
0.0
  0
LINE
  5
1BD
330
2
100
AcDbEntity
  8
L-ZISSEN
100
AcDbLine
 10
898.0
 20
446.5000000000004
 30
0.0
 11
898.0
 21
443.5000000000004
 31
0.0
  0
LINE
  5
1BE
330
2
100
AcDbEntity
  8
L-ZISSEN
100
AcDbLine
 10
904.7000000000002
 20
426.3450826217008
 30
0.0
 11
895.5
 21
426.0238115423767
 31
0.0
  0
LINE
  5
1BF
330
2
100
AcDbEntity
  8
L-ZISSEN
100
AcDbLine
 10
899.9
 20
438.5000000000004
 30
0.0
 11
898.0000000000002
 21
438.5000000000004
 31
0.0
  0
LINE
  5
1C0
330
2
100
AcDbEntity
  8
L-ZISSEN
100
AcDbLine
 10
909.0999999999999
 20
439.8000000000004
 30
0.0
 11
909.0999999999999
 21
433.5000000000004
 31
0.0
  0
LINE
  5
1C1
330
2
100
AcDbEntity
  8
L-ZISSEN
100
AcDbLine
 10
909.0999999999999
 20
439.8000000000004
 30
0.0
 11
899.9
 21
439.8000000000002
 31
0.0
  0
LINE
  5
1C2
330
2
100
AcDbEntity
  8
L-ZISSEN
100
AcDbLine
 10
899.9
 20
439.8000000000002
 30
0.0
 11
899.9
 21
433.5000000000004
 31
0.0
  0
LINE
  5
1C3
330
2
100
AcDbEntity
  8
L-ZISSEN
100
AcDbLine
 10
898.0000000000002
 20
438.5000000000004
 30
0.0
 11
898.0000000000002
 21
428.5000000000002
 31
0.0
  0
LINE
  5
1C4
330
2
100
AcDbEntity
  8
L-ZISSEN
100
AcDbLine
 10
903.0000000000002
 20
443.5000000000004
 30
0.0
 11
903.0000000000002
 21
439.8000000000002
 31
0.0
  0
LINE
  5
1C5
330
2
100
AcDbEntity
  8
L-ZISSEN
100
AcDbLine
 10
898.0
 20
428.0000000000004
 30
0.0
 11
898.0
 21
426.1111134661059
 31
0.0
  0
ARC
  5
1C6
330
2
100
AcDbEntity
  8
L-ZISSEN
100
AcDbCircle
 10
899.5000000000002
 20
447.5000000000002
 30
0.0
 40
1.0
100
AcDbArc
 50
90.0
 51
270.0
  0
LINE
  5
1C7
330
2
100
AcDbEntity
  8
L-ZISSEN
100
AcDbLine
 10
900.5
 20
449.5000000000004
 30
0.0
 11
900.5
 21
448.5000000000004
 31
0.0
  0
LINE
  5
1C8
330
2
100
AcDbEntity
  8
L-ZISSEN
  6
CONTINUOUS
 62
     7
100
AcDbLine
 10
925.3
 20
345.5000000000004
 30
0.0
 11
925.3
 21
427.5000000000004
 31
0.0
  0
LINE
  5
1C9
330
2
100
AcDbEntity
  8
L-ZISSEN
  6
CONTINUOUS
 62
     7
100
AcDbLine
 10
912.0000000000002
 20
363.5000000000004
 30
0.0
 11
912.0000000000002
 21
409.5000000000004
 31
0.0
  0
LINE
  5
1CA
330
2
100
AcDbEntity
  8
L-ZISSEN
  6
CONTINUOUS
 62
     7
100
AcDbLine
 10
918.0000000000003
 20
409.5000000000004
 30
0.0
 11
918.0000000000003
 21
363.5000000000004
 31
0.0
  0
LINE
  5
1CB
330
2
100
AcDbEntity
  8
L-ZISSEN
100
AcDbLine
 10
970.5
 20
425.5000000000004
 30
0.0
 11
970.5
 21
325.5000000000002
 31
0.0
  0
LINE
  5
1CC
330
2
100
AcDbEntity
  8
L-ZISSEN
  6
CONTINUOUS
 62
     7
100
AcDbLine
 10
1007.0
 20
372.0000000000002
 30
0.0
 11
970.5
 21
372.0000000000002
 31
0.0
  0
LINE
  5
1CD
330
2
100
AcDbEntity
  8
L-ZISSEN
100
AcDbLine
 10
970.5
 20
325.5000000000002
 30
0.0
 11
925.4999999999995
 21
323.9285653728716
 31
0.0
  0
LINE
  5
1CE
330
2
100
AcDbEntity
  8
L-ZISSEN
  6
CONTINUOUS
 62
     7
100
AcDbLine
 10
918.0000000000003
 20
363.5000000000004
 30
0.0
 11
912.0000000000002
 21
363.5000000000004
 31
0.0
  0
LINE
  5
1CF
330
2
100
AcDbEntity
  8
L-TYUSIN
  6
CENTER
 62
     1
100
AcDbLine
 10
992.0000000000001
 20
352.5879385241337
 30
0.0
 11
992.0000000000001
 21
366.4120614758678
 31
0.0
  0
LINE
  5
1D0
330
2
100
AcDbEntity
  8
L-TYUSIN
  6
CENTER
 62
     1
100
AcDbLine
 10
985.0879385241302
 20
359.5000000000002
 30
0.0
 11
998.9120614758704
 21
359.5000000000002
 31
0.0
  0
CIRCLE
  5
1D1
330
2
100
AcDbEntity
  8
L-ZISSEN
  6
CONTINUOUS
 62
     7
100
AcDbCircle
 10
992.0000000000005
 20
359.5000000000002
 30
0.0
 40
3.5
  0
LINE
  5
1D2
330
2
100
AcDbEntity
  8
L-ZISSEN
100
AcDbLine
 10
970.5
 20
425.5000000000004
 30
0.0
 11
925.4999999999997
 21
427.071434627129
 31
0.0
  0
LINE
  5
1D3
330
2
100
AcDbEntity
  8
L-ZISSEN
  6
CONTINUOUS
 62
     7
100
AcDbLine
 10
912.0000000000002
 20
409.5000000000004
 30
0.0
 11
918.0000000000003
 21
409.5000000000004
 31
0.0
  0
LINE
  5
1D4
330
2
100
AcDbEntity
  8
L-ZISSEN
100
AcDbLine
 10
953.0000000000002
 20
428.0000000000004
 30
0.0
 11
938.681873358541
 21
428.5000000000004
 31
0.0
  0
LINE
  5
1D5
330
2
100
AcDbEntity
  8
L-ZISSEN
100
AcDbLine
 10
911.0
 20
438.5000000000004
 30
0.0
 11
911.0
 21
433.5000000000004
 31
0.0
  0
LINE
  5
1D6
330
2
100
AcDbEntity
  8
L-ZISSEN
100
AcDbLine
 10
925.4999999999997
 20
427.071434627129
 30
0.0
 11
925.3
 21
427.0644504732306
 31
0.0
  0
LINE
  5
1D7
330
2
100
AcDbEntity
  8
L-ZISSEN
100
AcDbLine
 10
953.0
 20
446.5000000000002
 30
0.0
 11
953.0
 21
443.5000000000002
 31
0.0
  0
LINE
  5
1D8
330
2
100
AcDbEntity
  8
L-ZISSEN
100
AcDbLine
 10
953.0
 20
438.5000000000004
 30
0.0
 11
953.0
 21
428.5000000000002
 31
0.0
  0
LINE
  5
1D9
330
2
100
AcDbEntity
  8
L-ZISSEN
100
AcDbLine
 10
948.0000000000002
 20
443.5000000000002
 30
0.0
 11
948.0
 21
438.5000000000004
 31
0.0
  0
LINE
  5
1DA
330
2
100
AcDbEntity
  8
L-ZISSEN
100
AcDbLine
 10
953.0
 20
428.0000000000004
 30
0.0
 11
953.0000000000002
 21
426.1111134661059
 31
0.0
  0
ARC
  5
1DB
330
2
100
AcDbEntity
  8
L-ZISSEN
100
AcDbCircle
 10
951.5
 20
447.5000000000002
 30
0.0
 40
1.0
100
AcDbArc
 50
270.0
 51
90.0
  0
LINE
  5
1DC
330
2
100
AcDbEntity
  8
L-ZISSEN
100
AcDbLine
 10
950.5
 20
449.5000000000002
 30
0.0
 11
950.5
 21
448.5000000000002
 31
0.0
  0
LINE
  5
1DD
330
2
100
AcDbEntity
  8
L-ZISSEN
  6
CONTINUOUS
 62
     7
100
AcDbLine
 10
840.000022007401
 20
738.9999999999995
 30
0.0
 11
840.0000220074009
 21
759.6071899999997
 31
0.0
  0
LINE
  5
1DE
330
2
100
AcDbEntity
  8
L-ZISSEN
  6
CONTINUOUS
 62
     7
100
AcDbLine
 10
854.0000220074011
 20
738.9999999999995
 30
0.0
 11
854.0000220074011
 21
759.6071899999997
 31
0.0
  0
LINE
  5
1DF
330
2
100
AcDbEntity
  8
L-ZISSEN
  6
CONTINUOUS
 62
     7
100
AcDbLine
 10
925.3000220074008
 20
745.6999999999992
 30
0.0
 11
925.3000220074012
 21
759.499999999999
 31
0.0
  0
LINE
  5
1E0
330
2
100
AcDbEntity
  8
L-ZISSEN
  6
CONTINUOUS
 62
     7
100
AcDbLine
 10
904.7000220074009
 20
745.6999999999992
 30
0.0
 11
904.7000220074012
 21
759.4999999999995
 31
0.0
  0
LINE
  5
1E1
330
2
100
AcDbEntity
  8
L-ZISSEN
100
AcDbLine
 10
797.3877273034536
 20
609.5000000000002
 30
0.0
 11
797.3877273034536
 21
597.5000000000002
 31
0.0
  0
LINE
  5
1E2
330
2
100
AcDbEntity
  8
L-ZISSEN
100
AcDbLine
 10
826.6123167113482
 20
609.5000000000003
 30
0.0
 11
826.612316711348
 21
597.5000000000002
 31
0.0
  0
LINE
  5
1E3
330
2
100
AcDbEntity
  8
L-TYUSIN
  6
CENTER
 62
     1
100
AcDbLine
 10
812.0000000000004
 20
614.314531547855
 30
0.0
 11
812.0000000000004
 21
566.8143647963972
 31
0.0
  0
LINE
  5
1E4
330
2
100
AcDbEntity
  8
L-ZISSEN
100
AcDbLine
 10
953.0
 20
464.5000000000002
 30
0.0
 11
898.0
 21
464.5000000000004
 31
0.0
  0
LINE
  5
1E5
330
2
100
AcDbEntity
  8
L-ZISSEN
100
AcDbLine
 10
800.6062289197185
 20
487.0966676489628
 30
0.0
 11
792.575915101213
 21
563.5000000000011
 31
0.0
  0
LINE
  5
1E6
330
2
100
AcDbEntity
  8
L-ZISSEN
  6
CONTINUOUS
 62
     7
100
AcDbLine
 10
802.2999999999997
 20
464.4999999999998
 30
0.0
 11
802.2999999999997
 21
568.5000000000002
 31
0.0
  0
LINE
  5
1E7
330
2
100
AcDbEntity
  8
L-ZISSEN
  6
CONTINUOUS
 62
     7
100
AcDbLine
 10
862.5713343567921
 20
476.7000000000003
 30
0.0
 11
831.4286656432095
 21
476.7000000000002
 31
0.0
  0
LINE
  5
1E8
330
2
100
AcDbEntity
  8
L-ZISSEN
100
AcDbLine
 10
800.9741220586958
 20
466.0000000000009
 30
0.0
 11
800.6058201887105
 21
487.100000000001
 31
0.0
  0
LINE
  5
1E9
330
2
100
AcDbEntity
  8
L-ZISSEN
100
AcDbLine
 10
801.5000000000004
 20
464.500000000001
 30
0.0
 11
801.5000000000004
 21
466.000000000001
 31
0.0
  0
LINE
  5
1EA
330
2
100
AcDbEntity
  8
L-ZISSEN
100
AcDbLine
 10
797.3877273034536
 20
580.5000000000002
 30
0.0
 11
797.3877273034537
 21
568.5000000000002
 31
0.0
  0
LINE
  5
1EB
330
2
100
AcDbEntity
  8
L-ZISSEN
100
AcDbLine
 10
826.612316711348
 20
580.5000000000002
 30
0.0
 11
826.6123167113478
 21
568.5000000000001
 31
0.0
  0
LINE
  5
1EC
330
2
100
AcDbEntity
  8
L-ZISSEN
  6
CONTINUOUS
 62
     7
100
AcDbLine
 10
797.3877273034537
 20
568.5000000000002
 30
0.0
 11
826.6123167113478
 21
568.5000000000001
 31
0.0
  0
LINE
  5
1ED
330
2
100
AcDbEntity
  8
L-ZISSEN
  6
CONTINUOUS
 62
     7
100
AcDbLine
 10
834.7302582135412
 20
580.5000000000002
 30
0.0
 11
789.2697858012606
 21
580.5000000000002
 31
0.0
  0
LINE
  5
1EE
330
2
100
AcDbEntity
  8
L-ZISSEN
  6
CONTINUOUS
 62
     7
100
AcDbLine
 10
834.7302582135412
 20
597.5000000000002
 30
0.0
 11
789.2697858012606
 21
597.5000000000002
 31
0.0
  0
LINE
  5
1EF
330
2
100
AcDbEntity
  8
L-ZISSEN
100
AcDbLine
 10
789.2697858012608
 20
597.5000000000002
 30
0.0
 11
789.2697858012608
 21
580.5000000000002
 31
0.0
  0
LINE
  5
1F0
330
2
100
AcDbEntity
  8
L-ZISSEN
100
AcDbLine
 10
834.7302582135412
 20
597.5000000000002
 30
0.0
 11
834.730258213541
 21
580.5000000000002
 31
0.0
  0
LINE
  5
1F1
330
2
100
AcDbEntity
  8
L-ZISSEN
  6
CONTINUOUS
 62
     7
100
AcDbLine
 10
904.7000220074009
 20
745.6999999999992
 30
0.0
 11
925.3000220074008
 21
745.6999999999992
 31
0.0
  0
LINE
  5
1F2
330
2
100
AcDbEntity
  8
L-ZISSEN
  6
CONTINUOUS
 62
     7
100
AcDbLine
 10
797.3877273034536
 20
609.5000000000002
 30
0.0
 11
826.6123167113482
 21
609.5000000000002
 31
0.0
  0
LINE
  5
1F3
330
2
100
AcDbEntity
  8
L-ZISSEN
  6
CONTINUOUS
 62
     7
100
AcDbLine
 10
828.5000220074007
 20
714.9999999999995
 30
0.0
 11
865.5000220074004
 21
714.9999999999995
 31
0.0
  0
LINE
  5
1F4
330
2
100
AcDbEntity
  8
L-ZISSEN
  6
CONTINUOUS
 62
     7
100
AcDbLine
 10
828.5000220074007
 20
738.9999999999995
 30
0.0
 11
865.5000220074004
 21
738.9999999999995
 31
0.0
  0
LINE
  5
1F5
330
2
100
AcDbEntity
  8
L-ZISSEN
  6
CONTINUOUS
 62
     7
100
AcDbLine
 10
828.5000220074007
 20
714.9999999999995
 30
0.0
 11
828.5000220074007
 21
738.9999999999995
 31
0.0
  0
LINE
  5
1F6
330
2
100
AcDbEntity
  8
L-ZISSEN
  6
CONTINUOUS
 62
     7
100
AcDbLine
 10
865.5000220074004
 20
714.9999999999995
 30
0.0
 11
865.5000220074004
 21
738.9999999999995
 31
0.0
  0
LINE
  5
1F7
330
2
100
AcDbEntity
  8
L-ZISSEN
  6
CONTINUOUS
 62
     7
100
AcDbLine
 10
872.7500220074009
 20
897.4999999999996
 30
0.0
 11
872.7500220074007
 21
891.9999999999996
 31
0.0
  0
LINE
  5
1F8
330
2
100
AcDbEntity
  8
L-ZISSEN
  6
CONTINUOUS
 62
     7
100
AcDbLine
 10
861.2500220074007
 20
897.4999999999996
 30
0.0
 11
861.2500220074007
 21
891.9999999999996
 31
0.0
  0
LINE
  5
1F9
330
2
100
AcDbEntity
  8
L-ZISSEN
  6
CONTINUOUS
 62
     7
100
AcDbLine
 10
892.0000000000005
 20
889.9999999999995
 30
0.0
 11
891.9999999999996
 21
907.9999999999996
 31
0.0
  0
LINE
  5
1FA
330
2
100
AcDbEntity
  8
L-ZISSEN
  6
CONTINUOUS
 62
     7
100
AcDbLine
 10
889.7000000000003
 20
891.9999999999996
 30
0.0
 11
889.6999999999991
 21
909.9999999999996
 31
0.0
  0
CIRCLE
  5
1FB
330
2
100
AcDbEntity
  8
L-ZISSEN
100
AcDbCircle
 10
925.5000220074009
 20
790.4999999999991
 30
0.0
 40
25.0
  0
CIRCLE
  5
1FC
330
2
100
AcDbEntity
  8
L-ZISSEN
100
AcDbCircle
 10
925.5000220074009
 20
790.4999999999991
 30
0.0
 40
27.5
  0
LINE
  5
1FD
330
2
100
AcDbEntity
  8
L-ZISSEN
100
AcDbLine
 10
904.5000220074012
 20
759.4999999999995
 30
0.0
 11
941.863768724484
 21
759.4999999999995
 31
0.0
  0
LINE
  5
1FE
330
2
100
AcDbEntity
  8
L-ZISSEN
100
AcDbLine
 10
925.5000220074009
 20
881.5714346271279
 30
0.0
 11
895.5000220074012
 21
880.5238115423758
 31
0.0
  0
LINE
  5
1FF
330
2
100
AcDbEntity
  8
L-ZISSEN
100
AcDbLine
 10
904.500022007401
 20
763.000000000005
 30
0.0
 11
925.5000220074009
 21
762.9999999999977
 31
0.0
  0
LINE
  5
200
330
2
100
AcDbEntity
  8
L-ZISSEN
  6
CONTINUOUS
 62
     7
100
AcDbLine
 10
820.6985068172359
 20
821.9999999999995
 30
0.0
 11
833.0000220074008
 21
834.3015151901646
 31
0.0
  0
LINE
  5
201
330
2
100
AcDbEntity
  8
L-ZISSEN
  6
CONTINUOUS
 62
     7
100
AcDbLine
 10
791.0000220074009
 20
834.3015151901646
 30
0.0
 11
803.3015371975659
 21
821.9999999999995
 31
0.0
  0
LINE
  5
202
330
2
100
AcDbEntity
  8
L-ZISSEN
  6
CONTINUOUS
 62
     7
100
AcDbLine
 10
802.000022007401
 20
760.0
 30
0.0
 11
802.000022007401
 21
823.3015151901645
 31
0.0
  0
LINE
  5
203
330
2
100
AcDbEntity
  8
L-ZISSEN
  6
CONTINUOUS
 62
     7
100
AcDbLine
 10
792.5860834840825
 20
832.7154537134831
 30
0.0
 11
792.5860834840825
 21
769.4139165159176
 31
0.0
  0
LINE
  5
204
330
2
100
AcDbEntity
  8
L-ZISSEN
100
AcDbLine
 10
831.42868765061
 20
765.3112132563992
 30
0.0
 11
831.42868765061
 21
832.7301808333736
 31
0.0
  0
LINE
  5
205
330
2
100
AcDbEntity
  8
L-ZISSEN
100
AcDbLine
 10
828.2500220074014
 20
829.551515190165
 30
0.0
 11
828.2500220074014
 21
762.4999999999995
 31
0.0
  0
LINE
  5
206
330
2
100
AcDbEntity
  8
L-ZISSEN
100
AcDbLine
 10
827.2500220074096
 20
828.5515151901734
 30
0.0
 11
827.2500220074023
 21
761.4999999999995
 31
0.0
  0
LINE
  5
207
330
2
100
AcDbEntity
  8
L-TYUSIN
  6
CENTER
 62
     1
100
AcDbLine
 10
812.0000220074009
 20
812.6559725589286
 30
0.0
 11
812.0000220074009
 21
870.5947074229476
 31
0.0
  0
LINE
  5
208
330
2
100
AcDbEntity
  8
L-ZISSEN
100
AcDbLine
 10
888.6000110037009
 20
844.2594786880249
 30
0.0
 11
888.6000110037009
 21
785.499999999999
 31
0.0
  0
LINE
  5
209
330
2
100
AcDbEntity
  8
L-ZISSEN
100
AcDbLine
 10
884.400011003701
 20
844.2594786880249
 30
0.0
 11
884.4000110037002
 21
785.499999999999
 31
0.0
  0
LINE
  5
20A
330
2
100
AcDbEntity
  8
L-ZISSEN
100
AcDbLine
 10
871.0000000000006
 20
790.4999999999991
 30
0.0
 11
871.0000000000006
 21
849.499999999999
 31
0.0
  0
LINE
  5
20B
330
2
100
AcDbEntity
  8
L-ZISSEN
100
AcDbLine
 10
881.0000000000007
 20
790.4999999999991
 30
0.0
 11
881.0000000000007
 21
849.499999999999
 31
0.0
  0
LINE
  5
20C
330
2
100
AcDbEntity
  8
L-ZISSEN
100
AcDbLine
 10
862.5713563641927
 20
776.4999999999977
 30
0.0
 11
862.5713563641927
 21
844.6887867435998
 31
0.0
  0
LINE
  5
20D
330
2
100
AcDbEntity
  8
L-ZISSEN
100
AcDbLine
 10
865.7500220074014
 20
847.4999999999996
 30
0.0
 11
865.7500220074014
 21
762.4999999999995
 31
0.0
  0
LINE
  5
20E
330
2
100
AcDbEntity
  8
L-ZISSEN
100
AcDbLine
 10
866.7500220074014
 20
848.4999999999995
 30
0.0
 11
866.7500220074014
 21
761.4999999999995
 31
0.0
  0
LINE
  5
20F
330
2
100
AcDbEntity
  8
L-ZISSEN
  6
CONTINUOUS
 62
     7
100
AcDbLine
 10
892.000022007401
 20
879.9999999999991
 30
0.0
 11
892.0000220074005
 21
759.9999999999995
 31
0.0
  0
LINE
  5
210
330
2
100
AcDbEntity
  8
L-ZISSEN
  6
CONTINUOUS
 62
     7
100
AcDbLine
 10
894.000022007401
 20
873.9999999999994
 30
0.0
 11
894.0000220074008
 21
783.9999999999995
 31
0.0
  0
LINE
  5
211
330
2
100
AcDbEntity
  8
L-ZISSEN
100
AcDbLine
 10
894.0000220074011
 20
873.569841538983
 30
0.0
 11
894.000022007401
 21
776.4301584610157
 31
0.0
  0
LINE
  5
212
330
2
100
AcDbEntity
  8
L-ZISSEN
100
AcDbLine
 10
895.5000220074012
 20
880.5238115423758
 30
0.0
 11
895.500022007401
 21
759.9761884576232
 31
0.0
  0
LINE
  5
213
330
2
100
AcDbEntity
  8
L-ZISSEN
100
AcDbLine
 10
851.7500220074273
 20
765.3112132563992
 30
0.0
 11
831.42868765061
 21
765.3112132563992
 31
0.0
  0
LINE
  5
214
330
2
100
AcDbEntity
  8
L-ZISSEN
100
AcDbLine
 10
828.2500220074014
 20
762.4999999999995
 30
0.0
 11
865.7500220074014
 21
762.4999999999995
 31
0.0
  0
LINE
  5
215
330
2
100
AcDbEntity
  8
L-ZISSEN
100
AcDbLine
 10
866.7500220074014
 20
761.4999999999995
 30
0.0
 11
827.2500220074023
 21
761.4999999999995
 31
0.0
  0
LINE
  5
216
330
2
100
AcDbEntity
  8
L-ZISSEN
  6
CONTINUOUS
 62
     7
100
AcDbLine
 10
892.0000220074005
 20
759.9999999999995
 30
0.0
 11
805.6000000000004
 21
759.9999999999995
 31
0.0
  0
ARC
  5
217
330
2
100
AcDbEntity
  8
L-ZISSEN
 62
     7
100
AcDbCircle
 10
804.1390397796611
 20
794.1484983383477
 30
0.0
 40
10.0
100
AcDbArc
 50
278.4007525448531
 51
352.4548716329675
  0
ARC
  5
218
330
2
100
AcDbEntity
  8
L-ZISSEN
 62
     7
100
AcDbCircle
 10
804.1390397796611
 20
794.1484983383477
 30
0.0
 40
14.19999999999999
100
AcDbArc
 50
275.9052984887584
 51
332.3719501559515
  0
ARC
  5
219
330
2
100
AcDbEntity
  8
L-ZISSEN
 62
     7
100
AcDbCircle
 10
824.9605991324395
 20
794.9999999999991
 30
0.0
 40
8.9
100
AcDbArc
 50
194.7314058709195
 51
270.0
  0
ARC
  5
21A
330
2
100
AcDbEntity
  8
L-ZISSEN
 62
     7
100
AcDbCircle
 10
824.9605991324395
 20
794.9999999999991
 30
0.0
 40
11.1
100
AcDbArc
 50
194.7314058709195
 51
270.0
  0
LINE
  5
21B
330
2
100
AcDbEntity
  8
L-ZISSEN
  6
CONTINUOUS
 62
     7
100
AcDbLine
 10
824.7017279295739
 20
753.9999999999995
 30
0.0
 11
799.29831608523
 21
754.0
 31
0.0
  0
LINE
  5
21C
330
2
100
AcDbEntity
  8
L-ZISSEN
100
AcDbLine
 10
792.5860834840825
 20
769.4139165159175
 30
0.0
 11
802.000022007401
 21
760.0
 31
0.0
  0
LINE
  5
21D
330
2
100
AcDbEntity
  8
L-ZISSEN
100
AcDbLine
 10
799.2983160852299
 20
754.0
 30
0.0
 11
799.29831608523
 21
756.3999999999995
 31
0.0
  0
LINE
  5
21E
330
2
100
AcDbEntity
  8
L-ZISSEN
  6
CONTINUOUS
 62
     7
100
AcDbLine
 10
799.2983160852292
 20
753.9999999999998
 30
0.0
 11
799.2983160852292
 21
756.3999999999995
 31
0.0
  0
LINE
  5
21F
330
2
100
AcDbEntity
  8
L-ZISSEN
  6
CONTINUOUS
 62
     7
100
AcDbLine
 10
824.7017279295739
 20
753.9999999999998
 30
0.0
 11
824.7017279295739
 21
759.9999999999995
 31
0.0
  0
LINE
  5
220
330
2
100
AcDbEntity
  8
L-ZISSEN
 62
     7
100
AcDbLine
 10
827.250022007405
 20
786.0999999999994
 30
0.0
 11
824.9605991324395
 21
786.0999999999994
 31
0.0
  0
LINE
  5
221
330
2
100
AcDbEntity
  8
L-ZISSEN
 62
     7
100
AcDbLine
 10
827.250022007405
 20
783.8999999999992
 30
0.0
 11
824.9605991324395
 21
783.8999999999992
 31
0.0
  0
LINE
  5
222
330
2
100
AcDbEntity
  8
L-ZISSEN
  6
CONTINUOUS
 62
     7
100
AcDbLine
 10
803.3015371975659
 20
821.9999999999995
 30
0.0
 11
820.6985068172359
 21
821.9999999999995
 31
0.0
  0
ARC
  5
223
330
2
100
AcDbEntity
  8
L-ZISSEN
 62
     7
100
AcDbCircle
 10
804.1390397796611
 20
794.1484983383477
 30
0.0
 40
14.19999999999999
100
AcDbArc
 50
342.5001788070427
 51
359.9999073380191
  0
LINE
  5
224
330
2
100
AcDbEntity
  8
L-ZISSEN
 62
     7
100
AcDbLine
 10
808.6589613532252
 20
821.9999999999995
 30
0.0
 11
816.3531553609853
 21
792.7368359049182
 31
0.0
  0
LINE
  5
225
330
2
100
AcDbEntity
  8
L-ZISSEN
 62
     7
100
AcDbLine
 10
806.3841861098556
 20
821.9999999999995
 30
0.0
 11
814.2254726309635
 21
792.1774020836624
 31
0.0
  0
LINE
  5
226
330
2
100
AcDbEntity
  8
L-ZISSEN
 62
     7
100
AcDbLine
 10
814.1390397796611
 20
821.9999999999995
 30
0.0
 11
814.1390397796611
 21
801.1577345092973
 31
0.0
  0
LINE
  5
227
330
2
100
AcDbEntity
  8
L-ZISSEN
 62
     7
100
AcDbLine
 10
818.3390397796612
 20
821.9999999999995
 30
0.0
 11
818.3390397796609
 21
794.1484753733038
 31
0.0
  0
LINE
  5
228
330
2
100
AcDbEntity
  8
L-ZISSEN
100
AcDbLine
 10
878.0999999999883
 20
787.4999999999991
 30
0.0
 11
878.0999999999883
 21
785.499999999999
 31
0.0
  0
LINE
  5
229
330
2
100
AcDbEntity
  8
L-ZISSEN
100
AcDbLine
 10
873.8999999999879
 20
787.4999999999986
 30
0.0
 11
873.8999999999885
 21
785.4999999999986
 31
0.0
  0
LINE
  5
22A
330
2
100
AcDbEntity
  8
L-ZISSEN
100
AcDbLine
 10
898.0000220073987
 20
790.4999999999991
 30
0.0
 11
898.0000220074106
 21
769.4999999999995
 31
0.0
  0
ARC
  5
22B
330
2
100
AcDbEntity
  8
L-ZISSEN
100
AcDbCircle
 10
881.2500055018443
 20
785.4999999999988
 30
0.0
 40
7.349999999999999
100
AcDbArc
 50
180.0
 51
0.0
  0
ARC
  5
22C
330
2
100
AcDbEntity
  8
L-ZISSEN
100
AcDbCircle
 10
881.2500055018443
 20
785.4999999999988
 30
0.0
 40
3.149999999999999
100
AcDbArc
 50
180.0
 51
0.0
  0
CIRCLE
  5
22D
330
2
100
AcDbEntity
  8
L-ZISSEN
  6
CONTINUOUS
 62
     7
100
AcDbCircle
 10
882.0000220074009
 20
769.9999999999995
 30
0.0
 40
6.5
  0
LINE
  5
22E
330
2
100
AcDbEntity
  8
L-ZISSEN
100
AcDbLine
 10
851.7500220074273
 20
769.4999999999995
 30
0.0
 11
851.7500220074273
 21
762.4999999999995
 31
0.0
  0
CIRCLE
  5
22F
330
2
100
AcDbEntity
  8
L-ZISSEN
100
AcDbCircle
 10
858.7500220074014
 20
769.4999999999995
 30
0.0
 40
3.5
  0
LINE
  5
230
330
2
100
AcDbEntity
  8
L-ZISSEN
100
AcDbLine
 10
858.7500220074014
 20
776.4999999999977
 30
0.0
 11
865.7500220074014
 21
776.4999999999977
 31
0.0
  0
ARC
  5
231
330
2
100
AcDbEntity
  8
L-ZISSEN
100
AcDbCircle
 10
858.7500220074014
 20
769.4999999999995
 30
0.0
 40
7.0
100
AcDbArc
 50
90.0
 51
180.0
  0
ARC
  5
232
330
2
100
AcDbEntity
  8
L-ZISSEN
100
AcDbCircle
 10
904.5000220074012
 20
769.4999999999991
 30
0.0
 40
4.599999999999999
100
AcDbArc
 50
102.4737037388046
 51
347.5262962611961
  0
ARC
  5
233
330
2
100
AcDbEntity
  8
L-ZISSEN
100
AcDbCircle
 10
904.500022007401
 20
769.4999999999991
 30
0.0
 40
6.5
100
AcDbArc
 50
179.9999999999994
 51
270.0
  0
LINE
  5
234
330
2
100
AcDbEntity
  8
L-ZISSEN
100
AcDbLine
 10
904.5000220074012
 20
759.6619015321976
 30
0.0
 11
904.5000220074012
 21
759.4999999999995
 31
0.0
  0
LINE
  5
235
330
2
100
AcDbEntity
  8
L-ZISSEN
100
AcDbLine
 10
904.5000220074012
 20
759.6619015321976
 30
0.0
 11
895.500022007401
 21
759.9761884576232
 31
0.0
  0
LINE
  5
236
330
2
100
AcDbEntity
  8
L-ZISSEN
100
AcDbLine
 10
894.000022007401
 20
776.4301584610157
 30
0.0
 11
895.5000220074012
 21
776.3777773067781
 31
0.0
  0
LINE
  5
237
330
2
100
AcDbEntity
  8
L-ZISSEN
100
AcDbLine
 10
892.0000220074006
 20
783.9999999999995
 30
0.0
 11
894.0000220074008
 21
783.9999999999995
 31
0.0
  0
LINE
  5
238
330
2
100
AcDbEntity
  8
L-ZISSEN
100
AcDbLine
 10
902.1333791163034
 20
775.9999999999968
 30
0.0
 11
898.0000220074071
 21
775.9999999999945
 31
0.0
  0
LINE
  5
239
330
2
100
AcDbEntity
  8
L-ZISSEN
100
AcDbLine
 10
881.0000000000007
 20
790.4999999999991
 30
0.0
 11
871.0000000000006
 21
790.4999999999991
 31
0.0
  0
LINE
  5
23A
330
2
100
AcDbEntity
  8
L-ZISSEN
100
AcDbLine
 10
879.7999999999971
 20
787.4999999999991
 30
0.0
 11
872.2000000000042
 21
787.4999999999991
 31
0.0
  0
LINE
  5
23B
330
2
100
AcDbEntity
  8
L-ZISSEN
100
AcDbLine
 10
872.2000000000042
 20
787.4999999999991
 30
0.0
 11
872.2000000000042
 21
790.4999999999991
 31
0.0
  0
LINE
  5
23C
330
2
100
AcDbEntity
  8
L-ZISSEN
100
AcDbLine
 10
879.7999999999971
 20
787.4999999999991
 30
0.0
 11
879.7999999999971
 21
790.4999999999991
 31
0.0
  0
POLYLINE
  5
23D
330
2
100
AcDbEntity
  8
L-ZISSEN
 62
     7
100
AcDb2dPolyline
 66
     1
 10
0.0
 20
0.0
 30
0.0
  0
VERTEX
  5
32F
330
23D
100
AcDbEntity
  8
L-ZISSEN
 62
     7
100
AcDbVertex
100
AcDb2dVertex
 10
858.3063085223745
 20
873.9000000000064
 30
0.0
 42
0.0635866829001958
  0
VERTEX
  5
330
330
23D
100
AcDbEntity
  8
L-ZISSEN
 62
     7
100
AcDbVertex
100
AcDb2dVertex
 10
838.183338589323
 20
871.3305050314538
 30
0.0
 42
0.0766140331016153
  0
VERTEX
  5
331
330
23D
100
AcDbEntity
  8
L-ZISSEN
 62
     7
100
AcDbVertex
100
AcDb2dVertex
 10
822.7882396054608
 20
864.6953565662052
 30
0.0
 42
0.0135918871300211
  0
VERTEX
  5
332
330
23D
100
AcDbEntity
  8
L-ZISSEN
 62
     7
100
AcDbVertex
100
AcDb2dVertex
 10
821.1157996001212
 20
863.582707217114
 30
0.0
 42
0.0295519348752731
  0
SEQEND
  5
333
330
23D
100
AcDbEntity
  8
L-ZISSEN
 62
     7
  0
LINE
  5
23E
330
2
100
AcDbEntity
  8
L-ZISSEN
 62
     7
100
AcDbLine
 10
874.4000110037006
 20
858.459478688025
 30
0.0
 11
826.2390281292105
 21
858.459478688025
 31
0.0
  0
LINE
  5
23F
330
2
100
AcDbEntity
  8
L-ZISSEN
100
AcDbLine
 10
862.5713563641927
 20
844.6887867435998
 30
0.0
 11
842.2500220074114
 21
844.6887867435998
 31
0.0
  0
LINE
  5
240
330
2
100
AcDbEntity
  8
L-ZISSEN
100
AcDbLine
 10
833.0000220074008
 20
847.4999999999996
 30
0.0
 11
865.7500220074014
 21
847.4999999999996
 31
0.0
  0
LINE
  5
241
330
2
100
AcDbEntity
  8
L-ZISSEN
100
AcDbLine
 10
866.7500220074014
 20
848.4999999999995
 30
0.0
 11
833.0000220074008
 21
848.4999999999997
 31
0.0
  0
LINE
  5
242
330
2
100
AcDbEntity
  8
L-ZISSEN
 62
     7
100
AcDbLine
 10
874.4000110037008
 20
854.2594786880249
 30
0.0
 11
830.4390281292103
 21
854.2594786880252
 31
0.0
  0
POLYLINE
  5
243
330
2
100
AcDbEntity
  8
L-ZISSEN
 62
     7
100
AcDb2dPolyline
 66
     1
 10
0.0
 20
0.0
 30
0.0
  0
VERTEX
  5
334
330
243
100
AcDbEntity
  8
L-ZISSEN
 62
     7
100
AcDbVertex
100
AcDb2dVertex
 10
858.3063085223745
 20
876.1000000000063
 30
0.0
 42
0.0635866829001957
  0
VERTEX
  5
335
330
243
100
AcDbEntity
  8
L-ZISSEN
 62
     7
100
AcDbVertex
100
AcDb2dVertex
 10
837.6305176829543
 20
873.4599155239335
 30
0.0
 42
0.0766140331016146
  0
VERTEX
  5
336
330
243
100
AcDbEntity
  8
L-ZISSEN
 62
     7
100
AcDbVertex
100
AcDb2dVertex
 10
821.619884605421
 20
866.5594774297446
 30
0.0
 42
0.0282903188022013
  0
VERTEX
  5
337
330
243
100
AcDbEntity
  8
L-ZISSEN
 62
     7
100
AcDbVertex
100
AcDb2dVertex
 10
818.0075157991307
 20
863.9999999999995
 30
0.0
 42
0.029551934875275
  0
SEQEND
  5
338
330
243
100
AcDbEntity
  8
L-ZISSEN
 62
     7
  0
LINE
  5
244
330
2
100
AcDbEntity
  8
L-ZISSEN
  6
CONTINUOUS
 62
     7
100
AcDbLine
 10
805.6000000000004
 20
879.9999999999993
 30
0.0
 11
895.5000220074012
 21
879.999999999999
 31
0.0
  0
LINE
  5
245
330
2
100
AcDbEntity
  8
L-ZISSEN
  6
CONTINUOUS
 62
     7
100
AcDbLine
 10
803.3015371975659
 20
863.9999999999995
 30
0.0
 11
791.0000220074009
 21
851.6984848098346
 31
0.0
  0
LINE
  5
246
330
2
100
AcDbEntity
  8
L-ZISSEN
  6
CONTINUOUS
 62
     7
100
AcDbLine
 10
833.0000220074008
 20
851.6984848098346
 30
0.0
 11
820.6985068172359
 21
863.9999999999995
 31
0.0
  0
LINE
  5
247
330
2
100
AcDbEntity
  8
L-ZISSEN
  6
CONTINUOUS
 62
     7
100
AcDbLine
 10
792.5860834840825
 20
870.5860834840816
 30
0.0
 11
792.5860834840825
 21
853.2845462865161
 31
0.0
  0
LINE
  5
248
330
2
100
AcDbEntity
  8
L-ZISSEN
  6
CONTINUOUS
 62
     7
100
AcDbLine
 10
825.5691016643503
 20
848.6033526871455
 30
0.0
 11
817.4501016388413
 21
856.7223527126545
 31
0.0
  0
LINE
  5
249
330
2
100
AcDbEntity
  8
L-ZISSEN
  6
CONTINUOUS
 62
     7
100
AcDbLine
 10
817.4501016388413
 20
829.0023527126546
 30
0.0
 11
825.5691016643503
 21
837.1213527381636
 31
0.0
  0
CIRCLE
  5
24A
330
2
100
AcDbEntity
  8
L-ZISSEN
  6
CONTINUOUS
 62
     7
100
AcDbCircle
 10
812.0000220074009
 20
842.9999999999996
 30
0.0
 40
9.3155
  0
LINE
  5
24B
330
2
100
AcDbEntity
  8
L-ZISSEN
  6
CONTINUOUS
 62
     7
100
AcDbLine
 10
797.8491016643502
 20
848.6033526871455
 30
0.0
 11
797.8491016643502
 21
837.1213527381636
 31
0.0
  0
LINE
  5
24C
330
2
100
AcDbEntity
  8
L-ZISSEN
  6
CONTINUOUS
 62
     7
100
AcDbLine
 10
791.0000220074009
 20
851.6984848098346
 30
0.0
 11
791.0000220074009
 21
834.3015151901646
 31
0.0
  0
LINE
  5
24D
330
2
100
AcDbEntity
  8
L-ZISSEN
  6
CONTINUOUS
 62
     7
100
AcDbLine
 10
797.8491016643502
 20
837.1213527381636
 30
0.0
 11
805.968101689859
 21
829.0023527126546
 31
0.0
  0
LINE
  5
24E
330
2
100
AcDbEntity
  8
L-ZISSEN
  6
CONTINUOUS
 62
     7
100
AcDbLine
 10
805.968101689859
 20
829.0023527126546
 30
0.0
 11
817.4501016388413
 21
829.0023527126546
 31
0.0
  0
LINE
  5
24F
330
2
100
AcDbEntity
  8
L-ZISSEN
  6
CONTINUOUS
 62
     7
100
AcDbLine
 10
805.9681016898592
 20
856.7223527126545
 30
0.0
 11
797.8491016643502
 21
848.6033526871455
 31
0.0
  0
LINE
  5
250
330
2
100
AcDbEntity
  8
L-ZISSEN
  6
CONTINUOUS
 62
     7
100
AcDbLine
 10
817.4501016388413
 20
856.7223527126545
 30
0.0
 11
805.9681016898592
 21
856.7223527126545
 31
0.0
  0
LINE
  5
251
330
2
100
AcDbEntity
  8
L-ZISSEN
  6
CONTINUOUS
 62
     7
100
AcDbLine
 10
825.5691016643503
 20
837.1213527381636
 30
0.0
 11
825.5691016643503
 21
848.6033526871455
 31
0.0
  0
LINE
  5
252
330
2
100
AcDbEntity
  8
L-ZISSEN
  6
CONTINUOUS
 62
     7
100
AcDbLine
 10
833.0000220074008
 20
834.3015151901646
 30
0.0
 11
833.0000220074008
 21
851.6984848098346
 31
0.0
  0
LINE
  5
253
330
2
100
AcDbEntity
  8
L-ZISSEN
100
AcDbLine
 10
842.2500220074114
 20
840.4999999999995
 30
0.0
 11
842.2500220074114
 21
847.4999999999996
 31
0.0
  0
ARC
  5
254
330
2
100
AcDbEntity
  8
L-ZISSEN
100
AcDbCircle
 10
835.2500220074015
 20
840.4999999999995
 30
0.0
 40
3.5
100
AcDbArc
 50
229.9947991155844
 51
130.0052008844155
  0
LINE
  5
255
330
2
100
AcDbEntity
  8
L-ZISSEN
100
AcDbLine
 10
835.2500220074015
 20
833.4999999999956
 30
0.0
 11
832.198506817232
 21
833.4999999999956
 31
0.0
  0
ARC
  5
256
330
2
100
AcDbEntity
  8
L-ZISSEN
100
AcDbCircle
 10
835.2500220074015
 20
840.4999999999995
 30
0.0
 40
7.0
100
AcDbArc
 50
270.0
 51
0.0
  0
LINE
  5
257
330
2
100
AcDbEntity
  8
L-ZISSEN
  6
CONTINUOUS
 62
     7
100
AcDbLine
 10
820.6985068172359
 20
863.9999999999995
 30
0.0
 11
803.3015371975659
 21
863.9999999999995
 31
0.0
  0
LINE
  5
258
330
2
100
AcDbEntity
  8
L-ZISSEN
  6
CONTINUOUS
 62
     7
100
AcDbLine
 10
802.000022007401
 20
862.6984848098345
 30
0.0
 11
802.000022007401
 21
879.9999999999993
 31
0.0
  0
LINE
  5
259
330
2
100
AcDbEntity
  8
L-ZISSEN
100
AcDbLine
 10
792.5860834840825
 20
870.5860834840816
 30
0.0
 11
802.000022007401
 21
879.9999999999993
 31
0.0
  0
ARC
  5
25A
330
2
100
AcDbEntity
  8
L-ZISSEN
100
AcDbCircle
 10
874.4000110037008
 20
844.2594786880249
 30
0.0
 40
14.19999999999999
100
AcDbArc
 50
0.0
 51
79.16767944353164
  0
POLYLINE
  5
25B
330
2
100
AcDbEntity
  8
L-ZISSEN
 62
     7
100
AcDb2dPolyline
 66
     1
 10
0.0
 20
0.0
 30
0.0
  0
VERTEX
  5
339
330
25B
100
AcDbEntity
  8
L-ZISSEN
 62
     7
100
AcDbVertex
100
AcDb2dVertex
 10
874.9000000000004
 20
857.1109768339461
 30
0.0
 42
0.0975154583808527
  0
VERTEX
  5
33A
330
25B
100
AcDbEntity
  8
L-ZISSEN
 62
     7
100
AcDbVertex
100
AcDb2dVertex
 10
873.6323187645519
 20
863.5490664454369
 30
0.0
 42
0.0980817807398272
  0
VERTEX
  5
33B
330
25B
100
AcDbEntity
  8
L-ZISSEN
 62
     7
100
AcDbVertex
100
AcDb2dVertex
 10
870.0355622376781
 20
868.9868904563899
 30
0.0
 42
0.0988934513454187
  0
VERTEX
  5
33C
330
25B
100
AcDbEntity
  8
L-ZISSEN
 62
     7
100
AcDbVertex
100
AcDb2dVertex
 10
864.6431980002773
 20
872.6266740865439
 30
0.0
 42
0.0994751424102365
  0
VERTEX
  5
33D
330
25B
100
AcDbEntity
  8
L-ZISSEN
 62
     7
100
AcDbVertex
100
AcDb2dVertex
 10
858.3063085223736
 20
873.9000000000032
 30
0.0
 42
0.0994751424102365
  0
SEQEND
  5
33E
330
25B
100
AcDbEntity
  8
L-ZISSEN
 62
     7
  0
POLYLINE
  5
25C
330
2
100
AcDbEntity
  8
L-ZISSEN
 62
     7
100
AcDb2dPolyline
 66
     1
 10
0.0
 20
0.0
 30
0.0
  0
VERTEX
  5
33F
330
25C
100
AcDbEntity
  8
L-ZISSEN
 62
     7
100
AcDbVertex
100
AcDb2dVertex
 10
877.1000000000011
 20
857.1109768339461
 30
0.0
 42
0.097515458380853
  0
VERTEX
  5
340
330
25C
100
AcDbEntity
  8
L-ZISSEN
 62
     7
100
AcDbVertex
100
AcDb2dVertex
 10
875.6680938732985
 20
864.3831046379709
 30
0.0
 42
0.098081780739828
  0
VERTEX
  5
341
330
25C
100
AcDbEntity
  8
L-ZISSEN
 62
     7
100
AcDbVertex
100
AcDb2dVertex
 10
871.5997132631754
 20
870.5339623905402
 30
0.0
 42
0.0988934513454228
  0
VERTEX
  5
342
330
25C
100
AcDbEntity
  8
L-ZISSEN
 62
     7
100
AcDbVertex
100
AcDb2dVertex
 10
865.4930154738783
 20
874.6559129245229
 30
0.0
 42
0.0994751424102357
  0
VERTEX
  5
343
330
25C
100
AcDbEntity
  8
L-ZISSEN
 62
     7
100
AcDbVertex
100
AcDb2dVertex
 10
858.3063085223754
 20
876.1000000000031
 30
0.0
 42
0.0994751424102357
  0
SEQEND
  5
344
330
25C
100
AcDbEntity
  8
L-ZISSEN
 62
     7
  0
LINE
  5
25D
330
2
100
AcDbEntity
  8
L-ZISSEN
100
AcDbLine
 10
881.0000000000007
 20
849.499999999999
 30
0.0
 11
871.0000000000006
 21
849.499999999999
 31
0.0
  0
ARC
  5
25E
330
2
100
AcDbEntity
  8
L-ZISSEN
100
AcDbCircle
 10
874.4000110037008
 20
844.2594786880249
 30
0.0
 40
10.0
100
AcDbArc
 50
0.0
 51
74.33579862703426
  0
LINE
  5
25F
330
2
100
AcDbEntity
  8
L-ZISSEN
 62
     7
100
AcDbLine
 10
877.1000000000011
 20
849.499999999999
 30
0.0
 11
877.1000000000011
 21
857.1109768339461
 31
0.0
  0
LINE
  5
260
330
2
100
AcDbEntity
  8
L-ZISSEN
 62
     7
100
AcDbLine
 10
874.9000000000004
 20
849.499999999999
 30
0.0
 11
874.9000000000004
 21
857.1109768339461
 31
0.0
  0
ARC
  5
261
330
2
100
AcDbEntity
  8
L-ZISSEN
100
AcDbCircle
 10
874.4000110037008
 20
844.2594786880249
 30
0.0
 40
10.0
100
AcDbArc
 50
87.13407914291606
 51
90.0
  0
CIRCLE
  5
262
330
2
100
AcDbEntity
  8
L-ZISSEN
  6
CONTINUOUS
 62
     7
100
AcDbCircle
 10
882.0000220074014
 20
870.0
 30
0.0
 40
6.5
  0
LINE
  5
263
330
2
100
AcDbEntity
  8
L-ZISSEN
  6
CONTINUOUS
 62
     7
100
AcDbLine
 10
859.000022007401
 20
889.9999999999995
 30
0.0
 11
859.000022007401
 21
879.9999999999991
 31
0.0
  0
LINE
  5
264
330
2
100
AcDbEntity
  8
L-ZISSEN
  6
CONTINUOUS
 62
     7
100
AcDbLine
 10
875.000022007401
 20
889.9999999999995
 30
0.0
 11
875.000022007401
 21
879.9999999999991
 31
0.0
  0
LINE
  5
265
330
2
100
AcDbEntity
  8
L-ZISSEN
100
AcDbLine
 10
894.000022007401
 20
873.569841538983
 30
0.0
 11
895.5000220074012
 21
873.6222226932204
 31
0.0
  0
LINE
  5
266
330
2
100
AcDbEntity
  8
L-ZISSEN
100
AcDbLine
 10
892.000022007401
 20
873.9999999999994
 30
0.0
 11
894.000022007401
 21
873.9999999999994
 31
0.0
  0
LINE
  5
267
330
2
100
AcDbEntity
  8
L-ZISSEN
100
AcDbLine
 10
970.5000220074012
 20
879.9999999999995
 30
0.0
 11
970.500022007401
 21
760.4999999999995
 31
0.0
  0
LINE
  5
268
330
2
100
AcDbEntity
  8
L-ZISSEN
100
AcDbLine
 10
911.0000220073906
 20
767.133357108908
 30
0.0
 11
911.000022007389
 21
763.0000000000027
 31
0.0
  0
LINE
  5
269
330
2
100
AcDbEntity
  8
L-ZISSEN
100
AcDbLine
 10
970.500022007401
 20
760.4999999999995
 30
0.0
 11
941.8637687244848
 21
759.4999999999995
 31
0.0
  0
LINE
  5
26A
330
2
100
AcDbEntity
  8
L-ZISSEN
100
AcDbLine
 10
946.500022007401
 20
818.0000000000017
 30
0.0
 11
925.5000220074009
 21
818.0000000000008
 31
0.0
  0
LINE
  5
26B
330
2
100
AcDbEntity
  8
L-ZISSEN
100
AcDbLine
 10
940.00002200739
 20
813.8666428911042
 30
0.0
 11
940.00002200739
 21
818.0000000000013
 31
0.0
  0
LINE
  5
26C
330
2
100
AcDbEntity
  8
L-ZISSEN
100
AcDbLine
 10
953.0000220074116
 20
811.4999999999994
 30
0.0
 11
953.0000220074033
 21
790.4999999999991
 31
0.0
  0
ARC
  5
26D
330
2
100
AcDbEntity
  8
L-ZISSEN
100
AcDbCircle
 10
946.500022007401
 20
811.4999999999994
 30
0.0
 40
4.599999999999999
100
AcDbArc
 50
282.4737037388017
 51
167.5262962611989
  0
LINE
  5
26E
330
2
100
AcDbEntity
  8
L-ZISSEN
100
AcDbLine
 10
948.8666648985063
 20
804.999999999994
 30
0.0
 11
953.0000220074091
 21
804.9999999999922
 31
0.0
  0
ARC
  5
26F
330
2
100
AcDbEntity
  8
L-ZISSEN
100
AcDbCircle
 10
946.500022007401
 20
811.4999999999994
 30
0.0
 40
6.5
100
AcDbArc
 50
0.0000000000005011
 51
90.0
  0
LINE
  5
270
330
2
100
AcDbEntity
  8
L-ZISSEN
100
AcDbLine
 10
970.5000220074012
 20
879.9999999999995
 30
0.0
 11
925.5000220074009
 21
881.5714346271279
 31
0.0
  0
LINE
  5
271
330
2
100
AcDbEntity
  8
L-ZISSEN
  6
CONTINUOUS
 62
     7
100
AcDbLine
 10
889.6999999999991
 20
909.9999999999996
 30
0.0
 11
1006.999999999999
 21
909.9999999999996
 31
0.0
  0
LINE
  5
272
330
2
100
AcDbEntity
  8
L-ZISSEN
  6
CONTINUOUS
 62
     7
100
AcDbLine
 10
1006.999999999999
 20
907.9999999999996
 30
0.0
 11
891.9999999999996
 21
907.9999999999996
 31
0.0
  0
LINE
  5
273
330
2
100
AcDbEntity
  8
L-ZISSEN
  6
CONTINUOUS
 62
     7
100
AcDbLine
 10
861.2500220074007
 20
897.4999999999996
 30
0.0
 11
872.7500220074007
 21
897.4999999999996
 31
0.0
  0
LINE
  5
274
330
2
100
AcDbEntity
  8
L-TYUSIN
  6
CENTER
 62
     1
100
AcDbLine
 10
992.0000000000001
 20
903.4166592105526
 30
0.0
 11
992.0000000000001
 21
917.2407821622869
 31
0.0
  0
LINE
  5
275
330
2
100
AcDbEntity
  8
L-ZISSEN
  6
CONTINUOUS
 62
     7
100
AcDbLine
 10
1006.999999999999
 20
907.9999999999996
 30
0.0
 11
1006.999999999999
 21
909.9999999999996
 31
0.0
  0
ENDSEC
  0
SECTION
  2
OBJECTS
  0
DICTIONARY
  5
7
330
0
100
AcDbDictionary
  3
ACAD_GROUP
350
1F
  3
ACAD_LAYOUT
350
B
  3
ACAD_MLINESTYLE
350
20
  3
ACAD_PLOTSETTINGS
350
21
1001
ACAD
1000
TREAT_AS_HARD
1070
     0
  0
DICTIONARY
  5
2CE
330
2
100
AcDbDictionary
  3
ACAD_LAYOUTSELFREF
350
324
1001
ACAD
1000
TREAT_AS_HARD
1070
     1
  0
DICTIONARY
  5
2D0
330
C
100
AcDbDictionary
  3
ACAD_LAYOUTSELFREF
350
325
1001
ACAD
1000
TREAT_AS_HARD
1070
     1
  0
DICTIONARY
  5
1F
102
{ACAD_REACTORS
330
7
102
}
330
7
100
AcDbDictionary
1001
ACAD
1000
TREAT_AS_HARD
1070
     0
  0
DICTIONARY
  5
B
102
{ACAD_REACTORS
330
7
102
}
330
7
100
AcDbDictionary
1001
ACAD
1000
TREAT_AS_HARD
1070
     0
  0
DICTIONARY
  5
20
102
{ACAD_REACTORS
330
7
102
}
330
7
100
AcDbDictionary
  3
STANDARD
350
23
1001
ACAD
1000
TREAT_AS_HARD
1070
     0
  0
DICTIONARY
  5
21
102
{ACAD_REACTORS
330
7
102
}
330
7
100
AcDbDictionary
1001
ACAD
1000
TREAT_AS_HARD
1070
     0
  0
XRECORD
  5
324
102
{ACAD_REACTORS
330
2CE
102
}
330
2CE
100
AcDbXrecord
340
2
  0
XRECORD
  5
325
102
{ACAD_REACTORS
330
2D0
102
}
330
2D0
100
AcDbXrecord
340
C
  0
MLINESTYLE
  5
23
102
{ACAD_REACTORS
330
20
102
}
330
20
100
AcDbMlineStyle
  2
STANDARD
 70
     0
  3

 62
   256
 51
90.0
 52
90.0
 71
     2
 49
0.5
 62
   256
  6
BYLAYER
 49
-0.5
 62
   256
  6
BYLAYER
  0
ENDSEC
  0
EOF
