  0
SECTION
  2
HEADER
  9
$ACADVER
  1
AC1012
  9
$DWGCODEPAGE
  3
dos932
  9
$INSBASE
 10
0.0
 20
0.0
 30
0.0
  9
$EXTMIN
 10
121.1280713138162
 20
210.953056569233
 30
-0.0015258207003583
  9
$EXTMAX
 10
1340.282178371669
 20
898.1641850503374
 30
0.0000000349246037
  9
$LIMMIN
 10
0.0
 20
0.0
  9
$LIMMAX
 10
420.0
 20
297.0
  9
$ORTHOMODE
 70
     1
  9
$REGENMODE
 70
     1
  9
$FILLMODE
 70
     1
  9
$QTEXTMODE
 70
     0
  9
$MIRRTEXT
 70
     1
  9
$DRAGMODE
 70
     2
  9
$LTSCALE
 40
1.0
  9
$OSMODE
 70
    37
  9
$ATTMODE
 70
     1
  9
$TEXTSIZE
 40
10.0
  9
$TRACEWID
 40
0.05
  9
$TEXTSTYLE
  7
STANDARD
  9
$CLAYER
  8
L-ZISSEN
  9
$CELTYPE
  6
BYLAYER
  9
$CECOLOR
 62
   256
  9
$CELTSCALE
 40
1.0
  9
$DELOBJ
 70
     1
  9
$DISPSILH
 70
     0
  9
$DIMSCALE
 40
1.0
  9
$DIMASZ
 40
2.0
  9
$DIMEXO
 40
1.0
  9
$DIMDLI
 40
8.0
  9
$DIMRND
 40
0.0
  9
$DIMDLE
 40
0.0
  9
$DIMEXE
 40
1.0
  9
$DIMTP
 40
0.0
  9
$DIMTM
 40
0.0
  9
$DIMTXT
 40
3.0
  9
$DIMCEN
 40
2.0
  9
$DIMTSZ
 40
0.0
  9
$DIMTOL
 70
     0
  9
$DIMLIM
 70
     0
  9
$DIMTIH
 70
     0
  9
$DIMTOH
 70
     0
  9
$DIMSE1
 70
     0
  9
$DIMSE2
 70
     0
  9
$DIMTAD
 70
     0
  9
$DIMZIN
 70
     0
  9
$DIMBLK
  1

  9
$DIMASO
 70
     1
  9
$DIMSHO
 70
     0
  9
$DIMPOST
  1

  9
$DIMAPOST
  1

  9
$DIMALT
 70
     0
  9
$DIMALTD
 70
     2
  9
$DIMALTF
 40
25.4
  9
$DIMLFAC
 40
1.0
  9
$DIMTOFL
 70
     1
  9
$DIMTVP
 40
1.0
  9
$DIMTIX
 70
     1
  9
$DIMSOXD
 70
     0
  9
$DIMSAH
 70
     0
  9
$DIMBLK1
  1

  9
$DIMBLK2
  1

  9
$DIMSTYLE
  2
STANDARD
  9
$DIMCLRD
 70
     0
  9
$DIMCLRE
 70
     0
  9
$DIMCLRT
 70
     0
  9
$DIMTFAC
 40
1.0
  9
$DIMGAP
 40
0.09
  9
$DIMJUST
 70
     0
  9
$DIMSD1
 70
     0
  9
$DIMSD2
 70
     0
  9
$DIMTOLJ
 70
     1
  9
$DIMTZIN
 70
     0
  9
$DIMALTZ
 70
     0
  9
$DIMALTTZ
 70
     0
  9
$DIMFIT
 70
     3
  9
$DIMUPT
 70
     0
  9
$DIMUNIT
 70
     2
  9
$DIMDEC
 70
     4
  9
$DIMTDEC
 70
     4
  9
$DIMALTU
 70
     2
  9
$DIMALTTD
 70
     2
  9
$DIMTXSTY
  7
STANDARD
  9
$DIMAUNIT
 70
     0
  9
$LUNITS
 70
     2
  9
$LUPREC
 70
     4
  9
$SKETCHINC
 40
0.1
  9
$FILLETRAD
 40
0.0
  9
$AUNITS
 70
     0
  9
$AUPREC
 70
     0
  9
$MENU
  1
acad
  9
$ELEVATION
 40
0.0
  9
$PELEVATION
 40
0.0
  9
$THICKNESS
 40
0.0
  9
$LIMCHECK
 70
     0
  9
$BLIPMODE
 70
     0
  9
$CHAMFERA
 40
0.0
  9
$CHAMFERB
 40
0.0
  9
$CHAMFERC
 40
0.0
  9
$CHAMFERD
 40
0.0
  9
$SKPOLY
 70
     0
  9
$TDCREATE
 40
2450487.775073032
  9
$TDUPDATE
 40
2453235.798322222
  9
$TDINDWG
 40
0.0152899306
  9
$TDUSRTIMER
 40
0.0152899306
  9
$USRTIMER
 70
     1
  9
$ANGBASE
 50
0.0
  9
$ANGDIR
 70
     0
  9
$PDMODE
 70
     0
  9
$PDSIZE
 40
0.0
  9
$PLINEWID
 40
0.0
  9
$COORDS
 70
     0
  9
$SPLFRAME
 70
     0
  9
$SPLINETYPE
 70
     6
  9
$SPLINESEGS
 70
     8
  9
$ATTDIA
 70
     0
  9
$ATTREQ
 70
     1
  9
$HANDLING
 70
-16383
  9
$HANDSEED
  5
501
  9
$SURFTAB1
 70
     6
  9
$SURFTAB2
 70
     6
  9
$SURFTYPE
 70
     6
  9
$SURFU
 70
     6
  9
$SURFV
 70
     6
  9
$UCSNAME
  2

  9
$UCSORG
 10
0.0
 20
0.0
 30
0.0
  9
$UCSXDIR
 10
1.0
 20
0.0
 30
0.0
  9
$UCSYDIR
 10
0.0
 20
1.0
 30
0.0
  9
$PUCSNAME
  2

  9
$PUCSORG
 10
0.0
 20
0.0
 30
0.0
  9
$PUCSXDIR
 10
1.0
 20
0.0
 30
0.0
  9
$PUCSYDIR
 10
0.0
 20
1.0
 30
0.0
  9
$USERI1
 70
     0
  9
$USERI2
 70
     0
  9
$USERI3
 70
     0
  9
$USERI4
 70
     0
  9
$USERI5
 70
     0
  9
$USERR1
 40
0.0
  9
$USERR2
 40
0.0
  9
$USERR3
 40
0.0
  9
$USERR4
 40
0.0
  9
$USERR5
 40
0.0
  9
$WORLDVIEW
 70
     1
  9
$SHADEDGE
 70
     3
  9
$SHADEDIF
 70
    70
  9
$TILEMODE
 70
     1
  9
$MAXACTVP
 70
    16
  9
$PINSBASE
 10
0.0
 20
0.0
 30
0.0
  9
$PLIMCHECK
 70
     0
  9
$PEXTMIN
 10
1.000000000000000E+20
 20
1.000000000000000E+20
 30
1.000000000000000E+20
  9
$PEXTMAX
 10
-1.000000000000000E+20
 20
-1.000000000000000E+20
 30
-1.000000000000000E+20
  9
$PLIMMIN
 10
0.0
 20
0.0
  9
$PLIMMAX
 10
12.0
 20
9.0
  9
$UNITMODE
 70
     0
  9
$VISRETAIN
 70
     0
  9
$PLINEGEN
 70
     0
  9
$PSLTSCALE
 70
     0
  9
$TREEDEPTH
 70
  3020
  9
$PICKSTYLE
 70
     1
  9
$CMLSTYLE
  2
STANDARD
  9
$CMLJUST
 70
     0
  9
$CMLSCALE
 40
1.0
  9
$SAVEIMAGES
 70
     1
  0
ENDSEC
  0
SECTION
  2
CLASSES
  0
CLASS
  1
ACDBDICTIONARYWDFLT
  2
AcDbDictionaryWithDefault
  3
AutoCAD 2000
 90
    32768
280
     0
281
     0
  0
CLASS
  1
ACDBPLACEHOLDER
  2
AcDbPlaceHolder
  3
AutoCAD 2000
 90
    32768
280
     0
281
     0
  0
CLASS
  1
LAYOUT
  2
AcDbLayout
  3
AutoCAD 2000
 90
    32768
280
     0
281
     0
  0
CLASS
  1
LONG_TRANSACTION
  2
AcDbLongTransaction
  3
AutoCAD 2000
 90
    32768
280
     0
281
     0
  0
CLASS
  1
LWPOLYLINE
  2
AcDbPolyline
  3
AutoCAD 2000
 90
    32768
280
     0
281
     1
  0
CLASS
  1
HATCH
  2
AcDbHatch
  3
AutoCAD 2000
 90
    32768
280
     0
281
     1
  0
CLASS
  1
XRECORD
  2
AcDbXrecord
  3
AutoCAD 2000
 90
    32768
280
     0
281
     0
  0
ENDSEC
  0
SECTION
  2
TABLES
  0
TABLE
  2
VPORT
  5
8
330
0
100
AcDbSymbolTable
 70
     2
  0
VPORT
  5
4FC
330
8
100
AcDbSymbolTableRecord
100
AcDbViewportTableRecord
  2
*ACTIVE
 70
     0
 10
0.0
 20
0.0
 11
1.0
 21
1.0
 12
730.7051248427428
 22
554.5586208097851
 13
0.0
 23
0.0
 14
1.0
 24
1.0
 15
0.0
 25
0.0
 16
0.0
 26
0.0
 36
1.0
 17
0.0
 27
0.0
 37
0.0
 40
695.2330482688217
 41
1.84990253411306
 42
50.0
 43
0.0
 44
0.0
 50
0.0
 51
0.0
 71
     0
 72
   100
 73
     1
 74
     1
 75
     0
 76
     0
 77
     0
 78
     0
  0
ENDTAB
  0
TABLE
  2
LTYPE
  5
5
330
0
100
AcDbSymbolTable
 70
     2
  0
LTYPE
  5
12
330
5
100
AcDbSymbolTableRecord
100
AcDbLinetypeTableRecord
  2
BYBLOCK
 70
     0
  3

 72
    65
 73
     0
 40
0.0
  0
LTYPE
  5
13
330
5
100
AcDbSymbolTableRecord
100
AcDbLinetypeTableRecord
  2
BYLAYER
 70
     0
  3

 72
    65
 73
     0
 40
0.0
  0
LTYPE
  5
14
330
5
100
AcDbSymbolTableRecord
100
AcDbLinetypeTableRecord
  2
CONTINUOUS
 70
     0
  3
Solid line
 72
    65
 73
     0
 40
0.0
  0
LTYPE
  5
1D
330
5
100
AcDbSymbolTableRecord
100
AcDbLinetypeTableRecord
  2
CENTER
 70
     0
  3
----- - ----- - ----- - ----- - ----- - -----
 72
    65
 73
     4
 40
35.0
 49
30.0
 74
     0
 49
-1.5
 74
     0
 49
2.0
 74
     0
 49
-1.5
 74
     0
  0
ENDTAB
  0
TABLE
  2
LAYER
  5
2
330
0
100
AcDbSymbolTable
 70
     3
  0
LAYER
  5
F
330
2
100
AcDbSymbolTableRecord
100
AcDbLayerTableRecord
  2
0
 70
     0
 62
     7
  6
CONTINUOUS
  0
LAYER
  5
20
330
2
100
AcDbSymbolTableRecord
100
AcDbLayerTableRecord
  2
L-ZISSEN
 70
     0
 62
     7
  6
CONTINUOUS
  0
LAYER
  5
21
330
2
100
AcDbSymbolTableRecord
100
AcDbLayerTableRecord
  2
L-TYUSIN
 70
     0
 62
     1
  6
CENTER
  0
ENDTAB
  0
TABLE
  2
STYLE
  5
3
330
0
100
AcDbSymbolTable
 70
     1
  0
STYLE
  5
10
330
3
100
AcDbSymbolTableRecord
100
AcDbTextStyleTableRecord
  2
STANDARD
 70
     0
 40
10.0
 41
0.7
 50
0.0
 71
     0
 42
10.0
  3
txt.shx
  4

  0
ENDTAB
  0
TABLE
  2
VIEW
  5
6
330
0
100
AcDbSymbolTable
 70
     0
  0
ENDTAB
  0
TABLE
  2
UCS
  5
7
330
0
100
AcDbSymbolTable
 70
     0
  0
ENDTAB
  0
TABLE
  2
APPID
  5
9
330
0
100
AcDbSymbolTable
 70
     1
  0
APPID
  5
11
330
9
100
AcDbSymbolTableRecord
100
AcDbRegAppTableRecord
  2
ACAD
 70
     0
  0
ENDTAB
  0
TABLE
  2
DIMSTYLE
  5
A
330
0
100
AcDbSymbolTable
 70
     1
  0
DIMSTYLE
105
4C2
330
A
100
AcDbSymbolTableRecord
100
AcDbDimStyleTableRecord
  2
STANDARD
 70
     0
  3

  4

  5

  6

  7

 40
1.0
 41
0.18
 42
0.0625
 43
0.38
 44
0.18
 45
0.0
 46
0.0
 47
0.0
 48
0.0
140
0.18
141
0.09
142
0.0
143
25.4
144
1.0
145
0.0
146
1.0
147
0.09
 71
     0
 72
     0
 73
     1
 74
     1
 75
     0
 76
     0
 77
     0
 78
     0
170
     0
171
     2
172
     0
173
     0
174
     0
175
     0
176
     0
177
     0
178
     0
270
     2
271
     4
272
     4
273
     2
274
     2
340
10
275
     0
280
     0
281
     0
282
     0
283
     1
284
     0
285
     0
286
     0
287
     3
288
     0
  0
ENDTAB
  0
TABLE
  2
BLOCK_RECORD
  5
1
330
0
100
AcDbSymbolTable
 70
     0
  0
BLOCK_RECORD
  5
18
102
{ACAD_XDICTIONARY
360
4FF
102
}
330
1
100
AcDbSymbolTableRecord
100
AcDbBlockTableRecord
  2
*MODEL_SPACE
  0
BLOCK_RECORD
  5
15
102
{ACAD_XDICTIONARY
360
4FD
102
}
330
1
100
AcDbSymbolTableRecord
100
AcDbBlockTableRecord
  2
*PAPER_SPACE
  0
ENDTAB
  0
ENDSEC
  0
SECTION
  2
BLOCKS
  0
BLOCK
  5
27
330
18
100
AcDbEntity
  8
0
100
AcDbBlockBegin
  2
*MODEL_SPACE
 70
     0
 10
0.0
 20
0.0
 30
0.0
  3
*MODEL_SPACE
  1

  0
ENDBLK
  5
28
330
18
100
AcDbEntity
  8
0
100
AcDbBlockEnd
  0
BLOCK
  5
25
330
15
100
AcDbEntity
 67
     1
  8
0
100
AcDbBlockBegin
  2
*PAPER_SPACE
 70
     0
 10
0.0
 20
0.0
 30
0.0
  3
*PAPER_SPACE
  1

  0
ENDBLK
  5
26
330
15
100
AcDbEntity
 67
     1
  8
0
100
AcDbBlockEnd
  0
ENDSEC
  0
SECTION
  2
ENTITIES
  0
LINE
  5
37
330
18
100
AcDbEntity
  8
L-ZISSEN
100
AcDbLine
 10
149.7759649999999
 20
433.102541
 30
0.0
 11
193.6759649999999
 21
433.102541
 31
0.0
  0
LINE
  5
38
330
18
100
AcDbEntity
  8
L-ZISSEN
100
AcDbLine
 10
151.675965
 20
433.102541
 30
0.0
 11
151.675965
 21
428.102541
 31
0.0
  0
LINE
  5
39
330
18
100
AcDbEntity
  8
L-ZISSEN
100
AcDbLine
 10
151.675965
 20
428.102541
 30
0.0
 11
138.6759649999999
 21
428.102541
 31
0.0
  0
LINE
  5
3A
330
18
100
AcDbEntity
  8
L-ZISSEN
100
AcDbLine
 10
140.575965
 20
434.402541
 30
0.0
 11
140.575965
 21
428.102541
 31
0.0
  0
LINE
  5
3B
330
18
100
AcDbEntity
  8
L-ZISSEN
100
AcDbLine
 10
149.7759649999999
 20
434.402541
 30
0.0
 11
140.575965
 21
434.402541
 31
0.0
  0
LINE
  5
3C
330
18
100
AcDbEntity
  8
L-ZISSEN
100
AcDbLine
 10
149.7759649999999
 20
434.402541
 30
0.0
 11
149.7759649999999
 21
428.102541
 31
0.0
  0
LINE
  5
112
330
18
100
AcDbEntity
  8
L-TYUSIN
  6
CENTER
 62
     1
100
AcDbLine
 10
1229.391534
 20
869.9141839999999
 30
0.0
 11
1229.391534
 21
889.914184
 31
0.0
  0
LINE
  5
113
330
18
100
AcDbEntity
  8
L-TYUSIN
  6
CENTER
 62
     1
100
AcDbLine
 10
1079.391534
 20
869.9141839999999
 30
0.0
 11
1079.391534
 21
889.914184
 31
0.0
  0
LINE
  5
114
330
18
100
AcDbEntity
  8
L-TYUSIN
  6
CENTER
 62
     1
100
AcDbLine
 10
224.6759649999999
 20
242.1025409999999
 30
0.0
 11
224.6759649999999
 21
216.102541
 31
0.0
  0
LINE
  5
115
330
18
100
AcDbEntity
  8
L-TYUSIN
  6
CENTER
 62
     1
100
AcDbLine
 10
361.6759649999999
 20
229.102541
 30
0.0
 11
387.6759649999999
 21
229.102541
 31
0.0
  0
LINE
  5
116
330
18
100
AcDbEntity
  8
L-TYUSIN
  6
CENTER
 62
     1
100
AcDbLine
 10
374.6759649999999
 20
242.1025409999999
 30
0.0
 11
374.6759649999999
 21
216.102541
 31
0.0
  0
LINE
  5
117
330
18
100
AcDbEntity
  8
L-TYUSIN
  6
CENTER
 62
     1
100
AcDbLine
 10
361.6759649999999
 20
354.102541
 30
0.0
 11
387.6759649999999
 21
354.102541
 31
0.0
  0
LINE
  5
118
330
18
100
AcDbEntity
  8
L-TYUSIN
  6
CENTER
 62
     1
100
AcDbLine
 10
211.675965
 20
229.102541
 30
0.0
 11
237.6759649999999
 21
229.102541
 31
0.0
  0
LINE
  5
119
330
18
100
AcDbEntity
  8
L-TYUSIN
  6
CENTER
 62
     1
100
AcDbLine
 10
211.675965
 20
354.102541
 30
0.0
 11
237.6759649999999
 21
354.102541
 31
0.0
  0
LINE
  5
11A
330
18
100
AcDbEntity
  8
L-TYUSIN
  6
CENTER
 62
     1
100
AcDbLine
 10
224.6759649999999
 20
367.102541
 30
0.0
 11
224.6759649999999
 21
341.102541
 31
0.0
  0
LINE
  5
11B
330
18
100
AcDbEntity
  8
L-TYUSIN
  6
CENTER
 62
     1
100
AcDbLine
 10
374.6759649999999
 20
367.102541
 30
0.0
 11
374.6759649999999
 21
341.102541
 31
0.0
  0
LINE
  5
11C
330
18
100
AcDbEntity
  8
L-ZISSEN
  6
CONTINUOUS
 62
     7
100
AcDbLine
 10
1221.391534
 20
884.9141839999999
 30
0.0
 11
1237.391534
 21
884.9141839999999
 31
0.0
  0
LINE
  5
11D
330
18
100
AcDbEntity
  8
L-ZISSEN
  6
CONTINUOUS
 62
     7
100
AcDbLine
 10
1071.391534
 20
884.9141839999999
 30
0.0
 11
1087.391534
 21
884.9141839999999
 31
0.0
  0
CIRCLE
  5
11E
330
18
100
AcDbEntity
  8
L-ZISSEN
100
AcDbCircle
 10
224.6759649999999
 20
354.102541
 30
0.0
 40
8.0
  0
CIRCLE
  5
11F
330
18
100
AcDbEntity
  8
L-ZISSEN
100
AcDbCircle
 10
224.6759649999999
 20
229.102541
 30
0.0
 40
8.0
  0
CIRCLE
  5
120
330
18
100
AcDbEntity
  8
L-ZISSEN
100
AcDbCircle
 10
374.6759649999999
 20
229.102541
 30
0.0
 40
8.0
  0
CIRCLE
  5
121
330
18
100
AcDbEntity
  8
L-ZISSEN
100
AcDbCircle
 10
374.6759649999999
 20
354.102541
 30
0.0
 40
8.0
  0
CIRCLE
  5
122
330
18
100
AcDbEntity
  8
L-ZISSEN
100
AcDbCircle
 10
374.6759649999999
 20
229.102541
 30
0.0
 40
3.0
  0
CIRCLE
  5
123
330
18
100
AcDbEntity
  8
L-ZISSEN
100
AcDbCircle
 10
224.6759649999999
 20
229.102541
 30
0.0
 40
3.0
  0
CIRCLE
  5
124
330
18
100
AcDbEntity
  8
L-ZISSEN
100
AcDbCircle
 10
224.6759649999999
 20
354.102541
 30
0.0
 40
3.0
  0
CIRCLE
  5
125
330
18
100
AcDbEntity
  8
L-ZISSEN
100
AcDbCircle
 10
374.6759649999999
 20
354.102541
 30
0.0
 40
3.0
  0
LINE
  5
126
330
18
100
AcDbEntity
  8
L-ZISSEN
  6
CONTINUOUS
 62
     7
100
AcDbLine
 10
196.1759649999999
 20
366.602541
 30
0.0
 11
199.6759649999999
 21
366.602541
 31
0.0
  0
LINE
  5
127
330
18
100
AcDbEntity
  8
L-ZISSEN
100
AcDbLine
 10
150.7759649999999
 20
274.802541
 30
0.0
 11
150.7759649999999
 21
281.102541
 31
0.0
  0
LINE
  5
128
330
18
100
AcDbEntity
  8
L-ZISSEN
100
AcDbLine
 10
150.7759649999999
 20
274.802541
 30
0.0
 11
141.575965
 21
274.802541
 31
0.0
  0
LINE
  5
129
330
18
100
AcDbEntity
  8
L-ZISSEN
100
AcDbLine
 10
141.575965
 20
274.802541
 30
0.0
 11
141.575965
 21
281.102541
 31
0.0
  0
LINE
  5
12A
330
18
100
AcDbEntity
  8
L-ZISSEN
100
AcDbLine
 10
181.575965
 20
274.802541
 30
0.0
 11
181.575965
 21
281.102541
 31
0.0
  0
LINE
  5
12B
330
18
100
AcDbEntity
  8
L-ZISSEN
100
AcDbLine
 10
190.7759649999999
 20
274.802541
 30
0.0
 11
181.575965
 21
274.802541
 31
0.0
  0
LINE
  5
12C
330
18
100
AcDbEntity
  8
L-ZISSEN
100
AcDbLine
 10
190.7759649999999
 20
274.802541
 30
0.0
 11
190.7759649999999
 21
281.102541
 31
0.0
  0
LINE
  5
12D
330
18
100
AcDbEntity
  8
L-ZISSEN
100
AcDbLine
 10
191.175965
 20
285.102541
 30
0.0
 11
191.175965
 21
281.102541
 31
0.0
  0
LINE
  5
12E
330
18
100
AcDbEntity
  8
L-ZISSEN
100
AcDbLine
 10
141.175965
 20
285.102541
 30
0.0
 11
141.175965
 21
281.102541
 31
0.0
  0
LINE
  5
12F
330
18
100
AcDbEntity
  8
L-ZISSEN
100
AcDbLine
 10
141.175965
 20
281.102541
 30
0.0
 11
191.175965
 21
281.102541
 31
0.0
  0
LINE
  5
130
330
18
100
AcDbEntity
  8
L-ZISSEN
100
AcDbLine
 10
186.9759649999999
 20
420.9476229999999
 30
0.0
 11
196.1759649999999
 21
420.6263519999999
 31
0.0
  0
LINE
  5
131
330
18
100
AcDbEntity
  8
L-ZISSEN
100
AcDbLine
 10
186.9759649999999
 20
422.102541
 30
0.0
 11
166.3759649999999
 21
422.102541
 31
0.0
  0
ARC
  5
132
330
18
100
AcDbEntity
  8
L-ZISSEN
100
AcDbCircle
 10
192.175965
 20
442.102541
 30
0.0
 40
1.0
100
AcDbArc
 50
270.0
 51
90.0
  0
ARC
  5
133
330
18
100
AcDbEntity
  8
L-ZISSEN
100
AcDbCircle
 10
140.1759649999999
 20
442.102541
 30
0.0
 40
1.0
100
AcDbArc
 50
90.0
 51
270.0
  0
LINE
  5
134
330
18
100
AcDbEntity
  8
L-ZISSEN
100
AcDbLine
 10
140.1759649999999
 20
443.102541
 30
0.0
 11
192.1759729999999
 21
443.102541
 31
0.0
  0
LINE
  5
135
330
18
100
AcDbEntity
  8
L-ZISSEN
100
AcDbLine
 10
193.6759649999999
 20
441.102541
 30
0.0
 11
193.6759649999999
 21
438.102541
 31
0.0
  0
LINE
  5
136
330
18
100
AcDbEntity
  8
L-ZISSEN
100
AcDbLine
 10
138.6759649999999
 20
441.102541
 30
0.0
 11
138.6759649999999
 21
438.102541
 31
0.0
  0
LINE
  5
137
330
18
100
AcDbEntity
  8
L-ZISSEN
100
AcDbLine
 10
191.175965
 20
444.102541
 30
0.0
 11
191.175965
 21
443.102541
 31
0.0
  0
LINE
  5
138
330
18
100
AcDbEntity
  8
L-ZISSEN
100
AcDbLine
 10
141.175965
 20
444.102541
 30
0.0
 11
141.175965
 21
443.102541
 31
0.0
  0
LINE
  5
139
330
18
100
AcDbEntity
  8
L-ZISSEN
100
AcDbLine
 10
138.6759649999999
 20
444.102541
 30
0.0
 11
193.6759649999999
 21
444.102541
 31
0.0
  0
LINE
  5
13A
330
18
100
AcDbEntity
  8
L-ZISSEN
100
AcDbLine
 10
138.6759649999999
 20
441.102541
 30
0.0
 11
193.6759649999999
 21
441.102541
 31
0.0
  0
LINE
  5
13B
330
18
100
AcDbEntity
  8
L-ZISSEN
100
AcDbLine
 10
193.6759649999999
 20
459.102541
 30
0.0
 11
193.6759649999999
 21
444.102541
 31
0.0
  0
LINE
  5
13C
330
18
100
AcDbEntity
  8
L-ZISSEN
100
AcDbLine
 10
138.6759649999999
 20
459.102541
 30
0.0
 11
138.6759649999999
 21
444.102541
 31
0.0
  0
LINE
  5
13D
330
18
100
AcDbEntity
  8
L-ZISSEN
100
AcDbLine
 10
138.6759649999999
 20
459.102541
 30
0.0
 11
193.6759649999999
 21
459.102541
 31
0.0
  0
LINE
  5
13E
330
18
100
AcDbEntity
  8
L-ZISSEN
100
AcDbLine
 10
138.6759649999999
 20
438.102541
 30
0.0
 11
193.6759649999999
 21
438.102541
 31
0.0
  0
LINE
  5
13F
330
18
100
AcDbEntity
  8
L-ZISSEN
100
AcDbLine
 10
193.6759649999999
 20
433.102541
 30
0.0
 11
193.6759649999999
 21
423.1025409999999
 31
0.0
  0
LINE
  5
140
330
18
100
AcDbEntity
  8
L-ZISSEN
100
AcDbLine
 10
188.6759649999999
 20
438.102541
 30
0.0
 11
188.6759649999999
 21
433.102541
 31
0.0
  0
LINE
  5
141
330
18
100
AcDbEntity
  8
L-ZISSEN
100
AcDbLine
 10
138.6759649999999
 20
433.102541
 30
0.0
 11
138.6759649999999
 21
423.1025409999999
 31
0.0
  0
LINE
  5
142
330
18
100
AcDbEntity
  8
L-ZISSEN
100
AcDbLine
 10
143.6759649999999
 20
438.102541
 30
0.0
 11
143.6759649999999
 21
434.402541
 31
0.0
  0
LINE
  5
143
330
18
100
AcDbEntity
  8
L-ZISSEN
100
AcDbLine
 10
138.6759649999999
 20
433.102541
 30
0.0
 11
140.575965
 21
433.102541
 31
0.0
  0
LINE
  5
144
330
18
100
AcDbEntity
  8
L-ZISSEN
100
AcDbLine
 10
197.6759649999999
 20
353.102541
 30
0.0
 11
197.6759649999999
 21
288.102541
 31
0.0
  0
LINE
  5
145
330
18
100
AcDbEntity
  8
L-ZISSEN
100
AcDbLine
 10
138.6759649999999
 20
423.1025409999999
 30
0.0
 11
193.6759649999999
 21
423.1025409999999
 31
0.0
  0
LINE
  5
146
330
18
100
AcDbEntity
  8
L-ZISSEN
100
AcDbLine
 10
140.1759649999999
 20
285.102541
 30
0.0
 11
192.175965
 21
285.102541
 31
0.0
  0
LINE
  5
147
330
18
100
AcDbEntity
  8
L-ZISSEN
100
AcDbLine
 10
196.1759649999999
 20
353.102541
 30
0.0
 11
197.6759649999999
 21
353.102541
 31
0.0
  0
LINE
  5
148
330
18
100
AcDbEntity
  8
L-ZISSEN
100
AcDbLine
 10
192.175965
 20
288.102541
 30
0.0
 11
197.6759649999999
 21
288.102541
 31
0.0
  0
LINE
  5
149
330
18
100
AcDbEntity
  8
L-ZISSEN
100
AcDbLine
 10
192.175965
 20
319.439046
 30
0.0
 11
192.175965
 21
285.102541
 31
0.0
  0
LINE
  5
14A
330
18
100
AcDbEntity
  8
L-ZISSEN
100
AcDbLine
 10
140.1759649999999
 20
319.439046
 30
0.0
 11
140.1759649999999
 21
285.102541
 31
0.0
  0
LINE
  5
14B
330
18
100
AcDbEntity
  8
L-ZISSEN
100
AcDbLine
 10
166.175965
 20
318.531106
 30
0.0
 11
196.1759649999999
 21
319.578729
 31
0.0
  0
LINE
  5
14C
330
18
100
AcDbEntity
  8
L-ZISSEN
100
AcDbLine
 10
121.1759649999999
 20
320.102541
 30
0.0
 11
166.175965
 21
318.531106
 31
0.0
  0
LINE
  5
14D
330
18
100
AcDbEntity
  8
L-ZISSEN
100
AcDbLine
 10
179.3578379999999
 20
423.1025409999999
 30
0.0
 11
193.6759649999999
 21
422.602541
 31
0.0
  0
LINE
  5
14E
330
18
100
AcDbEntity
  8
L-ZISSEN
100
AcDbLine
 10
138.6759649999999
 20
422.602541
 30
0.0
 11
152.994091
 21
423.1025409999999
 31
0.0
  0
LINE
  5
14F
330
18
100
AcDbEntity
  8
L-ZISSEN
100
AcDbLine
 10
166.175965
 20
421.673975
 30
0.0
 11
166.3759649999999
 21
421.666991
 31
0.0
  0
LINE
  5
150
330
18
100
AcDbEntity
  8
L-ZISSEN
100
AcDbLine
 10
121.1759649999999
 20
420.102541
 30
0.0
 11
166.175965
 21
421.673975
 31
0.0
  0
LINE
  5
151
330
18
100
AcDbEntity
  8
L-ZISSEN
100
AcDbLine
 10
121.1759649999999
 20
420.102541
 30
0.0
 11
121.1759649999999
 21
320.102541
 31
0.0
  0
LINE
  5
152
330
18
100
AcDbEntity
  8
L-ZISSEN
100
AcDbLine
 10
196.1759649999999
 20
420.6263519999999
 30
0.0
 11
196.1759649999999
 21
319.578729
 31
0.0
  0
LINE
  5
153
330
18
100
AcDbEntity
  8
L-ZISSEN
100
AcDbLine
 10
138.6759649999999
 20
422.602541
 30
0.0
 11
138.6759649999999
 21
420.713654
 31
0.0
  0
LINE
  5
154
330
18
100
AcDbEntity
  8
L-ZISSEN
100
AcDbLine
 10
193.6759649999999
 20
422.602541
 30
0.0
 11
193.6759649999999
 21
420.713654
 31
0.0
  0
LINE
  5
155
330
18
100
AcDbEntity
  8
L-ZISSEN
  6
CONTINUOUS
 62
     7
100
AcDbLine
 10
289.375965
 20
417.102541
 30
0.0
 11
289.375965
 21
421.602541
 31
0.0
  0
LINE
  5
156
330
18
100
AcDbEntity
  8
L-ZISSEN
  6
CONTINUOUS
 62
     7
100
AcDbLine
 10
409.975965
 20
417.102541
 30
0.0
 11
409.975965
 21
421.602541
 31
0.0
  0
LINE
  5
157
330
18
100
AcDbEntity
  8
L-ZISSEN
  6
CONTINUOUS
 62
     7
100
AcDbLine
 10
193.5759649999999
 20
233.6025409999999
 30
0.0
 11
193.5759649999999
 21
226.602541
 31
0.0
  0
LINE
  5
158
330
18
100
AcDbEntity
  8
L-ZISSEN
  6
CONTINUOUS
 62
     7
100
AcDbLine
 10
193.5759649999999
 20
233.6025409999999
 30
0.0
 11
197.1759649999999
 21
233.6025409999999
 31
0.0
  0
LINE
  5
159
330
18
100
AcDbEntity
  8
L-ZISSEN
  6
CONTINUOUS
 62
     7
100
AcDbLine
 10
193.5759649999999
 20
226.602541
 30
0.0
 11
197.1759649999999
 21
226.602541
 31
0.0
  0
LINE
  5
15A
330
18
100
AcDbEntity
  8
L-ZISSEN
  6
CONTINUOUS
 62
     7
100
AcDbLine
 10
193.5759649999999
 20
260.602541
 30
0.0
 11
197.1759649999999
 21
260.602541
 31
0.0
  0
LINE
  5
15B
330
18
100
AcDbEntity
  8
L-ZISSEN
  6
CONTINUOUS
 62
     7
100
AcDbLine
 10
193.5759649999999
 20
267.602541
 30
0.0
 11
197.1759649999999
 21
267.602541
 31
0.0
  0
LINE
  5
15C
330
18
100
AcDbEntity
  8
L-ZISSEN
  6
CONTINUOUS
 62
     7
100
AcDbLine
 10
193.5759649999999
 20
267.602541
 30
0.0
 11
193.5759649999999
 21
260.602541
 31
0.0
  0
LINE
  5
15D
330
18
100
AcDbEntity
  8
L-ZISSEN
  6
CONTINUOUS
 62
     7
100
AcDbLine
 10
197.1759649999999
 20
217.1025409999999
 30
0.0
 11
197.6759649999999
 21
217.1025409999999
 31
0.0
  0
LINE
  5
15E
330
18
100
AcDbEntity
  8
L-ZISSEN
  6
CONTINUOUS
 62
     7
100
AcDbLine
 10
197.1759649999999
 20
277.102541
 30
0.0
 11
197.6759649999999
 21
277.102541
 31
0.0
  0
LINE
  5
15F
330
18
100
AcDbEntity
  8
L-ZISSEN
  6
CONTINUOUS
 62
     7
100
AcDbLine
 10
197.1759649999999
 20
277.102541
 30
0.0
 11
197.1759649999999
 21
217.1025409999999
 31
0.0
  0
LINE
  5
160
330
18
100
AcDbEntity
  8
L-ZISSEN
100
AcDbLine
 10
414.6759649999999
 20
372.602541
 30
0.0
 11
438.675965
 21
372.602541
 31
0.0
  0
LINE
  5
161
330
18
100
AcDbEntity
  8
L-ZISSEN
100
AcDbLine
 10
414.6759649999999
 20
416.602541
 30
0.0
 11
438.675965
 21
416.602541
 31
0.0
  0
LINE
  5
162
330
18
100
AcDbEntity
  8
L-ZISSEN
  6
CONTINUOUS
 62
     7
100
AcDbLine
 10
197.6759649999999
 20
339.102541
 30
0.0
 11
199.6759649999999
 21
339.102541
 31
0.0
  0
LINE
  5
163
330
18
100
AcDbEntity
  8
L-ZISSEN
  6
CONTINUOUS
 62
     7
100
AcDbLine
 10
197.6759649999999
 20
215.1025409999999
 30
0.0
 11
199.6759649999999
 21
215.1025409999999
 31
0.0
  0
LINE
  5
164
330
18
100
AcDbEntity
  8
L-ZISSEN
  6
CONTINUOUS
 62
     7
100
AcDbLine
 10
197.6759649999999
 20
339.102541
 30
0.0
 11
197.6759649999999
 21
215.1025409999999
 31
0.0
  0
LINE
  5
165
330
18
100
AcDbEntity
  8
L-ZISSEN
  6
CONTINUOUS
 62
     7
100
AcDbLine
 10
409.675965
 20
237.852846
 30
0.0
 11
409.675965
 21
220.352235
 31
0.0
  0
LINE
  5
166
330
18
100
AcDbEntity
  8
L-ZISSEN
100
AcDbLine
 10
399.6759649999999
 20
220.352235
 30
0.0
 11
409.675965
 21
220.352235
 31
0.0
  0
LINE
  5
167
330
18
100
AcDbEntity
  8
L-ZISSEN
100
AcDbLine
 10
399.6759649999999
 20
237.852846
 30
0.0
 11
409.675965
 21
237.852846
 31
0.0
  0
LINE
  5
168
330
18
100
AcDbEntity
  8
L-ZISSEN
100
AcDbLine
 10
399.6759649999999
 20
345.352235
 30
0.0
 11
409.675965
 21
345.352235
 31
0.0
  0
LINE
  5
169
330
18
100
AcDbEntity
  8
L-ZISSEN
100
AcDbLine
 10
399.6759649999999
 20
362.852846
 30
0.0
 11
409.675965
 21
362.852846
 31
0.0
  0
LINE
  5
16A
330
18
100
AcDbEntity
  8
L-ZISSEN
  6
CONTINUOUS
 62
     7
100
AcDbLine
 10
409.675965
 20
362.852846
 30
0.0
 11
409.675965
 21
345.352235
 31
0.0
  0
LINE
  5
16B
330
18
100
AcDbEntity
  8
L-ZISSEN
  6
CONTINUOUS
 62
     7
100
AcDbLine
 10
213.675965
 20
216.602541
 30
0.0
 11
259.6759649999999
 21
216.602541
 31
0.0
  0
LINE
  5
16C
330
18
100
AcDbEntity
  8
L-ZISSEN
  6
CONTINUOUS
 62
     7
100
AcDbLine
 10
428.675965
 20
372.102541
 30
0.0
 11
428.675965
 21
350.102541
 31
0.0
  0
LINE
  5
16D
330
18
100
AcDbEntity
  8
L-ZISSEN
  6
CONTINUOUS
 62
     7
100
AcDbLine
 10
428.675965
 20
417.102541
 30
0.0
 11
428.675965
 21
416.602541
 31
0.0
  0
LINE
  5
16E
330
18
100
AcDbEntity
  8
L-ZISSEN
  6
CONTINUOUS
 62
     7
100
AcDbLine
 10
491.675965
 20
417.102541
 30
0.0
 11
491.675965
 21
440.102541
 31
0.0
  0
LINE
  5
16F
330
18
100
AcDbEntity
  8
L-ZISSEN
  6
CONTINUOUS
 62
     7
100
AcDbLine
 10
491.675965
 20
372.102541
 30
0.0
 11
491.675965
 21
417.102541
 31
0.0
  0
LINE
  5
170
330
18
100
AcDbEntity
  8
L-ZISSEN
  6
CONTINUOUS
 62
     7
100
AcDbLine
 10
428.675965
 20
440.102541
 30
0.0
 11
428.675965
 21
417.102541
 31
0.0
  0
LINE
  5
171
330
18
100
AcDbEntity
  8
L-ZISSEN
  6
CONTINUOUS
 62
     7
100
AcDbLine
 10
491.675965
 20
440.102541
 30
0.0
 11
491.675965
 21
445.5812209999999
 31
0.0
  0
LINE
  5
172
330
18
100
AcDbEntity
  8
L-ZISSEN
  6
CONTINUOUS
 62
     7
100
AcDbLine
 10
491.675965
 20
440.102541
 30
0.0
 11
428.675965
 21
440.102541
 31
0.0
  0
LINE
  5
173
330
18
100
AcDbEntity
  8
L-ZISSEN
  6
CONTINUOUS
 62
     7
100
AcDbLine
 10
491.675965
 20
358.302541
 30
0.0
 11
428.675965
 21
358.302541
 31
0.0
  0
LINE
  5
174
330
18
100
AcDbEntity
  8
L-TYUSIN
  6
CENTER
 62
     1
100
AcDbLine
 10
460.1759649999999
 20
504.26034
 30
0.0
 11
460.1759649999999
 21
224.942541
 31
0.0
  0
LINE
  5
175
330
18
100
AcDbEntity
  8
L-ZISSEN
  6
CONTINUOUS
 62
     7
100
AcDbLine
 10
491.675965
 20
372.102541
 30
0.0
 11
428.675965
 21
372.102541
 31
0.0
  0
LINE
  5
176
330
18
100
AcDbEntity
  8
L-ZISSEN
  6
CONTINUOUS
 62
     7
100
AcDbLine
 10
491.675965
 20
417.102541
 30
0.0
 11
428.675965
 21
417.102541
 31
0.0
  0
LINE
  5
177
330
18
100
AcDbEntity
  8
L-ZISSEN
  6
CONTINUOUS
 62
     7
100
AcDbLine
 10
428.675965
 20
430.581211
 30
0.0
 11
491.675965
 21
430.5812309999999
 31
0.0
  0
LINE
  5
178
330
18
100
AcDbEntity
  8
L-ZISSEN
  6
CONTINUOUS
 62
     7
100
AcDbLine
 10
428.675965
 20
445.5812209999999
 30
0.0
 11
428.675965
 21
440.102541
 31
0.0
  0
LINE
  5
179
330
18
100
AcDbEntity
  8
L-ZISSEN
  6
CONTINUOUS
 62
     7
100
AcDbLine
 10
491.675965
 20
350.102541
 30
0.0
 11
491.675965
 21
372.102541
 31
0.0
  0
LINE
  5
17A
330
18
100
AcDbEntity
  8
L-ZISSEN
  6
CONTINUOUS
 62
     7
100
AcDbLine
 10
428.675965
 20
445.5812209999999
 30
0.0
 11
491.675965
 21
445.5812209999999
 31
0.0
  0
LINE
  5
17B
330
18
100
AcDbEntity
  8
L-ZISSEN
  6
CONTINUOUS
 62
     7
100
AcDbLine
 10
438.176095
 20
453.0812209999999
 30
0.0
 11
437.9141849999999
 21
445.5812209999999
 31
0.0
  0
LINE
  5
17C
330
18
100
AcDbEntity
  8
L-ZISSEN
  6
CONTINUOUS
 62
     7
100
AcDbLine
 10
482.175895
 20
453.0812209999999
 30
0.0
 11
482.4378049999999
 21
445.5812309999999
 31
0.0
  0
LINE
  5
17D
330
18
100
AcDbEntity
  8
L-ZISSEN
  6
CONTINUOUS
 62
     7
100
AcDbLine
 10
438.176105
 20
453.0812209999999
 30
0.0
 11
482.175895
 21
453.0812209999999
 31
0.0
  0
LINE
  5
17E
330
18
100
AcDbEntity
  8
L-ZISSEN
  6
CONTINUOUS
 62
     7
100
AcDbLine
 10
442.175965
 20
462.102541
 30
0.0
 11
442.175965
 21
453.0812209999999
 31
0.0
  0
LINE
  5
17F
330
18
100
AcDbEntity
  8
L-ZISSEN
  6
CONTINUOUS
 62
     7
100
AcDbLine
 10
478.175875
 20
462.102541
 30
0.0
 11
478.175865
 21
453.0812209999999
 31
0.0
  0
LINE
  5
180
330
18
100
AcDbEntity
  8
L-ZISSEN
  6
CONTINUOUS
 62
     7
100
AcDbLine
 10
481.175945
 20
462.102541
 30
0.0
 11
439.176125
 21
462.102541
 31
0.0
  0
LINE
  5
181
330
18
100
AcDbEntity
  8
L-ZISSEN
  6
CONTINUOUS
 62
     7
100
AcDbLine
 10
439.813655
 20
498.602541
 30
0.0
 11
439.176145
 21
462.102541
 31
0.0
  0
LINE
  5
182
330
18
100
AcDbEntity
  8
L-ZISSEN
  6
CONTINUOUS
 62
     7
100
AcDbLine
 10
480.538455
 20
498.602541
 30
0.0
 11
481.175945
 21
462.102541
 31
0.0
  0
LINE
  5
183
330
18
100
AcDbEntity
  8
L-ZISSEN
  6
CONTINUOUS
 62
     7
100
AcDbLine
 10
480.538455
 20
498.602541
 30
0.0
 11
439.8136349999999
 21
498.602541
 31
0.0
  0
LINE
  5
184
330
18
100
AcDbEntity
  8
L-ZISSEN
  6
CONTINUOUS
 62
     7
100
AcDbLine
 10
199.6759649999999
 20
247.102541
 30
0.0
 11
199.6759649999999
 21
211.1025409999999
 31
0.0
  0
LINE
  5
185
330
18
100
AcDbEntity
  8
L-TYUSIN
  6
CENTER
 62
     1
100
AcDbLine
 10
279.675942
 20
568.102541
 30
0.0
 11
279.675942
 21
517.1025409999999
 31
0.0
  0
LINE
  5
186
330
18
100
AcDbEntity
  8
L-ZISSEN
  6
CONTINUOUS
 62
     7
100
AcDbLine
 10
339.6759649999999
 20
216.602541
 30
0.0
 11
385.6759649999999
 21
216.602541
 31
0.0
  0
LINE
  5
187
330
18
100
AcDbEntity
  8
L-ZISSEN
  6
CONTINUOUS
 62
     7
100
AcDbLine
 10
399.6759649999999
 20
366.602541
 30
0.0
 11
428.497574
 21
366.602541
 31
0.0
  0
LINE
  5
188
330
18
100
AcDbEntity
  8
L-ZISSEN
  6
CONTINUOUS
 62
     7
100
AcDbLine
 10
256.945706
 20
551.102541
 30
0.0
 11
302.406179
 21
551.102541
 31
0.0
  0
LINE
  5
189
330
18
100
AcDbEntity
  8
L-ZISSEN
  6
CONTINUOUS
 62
     7
100
AcDbLine
 10
294.288237
 20
563.1025409999999
 30
0.0
 11
265.063648
 21
563.1025409999999
 31
0.0
  0
LINE
  5
18A
330
18
100
AcDbEntity
  8
L-ZISSEN
  6
CONTINUOUS
 62
     7
100
AcDbLine
 10
294.288237
 20
522.102541
 30
0.0
 11
265.063648
 21
522.102541
 31
0.0
  0
LINE
  5
18B
330
18
100
AcDbEntity
  8
L-ZISSEN
  6
CONTINUOUS
 62
     7
100
AcDbLine
 10
256.945706
 20
534.1025409999999
 30
0.0
 11
302.406179
 21
534.1025409999999
 31
0.0
  0
LINE
  5
18C
330
18
100
AcDbEntity
  8
L-ZISSEN
  6
CONTINUOUS
 62
     7
100
AcDbLine
 10
269.908518
 20
417.102541
 30
0.0
 11
269.908518
 21
522.102541
 31
0.0
  0
LINE
  5
18D
330
18
100
AcDbEntity
  8
L-ZISSEN
  6
CONTINUOUS
 62
     7
100
AcDbLine
 10
289.375965
 20
417.102541
 30
0.0
 11
289.375965
 21
522.102541
 31
0.0
  0
LINE
  5
18E
330
18
100
AcDbEntity
  8
L-ZISSEN
  6
CONTINUOUS
 62
     7
100
AcDbLine
 10
199.6759649999999
 20
371.102541
 30
0.0
 11
399.6759649999999
 21
371.102541
 31
0.0
  0
LINE
  5
18F
330
18
100
AcDbEntity
  8
L-ZISSEN
  6
CONTINUOUS
 62
     7
100
AcDbLine
 10
199.6759649999999
 20
372.102541
 30
0.0
 11
414.6759649999999
 21
372.102541
 31
0.0
  0
LINE
  5
190
330
18
100
AcDbEntity
  8
L-TYUSIN
  6
CENTER
 62
     1
100
AcDbLine
 10
482.610207
 20
394.602541
 30
0.0
 11
501.175965
 21
394.602541
 31
0.0
  0
LINE
  5
191
330
18
100
AcDbEntity
  8
L-ZISSEN
  6
CONTINUOUS
 62
     7
100
AcDbLine
 10
399.6759649999999
 20
372.102541
 30
0.0
 11
399.6759649999999
 21
211.1025409999999
 31
0.0
  0
LINE
  5
192
330
18
100
AcDbEntity
  8
L-ZISSEN
  6
CONTINUOUS
 62
     7
100
AcDbLine
 10
339.6759649999999
 20
211.1025409999999
 30
0.0
 11
339.6759649999999
 21
221.1025409999999
 31
0.0
  0
LINE
  5
193
330
18
100
AcDbEntity
  8
L-ZISSEN
  6
CONTINUOUS
 62
     7
100
AcDbLine
 10
259.6759649999999
 20
211.1025409999999
 30
0.0
 11
339.6759649999999
 21
211.1025409999999
 31
0.0
  0
LINE
  5
194
330
18
100
AcDbEntity
  8
L-ZISSEN
  6
CONTINUOUS
 62
     7
100
AcDbLine
 10
259.6759649999999
 20
211.1025409999999
 30
0.0
 11
259.6759649999999
 21
221.1025409999999
 31
0.0
  0
LINE
  5
195
330
18
100
AcDbEntity
  8
L-ZISSEN
  6
CONTINUOUS
 62
     7
100
AcDbLine
 10
385.6759649999999
 20
221.1025409999999
 30
0.0
 11
213.675965
 21
221.1025409999999
 31
0.0
  0
LINE
  5
196
330
18
100
AcDbEntity
  8
L-ZISSEN
  6
CONTINUOUS
 62
     7
100
AcDbLine
 10
385.6759649999999
 20
211.1025409999999
 30
0.0
 11
385.6759649999999
 21
221.1025409999999
 31
0.0
  0
LINE
  5
197
330
18
100
AcDbEntity
  8
L-ZISSEN
  6
CONTINUOUS
 62
     7
100
AcDbLine
 10
399.6759649999999
 20
211.1025409999999
 30
0.0
 11
385.6759649999999
 21
211.1025409999999
 31
0.0
  0
LINE
  5
198
330
18
100
AcDbEntity
  8
L-ZISSEN
  6
CONTINUOUS
 62
     7
100
AcDbLine
 10
213.675965
 20
211.1025409999999
 30
0.0
 11
213.675965
 21
221.1025409999999
 31
0.0
  0
LINE
  5
199
330
18
100
AcDbEntity
  8
L-ZISSEN
  6
CONTINUOUS
 62
     7
100
AcDbLine
 10
199.6759649999999
 20
211.1025409999999
 30
0.0
 11
213.675965
 21
211.1025409999999
 31
0.0
  0
LINE
  5
19A
330
18
100
AcDbEntity
  8
L-ZISSEN
  6
CONTINUOUS
 62
     7
100
AcDbLine
 10
199.6759649999999
 20
417.102541
 30
0.0
 11
199.6759649999999
 21
247.102541
 31
0.0
  0
LINE
  5
19B
330
18
100
AcDbEntity
  8
L-ZISSEN
  6
CONTINUOUS
 62
     7
100
AcDbLine
 10
399.6759649999999
 20
371.102541
 30
0.0
 11
399.6759649999999
 21
372.102541
 31
0.0
  0
LINE
  5
19C
330
18
100
AcDbEntity
  8
L-ZISSEN
  6
CONTINUOUS
 62
     7
100
AcDbLine
 10
199.6759649999999
 20
372.102541
 30
0.0
 11
199.6759649999999
 21
371.102541
 31
0.0
  0
LINE
  5
19D
330
18
100
AcDbEntity
  8
L-ZISSEN
  6
CONTINUOUS
 62
     7
100
AcDbLine
 10
414.6759649999999
 20
417.102541
 30
0.0
 11
199.6759649999999
 21
417.102541
 31
0.0
  0
LINE
  5
19E
330
18
100
AcDbEntity
  8
L-ZISSEN
  6
CONTINUOUS
 62
     7
100
AcDbLine
 10
414.6759649999999
 20
417.102541
 30
0.0
 11
414.6759649999999
 21
372.102541
 31
0.0
  0
LINE
  5
19F
330
18
100
AcDbEntity
  8
L-ZISSEN
  6
CONTINUOUS
 62
     7
100
AcDbLine
 10
418.6759649999999
 20
416.602541
 30
0.0
 11
418.6759649999999
 21
372.602541
 31
0.0
  0
CIRCLE
  5
1A0
330
18
100
AcDbEntity
  8
L-ZISSEN
  6
CONTINUOUS
 62
     7
100
AcDbCircle
 10
428.675965
 20
378.23746
 30
0.0
 40
3.5
  0
CIRCLE
  5
1A1
330
18
100
AcDbEntity
  8
L-ZISSEN
  6
CONTINUOUS
 62
     7
100
AcDbCircle
 10
428.675965
 20
409.966666
 30
0.0
 40
3.5
  0
LINE
  5
1A2
330
18
100
AcDbEntity
  8
L-ZISSEN
  6
CONTINUOUS
 62
     7
100
AcDbLine
 10
469.990919
 20
270.602541
 30
0.0
 11
450.3610099999999
 21
270.602541
 31
0.0
  0
LINE
  5
1A3
330
18
100
AcDbEntity
  8
L-ZISSEN
  6
CONTINUOUS
 62
     7
100
AcDbLine
 10
450.3610099999999
 20
230.602541
 30
0.0
 11
469.990919
 21
230.602541
 31
0.0
  0
LINE
  5
1A4
330
18
100
AcDbEntity
  8
L-ZISSEN
  6
CONTINUOUS
 62
     7
100
AcDbLine
 10
450.3610099999999
 20
270.1773129999999
 30
0.0
 11
450.3610099999999
 21
230.602541
 31
0.0
  0
LINE
  5
1A5
330
18
100
AcDbEntity
  8
L-ZISSEN
  6
CONTINUOUS
 62
     7
100
AcDbLine
 10
469.990919
 20
270.1773129999999
 30
0.0
 11
469.990919
 21
230.602541
 31
0.0
  0
LINE
  5
1A6
330
18
100
AcDbEntity
  8
L-ZISSEN
  6
CONTINUOUS
 62
     7
100
AcDbLine
 10
471.175965
 20
276.102541
 30
0.0
 11
469.990919
 21
270.1773129999999
 31
0.0
  0
LINE
  5
1A7
330
18
100
AcDbEntity
  8
L-ZISSEN
  6
CONTINUOUS
 62
     7
100
AcDbLine
 10
449.175965
 20
276.102541
 30
0.0
 11
450.3610099999999
 21
270.1773129999999
 31
0.0
  0
LINE
  5
1A8
330
18
100
AcDbEntity
  8
L-ZISSEN
  6
CONTINUOUS
 62
     7
100
AcDbLine
 10
481.9682719999999
 20
276.102541
 30
0.0
 11
483.675965
 21
350.102541
 31
0.0
  0
LINE
  5
1A9
330
18
100
AcDbEntity
  8
L-ZISSEN
  6
CONTINUOUS
 62
     7
100
AcDbLine
 10
438.383657
 20
276.102541
 30
0.0
 11
436.675965
 21
350.102541
 31
0.0
  0
LINE
  5
1AA
330
18
100
AcDbEntity
  8
L-ZISSEN
  6
CONTINUOUS
 62
     7
100
AcDbLine
 10
438.383657
 20
276.102541
 30
0.0
 11
481.9682719999999
 21
276.102541
 31
0.0
  0
LINE
  5
1AB
330
18
100
AcDbEntity
  8
L-ZISSEN
  6
CONTINUOUS
 62
     7
100
AcDbLine
 10
491.675965
 20
350.102541
 30
0.0
 11
428.675965
 21
350.102541
 31
0.0
  0
LINE
  5
1AC
330
18
100
AcDbEntity
  8
L-ZISSEN
  6
CONTINUOUS
 62
     7
100
AcDbLine
 10
428.675965
 20
372.602541
 30
0.0
 11
428.675965
 21
372.102541
 31
0.0
  0
LINE
  5
1AD
330
18
100
AcDbEntity
  8
L-ZISSEN
  6
CONTINUOUS
 62
     7
100
AcDbLine
 10
400.262048
 20
518.102541
 30
0.0
 11
299.089881
 21
518.102541
 31
0.0
  0
LINE
  5
1AE
330
18
100
AcDbEntity
  8
L-ZISSEN
  6
CONTINUOUS
 62
     7
100
AcDbLine
 10
408.2919529999999
 20
441.7025409999999
 30
0.0
 11
408.6428
 21
421.602541
 31
0.0
  0
LINE
  5
1AF
330
18
100
AcDbEntity
  8
L-ZISSEN
  6
CONTINUOUS
 62
     7
100
AcDbLine
 10
438.675965
 20
416.602541
 30
0.0
 11
438.675965
 21
372.602541
 31
0.0
  0
LINE
  5
1B0
330
18
100
AcDbEntity
  8
L-ZISSEN
100
AcDbLine
 10
265.063648
 20
563.1025409999999
 30
0.0
 11
265.063648
 21
551.102541
 31
0.0
  0
LINE
  5
1B1
330
18
100
AcDbEntity
  8
L-ZISSEN
100
AcDbLine
 10
294.288237
 20
563.1025409999999
 30
0.0
 11
294.288237
 21
551.102541
 31
0.0
  0
LINE
  5
1B2
330
18
100
AcDbEntity
  8
L-ZISSEN
100
AcDbLine
 10
302.406179
 20
551.102541
 30
0.0
 11
302.406179
 21
534.1025409999999
 31
0.0
  0
LINE
  5
1B3
330
18
100
AcDbEntity
  8
L-ZISSEN
100
AcDbLine
 10
256.945706
 20
551.102541
 30
0.0
 11
256.945706
 21
534.1025409999999
 31
0.0
  0
LINE
  5
1B4
330
18
100
AcDbEntity
  8
L-ZISSEN
100
AcDbLine
 10
294.288237
 20
522.102541
 30
0.0
 11
294.288237
 21
534.1025409999999
 31
0.0
  0
LINE
  5
1B5
330
18
100
AcDbEntity
  8
L-ZISSEN
100
AcDbLine
 10
265.063648
 20
522.102541
 30
0.0
 11
265.063648
 21
534.1025409999999
 31
0.0
  0
LINE
  5
1B6
330
18
100
AcDbEntity
  8
L-ZISSEN
100
AcDbLine
 10
408.292362
 20
441.6992079999999
 30
0.0
 11
400.262048
 21
518.102541
 31
0.0
  0
LINE
  5
1B7
330
18
100
AcDbEntity
  8
L-ZISSEN
  6
CONTINUOUS
 62
     7
100
AcDbLine
 10
289.375965
 20
421.602541
 30
0.0
 11
409.975965
 21
421.602541
 31
0.0
  0
LINE
  5
1B8
330
18
100
AcDbEntity
  8
L-ZISSEN
  6
CONTINUOUS
 62
     7
100
AcDbLine
 10
291.059976
 20
441.7025409999999
 30
0.0
 11
290.709129
 21
421.602541
 31
0.0
  0
LINE
  5
1B9
330
18
100
AcDbEntity
  8
L-ZISSEN
100
AcDbLine
 10
291.059567
 20
441.6992079999999
 30
0.0
 11
299.089881
 21
518.102541
 31
0.0
  0
LINE
  5
1BA
330
18
100
AcDbEntity
  8
L-ZISSEN
100
AcDbLine
 10
264.6759649999999
 20
430.102541
 30
0.0
 11
264.6759649999999
 21
417.102541
 31
0.0
  0
LINE
  5
1BB
330
18
100
AcDbEntity
  8
L-ZISSEN
100
AcDbLine
 10
224.6759649999999
 20
430.102541
 30
0.0
 11
224.6759649999999
 21
417.102541
 31
0.0
  0
LINE
  5
1BC
330
18
100
AcDbEntity
  8
L-ZISSEN
100
AcDbLine
 10
264.4259649999999
 20
434.302541
 30
0.0
 11
264.4259649999999
 21
430.102541
 31
0.0
  0
LINE
  5
1BD
330
18
100
AcDbEntity
  8
L-ZISSEN
100
AcDbLine
 10
224.9259649999999
 20
434.302541
 30
0.0
 11
224.9259649999999
 21
430.102541
 31
0.0
  0
LINE
  5
1BE
330
18
100
AcDbEntity
  8
L-ZISSEN
  6
CONTINUOUS
 62
     7
100
AcDbLine
 10
224.9259649999999
 20
434.302541
 30
0.0
 11
264.4259649999999
 21
434.302541
 31
0.0
  0
LINE
  5
1BF
330
18
100
AcDbEntity
  8
L-ZISSEN
100
AcDbLine
 10
226.593706
 20
455.602541
 30
0.0
 11
229.10463
 21
484.302541
 31
0.0
  0
LINE
  5
1C0
330
18
100
AcDbEntity
  8
L-ZISSEN
100
AcDbLine
 10
226.035945
 20
434.302541
 30
0.0
 11
226.593706
 21
455.602541
 31
0.0
  0
LINE
  5
1C1
330
18
100
AcDbEntity
  8
L-ZISSEN
100
AcDbLine
 10
262.758224
 20
455.602541
 30
0.0
 11
260.2472989999999
 21
484.302541
 31
0.0
  0
LINE
  5
1C2
330
18
100
AcDbEntity
  8
L-ZISSEN
100
AcDbLine
 10
263.3159839999999
 20
434.302541
 30
0.0
 11
262.758224
 21
455.602541
 31
0.0
  0
LINE
  5
1C3
330
18
100
AcDbEntity
  8
L-ZISSEN
  6
CONTINUOUS
 62
     7
100
AcDbLine
 10
224.6759649999999
 20
430.102541
 30
0.0
 11
264.6759649999999
 21
430.102541
 31
0.0
  0
LINE
  5
1C4
330
18
100
AcDbEntity
  8
L-ZISSEN
  6
CONTINUOUS
 62
     7
100
AcDbLine
 10
229.10463
 20
484.302541
 30
0.0
 11
260.2472989999999
 21
484.302541
 31
0.0
  0
LINE
  5
1C6
330
18
100
AcDbEntity
  8
L-TYUSIN
  6
CENTER
 62
     1
100
AcDbLine
 10
632.050743
 20
354.102541
 30
0.0
 11
652.050743
 21
354.102541
 31
0.0
  0
LINE
  5
1C7
330
18
100
AcDbEntity
  8
L-ZISSEN
  6
CONTINUOUS
 62
     7
100
AcDbLine
 10
637.0507429999999
 20
346.102541
 30
0.0
 11
637.0507429999999
 21
362.102541
 31
0.0
  0
LINE
  5
1C8
330
18
100
AcDbEntity
  8
L-ZISSEN
  6
CONTINUOUS
 62
     7
100
AcDbLine
 10
637.0507429999999
 20
221.1025409999999
 30
0.0
 11
637.0507429999999
 21
237.102541
 31
0.0
  0
LINE
  5
1C9
330
18
100
AcDbEntity
  8
L-ZISSEN
  6
CONTINUOUS
 62
     7
100
AcDbLine
 10
1257.891534
 20
366.602541
 30
0.0
 11
1254.391534
 21
366.602541
 31
0.0
  0
LINE
  5
1CA
330
18
100
AcDbEntity
  8
L-ZISSEN
100
AcDbLine
 10
1303.291534
 20
274.802541
 30
0.0
 11
1303.291534
 21
281.102541
 31
0.0
  0
LINE
  5
1CB
330
18
100
AcDbEntity
  8
L-ZISSEN
100
AcDbLine
 10
1303.291534
 20
274.802541
 30
0.0
 11
1312.491534
 21
274.802541
 31
0.0
  0
LINE
  5
1CC
330
18
100
AcDbEntity
  8
L-ZISSEN
100
AcDbLine
 10
1312.491534
 20
274.802541
 30
0.0
 11
1312.491534
 21
281.102541
 31
0.0
  0
LINE
  5
1CD
330
18
100
AcDbEntity
  8
L-ZISSEN
100
AcDbLine
 10
1272.491534
 20
274.802541
 30
0.0
 11
1272.491534
 21
281.102541
 31
0.0
  0
LINE
  5
1CE
330
18
100
AcDbEntity
  8
L-ZISSEN
100
AcDbLine
 10
1263.291534
 20
274.802541
 30
0.0
 11
1272.491534
 21
274.802541
 31
0.0
  0
LINE
  5
1CF
330
18
100
AcDbEntity
  8
L-ZISSEN
100
AcDbLine
 10
1263.291534
 20
274.802541
 30
0.0
 11
1263.291534
 21
281.102541
 31
0.0
  0
LINE
  5
1D0
330
18
100
AcDbEntity
  8
L-ZISSEN
100
AcDbLine
 10
1262.891534
 20
285.102541
 30
0.0
 11
1262.891534
 21
281.102541
 31
0.0
  0
LINE
  5
1D1
330
18
100
AcDbEntity
  8
L-ZISSEN
100
AcDbLine
 10
1312.891534
 20
285.102541
 30
0.0
 11
1312.891534
 21
281.102541
 31
0.0
  0
LINE
  5
1D2
330
18
100
AcDbEntity
  8
L-ZISSEN
100
AcDbLine
 10
1312.891534
 20
281.102541
 30
0.0
 11
1262.891534
 21
281.102541
 31
0.0
  0
LINE
  5
1D3
330
18
100
AcDbEntity
  8
L-ZISSEN
100
AcDbLine
 10
1267.091533999999
 20
420.9476229999999
 30
0.0
 11
1257.891534
 21
420.6263519999999
 31
0.0
  0
LINE
  5
1D4
330
18
100
AcDbEntity
  8
L-ZISSEN
100
AcDbLine
 10
1267.091533999999
 20
340.102541
 30
0.0
 11
1287.691534
 21
340.102541
 31
0.0
  0
LINE
  5
1D5
330
18
100
AcDbEntity
  8
L-ZISSEN
100
AcDbLine
 10
1267.091533999999
 20
422.102541
 30
0.0
 11
1287.691534
 21
422.102541
 31
0.0
  0
LINE
  5
1D6
330
18
100
AcDbEntity
  8
L-ZISSEN
  6
CONTINUOUS
 62
     7
100
AcDbLine
 10
1267.091533999999
 20
340.102541
 30
0.0
 11
1267.091533999999
 21
422.102541
 31
0.0
  0
LINE
  5
1D7
330
18
100
AcDbEntity
  8
L-ZISSEN
  6
CONTINUOUS
 62
     7
100
AcDbLine
 10
1287.691534
 20
340.102541
 30
0.0
 11
1287.691534
 21
422.102541
 31
0.0
  0
LINE
  5
1D8
330
18
100
AcDbEntity
  8
L-ZISSEN
  6
CONTINUOUS
 62
     7
100
AcDbLine
 10
1274.391534
 20
404.102541
 30
0.0
 11
1280.391534
 21
404.102541
 31
0.0
  0
LINE
  5
1D9
330
18
100
AcDbEntity
  8
L-ZISSEN
  6
CONTINUOUS
 62
     7
100
AcDbLine
 10
1274.391534
 20
358.102541
 30
0.0
 11
1274.391534
 21
404.102541
 31
0.0
  0
LINE
  5
1DA
330
18
100
AcDbEntity
  8
L-ZISSEN
  6
CONTINUOUS
 62
     7
100
AcDbLine
 10
1280.391534
 20
358.102541
 30
0.0
 11
1274.391534
 21
358.102541
 31
0.0
  0
LINE
  5
1DB
330
18
100
AcDbEntity
  8
L-ZISSEN
  6
CONTINUOUS
 62
     7
100
AcDbLine
 10
1280.391534
 20
404.102541
 30
0.0
 11
1280.391534
 21
358.102541
 31
0.0
  0
CIRCLE
  5
1DC
330
18
100
AcDbEntity
  8
L-ZISSEN
  6
CONTINUOUS
 62
     7
100
AcDbCircle
 10
1277.391534
 20
350.102541
 30
0.0
 40
4.5
  0
CIRCLE
  5
1DD
330
18
100
AcDbEntity
  8
L-ZISSEN
  6
CONTINUOUS
 62
     7
100
AcDbCircle
 10
1277.391534
 20
412.102541
 30
0.0
 40
4.5
  0
LINE
  5
1DE
330
18
100
AcDbEntity
  8
L-ZISSEN
  6
CONTINUOUS
 62
     7
100
AcDbLine
 10
1287.691534
 20
740.614184
 30
0.0
 11
1287.691534
 21
754.4141839999999
 31
0.0
  0
LINE
  5
1DF
330
18
100
AcDbEntity
  8
L-ZISSEN
  6
CONTINUOUS
 62
     7
100
AcDbLine
 10
1267.091533999999
 20
740.614184
 30
0.0
 11
1267.091533999999
 21
754.4141839999999
 31
0.0
  0
LINE
  5
1E0
330
18
100
AcDbEntity
  8
L-ZISSEN
  6
CONTINUOUS
 62
     7
100
AcDbLine
 10
1267.091533999999
 20
740.614184
 30
0.0
 11
1287.691534
 21
740.614184
 31
0.0
  0
LINE
  5
1E1
330
18
100
AcDbEntity
  8
L-ZISSEN
100
AcDbLine
 10
1262.291534
 20
433.102541
 30
0.0
 11
1260.391534
 21
433.102541
 31
0.0
  0
LINE
  5
1E2
330
18
100
AcDbEntity
  8
L-ZISSEN
100
AcDbLine
 10
1271.491534
 20
434.402541
 30
0.0
 11
1271.491534
 21
428.102541
 31
0.0
  0
LINE
  5
1E3
330
18
100
AcDbEntity
  8
L-ZISSEN
100
AcDbLine
 10
1271.491534
 20
434.402541
 30
0.0
 11
1262.291534
 21
434.402541
 31
0.0
  0
LINE
  5
1E4
330
18
100
AcDbEntity
  8
L-ZISSEN
100
AcDbLine
 10
1262.291534
 20
434.402541
 30
0.0
 11
1262.291534
 21
428.102541
 31
0.0
  0
ARC
  5
1E5
330
18
100
AcDbEntity
  8
L-ZISSEN
100
AcDbCircle
 10
1308.891534
 20
806.4141839999999
 30
0.0
 40
4.599999999999999
100
AcDbArc
 50
282.473704
 51
167.5262959999999
  0
ARC
  5
1E6
330
18
100
AcDbEntity
  8
L-ZISSEN
100
AcDbCircle
 10
1266.891534
 20
764.4141839999999
 30
0.0
 40
4.599999999999999
100
AcDbArc
 50
102.4737039999999
 51
347.526296
  0
CIRCLE
  5
1E7
330
18
100
AcDbEntity
  8
L-ZISSEN
100
AcDbCircle
 10
1287.891534
 20
785.4141839999999
 30
0.0
 40
25.0
  0
CIRCLE
  5
1E8
330
18
100
AcDbEntity
  8
L-ZISSEN
100
AcDbCircle
 10
1287.891534
 20
785.4141839999999
 30
0.0
 40
27.5
  0
LINE
  5
1E9
330
18
100
AcDbEntity
  8
L-ZISSEN
100
AcDbLine
 10
1311.258177
 20
799.914184
 30
0.0
 11
1315.391534
 21
799.914184
 31
0.0
  0
LINE
  5
1EA
330
18
100
AcDbEntity
  8
L-ZISSEN
100
AcDbLine
 10
1302.391534
 20
808.780827
 30
0.0
 11
1302.391534
 21
812.9141839999999
 31
0.0
  0
LINE
  5
1EB
330
18
100
AcDbEntity
  8
L-ZISSEN
100
AcDbLine
 10
1273.391534
 20
762.0475419999999
 30
0.0
 11
1273.391534
 21
757.914184
 31
0.0
  0
LINE
  5
1EC
330
18
100
AcDbEntity
  8
L-ZISSEN
100
AcDbLine
 10
1264.524891
 20
770.914184
 30
0.0
 11
1260.391534
 21
770.914184
 31
0.0
  0
ARC
  5
1ED
330
18
100
AcDbEntity
  8
L-ZISSEN
100
AcDbCircle
 10
1261.891534
 20
442.102541
 30
0.0
 40
1.0
100
AcDbArc
 50
90.0
 51
270.0
  0
ARC
  5
1EE
330
18
100
AcDbEntity
  8
L-ZISSEN
100
AcDbCircle
 10
1313.891534
 20
442.102541
 30
0.0
 40
1.0
100
AcDbArc
 50
270.0
 51
90.0
  0
LINE
  5
1EF
330
18
100
AcDbEntity
  8
L-ZISSEN
100
AcDbLine
 10
1313.891534
 20
443.102541
 30
0.0
 11
1261.891526
 21
443.102541
 31
0.0
  0
LINE
  5
1F0
330
18
100
AcDbEntity
  8
L-ZISSEN
100
AcDbLine
 10
1260.391534
 20
441.102541
 30
0.0
 11
1260.391534
 21
438.102541
 31
0.0
  0
LINE
  5
1F1
330
18
100
AcDbEntity
  8
L-ZISSEN
100
AcDbLine
 10
1315.391534
 20
441.102541
 30
0.0
 11
1315.391534
 21
438.102541
 31
0.0
  0
LINE
  5
1F2
330
18
100
AcDbEntity
  8
L-ZISSEN
100
AcDbLine
 10
1262.891534
 20
444.102541
 30
0.0
 11
1262.891534
 21
443.102541
 31
0.0
  0
LINE
  5
1F3
330
18
100
AcDbEntity
  8
L-ZISSEN
100
AcDbLine
 10
1312.891534
 20
444.102541
 30
0.0
 11
1312.891534
 21
443.102541
 31
0.0
  0
LINE
  5
1F4
330
18
100
AcDbEntity
  8
L-ZISSEN
100
AcDbLine
 10
1315.391534
 20
444.102541
 30
0.0
 11
1260.391534
 21
444.102541
 31
0.0
  0
LINE
  5
1F5
330
18
100
AcDbEntity
  8
L-ZISSEN
100
AcDbLine
 10
1315.391534
 20
441.102541
 30
0.0
 11
1260.391534
 21
441.102541
 31
0.0
  0
LINE
  5
1F6
330
18
100
AcDbEntity
  8
L-ZISSEN
100
AcDbLine
 10
1260.391534
 20
459.102541
 30
0.0
 11
1260.391534
 21
444.102541
 31
0.0
  0
LINE
  5
1F7
330
18
100
AcDbEntity
  8
L-ZISSEN
100
AcDbLine
 10
1315.391534
 20
459.102541
 30
0.0
 11
1315.391534
 21
444.102541
 31
0.0
  0
LINE
  5
1F8
330
18
100
AcDbEntity
  8
L-ZISSEN
100
AcDbLine
 10
1315.391534
 20
459.102541
 30
0.0
 11
1260.391534
 21
459.102541
 31
0.0
  0
LINE
  5
1F9
330
18
100
AcDbEntity
  8
L-ZISSEN
100
AcDbLine
 10
1315.391534
 20
438.102541
 30
0.0
 11
1260.391534
 21
438.102541
 31
0.0
  0
LINE
  5
1FA
330
18
100
AcDbEntity
  8
L-ZISSEN
100
AcDbLine
 10
1273.391534
 20
428.102541
 30
0.0
 11
1260.391534
 21
428.102541
 31
0.0
  0
LINE
  5
1FB
330
18
100
AcDbEntity
  8
L-ZISSEN
100
AcDbLine
 10
1273.391534
 20
433.102541
 30
0.0
 11
1273.391534
 21
428.102541
 31
0.0
  0
LINE
  5
1FC
330
18
100
AcDbEntity
  8
L-ZISSEN
100
AcDbLine
 10
1260.391534
 20
433.102541
 30
0.0
 11
1260.391534
 21
423.1025409999999
 31
0.0
  0
LINE
  5
1FD
330
18
100
AcDbEntity
  8
L-ZISSEN
100
AcDbLine
 10
1265.391534
 20
438.102541
 30
0.0
 11
1265.391534
 21
434.402541
 31
0.0
  0
LINE
  5
1FE
330
18
100
AcDbEntity
  8
L-ZISSEN
100
AcDbLine
 10
1315.391534
 20
433.102541
 30
0.0
 11
1315.391534
 21
423.1025409999999
 31
0.0
  0
LINE
  5
1FF
330
18
100
AcDbEntity
  8
L-ZISSEN
100
AcDbLine
 10
1310.391534
 20
438.102541
 30
0.0
 11
1310.391534
 21
433.102541
 31
0.0
  0
LINE
  5
200
330
18
100
AcDbEntity
  8
L-ZISSEN
100
AcDbLine
 10
1315.391534
 20
433.102541
 30
0.0
 11
1271.491534
 21
433.102541
 31
0.0
  0
LINE
  5
201
330
18
100
AcDbEntity
  8
L-ZISSEN
100
AcDbLine
 10
1256.391534
 20
353.102541
 30
0.0
 11
1256.391534
 21
288.102541
 31
0.0
  0
LINE
  5
202
330
18
100
AcDbEntity
  8
L-ZISSEN
100
AcDbLine
 10
1315.391534
 20
423.1025409999999
 30
0.0
 11
1260.391534
 21
423.1025409999999
 31
0.0
  0
LINE
  5
203
330
18
100
AcDbEntity
  8
L-ZISSEN
100
AcDbLine
 10
1313.891534
 20
285.102541
 30
0.0
 11
1261.891534
 21
285.102541
 31
0.0
  0
LINE
  5
204
330
18
100
AcDbEntity
  8
L-ZISSEN
100
AcDbLine
 10
1266.891534
 20
754.4141839999999
 30
0.0
 11
1304.255281
 21
754.4141839999999
 31
0.0
  0
LINE
  5
205
330
18
100
AcDbEntity
  8
L-ZISSEN
100
AcDbLine
 10
1256.391534
 20
868.4840259999999
 30
0.0
 11
1256.391534
 21
771.3443429999999
 31
0.0
  0
LINE
  5
206
330
18
100
AcDbEntity
  8
L-ZISSEN
100
AcDbLine
 10
1256.391534
 20
771.3443429999999
 30
0.0
 11
1257.891534
 21
771.291962
 31
0.0
  0
LINE
  5
207
330
18
100
AcDbEntity
  8
L-ZISSEN
100
AcDbLine
 10
1256.391534
 20
868.4840259999999
 30
0.0
 11
1257.891534
 21
868.536407
 31
0.0
  0
LINE
  5
208
330
18
100
AcDbEntity
  8
L-ZISSEN
100
AcDbLine
 10
1287.891534
 20
876.4856189999999
 30
0.0
 11
1257.891534
 21
875.4379960000001
 31
0.0
  0
LINE
  5
209
330
18
100
AcDbEntity
  8
L-ZISSEN
100
AcDbLine
 10
1332.891534
 20
874.914184
 30
0.0
 11
1287.891534
 21
876.4856189999999
 31
0.0
  0
LINE
  5
20A
330
18
100
AcDbEntity
  8
L-ZISSEN
100
AcDbLine
 10
1266.891534
 20
754.576086
 30
0.0
 11
1266.891534
 21
754.4141839999999
 31
0.0
  0
LINE
  5
20B
330
18
100
AcDbEntity
  8
L-ZISSEN
100
AcDbLine
 10
1266.891534
 20
754.576086
 30
0.0
 11
1257.891534
 21
754.8903730000001
 31
0.0
  0
LINE
  5
20C
330
18
100
AcDbEntity
  8
L-ZISSEN
100
AcDbLine
 10
1332.891534
 20
755.4141839999999
 30
0.0
 11
1304.255281
 21
754.4141839999999
 31
0.0
  0
LINE
  5
20D
330
18
100
AcDbEntity
  8
L-ZISSEN
100
AcDbLine
 10
1315.391534
 20
806.4141839999999
 30
0.0
 11
1315.391534
 21
785.4141839999999
 31
0.0
  0
LINE
  5
20E
330
18
100
AcDbEntity
  8
L-ZISSEN
100
AcDbLine
 10
1266.891534
 20
757.914184
 30
0.0
 11
1287.891534
 21
757.914184
 31
0.0
  0
LINE
  5
20F
330
18
100
AcDbEntity
  8
L-ZISSEN
100
AcDbLine
 10
1260.391534
 20
785.4141839999999
 30
0.0
 11
1260.391534
 21
764.4141839999999
 31
0.0
  0
ARC
  5
210
330
18
100
AcDbEntity
  8
L-ZISSEN
100
AcDbCircle
 10
1266.891534
 20
764.4141839999999
 30
0.0
 40
6.5
100
AcDbArc
 50
180.0
 51
270.0
  0
LINE
  5
211
330
18
100
AcDbEntity
  8
L-ZISSEN
100
AcDbLine
 10
1308.891534
 20
812.9141839999999
 30
0.0
 11
1287.891534
 21
812.9141839999999
 31
0.0
  0
ARC
  5
212
330
18
100
AcDbEntity
  8
L-ZISSEN
100
AcDbCircle
 10
1308.891534
 20
806.4141839999999
 30
0.0
 40
6.5
100
AcDbArc
 50
0.0
 51
90.0
  0
LINE
  5
213
330
18
100
AcDbEntity
  8
L-ZISSEN
100
AcDbLine
 10
1257.891534
 20
875.4379960000001
 30
0.0
 11
1257.891534
 21
754.8903730000001
 31
0.0
  0
LINE
  5
214
330
18
100
AcDbEntity
  8
L-ZISSEN
100
AcDbLine
 10
1332.891534
 20
874.914184
 30
0.0
 11
1332.891534
 21
755.4141839999999
 31
0.0
  0
LINE
  5
215
330
18
100
AcDbEntity
  8
L-ZISSEN
100
AcDbLine
 10
1257.891534
 20
353.102541
 30
0.0
 11
1256.391534
 21
353.102541
 31
0.0
  0
LINE
  5
216
330
18
100
AcDbEntity
  8
L-ZISSEN
100
AcDbLine
 10
1261.891534
 20
288.102541
 30
0.0
 11
1256.391534
 21
288.102541
 31
0.0
  0
LINE
  5
217
330
18
100
AcDbEntity
  8
L-ZISSEN
100
AcDbLine
 10
1261.891534
 20
319.439046
 30
0.0
 11
1261.891534
 21
285.102541
 31
0.0
  0
LINE
  5
218
330
18
100
AcDbEntity
  8
L-ZISSEN
100
AcDbLine
 10
1313.891534
 20
319.439046
 30
0.0
 11
1313.891534
 21
285.102541
 31
0.0
  0
LINE
  5
219
330
18
100
AcDbEntity
  8
L-ZISSEN
100
AcDbLine
 10
1287.891534
 20
318.531106
 30
0.0
 11
1257.891534
 21
319.578729
 31
0.0
  0
LINE
  5
21A
330
18
100
AcDbEntity
  8
L-ZISSEN
100
AcDbLine
 10
1332.891534
 20
320.102541
 30
0.0
 11
1287.891534
 21
318.531106
 31
0.0
  0
LINE
  5
21B
330
18
100
AcDbEntity
  8
L-ZISSEN
100
AcDbLine
 10
1274.709661
 20
423.1025409999999
 30
0.0
 11
1260.391534
 21
422.602541
 31
0.0
  0
LINE
  5
21C
330
18
100
AcDbEntity
  8
L-ZISSEN
100
AcDbLine
 10
1315.391534
 20
422.602541
 30
0.0
 11
1301.073408
 21
423.1025409999999
 31
0.0
  0
LINE
  5
21D
330
18
100
AcDbEntity
  8
L-ZISSEN
100
AcDbLine
 10
1287.891534
 20
421.673975
 30
0.0
 11
1287.691534
 21
421.666991
 31
0.0
  0
LINE
  5
21E
330
18
100
AcDbEntity
  8
L-ZISSEN
100
AcDbLine
 10
1332.891534
 20
420.102541
 30
0.0
 11
1287.891534
 21
421.673975
 31
0.0
  0
LINE
  5
21F
330
18
100
AcDbEntity
  8
L-ZISSEN
100
AcDbLine
 10
1332.891534
 20
420.102541
 30
0.0
 11
1332.891534
 21
320.102541
 31
0.0
  0
LINE
  5
220
330
18
100
AcDbEntity
  8
L-ZISSEN
100
AcDbLine
 10
1257.891534
 20
420.6263519999999
 30
0.0
 11
1257.891534
 21
319.578729
 31
0.0
  0
LINE
  5
221
330
18
100
AcDbEntity
  8
L-ZISSEN
100
AcDbLine
 10
1315.391534
 20
422.602541
 30
0.0
 11
1315.391534
 21
420.713654
 31
0.0
  0
LINE
  5
222
330
18
100
AcDbEntity
  8
L-ZISSEN
100
AcDbLine
 10
1260.391534
 20
422.602541
 30
0.0
 11
1260.391534
 21
420.713654
 31
0.0
  0
LINE
  5
223
330
18
100
AcDbEntity
  8
L-TYUSIN
  6
CENTER
 62
     1
100
AcDbLine
 10
727.050743
 20
501.7603599999999
 30
0.0
 11
727.050743
 21
224.942541
 31
0.0
  0
LINE
  5
224
330
18
100
AcDbEntity
  8
L-ZISSEN
  6
CONTINUOUS
 62
     7
100
AcDbLine
 10
1164.691534
 20
417.102541
 30
0.0
 11
1164.691534
 21
421.602541
 31
0.0
  0
LINE
  5
225
330
18
100
AcDbEntity
  8
L-ZISSEN
  6
CONTINUOUS
 62
     7
100
AcDbLine
 10
1044.091534
 20
417.102541
 30
0.0
 11
1044.091534
 21
421.602541
 31
0.0
  0
LINE
  5
226
330
18
100
AcDbEntity
  8
L-TYUSIN
  6
CENTER
 62
     1
100
AcDbLine
 10
971.4572699999999
 20
794.914184
 30
0.0
 11
952.8915119999998
 21
794.914184
 31
0.0
  0
LINE
  5
227
330
18
100
AcDbEntity
  8
L-ZISSEN
100
AcDbLine
 10
1154.977596
 20
865.500268
 30
0.0
 11
1164.391534
 21
874.914184
 31
0.0
  0
LINE
  5
228
330
18
100
AcDbEntity
  8
L-ZISSEN
100
AcDbLine
 10
1154.977596
 20
764.3281009999999
 30
0.0
 11
1164.391534
 21
754.9141839999999
 31
0.0
  0
LINE
  5
229
330
18
100
AcDbEntity
  8
L-ZISSEN
100
AcDbLine
 10
1053.805429
 20
764.3281009999999
 30
0.0
 11
1044.391534
 21
754.9141839999999
 31
0.0
  0
LINE
  5
22A
330
18
100
AcDbEntity
  8
L-ZISSEN
100
AcDbLine
 10
1044.391534
 20
874.914184
 30
0.0
 11
1053.805429
 21
865.500268
 31
0.0
  0
LINE
  5
22B
330
18
100
AcDbEntity
  8
L-ZISSEN
  6
CONTINUOUS
 62
     7
100
AcDbLine
 10
1154.977596
 20
829.907934
 30
0.0
 11
1154.977596
 21
764.3281009999999
 31
0.0
  0
LINE
  5
22C
330
18
100
AcDbEntity
  8
L-ZISSEN
  6
CONTINUOUS
 62
     7
100
AcDbLine
 10
1154.977596
 20
865.500268
 30
0.0
 11
1053.805429
 21
865.500268
 31
0.0
  0
LINE
  5
22D
330
18
100
AcDbEntity
  8
L-ZISSEN
  6
CONTINUOUS
 62
     7
100
AcDbLine
 10
1154.977596
 20
865.500268
 30
0.0
 11
1154.977596
 21
845.920435
 31
0.0
  0
LINE
  5
22E
330
18
100
AcDbEntity
  8
L-ZISSEN
  6
CONTINUOUS
 62
     7
100
AcDbLine
 10
1053.805429
 20
764.3281009999999
 30
0.0
 11
1053.805429
 21
865.500268
 31
0.0
  0
LINE
  5
22F
330
18
100
AcDbEntity
  8
L-ZISSEN
  6
CONTINUOUS
 62
     7
100
AcDbLine
 10
1053.805429
 20
764.3281009999999
 30
0.0
 11
1154.977596
 21
764.3281009999999
 31
0.0
  0
LINE
  5
230
330
18
100
AcDbEntity
  8
L-ZISSEN
  6
CONTINUOUS
 62
     7
100
AcDbLine
 10
695.5507429999999
 20
421.602541
 30
0.0
 11
646.8507429999999
 21
421.602541
 31
0.0
  0
LINE
  5
231
330
18
100
AcDbEntity
  8
L-ZISSEN
  6
CONTINUOUS
 62
     7
100
AcDbLine
 10
656.4646599999999
 20
518.102541
 30
0.0
 11
757.6368269999999
 21
518.102541
 31
0.0
  0
LINE
  5
232
330
18
100
AcDbEntity
  8
L-ZISSEN
  6
CONTINUOUS
 62
     7
100
AcDbLine
 10
646.8507429999999
 20
421.602541
 30
0.0
 11
646.8507429999999
 21
417.102541
 31
0.0
  0
LINE
  5
233
330
18
100
AcDbEntity
  8
L-ZISSEN
  6
CONTINUOUS
 62
     7
100
AcDbLine
 10
646.8507429999999
 20
421.5025409999999
 30
0.0
 11
646.8507429999999
 21
417.102541
 31
0.0
  0
LINE
  5
234
330
18
100
AcDbEntity
  8
L-ZISSEN
  6
CONTINUOUS
 62
     7
100
AcDbLine
 10
765.666732
 20
441.7025409999999
 30
0.0
 11
766.0175780000001
 21
421.602541
 31
0.0
  0
LINE
  5
235
330
18
100
AcDbEntity
  8
L-ZISSEN
  6
CONTINUOUS
 62
     7
100
AcDbLine
 10
767.2507429999999
 20
421.5025409999999
 30
0.0
 11
767.2507429999999
 21
417.102541
 31
0.0
  0
LINE
  5
236
330
18
100
AcDbEntity
  8
L-ZISSEN
  6
CONTINUOUS
 62
     7
100
AcDbLine
 10
767.2507429999999
 20
421.602541
 30
0.0
 11
767.2507429999999
 21
417.102541
 31
0.0
  0
LINE
  5
237
330
18
100
AcDbEntity
  8
L-ZISSEN
100
AcDbLine
 10
765.66714
 20
441.6992079999999
 30
0.0
 11
757.6368269999999
 21
518.102541
 31
0.0
  0
LINE
  5
238
330
18
100
AcDbEntity
  8
L-ZISSEN
  6
CONTINUOUS
 62
     7
100
AcDbLine
 10
767.2507429999999
 20
421.602541
 30
0.0
 11
758.9435530000001
 21
421.602541
 31
0.0
  0
LINE
  5
239
330
18
100
AcDbEntity
  8
L-ZISSEN
  6
CONTINUOUS
 62
     7
100
AcDbLine
 10
648.4347539999999
 20
441.7025409999999
 30
0.0
 11
648.0839079999999
 21
421.602541
 31
0.0
  0
LINE
  5
23A
330
18
100
AcDbEntity
  8
L-ZISSEN
100
AcDbLine
 10
648.4343459999999
 20
441.6992079999999
 30
0.0
 11
656.4646599999999
 21
518.102541
 31
0.0
  0
LINE
  5
23B
330
18
100
AcDbEntity
  8
L-ZISSEN
  6
CONTINUOUS
 62
     7
100
AcDbLine
 10
1256.891534
 20
874.914184
 30
0.0
 11
1256.891534
 21
868.5014859999999
 31
0.0
  0
LINE
  5
23C
330
18
100
AcDbEntity
  8
L-ZISSEN
100
AcDbLine
 10
1254.391534
 20
778.914184
 30
0.0
 11
1256.391534
 21
778.914184
 31
0.0
  0
LINE
  5
23D
330
18
100
AcDbEntity
  8
L-ZISSEN
100
AcDbLine
 10
1254.391534
 20
868.9141839999999
 30
0.0
 11
1256.391534
 21
868.9141839999999
 31
0.0
  0
LINE
  5
23E
330
18
100
AcDbEntity
  8
L-ZISSEN
  6
CONTINUOUS
 62
     7
100
AcDbLine
 10
1256.391534
 20
868.9141839999999
 30
0.0
 11
1256.391534
 21
778.914184
 31
0.0
  0
LINE
  5
23F
330
18
100
AcDbEntity
  8
L-ZISSEN
  6
CONTINUOUS
 62
     7
100
AcDbLine
 10
1260.491534
 20
233.6025409999999
 30
0.0
 11
1260.491534
 21
226.602541
 31
0.0
  0
LINE
  5
240
330
18
100
AcDbEntity
  8
L-ZISSEN
  6
CONTINUOUS
 62
     7
100
AcDbLine
 10
1260.491534
 20
233.6025409999999
 30
0.0
 11
1256.891534
 21
233.6025409999999
 31
0.0
  0
LINE
  5
241
330
18
100
AcDbEntity
  8
L-ZISSEN
  6
CONTINUOUS
 62
     7
100
AcDbLine
 10
1260.491534
 20
226.602541
 30
0.0
 11
1256.891534
 21
226.602541
 31
0.0
  0
LINE
  5
242
330
18
100
AcDbEntity
  8
L-ZISSEN
  6
CONTINUOUS
 62
     7
100
AcDbLine
 10
1260.491534
 20
260.602541
 30
0.0
 11
1256.891534
 21
260.602541
 31
0.0
  0
LINE
  5
243
330
18
100
AcDbEntity
  8
L-ZISSEN
  6
CONTINUOUS
 62
     7
100
AcDbLine
 10
1260.491534
 20
267.602541
 30
0.0
 11
1256.891534
 21
267.602541
 31
0.0
  0
LINE
  5
244
330
18
100
AcDbEntity
  8
L-ZISSEN
  6
CONTINUOUS
 62
     7
100
AcDbLine
 10
1260.491534
 20
267.602541
 30
0.0
 11
1260.491534
 21
260.602541
 31
0.0
  0
LINE
  5
245
330
18
100
AcDbEntity
  8
L-ZISSEN
  6
CONTINUOUS
 62
     7
100
AcDbLine
 10
1256.891534
 20
217.1025409999999
 30
0.0
 11
1256.391534
 21
217.1025409999999
 31
0.0
  0
LINE
  5
246
330
18
100
AcDbEntity
  8
L-ZISSEN
  6
CONTINUOUS
 62
     7
100
AcDbLine
 10
1256.891534
 20
277.102541
 30
0.0
 11
1256.391534
 21
277.102541
 31
0.0
  0
LINE
  5
247
330
18
100
AcDbEntity
  8
L-ZISSEN
  6
CONTINUOUS
 62
     7
100
AcDbLine
 10
1256.891534
 20
277.102541
 30
0.0
 11
1256.891534
 21
217.1025409999999
 31
0.0
  0
LINE
  5
248
330
18
100
AcDbEntity
  8
L-ZISSEN
100
AcDbLine
 10
1039.391534
 20
372.602541
 30
0.0
 11
1015.391533999999
 21
372.602541
 31
0.0
  0
LINE
  5
249
330
18
100
AcDbEntity
  8
L-ZISSEN
100
AcDbLine
 10
1039.391534
 20
416.602541
 30
0.0
 11
1015.391533999999
 21
416.602541
 31
0.0
  0
LINE
  5
24A
330
18
100
AcDbEntity
  8
L-ZISSEN
  6
CONTINUOUS
 62
     7
100
AcDbLine
 10
1256.391534
 20
339.102541
 30
0.0
 11
1254.391534
 21
339.102541
 31
0.0
  0
LINE
  5
24B
330
18
100
AcDbEntity
  8
L-ZISSEN
  6
CONTINUOUS
 62
     7
100
AcDbLine
 10
1256.391534
 20
215.1025409999999
 30
0.0
 11
1254.391534
 21
215.1025409999999
 31
0.0
  0
LINE
  5
24C
330
18
100
AcDbEntity
  8
L-ZISSEN
  6
CONTINUOUS
 62
     7
100
AcDbLine
 10
1256.391534
 20
339.102541
 30
0.0
 11
1256.391534
 21
215.1025409999999
 31
0.0
  0
LINE
  5
24D
330
18
100
AcDbEntity
  8
L-ZISSEN
  6
CONTINUOUS
 62
     7
100
AcDbLine
 10
1044.391534
 20
237.852846
 30
0.0
 11
1044.391534
 21
220.352235
 31
0.0
  0
LINE
  5
24E
330
18
100
AcDbEntity
  8
L-ZISSEN
100
AcDbLine
 10
1054.391534
 20
220.352235
 30
0.0
 11
1044.391534
 21
220.352235
 31
0.0
  0
LINE
  5
24F
330
18
100
AcDbEntity
  8
L-ZISSEN
100
AcDbLine
 10
1054.391534
 20
237.852846
 30
0.0
 11
1044.391534
 21
237.852846
 31
0.0
  0
LINE
  5
250
330
18
100
AcDbEntity
  8
L-ZISSEN
100
AcDbLine
 10
1054.391534
 20
345.352235
 30
0.0
 11
1044.391534
 21
345.352235
 31
0.0
  0
LINE
  5
251
330
18
100
AcDbEntity
  8
L-ZISSEN
100
AcDbLine
 10
1054.391534
 20
362.852846
 30
0.0
 11
1044.391534
 21
362.852846
 31
0.0
  0
LINE
  5
252
330
18
100
AcDbEntity
  8
L-ZISSEN
100
AcDbLine
 10
695.5507429999999
 20
362.852846
 30
0.0
 11
657.050743
 21
362.852846
 31
0.0
  0
LINE
  5
253
330
18
100
AcDbEntity
  8
L-ZISSEN
100
AcDbLine
 10
703.660365
 20
345.352235
 30
0.0
 11
657.050743
 21
345.352235
 31
0.0
  0
ARC
  5
254
330
18
100
AcDbEntity
  8
L-ZISSEN
100
AcDbCircle
 10
657.050743
 20
354.102541
 30
0.0
 40
8.750305
100
AcDbArc
 50
90.0
 51
270.0
  0
ARC
  5
255
330
18
100
AcDbEntity
  8
L-ZISSEN
100
AcDbCircle
 10
757.050743
 20
354.102541
 30
0.0
 40
8.750305
100
AcDbArc
 50
276.562
 51
77.507396
  0
ARC
  5
256
330
18
100
AcDbEntity
  8
L-ZISSEN
100
AcDbCircle
 10
757.050743
 20
229.102541
 30
0.0
 40
8.750305
100
AcDbArc
 50
270.0
 51
90.0
  0
ARC
  5
257
330
18
100
AcDbEntity
  8
L-ZISSEN
100
AcDbCircle
 10
657.050743
 20
229.102541
 30
0.0
 40
8.750305
100
AcDbArc
 50
90.0
 51
270.0
  0
LINE
  5
258
330
18
100
AcDbEntity
  8
L-ZISSEN
100
AcDbLine
 10
757.050743
 20
220.352235
 30
0.0
 11
657.050743
 21
220.352235
 31
0.0
  0
LINE
  5
259
330
18
100
AcDbEntity
  8
L-ZISSEN
100
AcDbLine
 10
757.050743
 20
237.852846
 30
0.0
 11
735.550743
 21
237.852846
 31
0.0
  0
LINE
  5
25A
330
18
100
AcDbEntity
  8
L-ZISSEN
  6
CONTINUOUS
 62
     7
100
AcDbLine
 10
1044.391534
 20
362.852846
 30
0.0
 11
1044.391534
 21
345.352235
 31
0.0
  0
LINE
  5
25B
330
18
100
AcDbEntity
  8
L-ZISSEN
  6
CONTINUOUS
 62
     7
100
AcDbLine
 10
1157.278285
 20
234.1025409999999
 30
0.0
 11
1151.504783
 21
234.1025409999999
 31
0.0
  0
LINE
  5
25C
330
18
100
AcDbEntity
  8
L-ZISSEN
  6
CONTINUOUS
 62
     7
100
AcDbLine
 10
1160.165037
 20
229.102541
 30
0.0
 11
1157.278285
 21
234.1025409999999
 31
0.0
  0
LINE
  5
25D
330
18
100
AcDbEntity
  8
L-ZISSEN
  6
CONTINUOUS
 62
     7
100
AcDbLine
 10
1157.278285
 20
224.102541
 30
0.0
 11
1160.165037
 21
229.102541
 31
0.0
  0
LINE
  5
25E
330
18
100
AcDbEntity
  8
L-ZISSEN
  6
CONTINUOUS
 62
     7
100
AcDbLine
 10
1151.504783
 20
224.102541
 30
0.0
 11
1157.278285
 21
224.102541
 31
0.0
  0
LINE
  5
25F
330
18
100
AcDbEntity
  8
L-ZISSEN
  6
CONTINUOUS
 62
     7
100
AcDbLine
 10
1148.618031
 20
229.102541
 30
0.0
 11
1151.504783
 21
224.102541
 31
0.0
  0
LINE
  5
260
330
18
100
AcDbEntity
  8
L-ZISSEN
  6
CONTINUOUS
 62
     7
100
AcDbLine
 10
1151.504783
 20
234.1025409999999
 30
0.0
 11
1148.618031
 21
229.102541
 31
0.0
  0
LINE
  5
261
330
18
100
AcDbEntity
  8
L-ZISSEN
  6
CONTINUOUS
 62
     7
100
AcDbLine
 10
1174.391534
 20
852.5264789999999
 30
0.0
 11
1164.059081
 21
848.2466369999999
 31
0.0
  0
LINE
  5
262
330
18
100
AcDbEntity
  8
L-ZISSEN
  6
CONTINUOUS
 62
     7
100
AcDbLine
 10
1184.723986999999
 20
848.2466369999999
 30
0.0
 11
1174.391534
 21
852.5264789999999
 31
0.0
  0
LINE
  5
263
330
18
100
AcDbEntity
  8
L-ZISSEN
  6
CONTINUOUS
 62
     7
100
AcDbLine
 10
1189.003829
 20
837.9141839999999
 30
0.0
 11
1184.723986999999
 21
848.2466369999999
 31
0.0
  0
LINE
  5
264
330
18
100
AcDbEntity
  8
L-ZISSEN
  6
CONTINUOUS
 62
     7
100
AcDbLine
 10
1184.723986999999
 20
827.5817319999999
 30
0.0
 11
1189.003829
 21
837.9141839999999
 31
0.0
  0
LINE
  5
265
330
18
100
AcDbEntity
  8
L-ZISSEN
  6
CONTINUOUS
 62
     7
100
AcDbLine
 10
1174.391534
 20
823.3018900000001
 30
0.0
 11
1184.723986999999
 21
827.5817319999999
 31
0.0
  0
LINE
  5
266
330
18
100
AcDbEntity
  8
L-ZISSEN
  6
CONTINUOUS
 62
     7
100
AcDbLine
 10
1164.059081
 20
827.5817319999999
 30
0.0
 11
1174.391534
 21
823.3018900000001
 31
0.0
  0
LINE
  5
267
330
18
100
AcDbEntity
  8
L-ZISSEN
  6
CONTINUOUS
 62
     7
100
AcDbLine
 10
1159.779239
 20
837.9141839999999
 30
0.0
 11
1164.059081
 21
827.5817319999999
 31
0.0
  0
LINE
  5
268
330
18
100
AcDbEntity
  8
L-ZISSEN
  6
CONTINUOUS
 62
     7
100
AcDbLine
 10
1164.059081
 20
848.2466369999999
 30
0.0
 11
1159.779239
 21
837.9141839999999
 31
0.0
  0
LINE
  5
269
330
18
100
AcDbEntity
  8
L-ZISSEN
  6
CONTINUOUS
 62
     7
100
AcDbLine
 10
1006.939239
 20
826.414184
 30
0.0
 11
980.8437849999998
 21
826.414184
 31
0.0
  0
LINE
  5
26A
330
18
100
AcDbEntity
  8
L-ZISSEN
  6
CONTINUOUS
 62
     7
100
AcDbLine
 10
1025.391512
 20
807.961912
 30
0.0
 11
1006.939239
 21
826.414184
 31
0.0
  0
LINE
  5
26B
330
18
100
AcDbEntity
  8
L-ZISSEN
  6
CONTINUOUS
 62
     7
100
AcDbLine
 10
1025.391512
 20
781.8664570000001
 30
0.0
 11
1025.391512
 21
807.961912
 31
0.0
  0
LINE
  5
26C
330
18
100
AcDbEntity
  8
L-ZISSEN
  6
CONTINUOUS
 62
     7
100
AcDbLine
 10
1006.939239
 20
763.4141839999999
 30
0.0
 11
1025.391512
 21
781.8664570000001
 31
0.0
  0
LINE
  5
26D
330
18
100
AcDbEntity
  8
L-ZISSEN
  6
CONTINUOUS
 62
     7
100
AcDbLine
 10
980.8437849999998
 20
763.4141839999999
 30
0.0
 11
1006.939239
 21
763.4141839999999
 31
0.0
  0
LINE
  5
26E
330
18
100
AcDbEntity
  8
L-ZISSEN
  6
CONTINUOUS
 62
     7
100
AcDbLine
 10
962.3915119999999
 20
781.8664570000001
 30
0.0
 11
980.8437849999998
 21
763.4141839999999
 31
0.0
  0
LINE
  5
26F
330
18
100
AcDbEntity
  8
L-ZISSEN
  6
CONTINUOUS
 62
     7
100
AcDbLine
 10
962.3915119999999
 20
807.961912
 30
0.0
 11
962.3915119999999
 21
781.8664570000001
 31
0.0
  0
LINE
  5
270
330
18
100
AcDbEntity
  8
L-ZISSEN
  6
CONTINUOUS
 62
     7
100
AcDbLine
 10
980.8437849999998
 20
826.414184
 30
0.0
 11
962.3915119999999
 21
807.961912
 31
0.0
  0
LINE
  5
271
330
18
100
AcDbEntity
  8
L-ZISSEN
  6
CONTINUOUS
 62
     7
100
AcDbLine
 10
1240.391534
 20
216.602541
 30
0.0
 11
1194.391534
 21
216.602541
 31
0.0
  0
LINE
  5
272
330
18
100
AcDbEntity
  8
L-ZISSEN
  6
CENTER
 62
     1
100
AcDbLine
 10
1154.391534
 20
210.992515
 30
0.0
 11
1154.391534
 21
247.212566
 31
0.0
  0
LINE
  5
273
330
18
100
AcDbEntity
  8
L-ZISSEN
  6
CENTER
 62
     1
100
AcDbLine
 10
1136.281509
 20
229.102541
 30
0.0
 11
1172.501559
 21
229.102541
 31
0.0
  0
LINE
  5
274
330
18
100
AcDbEntity
  8
L-ZISSEN
  6
CONTINUOUS
 62
     7
100
AcDbLine
 10
758.9435530000001
 20
440.102541
 30
0.0
 11
758.9435530000001
 21
445.5812209999999
 31
0.0
  0
LINE
  5
275
330
18
100
AcDbEntity
  8
L-ZISSEN
  6
CONTINUOUS
 62
     7
100
AcDbLine
 10
695.5507429999999
 20
440.102541
 30
0.0
 11
695.5507429999999
 21
445.5812209999999
 31
0.0
  0
LINE
  5
276
330
18
100
AcDbEntity
  8
L-ZISSEN
  6
CONTINUOUS
 62
     7
100
AcDbLine
 10
758.9435530000001
 20
440.102541
 30
0.0
 11
695.5507429999999
 21
440.102541
 31
0.0
  0
LINE
  5
277
330
18
100
AcDbEntity
  8
L-ZISSEN
  6
CONTINUOUS
 62
     7
100
AcDbLine
 10
747.4130629999999
 20
498.602541
 30
0.0
 11
748.050573
 21
462.102541
 31
0.0
  0
LINE
  5
278
330
18
100
AcDbEntity
  8
L-ZISSEN
  6
CONTINUOUS
 62
     7
100
AcDbLine
 10
706.6882329999999
 20
498.602541
 30
0.0
 11
706.050743
 21
462.1025309999999
 31
0.0
  0
LINE
  5
279
330
18
100
AcDbEntity
  8
L-ZISSEN
  6
CONTINUOUS
 62
     7
100
AcDbLine
 10
705.050883
 20
453.0812209999999
 30
0.0
 11
704.7973929999999
 21
445.8225409999999
 31
0.0
  0
LINE
  5
27A
330
18
100
AcDbEntity
  8
L-ZISSEN
  6
CONTINUOUS
 62
     7
100
AcDbLine
 10
749.050693
 20
453.0812209999999
 30
0.0
 11
749.304183
 21
445.8225309999999
 31
0.0
  0
LINE
  5
27B
330
18
100
AcDbEntity
  8
L-ZISSEN
  6
CONTINUOUS
 62
     7
100
AcDbLine
 10
758.9435530000001
 20
372.102541
 30
0.0
 11
695.5507429999999
 21
372.102541
 31
0.0
  0
LINE
  5
27C
330
18
100
AcDbEntity
  8
L-ZISSEN
  6
CONTINUOUS
 62
     7
100
AcDbLine
 10
758.9435530000001
 20
358.302541
 30
0.0
 11
695.5507429999999
 21
358.302541
 31
0.0
  0
LINE
  5
27D
330
18
100
AcDbEntity
  8
L-ZISSEN
  6
CONTINUOUS
 62
     7
100
AcDbLine
 10
745.050743
 20
417.102541
 30
0.0
 11
745.050743
 21
404.602571
 31
0.0
  0
LINE
  5
27E
330
18
100
AcDbEntity
  8
L-ZISSEN
  6
CONTINUOUS
 62
     7
100
AcDbLine
 10
749.050743
 20
402.6025609999999
 30
0.0
 11
745.050743
 21
404.602561
 31
0.0
  0
LINE
  5
27F
330
18
100
AcDbEntity
  8
L-ZISSEN
  6
CONTINUOUS
 62
     7
100
AcDbLine
 10
749.050743
 20
402.6025709999999
 30
0.0
 11
749.050743
 21
386.602541
 31
0.0
  0
LINE
  5
280
330
18
100
AcDbEntity
  8
L-ZISSEN
  6
CONTINUOUS
 62
     7
100
AcDbLine
 10
749.050733
 20
386.602541
 30
0.0
 11
745.050733
 21
384.602541
 31
0.0
  0
LINE
  5
281
330
18
100
AcDbEntity
  8
L-ZISSEN
  6
CONTINUOUS
 62
     7
100
AcDbLine
 10
745.050743
 20
384.602541
 30
0.0
 11
745.050743
 21
372.102541
 31
0.0
  0
LINE
  5
282
330
18
100
AcDbEntity
  8
L-ZISSEN
  6
CONTINUOUS
 62
     7
100
AcDbLine
 10
709.050743
 20
384.602541
 30
0.0
 11
709.050743
 21
372.102541
 31
0.0
  0
LINE
  5
283
330
18
100
AcDbEntity
  8
L-ZISSEN
  6
CONTINUOUS
 62
     7
100
AcDbLine
 10
709.050743
 20
384.602541
 30
0.0
 11
705.050743
 21
386.602541
 31
0.0
  0
LINE
  5
284
330
18
100
AcDbEntity
  8
L-ZISSEN
  6
CONTINUOUS
 62
     7
100
AcDbLine
 10
705.050743
 20
402.602521
 30
0.0
 11
705.050743
 21
386.602541
 31
0.0
  0
LINE
  5
285
330
18
100
AcDbEntity
  8
L-ZISSEN
  6
CONTINUOUS
 62
     7
100
AcDbLine
 10
709.050753
 20
404.602521
 30
0.0
 11
705.050743
 21
402.602521
 31
0.0
  0
LINE
  5
286
330
18
100
AcDbEntity
  8
L-ZISSEN
  6
CONTINUOUS
 62
     7
100
AcDbLine
 10
709.050743
 20
417.102541
 30
0.0
 11
709.050743
 21
404.602521
 31
0.0
  0
LINE
  5
287
330
18
100
AcDbEntity
  8
L-ZISSEN
  6
CONTINUOUS
 62
     7
100
AcDbLine
 10
758.9435530000001
 20
417.102541
 30
0.0
 11
695.5507429999999
 21
417.102541
 31
0.0
  0
LINE
  5
288
330
18
100
AcDbEntity
  8
L-ZISSEN
  6
CONTINUOUS
 62
     7
100
AcDbLine
 10
758.9435530000001
 20
431.0812209999999
 30
0.0
 11
695.5507429999999
 21
431.0812209999999
 31
0.0
  0
LINE
  5
289
330
18
100
AcDbEntity
  8
L-ZISSEN
  6
CONTINUOUS
 62
     7
100
AcDbLine
 10
758.9435530000001
 20
358.302541
 30
0.0
 11
758.9435530000001
 21
440.102541
 31
0.0
  0
LINE
  5
28A
330
18
100
AcDbEntity
  8
L-ZISSEN
  6
CONTINUOUS
 62
     7
100
AcDbLine
 10
695.5507429999999
 20
358.302541
 30
0.0
 11
695.5507429999999
 21
440.102541
 31
0.0
  0
LINE
  5
28B
330
18
100
AcDbEntity
  8
L-ZISSEN
  6
CONTINUOUS
 62
     7
100
AcDbLine
 10
758.9435530000001
 20
445.5812209999999
 30
0.0
 11
695.5507429999999
 21
445.5812209999999
 31
0.0
  0
LINE
  5
28C
330
18
100
AcDbEntity
  8
L-ZISSEN
  6
CONTINUOUS
 62
     7
100
AcDbLine
 10
705.050883
 20
453.0812209999999
 30
0.0
 11
749.0507029999999
 21
453.0812209999999
 31
0.0
  0
LINE
  5
28D
330
18
100
AcDbEntity
  8
L-ZISSEN
  6
CONTINUOUS
 62
     7
100
AcDbLine
 10
709.050743
 20
462.102541
 30
0.0
 11
709.050743
 21
453.0812209999999
 31
0.0
  0
LINE
  5
28E
330
18
100
AcDbEntity
  8
L-ZISSEN
  6
CONTINUOUS
 62
     7
100
AcDbLine
 10
745.0508029999999
 20
462.102541
 30
0.0
 11
745.0508029999999
 21
453.081211
 31
0.0
  0
LINE
  5
28F
330
18
100
AcDbEntity
  8
L-ZISSEN
  6
CONTINUOUS
 62
     7
100
AcDbLine
 10
748.050573
 20
462.102541
 30
0.0
 11
706.0507529999999
 21
462.102541
 31
0.0
  0
LINE
  5
290
330
18
100
AcDbEntity
  8
L-ZISSEN
  6
CONTINUOUS
 62
     7
100
AcDbLine
 10
747.4130629999999
 20
498.602541
 30
0.0
 11
706.6882429999999
 21
498.602541
 31
0.0
  0
LINE
  5
291
330
18
100
AcDbEntity
  8
L-ZISSEN
  6
CONTINUOUS
 62
     7
100
AcDbLine
 10
1025.391534
 20
372.102541
 30
0.0
 11
1025.391534
 21
350.102541
 31
0.0
  0
LINE
  5
292
330
18
100
AcDbEntity
  8
L-ZISSEN
  6
CONTINUOUS
 62
     7
100
AcDbLine
 10
1025.391534
 20
417.102541
 30
0.0
 11
1025.391534
 21
416.602541
 31
0.0
  0
LINE
  5
293
330
18
100
AcDbEntity
  8
L-ZISSEN
  6
CONTINUOUS
 62
     7
100
AcDbLine
 10
962.3915339999999
 20
417.102541
 30
0.0
 11
962.3915339999999
 21
440.102541
 31
0.0
  0
LINE
  5
294
330
18
100
AcDbEntity
  8
L-ZISSEN
  6
CONTINUOUS
 62
     7
100
AcDbLine
 10
962.3915339999999
 20
372.102541
 30
0.0
 11
962.3915339999999
 21
417.102541
 31
0.0
  0
LINE
  5
295
330
18
100
AcDbEntity
  8
L-ZISSEN
  6
CONTINUOUS
 62
     7
100
AcDbLine
 10
1025.391534
 20
440.102541
 30
0.0
 11
1025.391534
 21
417.102541
 31
0.0
  0
LINE
  5
296
330
18
100
AcDbEntity
  8
L-ZISSEN
  6
CONTINUOUS
 62
     7
100
AcDbLine
 10
962.3915339999999
 20
440.102541
 30
0.0
 11
962.3915339999999
 21
445.5812209999999
 31
0.0
  0
LINE
  5
297
330
18
100
AcDbEntity
  8
L-ZISSEN
  6
CONTINUOUS
 62
     7
100
AcDbLine
 10
962.3915339999999
 20
440.102541
 30
0.0
 11
1025.391534
 21
440.102541
 31
0.0
  0
LINE
  5
298
330
18
100
AcDbEntity
  8
L-ZISSEN
  6
CONTINUOUS
 62
     7
100
AcDbLine
 10
962.3915339999999
 20
358.302541
 30
0.0
 11
1025.391534
 21
358.302541
 31
0.0
  0
LINE
  5
299
330
18
100
AcDbEntity
  8
L-TYUSIN
  6
CENTER
 62
     1
100
AcDbLine
 10
993.8915339999999
 20
504.26034
 30
0.0
 11
993.8915339999999
 21
224.942541
 31
0.0
  0
LINE
  5
29A
330
18
100
AcDbEntity
  8
L-ZISSEN
  6
CONTINUOUS
 62
     7
100
AcDbLine
 10
962.3915339999999
 20
372.102541
 30
0.0
 11
1025.391534
 21
372.102541
 31
0.0
  0
LINE
  5
29B
330
18
100
AcDbEntity
  8
L-ZISSEN
  6
CONTINUOUS
 62
     7
100
AcDbLine
 10
962.3915339999999
 20
417.102541
 30
0.0
 11
1025.391534
 21
417.102541
 31
0.0
  0
LINE
  5
29C
330
18
100
AcDbEntity
  8
L-ZISSEN
  6
CONTINUOUS
 62
     7
100
AcDbLine
 10
1025.391534
 20
430.581211
 30
0.0
 11
962.3915339999999
 21
430.5812309999999
 31
0.0
  0
LINE
  5
29D
330
18
100
AcDbEntity
  8
L-ZISSEN
  6
CONTINUOUS
 62
     7
100
AcDbLine
 10
1025.391534
 20
445.5812209999999
 30
0.0
 11
1025.391534
 21
440.102541
 31
0.0
  0
LINE
  5
29E
330
18
100
AcDbEntity
  8
L-ZISSEN
  6
CONTINUOUS
 62
     7
100
AcDbLine
 10
962.3915339999999
 20
350.102541
 30
0.0
 11
962.3915339999999
 21
372.102541
 31
0.0
  0
LINE
  5
29F
330
18
100
AcDbEntity
  8
L-ZISSEN
  6
CONTINUOUS
 62
     7
100
AcDbLine
 10
1025.391534
 20
445.5812209999999
 30
0.0
 11
962.3915339999999
 21
445.5812209999999
 31
0.0
  0
LINE
  5
2A0
330
18
100
AcDbEntity
  8
L-ZISSEN
  6
CONTINUOUS
 62
     7
100
AcDbLine
 10
1015.891403999999
 20
453.0812209999999
 30
0.0
 11
1016.153314
 21
445.5812209999999
 31
0.0
  0
LINE
  5
2A1
330
18
100
AcDbEntity
  8
L-ZISSEN
  6
CONTINUOUS
 62
     7
100
AcDbLine
 10
971.8916039999999
 20
453.0812209999999
 30
0.0
 11
971.6296939999999
 21
445.5812309999999
 31
0.0
  0
LINE
  5
2A2
330
18
100
AcDbEntity
  8
L-ZISSEN
  6
CONTINUOUS
 62
     7
100
AcDbLine
 10
1015.891394
 20
453.0812209999999
 30
0.0
 11
971.8916039999999
 21
453.0812209999999
 31
0.0
  0
LINE
  5
2A3
330
18
100
AcDbEntity
  8
L-ZISSEN
  6
CONTINUOUS
 62
     7
100
AcDbLine
 10
1011.891533999999
 20
462.102541
 30
0.0
 11
1011.891533999999
 21
453.0812209999999
 31
0.0
  0
LINE
  5
2A4
330
18
100
AcDbEntity
  8
L-ZISSEN
  6
CONTINUOUS
 62
     7
100
AcDbLine
 10
975.8916239999999
 20
462.102541
 30
0.0
 11
975.8916339999998
 21
453.0812209999999
 31
0.0
  0
LINE
  5
2A5
330
18
100
AcDbEntity
  8
L-ZISSEN
  6
CONTINUOUS
 62
     7
100
AcDbLine
 10
972.8915539999999
 20
462.102541
 30
0.0
 11
1014.891374
 21
462.102541
 31
0.0
  0
LINE
  5
2A6
330
18
100
AcDbEntity
  8
L-ZISSEN
  6
CONTINUOUS
 62
     7
100
AcDbLine
 10
1014.253843999999
 20
498.602541
 30
0.0
 11
1014.891353999999
 21
462.102541
 31
0.0
  0
LINE
  5
2A7
330
18
100
AcDbEntity
  8
L-ZISSEN
  6
CONTINUOUS
 62
     7
100
AcDbLine
 10
973.5290439999999
 20
498.602541
 30
0.0
 11
972.8915539999999
 21
462.102541
 31
0.0
  0
LINE
  5
2A8
330
18
100
AcDbEntity
  8
L-ZISSEN
  6
CONTINUOUS
 62
     7
100
AcDbLine
 10
973.5290439999999
 20
498.602541
 30
0.0
 11
1014.253864
 21
498.602541
 31
0.0
  0
LINE
  5
2A9
330
18
100
AcDbEntity
  8
L-TYUSIN
  6
CENTER
 62
     1
100
AcDbLine
 10
1174.391534
 20
807.5701569999999
 30
0.0
 11
1174.391534
 21
865.5088919999998
 31
0.0
  0
LINE
  5
2AA
330
18
100
AcDbEntity
  8
L-TYUSIN
  6
CENTER
 62
     1
100
AcDbLine
 10
1201.986242
 20
837.9141839999999
 30
0.0
 11
1146.796826999999
 21
837.9141839999999
 31
0.0
  0
LINE
  5
2AB
330
18
100
AcDbEntity
  8
L-ZISSEN
  6
CONTINUOUS
 62
     7
100
AcDbLine
 10
1254.391534
 20
844.9141839999999
 30
0.0
 11
1254.391534
 21
779.9141839999999
 31
0.0
  0
LINE
  5
2AC
330
18
100
AcDbEntity
  8
L-ZISSEN
  6
CONTINUOUS
 62
     7
100
AcDbLine
 10
1254.391534
 20
247.102541
 30
0.0
 11
1254.391534
 21
211.1025409999999
 31
0.0
  0
LINE
  5
2AD
330
18
100
AcDbEntity
  8
L-ZISSEN
  6
CONTINUOUS
 62
     7
100
AcDbLine
 10
637.0507429999999
 20
362.102541
 30
0.0
 11
647.050743
 21
362.102541
 31
0.0
  0
LINE
  5
2AE
330
18
100
AcDbEntity
  8
L-ZISSEN
  6
CONTINUOUS
 62
     7
100
AcDbLine
 10
637.0507429999999
 20
346.102541
 30
0.0
 11
647.050743
 21
346.102541
 31
0.0
  0
LINE
  5
2AF
330
18
100
AcDbEntity
  8
L-ZISSEN
  6
CONTINUOUS
 62
     7
100
AcDbLine
 10
637.0507429999999
 20
221.1025409999999
 30
0.0
 11
647.050743
 21
221.1025409999999
 31
0.0
  0
LINE
  5
2B0
330
18
100
AcDbEntity
  8
L-ZISSEN
  6
CONTINUOUS
 62
     7
100
AcDbLine
 10
637.0507429999999
 20
237.102541
 30
0.0
 11
647.050743
 21
237.102541
 31
0.0
  0
LINE
  5
2B1
330
18
100
AcDbEntity
  8
L-ZISSEN
  6
CONTINUOUS
 62
     7
100
AcDbLine
 10
758.9435530000001
 20
417.102541
 30
0.0
 11
767.2507429999999
 21
417.102541
 31
0.0
  0
LINE
  5
2B2
330
18
100
AcDbEntity
  8
L-ZISSEN
  6
CONTINUOUS
 62
     7
100
AcDbLine
 10
647.050743
 20
417.102541
 30
0.0
 11
695.5507429999999
 21
417.102541
 31
0.0
  0
LINE
  5
2B3
330
18
100
AcDbEntity
  8
L-TYUSIN
  6
CENTER
 62
     1
100
AcDbLine
 10
740.0807809999999
 20
394.602541
 30
0.0
 11
714.020705
 21
394.602541
 31
0.0
  0
LINE
  5
2B4
330
18
100
AcDbEntity
  8
L-ZISSEN
  6
CONTINUOUS
 62
     7
100
AcDbLine
 10
647.050743
 20
211.1025409999999
 30
0.0
 11
767.050743
 21
211.1025409999999
 31
0.0
  0
LINE
  5
2B5
330
18
100
AcDbEntity
  8
L-TYUSIN
  6
CENTER
 62
     1
100
AcDbLine
 10
1174.391534
 20
567.917072
 30
0.0
 11
1174.391534
 21
514.5915629999999
 31
0.0
  0
LINE
  5
2B6
330
18
100
AcDbEntity
  8
L-ZISSEN
  6
CONTINUOUS
 62
     7
100
AcDbLine
 10
1114.391534
 20
216.602541
 30
0.0
 11
1068.391534
 21
216.602541
 31
0.0
  0
LINE
  5
2B7
330
18
100
AcDbEntity
  8
L-ZISSEN
  6
CONTINUOUS
 62
     7
100
AcDbLine
 10
1054.391534
 20
366.602541
 30
0.0
 11
1025.569925
 21
366.602541
 31
0.0
  0
LINE
  5
2B8
330
18
100
AcDbEntity
  8
L-ZISSEN
  6
CONTINUOUS
 62
     7
100
AcDbLine
 10
1180.742387
 20
411.102541
 30
0.0
 11
1168.040680999999
 21
411.102541
 31
0.0
  0
LINE
  5
2B9
330
18
100
AcDbEntity
  8
L-ZISSEN
  6
CONTINUOUS
 62
     7
100
AcDbLine
 10
1187.09324
 20
400.102541
 30
0.0
 11
1180.742387
 21
411.102541
 31
0.0
  0
LINE
  5
2BA
330
18
100
AcDbEntity
  8
L-ZISSEN
  6
CONTINUOUS
 62
     7
100
AcDbLine
 10
1180.742387
 20
389.102541
 30
0.0
 11
1187.09324
 21
400.102541
 31
0.0
  0
LINE
  5
2BB
330
18
100
AcDbEntity
  8
L-ZISSEN
  6
CONTINUOUS
 62
     7
100
AcDbLine
 10
1168.040680999999
 20
389.102541
 30
0.0
 11
1180.742387
 21
389.102541
 31
0.0
  0
LINE
  5
2BC
330
18
100
AcDbEntity
  8
L-ZISSEN
  6
CONTINUOUS
 62
     7
100
AcDbLine
 10
1161.689828
 20
400.102541
 30
0.0
 11
1168.040680999999
 21
389.102541
 31
0.0
  0
LINE
  5
2BD
330
18
100
AcDbEntity
  8
L-ZISSEN
  6
CONTINUOUS
 62
     7
100
AcDbLine
 10
1168.040680999999
 20
411.102541
 30
0.0
 11
1161.689828
 21
400.102541
 31
0.0
  0
LINE
  5
2BE
330
18
100
AcDbEntity
  8
L-ZISSEN
  6
CONTINUOUS
 62
     7
100
AcDbLine
 10
1197.121791999999
 20
551.102541
 30
0.0
 11
1151.66132
 21
551.102541
 31
0.0
  0
CIRCLE
  5
2BF
330
18
100
AcDbEntity
  8
L-ZISSEN
  6
CONTINUOUS
 62
     7
100
AcDbCircle
 10
1174.391534
 20
837.9141839999999
 30
0.0
 40
9.3155
  0
LINE
  5
2C0
330
18
100
AcDbEntity
  8
L-ZISSEN
  6
CONTINUOUS
 62
     7
100
AcDbLine
 10
1159.779260999999
 20
563.1025409999999
 30
0.0
 11
1189.003851
 21
563.1025409999999
 31
0.0
  0
LINE
  5
2C1
330
18
100
AcDbEntity
  8
L-ZISSEN
  6
CONTINUOUS
 62
     7
100
AcDbLine
 10
1159.779260999999
 20
522.102541
 30
0.0
 11
1189.003851
 21
522.102541
 31
0.0
  0
LINE
  5
2C2
330
18
100
AcDbEntity
  8
L-ZISSEN
  6
CONTINUOUS
 62
     7
100
AcDbLine
 10
1197.121791999999
 20
534.1025409999999
 30
0.0
 11
1151.66132
 21
534.1025409999999
 31
0.0
  0
CIRCLE
  5
2C3
330
18
100
AcDbEntity
  8
L-ZISSEN
  6
CONTINUOUS
 62
     7
100
AcDbCircle
 10
1083.891534
 20
328.102541
 30
0.0
 40
4.5
  0
LINE
  5
2C4
330
18
100
AcDbEntity
  8
L-ZISSEN
  6
CONTINUOUS
 62
     7
100
AcDbLine
 10
1079.391534
 20
327.502541
 30
0.0
 11
1079.431714
 21
327.502541
 31
0.0
  0
CIRCLE
  5
2C5
330
18
100
AcDbEntity
  8
L-ZISSEN
  6
CONTINUOUS
 62
     7
100
AcDbCircle
 10
1083.891534
 20
266.102541
 30
0.0
 40
4.5
  0
LINE
  5
2C6
330
18
100
AcDbEntity
  8
L-ZISSEN
  6
CONTINUOUS
 62
     7
100
AcDbLine
 10
1086.891534
 20
320.102541
 30
0.0
 11
1086.891534
 21
274.102541
 31
0.0
  0
LINE
  5
2C7
330
18
100
AcDbEntity
  8
L-ZISSEN
  6
CONTINUOUS
 62
     7
100
AcDbLine
 10
1086.891534
 20
274.102541
 30
0.0
 11
1080.891534
 21
274.102541
 31
0.0
  0
LINE
  5
2C8
330
18
100
AcDbEntity
  8
L-ZISSEN
  6
CONTINUOUS
 62
     7
100
AcDbLine
 10
1080.891534
 20
274.102541
 30
0.0
 11
1080.891534
 21
320.102541
 31
0.0
  0
LINE
  5
2C9
330
18
100
AcDbEntity
  8
L-ZISSEN
  6
CONTINUOUS
 62
     7
100
AcDbLine
 10
1080.891534
 20
320.102541
 30
0.0
 11
1086.891534
 21
320.102541
 31
0.0
  0
LINE
  5
2CA
330
18
100
AcDbEntity
  8
L-ZISSEN
  6
CONTINUOUS
 62
     7
100
AcDbLine
 10
1094.191534
 20
256.102541
 30
0.0
 11
1094.191534
 21
338.102541
 31
0.0
  0
LINE
  5
2CB
330
18
100
AcDbEntity
  8
L-ZISSEN
  6
CONTINUOUS
 62
     7
100
AcDbLine
 10
1073.591533999999
 20
256.102541
 30
0.0
 11
1073.591533999999
 21
338.102541
 31
0.0
  0
LINE
  5
2CC
330
18
100
AcDbEntity
  8
L-ZISSEN
  6
CONTINUOUS
 62
     7
100
AcDbLine
 10
1184.15898
 20
417.102541
 30
0.0
 11
1184.15898
 21
522.102541
 31
0.0
  0
LINE
  5
2CD
330
18
100
AcDbEntity
  8
L-ZISSEN
  6
CONTINUOUS
 62
     7
100
AcDbLine
 10
1164.691534
 20
417.102541
 30
0.0
 11
1164.691534
 21
522.102541
 31
0.0
  0
LINE
  5
2CE
330
18
100
AcDbEntity
  8
L-ZISSEN
  6
CONTINUOUS
 62
     7
100
AcDbLine
 10
1164.391534
 20
857.5101019999999
 30
0.0
 11
1164.391534
 21
870.346503
 31
0.0
  0
LINE
  5
2CF
330
18
100
AcDbEntity
  8
L-ZISSEN
  6
CONTINUOUS
 62
     7
100
AcDbLine
 10
1254.391534
 20
371.102541
 30
0.0
 11
1054.391534
 21
371.102541
 31
0.0
  0
LINE
  5
2D0
330
18
100
AcDbEntity
  8
L-ZISSEN
  6
CONTINUOUS
 62
     7
100
AcDbLine
 10
1254.391534
 20
372.102541
 30
0.0
 11
1039.391534
 21
372.102541
 31
0.0
  0
LINE
  5
2D2
330
18
100
AcDbEntity
  8
L-ZISSEN
  6
CONTINUOUS
 62
     7
100
AcDbLine
 10
1039.391534
 20
769.9141739999999
 30
0.0
 11
1013.439229
 21
769.9141739999999
 31
0.0
  0
LINE
  5
2D3
330
18
100
AcDbEntity
  8
L-ZISSEN
  6
CONTINUOUS
 62
     7
100
AcDbLine
 10
1039.391534
 20
819.9141950000001
 30
0.0
 11
1013.439229
 21
819.9141950000001
 31
0.0
  0
CIRCLE
  5
2D4
330
18
100
AcDbEntity
  8
L-ZISSEN
  6
CONTINUOUS
 62
     7
100
AcDbCircle
 10
993.8915119999998
 20
794.914184
 30
0.0
 40
13.0
  0
CIRCLE
  5
2D5
330
18
100
AcDbEntity
  8
L-ZISSEN
  6
CONTINUOUS
 62
     7
100
AcDbCircle
 10
993.8915119999998
 20
794.914184
 30
0.0
 40
20.0
  0
LINE
  5
2D6
330
18
100
AcDbEntity
  8
L-ZISSEN
  6
CONTINUOUS
 62
     7
100
AcDbLine
 10
1087.391534
 20
884.9141839999999
 30
0.0
 11
1087.391534
 21
874.914184
 31
0.0
  0
LINE
  5
2D7
330
18
100
AcDbEntity
  8
L-ZISSEN
  6
CONTINUOUS
 62
     7
100
AcDbLine
 10
1071.391534
 20
884.9141839999999
 30
0.0
 11
1071.391534
 21
874.914184
 31
0.0
  0
LINE
  5
2D8
330
18
100
AcDbEntity
  8
L-ZISSEN
  6
CONTINUOUS
 62
     7
100
AcDbLine
 10
1237.391534
 20
884.9141839999999
 30
0.0
 11
1237.391534
 21
874.914184
 31
0.0
  0
LINE
  5
2D9
330
18
100
AcDbEntity
  8
L-ZISSEN
  6
CONTINUOUS
 62
     7
100
AcDbLine
 10
1221.391534
 20
884.9141839999999
 30
0.0
 11
1221.391534
 21
874.914184
 31
0.0
  0
LINE
  5
2DA
330
18
100
AcDbEntity
  8
L-ZISSEN
  6
CONTINUOUS
 62
     7
100
AcDbLine
 10
1187.09324
 20
748.914184
 30
0.0
 11
1187.09324
 21
754.9141839999999
 31
0.0
  0
LINE
  5
2DB
330
18
100
AcDbEntity
  8
L-ZISSEN
  6
CONTINUOUS
 62
     7
100
AcDbLine
 10
1187.09324
 20
748.914184
 30
0.0
 11
1161.689828
 21
748.914184
 31
0.0
  0
CIRCLE
  5
2DC
330
18
100
AcDbEntity
  8
L-ZISSEN
  6
CONTINUOUS
 62
     7
100
AcDbCircle
 10
1244.391534
 20
764.9141839999999
 30
0.0
 40
6.5
  0
CIRCLE
  5
2DD
330
18
100
AcDbEntity
  8
L-ZISSEN
  6
CONTINUOUS
 62
     7
100
AcDbCircle
 10
1244.391534
 20
864.914184
 30
0.0
 40
6.5
  0
LINE
  5
2DE
330
18
100
AcDbEntity
  8
L-ZISSEN
  6
CONTINUOUS
 62
     7
100
AcDbLine
 10
1164.391534
 20
856.502285
 30
0.0
 11
1164.391534
 21
874.914184
 31
0.0
  0
LINE
  5
2DF
330
18
100
AcDbEntity
  8
L-ZISSEN
  6
CONTINUOUS
 62
     7
100
AcDbLine
 10
1254.391534
 20
754.9141839999999
 30
0.0
 11
1040.391534
 21
754.9141839999999
 31
0.0
  0
LINE
  5
2E0
330
18
100
AcDbEntity
  8
L-ZISSEN
  6
CONTINUOUS
 62
     7
100
AcDbLine
 10
1044.391534
 20
874.914184
 30
0.0
 11
1044.391534
 21
754.9141839999999
 31
0.0
  0
LINE
  5
2E1
330
18
100
AcDbEntity
  8
L-ZISSEN
  6
CONTINUOUS
 62
     7
100
AcDbLine
 10
1164.391534
 20
754.9141839999999
 30
0.0
 11
1164.391534
 21
819.326084
 31
0.0
  0
LINE
  5
2E2
330
18
100
AcDbEntity
  8
L-ZISSEN
  6
CONTINUOUS
 62
     7
100
AcDbLine
 10
1040.391534
 20
861.9141839999999
 30
0.0
 11
1040.391534
 21
874.914184
 31
0.0
  0
LINE
  5
2E3
330
18
100
AcDbEntity
  8
L-ZISSEN
  6
CONTINUOUS
 62
     7
100
AcDbLine
 10
1039.391534
 20
861.9141839999999
 30
0.0
 11
1040.391534
 21
861.9141839999999
 31
0.0
  0
LINE
  5
2E4
330
18
100
AcDbEntity
  8
L-ZISSEN
  6
CONTINUOUS
 62
     7
100
AcDbLine
 10
1039.391534
 20
769.914184
 30
0.0
 11
1039.391534
 21
861.9141839999999
 31
0.0
  0
LINE
  5
2E5
330
18
100
AcDbEntity
  8
L-ZISSEN
  6
CONTINUOUS
 62
     7
100
AcDbLine
 10
1039.391534
 20
769.914184
 30
0.0
 11
1040.391534
 21
769.914184
 31
0.0
  0
LINE
  5
2E6
330
18
100
AcDbEntity
  8
L-ZISSEN
  6
CONTINUOUS
 62
     7
100
AcDbLine
 10
1040.391534
 20
874.914184
 30
0.0
 11
1207.791534
 21
874.914184
 31
0.0
  0
LINE
  5
2E7
330
18
100
AcDbEntity
  8
L-ZISSEN
  6
CONTINUOUS
 62
     7
100
AcDbLine
 10
1040.391534
 20
754.9141839999999
 30
0.0
 11
1040.391534
 21
769.914184
 31
0.0
  0
LINE
  5
2E8
330
18
100
AcDbEntity
  8
L-ZISSEN
  6
CONTINUOUS
 62
     7
100
AcDbLine
 10
1254.391534
 20
874.914184
 30
0.0
 11
1254.391534
 21
754.9141839999999
 31
0.0
  0
LINE
  5
2E9
330
18
100
AcDbEntity
  8
L-TYUSIN
  6
CENTER
 62
     1
100
AcDbLine
 10
971.457292
 20
394.602541
 30
0.0
 11
952.8915339999999
 21
394.602541
 31
0.0
  0
CIRCLE
  5
2EA
330
18
100
AcDbEntity
  8
L-ZISSEN
  6
CONTINUOUS
 62
     7
100
AcDbCircle
 10
1174.391534
 20
400.102541
 30
0.0
 40
6.0
  0
LINE
  5
2EB
330
18
100
AcDbEntity
  8
L-ZISSEN
  6
CONTINUOUS
 62
     7
100
AcDbLine
 10
1054.391534
 20
372.102541
 30
0.0
 11
1054.391534
 21
211.1025409999999
 31
0.0
  0
LINE
  5
2EC
330
18
100
AcDbEntity
  8
L-ZISSEN
  6
CONTINUOUS
 62
     7
100
AcDbLine
 10
1114.391534
 20
211.1025409999999
 30
0.0
 11
1114.391534
 21
221.1025409999999
 31
0.0
  0
LINE
  5
2ED
330
18
100
AcDbEntity
  8
L-ZISSEN
  6
CONTINUOUS
 62
     7
100
AcDbLine
 10
1194.391534
 20
211.1025409999999
 30
0.0
 11
1114.391534
 21
211.1025409999999
 31
0.0
  0
LINE
  5
2EE
330
18
100
AcDbEntity
  8
L-ZISSEN
  6
CONTINUOUS
 62
     7
100
AcDbLine
 10
1194.391534
 20
211.1025409999999
 30
0.0
 11
1194.391534
 21
221.1025409999999
 31
0.0
  0
LINE
  5
2EF
330
18
100
AcDbEntity
  8
L-ZISSEN
  6
CONTINUOUS
 62
     7
100
AcDbLine
 10
1068.391534
 20
221.1025409999999
 30
0.0
 11
1142.902409
 21
221.1025409999999
 31
0.0
  0
LINE
  5
2F0
330
18
100
AcDbEntity
  8
L-ZISSEN
  6
CONTINUOUS
 62
     7
100
AcDbLine
 10
1068.391534
 20
211.1025409999999
 30
0.0
 11
1068.391534
 21
221.1025409999999
 31
0.0
  0
LINE
  5
2F1
330
18
100
AcDbEntity
  8
L-ZISSEN
  6
CONTINUOUS
 62
     7
100
AcDbLine
 10
1054.391534
 20
211.1025409999999
 30
0.0
 11
1068.391534
 21
211.1025409999999
 31
0.0
  0
LINE
  5
2F2
330
18
100
AcDbEntity
  8
L-ZISSEN
  6
CONTINUOUS
 62
     7
100
AcDbLine
 10
1240.391534
 20
221.1025409999999
 30
0.0
 11
1165.880658999999
 21
221.1025409999999
 31
0.0
  0
LINE
  5
2F3
330
18
100
AcDbEntity
  8
L-ZISSEN
  6
CONTINUOUS
 62
     7
100
AcDbLine
 10
1240.391534
 20
211.1025409999999
 30
0.0
 11
1240.391534
 21
221.1025409999999
 31
0.0
  0
CIRCLE
  5
2F4
330
18
100
AcDbEntity
  8
L-ZISSEN
  6
CONTINUOUS
 62
     7
100
AcDbCircle
 10
1154.391534
 20
229.102541
 30
0.0
 40
14.0
  0
LINE
  5
2F5
330
18
100
AcDbEntity
  8
L-ZISSEN
  6
CONTINUOUS
 62
     7
100
AcDbLine
 10
1254.391534
 20
211.1025409999999
 30
0.0
 11
1240.391534
 21
211.1025409999999
 31
0.0
  0
LINE
  5
2F6
330
18
100
AcDbEntity
  8
L-ZISSEN
  6
CONTINUOUS
 62
     7
100
AcDbLine
 10
1254.391534
 20
417.102541
 30
0.0
 11
1254.391534
 21
247.102541
 31
0.0
  0
LINE
  5
2F7
330
18
100
AcDbEntity
  8
L-ZISSEN
  6
CONTINUOUS
 62
     7
100
AcDbLine
 10
1054.391534
 20
371.102541
 30
0.0
 11
1054.391534
 21
372.102541
 31
0.0
  0
LINE
  5
2F8
330
18
100
AcDbEntity
  8
L-ZISSEN
  6
CONTINUOUS
 62
     7
100
AcDbLine
 10
1254.391534
 20
372.102541
 30
0.0
 11
1254.391534
 21
371.102541
 31
0.0
  0
LINE
  5
2F9
330
18
100
AcDbEntity
  8
L-ZISSEN
  6
CONTINUOUS
 62
     7
100
AcDbLine
 10
1039.391534
 20
417.102541
 30
0.0
 11
1254.391534
 21
417.102541
 31
0.0
  0
LINE
  5
2FA
330
18
100
AcDbEntity
  8
L-ZISSEN
  6
CONTINUOUS
 62
     7
100
AcDbLine
 10
1039.391534
 20
417.102541
 30
0.0
 11
1039.391534
 21
372.102541
 31
0.0
  0
LINE
  5
2FB
330
18
100
AcDbEntity
  8
L-ZISSEN
  6
CONTINUOUS
 62
     7
100
AcDbLine
 10
1035.391534
 20
416.602541
 30
0.0
 11
1035.391534
 21
372.602541
 31
0.0
  0
CIRCLE
  5
2FC
330
18
100
AcDbEntity
  8
L-ZISSEN
  6
CONTINUOUS
 62
     7
100
AcDbCircle
 10
1025.391534
 20
378.23746
 30
0.0
 40
3.5
  0
CIRCLE
  5
2FD
330
18
100
AcDbEntity
  8
L-ZISSEN
  6
CONTINUOUS
 62
     7
100
AcDbCircle
 10
1025.391534
 20
409.966666
 30
0.0
 40
3.5
  0
LINE
  5
2FE
330
18
100
AcDbEntity
  8
L-ZISSEN
  6
CONTINUOUS
 62
     7
100
AcDbLine
 10
1198.681735999999
 20
384.100149
 30
0.0
 11
1213.045106
 21
398.0159569999999
 31
0.0
  0
LINE
  5
2FF
330
18
100
AcDbEntity
  8
L-TYUSIN
  6
CENTER
 62
     1
100
AcDbLine
 10
684.050743
 20
567.7953379999999
 30
0.0
 11
684.050743
 21
513.9185789999999
 31
0.0
  0
LINE
  5
300
330
18
100
AcDbEntity
  8
L-ZISSEN
  6
CONTINUOUS
 62
     7
100
AcDbLine
 10
706.780979
 20
534.1025409999999
 30
0.0
 11
661.320507
 21
534.1025409999999
 31
0.0
  0
LINE
  5
301
330
18
100
AcDbEntity
  8
L-ZISSEN
  6
CONTINUOUS
 62
     7
100
AcDbLine
 10
670.5507429999999
 20
522.102541
 30
0.0
 11
697.550743
 21
522.102541
 31
0.0
  0
LINE
  5
302
330
18
100
AcDbEntity
  8
L-ZISSEN
  6
CONTINUOUS
 62
     7
100
AcDbLine
 10
670.5507429999999
 20
522.102541
 30
0.0
 11
670.5507429999999
 21
534.1025409999999
 31
0.0
  0
LINE
  5
303
330
18
100
AcDbEntity
  8
L-ZISSEN
  6
CONTINUOUS
 62
     7
100
AcDbLine
 10
697.550743
 20
522.102541
 30
0.0
 11
697.550743
 21
534.1025409999999
 31
0.0
  0
LINE
  5
304
330
18
100
AcDbEntity
  8
L-ZISSEN
  6
CONTINUOUS
 62
     7
100
AcDbLine
 10
697.550743
 20
563.1025409999999
 30
0.0
 11
697.550743
 21
551.102541
 31
0.0
  0
LINE
  5
305
330
18
100
AcDbEntity
  8
L-ZISSEN
  6
CONTINUOUS
 62
     7
100
AcDbLine
 10
670.5507429999999
 20
563.1025409999999
 30
0.0
 11
670.5507429999999
 21
551.102541
 31
0.0
  0
LINE
  5
306
330
18
100
AcDbEntity
  8
L-ZISSEN
  6
CONTINUOUS
 62
     7
100
AcDbLine
 10
670.5507429999999
 20
563.1025409999999
 30
0.0
 11
697.550743
 21
563.1025409999999
 31
0.0
  0
LINE
  5
307
330
18
100
AcDbEntity
  8
L-ZISSEN
  6
CONTINUOUS
 62
     7
100
AcDbLine
 10
706.780979
 20
551.102541
 30
0.0
 11
661.320507
 21
551.102541
 31
0.0
  0
LINE
  5
308
330
18
100
AcDbEntity
  8
L-ZISSEN
  6
CONTINUOUS
 62
     7
100
AcDbLine
 10
693.818189
 20
518.102541
 30
0.0
 11
693.818189
 21
522.102541
 31
0.0
  0
LINE
  5
309
330
18
100
AcDbEntity
  8
L-ZISSEN
  6
CONTINUOUS
 62
     7
100
AcDbLine
 10
674.350743
 20
518.102541
 30
0.0
 11
674.350743
 21
522.102541
 31
0.0
  0
LINE
  5
30A
330
18
100
AcDbEntity
  8
L-ZISSEN
  6
CONTINUOUS
 62
     7
100
AcDbLine
 10
767.050743
 20
372.102541
 30
0.0
 11
758.9435530000001
 21
372.102541
 31
0.0
  0
LINE
  5
30B
330
18
100
AcDbEntity
  8
L-ZISSEN
  6
CONTINUOUS
 62
     7
100
AcDbLine
 10
767.050743
 20
371.102541
 30
0.0
 11
758.9435530000001
 21
371.102541
 31
0.0
  0
LINE
  5
30C
330
18
100
AcDbEntity
  8
L-ZISSEN
  6
CONTINUOUS
 62
     7
100
AcDbLine
 10
695.5507429999999
 20
372.102541
 30
0.0
 11
647.050743
 21
372.102541
 31
0.0
  0
LINE
  5
30D
330
18
100
AcDbEntity
  8
L-ZISSEN
  6
CONTINUOUS
 62
     7
100
AcDbLine
 10
695.5507429999999
 20
371.102541
 30
0.0
 11
647.050743
 21
371.102541
 31
0.0
  0
LINE
  5
30E
330
18
100
AcDbEntity
  8
L-ZISSEN
  6
CONTINUOUS
 62
     7
100
AcDbLine
 10
984.0765799999999
 20
270.602541
 30
0.0
 11
1003.706489
 21
270.602541
 31
0.0
  0
LINE
  5
30F
330
18
100
AcDbEntity
  8
L-ZISSEN
  6
CONTINUOUS
 62
     7
100
AcDbLine
 10
1003.706489
 20
230.602541
 30
0.0
 11
984.0765799999999
 21
230.602541
 31
0.0
  0
LINE
  5
310
330
18
100
AcDbEntity
  8
L-ZISSEN
  6
CONTINUOUS
 62
     7
100
AcDbLine
 10
1003.706489
 20
270.1773129999999
 30
0.0
 11
1003.706489
 21
230.602541
 31
0.0
  0
LINE
  5
311
330
18
100
AcDbEntity
  8
L-ZISSEN
  6
CONTINUOUS
 62
     7
100
AcDbLine
 10
984.0765799999999
 20
270.1773129999999
 30
0.0
 11
984.0765799999999
 21
230.602541
 31
0.0
  0
LINE
  5
312
330
18
100
AcDbEntity
  8
L-ZISSEN
  6
CONTINUOUS
 62
     7
100
AcDbLine
 10
718.550743
 20
230.602541
 30
0.0
 11
735.550743
 21
230.602541
 31
0.0
  0
LINE
  5
313
330
18
100
AcDbEntity
  8
L-ZISSEN
  6
CONTINUOUS
 62
     7
100
AcDbLine
 10
718.550743
 20
230.602541
 30
0.0
 11
718.550743
 21
271.102541
 31
0.0
  0
LINE
  5
314
330
18
100
AcDbEntity
  8
L-ZISSEN
  6
CONTINUOUS
 62
     7
100
AcDbLine
 10
735.550743
 20
230.602541
 30
0.0
 11
735.550743
 21
271.102541
 31
0.0
  0
LINE
  5
315
330
18
100
AcDbEntity
  8
L-ZISSEN
  6
CONTINUOUS
 62
     7
100
AcDbLine
 10
1000.391534
 20
358.302541
 30
0.0
 11
1000.391534
 21
332.602541
 31
0.0
  0
LINE
  5
316
330
18
100
AcDbEntity
  8
L-ZISSEN
  6
CONTINUOUS
 62
     7
100
AcDbLine
 10
987.3915339999999
 20
358.302541
 30
0.0
 11
987.3915339999999
 21
332.602541
 31
0.0
  0
LINE
  5
317
330
18
100
AcDbEntity
  8
L-ZISSEN
  6
CONTINUOUS
 62
     7
100
AcDbLine
 10
987.3915339999999
 20
332.602541
 30
0.0
 11
1000.391534
 21
332.602541
 31
0.0
  0
LINE
  5
318
330
18
100
AcDbEntity
  8
L-ZISSEN
  6
CONTINUOUS
 62
     7
100
AcDbLine
 10
982.891534
 20
276.102541
 30
0.0
 11
984.0765799999999
 21
270.1773129999999
 31
0.0
  0
CIRCLE
  5
319
330
18
100
AcDbEntity
  8
L-ZISSEN
  6
CONTINUOUS
 62
     7
100
AcDbCircle
 10
993.8915339999999
 20
309.102541
 30
0.0
 40
11.0
  0
LINE
  5
31A
330
18
100
AcDbEntity
  8
L-ZISSEN
  6
CONTINUOUS
 62
     7
100
AcDbLine
 10
1004.891534
 20
276.102541
 30
0.0
 11
1003.706489
 21
270.1773129999999
 31
0.0
  0
LINE
  5
31B
330
18
100
AcDbEntity
  8
L-ZISSEN
  6
CONTINUOUS
 62
     7
100
AcDbLine
 10
972.0992259999999
 20
276.102541
 30
0.0
 11
970.391534
 21
350.102541
 31
0.0
  0
LINE
  5
31C
330
18
100
AcDbEntity
  8
L-ZISSEN
  6
CONTINUOUS
 62
     7
100
AcDbLine
 10
1015.683842
 20
276.102541
 30
0.0
 11
1017.391534
 21
350.102541
 31
0.0
  0
LINE
  5
31D
330
18
100
AcDbEntity
  8
L-ZISSEN
  6
CONTINUOUS
 62
     7
100
AcDbLine
 10
1015.683842
 20
276.102541
 30
0.0
 11
972.0992259999999
 21
276.102541
 31
0.0
  0
LINE
  5
31E
330
18
100
AcDbEntity
  8
L-ZISSEN
  6
CONTINUOUS
 62
     7
100
AcDbLine
 10
1000.391534
 20
350.102541
 30
0.0
 11
1025.391534
 21
350.102541
 31
0.0
  0
LINE
  5
31F
330
18
100
AcDbEntity
  8
L-ZISSEN
  6
CONTINUOUS
 62
     7
100
AcDbLine
 10
962.3915339999999
 20
350.102541
 30
0.0
 11
987.3915339999999
 21
350.102541
 31
0.0
  0
LINE
  5
320
330
18
100
AcDbEntity
  8
L-ZISSEN
  6
CONTINUOUS
 62
     7
100
AcDbLine
 10
758.0507129999999
 20
341.8525559999999
 30
0.0
 11
761.550743
 21
340.102541
 31
0.0
  0
LINE
  5
321
330
18
100
AcDbEntity
  8
L-ZISSEN
  6
CONTINUOUS
 62
     7
100
AcDbLine
 10
754.0507429999999
 20
339.102541
 30
0.0
 11
757.550743
 21
333.102541
 31
0.0
  0
LINE
  5
322
330
18
100
AcDbEntity
  8
L-ZISSEN
  6
CONTINUOUS
 62
     7
100
AcDbLine
 10
761.550743
 20
333.102541
 30
0.0
 11
761.550743
 21
340.102541
 31
0.0
  0
LINE
  5
323
330
18
100
AcDbEntity
  8
L-ZISSEN
  6
CONTINUOUS
 62
     7
100
AcDbLine
 10
761.550743
 20
333.102541
 30
0.0
 11
757.550743
 21
333.102541
 31
0.0
  0
LINE
  5
324
330
18
100
AcDbEntity
  8
L-ZISSEN
  6
CONTINUOUS
 62
     7
100
AcDbLine
 10
760.050743
 20
325.102541
 30
0.0
 11
760.050743
 21
289.102541
 31
0.0
  0
LINE
  5
325
330
18
100
AcDbEntity
  8
L-ZISSEN
  6
CONTINUOUS
 62
     7
100
AcDbLine
 10
755.050743
 20
285.102541
 30
0.0
 11
760.050743
 21
289.102541
 31
0.0
  0
ARC
  5
326
330
18
100
AcDbEntity
  8
L-ZISSEN
  6
CONTINUOUS
 62
     7
100
AcDbCircle
 10
750.0507429999999
 20
331.2205749999999
 30
0.0
 40
1.0
100
AcDbArc
 50
180.0
 51
243.434949
  0
LINE
  5
327
330
18
100
AcDbEntity
  8
L-ZISSEN
  6
CONTINUOUS
 62
     7
100
AcDbLine
 10
760.050743
 20
325.102541
 30
0.0
 11
749.603529
 21
330.326147
 31
0.0
  0
LINE
  5
328
330
18
100
AcDbEntity
  8
L-ZISSEN
  6
CONTINUOUS
 62
     7
100
AcDbLine
 10
754.0507429999999
 20
339.102541
 30
0.0
 11
758.0507129999999
 21
345.959632
 31
0.0
  0
LINE
  5
329
330
18
100
AcDbEntity
  8
L-ZISSEN
  6
CONTINUOUS
 62
     7
100
AcDbLine
 10
749.050743
 20
350.102541
 30
0.0
 11
749.050743
 21
285.102541
 31
0.0
  0
LINE
  5
32A
330
18
100
AcDbEntity
  8
L-ZISSEN
  6
CONTINUOUS
 62
     7
100
AcDbLine
 10
754.0507429999999
 20
328.102541
 30
0.0
 11
754.0507429999999
 21
339.102541
 31
0.0
  0
LINE
  5
32B
330
18
100
AcDbEntity
  8
L-ZISSEN
  6
CONTINUOUS
 62
     7
100
AcDbLine
 10
705.258435
 20
276.102541
 30
0.0
 11
748.8430509999999
 21
276.102541
 31
0.0
  0
LINE
  5
32C
330
18
100
AcDbEntity
  8
L-ZISSEN
  6
CONTINUOUS
 62
     7
100
AcDbLine
 10
717.050743
 20
271.102541
 30
0.0
 11
737.0507429999999
 21
271.102541
 31
0.0
  0
LINE
  5
32D
330
18
100
AcDbEntity
  8
L-ZISSEN
  6
CONTINUOUS
 62
     7
100
AcDbLine
 10
716.050743
 20
276.102541
 30
0.0
 11
717.050743
 21
271.102541
 31
0.0
  0
LINE
  5
32E
330
18
100
AcDbEntity
  8
L-ZISSEN
  6
CONTINUOUS
 62
     7
100
AcDbLine
 10
738.050743
 20
276.102541
 30
0.0
 11
737.0507429999999
 21
271.102541
 31
0.0
  0
LINE
  5
32F
330
18
100
AcDbEntity
  8
L-ZISSEN
  6
CONTINUOUS
 62
     7
100
AcDbLine
 10
749.050743
 20
285.102541
 30
0.0
 11
755.050743
 21
285.102541
 31
0.0
  0
LINE
  5
330
330
18
100
AcDbEntity
  8
L-ZISSEN
  6
CONTINUOUS
 62
     7
100
AcDbLine
 10
705.258435
 20
276.102541
 30
0.0
 11
703.550743
 21
350.102541
 31
0.0
  0
LINE
  5
331
330
18
100
AcDbEntity
  8
L-ZISSEN
  6
CONTINUOUS
 62
     7
100
AcDbLine
 10
758.050773
 20
350.102541
 30
0.0
 11
696.0507129999999
 21
350.102541
 31
0.0
  0
LINE
  5
332
330
18
100
AcDbEntity
  8
L-ZISSEN
  6
CONTINUOUS
 62
     7
100
AcDbLine
 10
748.8430509999999
 20
276.102541
 30
0.0
 11
749.050743
 21
285.102541
 31
0.0
  0
LINE
  5
333
330
18
100
AcDbEntity
  8
L-ZISSEN
  6
CONTINUOUS
 62
     7
100
AcDbLine
 10
758.0507129999999
 20
341.8525559999999
 30
0.0
 11
758.0507129999999
 21
358.302541
 31
0.0
  0
LINE
  5
334
330
18
100
AcDbEntity
  8
L-ZISSEN
  6
CONTINUOUS
 62
     7
100
AcDbLine
 10
696.0507129999999
 20
350.102541
 30
0.0
 11
696.0507129999999
 21
358.302541
 31
0.0
  0
LINE
  5
335
330
18
100
AcDbEntity
  8
L-ZISSEN
  6
CONTINUOUS
 62
     7
100
AcDbLine
 10
1025.391534
 20
372.602541
 30
0.0
 11
1025.391534
 21
372.102541
 31
0.0
  0
LINE
  5
336
330
18
100
AcDbEntity
  8
L-ZISSEN
  6
CONTINUOUS
 62
     7
100
AcDbLine
 10
1053.805451
 20
518.102541
 30
0.0
 11
1154.977617999999
 21
518.102541
 31
0.0
  0
LINE
  5
337
330
18
100
AcDbEntity
  8
L-ZISSEN
  6
CONTINUOUS
 62
     7
100
AcDbLine
 10
1045.775546
 20
441.7025409999999
 30
0.0
 11
1045.424699
 21
421.602541
 31
0.0
  0
LINE
  5
338
330
18
100
AcDbEntity
  8
L-ZISSEN
  6
CONTINUOUS
 62
     7
100
AcDbLine
 10
1015.391533999999
 20
416.602541
 30
0.0
 11
1015.391533999999
 21
372.602541
 31
0.0
  0
LINE
  5
339
330
18
100
AcDbEntity
  8
L-TYUSIN
  6
CENTER
 62
     1
100
AcDbLine
 10
632.050743
 20
229.102541
 30
0.0
 11
652.050743
 21
229.102541
 31
0.0
  0
LINE
  5
33A
330
18
100
AcDbEntity
  8
L-ZISSEN
  6
CONTINUOUS
 62
     7
100
AcDbLine
 10
767.050743
 20
211.1025409999999
 30
0.0
 11
767.050743
 21
388.602541
 31
0.0
  0
LINE
  5
33B
330
18
100
AcDbEntity
  8
L-ZISSEN
100
AcDbLine
 10
767.050743
 20
254.102541
 30
0.0
 11
769.050743
 21
254.102541
 31
0.0
  0
LINE
  5
33C
330
18
100
AcDbEntity
  8
L-ZISSEN
100
AcDbLine
 10
767.050743
 20
339.102541
 30
0.0
 11
769.050743
 21
339.102541
 31
0.0
  0
LINE
  5
33D
330
18
100
AcDbEntity
  8
L-ZISSEN
  6
CONTINUOUS
 62
     7
100
AcDbLine
 10
769.050743
 20
254.102541
 30
0.0
 11
769.050743
 21
339.102541
 31
0.0
  0
LINE
  5
33E
330
18
100
AcDbEntity
  8
L-ZISSEN
100
AcDbLine
 10
769.050743
 20
338.102541
 30
0.0
 11
782.850743
 21
338.102541
 31
0.0
  0
LINE
  5
33F
330
18
100
AcDbEntity
  8
L-ZISSEN
100
AcDbLine
 10
769.050743
 20
256.102541
 30
0.0
 11
782.850743
 21
256.102541
 31
0.0
  0
LINE
  5
340
330
18
100
AcDbEntity
  8
L-ZISSEN
  6
CONTINUOUS
 62
     7
100
AcDbLine
 10
782.850743
 20
256.102541
 30
0.0
 11
782.850743
 21
338.102541
 31
0.0
  0
LINE
  5
341
330
18
100
AcDbEntity
  8
L-ZISSEN
100
AcDbLine
 10
1073.591533999999
 20
338.102541
 30
0.0
 11
1094.191534
 21
338.102541
 31
0.0
  0
LINE
  5
342
330
18
100
AcDbEntity
  8
L-ZISSEN
100
AcDbLine
 10
1073.591533999999
 20
256.102541
 30
0.0
 11
1094.191534
 21
256.102541
 31
0.0
  0
LINE
  5
343
330
18
100
AcDbEntity
  8
L-ZISSEN
  6
CONTINUOUS
 62
     7
100
AcDbLine
 10
1072.391534
 20
754.9141839999999
 30
0.0
 11
1072.391534
 21
752.914184
 31
0.0
  0
LINE
  5
344
330
18
100
AcDbEntity
  8
L-ZISSEN
  6
CONTINUOUS
 62
     7
100
AcDbLine
 10
1161.689828
 20
752.914184
 30
0.0
 11
1072.391534
 21
752.914184
 31
0.0
  0
LINE
  5
345
330
18
100
AcDbEntity
  8
L-ZISSEN
  6
CONTINUOUS
 62
     7
100
AcDbLine
 10
1073.591533999999
 20
739.114184
 30
0.0
 11
1094.191534
 21
739.114184
 31
0.0
  0
LINE
  5
346
330
18
100
AcDbEntity
  8
L-ZISSEN
  6
CONTINUOUS
 62
     7
100
AcDbLine
 10
1073.591533999999
 20
739.114184
 30
0.0
 11
1073.591533999999
 21
752.914184
 31
0.0
  0
LINE
  5
347
330
18
100
AcDbEntity
  8
L-ZISSEN
  6
CONTINUOUS
 62
     7
100
AcDbLine
 10
1094.191534
 20
739.114184
 30
0.0
 11
1094.191534
 21
752.914184
 31
0.0
  0
LINE
  5
348
330
18
100
AcDbEntity
  8
L-ZISSEN
100
AcDbLine
 10
1161.689828
 20
748.914184
 30
0.0
 11
1161.689828
 21
754.9141839999999
 31
0.0
  0
LINE
  5
349
330
18
100
AcDbEntity
  8
L-ZISSEN
100
AcDbLine
 10
1158.31883
 20
853.9868890000001
 30
0.0
 11
1151.661298
 21
837.9141839999999
 31
0.0
  0
LINE
  5
34A
330
18
100
AcDbEntity
  8
L-ZISSEN
100
AcDbLine
 10
1151.661298
 20
837.9141839999999
 30
0.0
 11
1158.31883
 21
821.8414799999999
 31
0.0
  0
LINE
  5
34B
330
18
100
AcDbEntity
  8
L-ZISSEN
100
AcDbLine
 10
1158.31883
 20
821.8414799999999
 30
0.0
 11
1174.391534
 21
815.1839480000001
 31
0.0
  0
LINE
  5
34C
330
18
100
AcDbEntity
  8
L-ZISSEN
100
AcDbLine
 10
1174.391534
 20
815.1839480000001
 30
0.0
 11
1190.464238
 21
821.8414799999999
 31
0.0
  0
LINE
  5
34D
330
18
100
AcDbEntity
  8
L-ZISSEN
100
AcDbLine
 10
1190.464238
 20
821.8414799999999
 30
0.0
 11
1197.12177
 21
837.9141839999999
 31
0.0
  0
LINE
  5
34E
330
18
100
AcDbEntity
  8
L-ZISSEN
100
AcDbLine
 10
1197.12177
 20
837.9141839999999
 30
0.0
 11
1190.464238
 21
853.9868890000001
 31
0.0
  0
LINE
  5
34F
330
18
100
AcDbEntity
  8
L-ZISSEN
100
AcDbLine
 10
1190.464238
 20
853.9868890000001
 30
0.0
 11
1174.391534
 21
860.6444210000001
 31
0.0
  0
LINE
  5
350
330
18
100
AcDbEntity
  8
L-ZISSEN
100
AcDbLine
 10
1174.391534
 20
860.6444210000001
 30
0.0
 11
1158.31883
 21
853.9868890000001
 31
0.0
  0
LINE
  5
351
330
18
100
AcDbEntity
  8
L-ZISSEN
100
AcDbLine
 10
1189.003851
 20
563.1025409999999
 30
0.0
 11
1189.003851
 21
551.102541
 31
0.0
  0
LINE
  5
352
330
18
100
AcDbEntity
  8
L-ZISSEN
100
AcDbLine
 10
1159.779260999999
 20
563.1025409999999
 30
0.0
 11
1159.779260999999
 21
551.102541
 31
0.0
  0
LINE
  5
353
330
18
100
AcDbEntity
  8
L-ZISSEN
100
AcDbLine
 10
1151.66132
 20
551.102541
 30
0.0
 11
1151.66132
 21
534.1025409999999
 31
0.0
  0
LINE
  5
354
330
18
100
AcDbEntity
  8
L-ZISSEN
100
AcDbLine
 10
1197.121791999999
 20
551.102541
 30
0.0
 11
1197.121791999999
 21
534.1025409999999
 31
0.0
  0
LINE
  5
355
330
18
100
AcDbEntity
  8
L-ZISSEN
100
AcDbLine
 10
1159.779260999999
 20
522.102541
 30
0.0
 11
1159.779260999999
 21
534.1025409999999
 31
0.0
  0
LINE
  5
356
330
18
100
AcDbEntity
  8
L-ZISSEN
100
AcDbLine
 10
1189.003851
 20
522.102541
 30
0.0
 11
1189.003851
 21
534.1025409999999
 31
0.0
  0
LINE
  5
357
330
18
100
AcDbEntity
  8
L-TYUSIN
  6
CENTER
 62
     1
100
AcDbLine
 10
677.050743
 20
387.102541
 30
0.0
 11
677.050743
 21
413.102541
 31
0.0
  0
LINE
  5
358
330
18
100
AcDbEntity
  8
L-TYUSIN
  6
CENTER
 62
     1
100
AcDbLine
 10
664.050743
 20
400.102541
 30
0.0
 11
690.050743
 21
400.102541
 31
0.0
  0
LINE
  5
35A
330
18
100
AcDbEntity
  8
L-ZISSEN
  6
CONTINUOUS
 62
     7
100
AcDbLine
 10
1088.803077
 20
878.714184
 30
0.0
 11
1088.803077
 21
874.914184
 31
0.0
  0
LINE
  5
35B
330
18
100
AcDbEntity
  8
L-ZISSEN
  6
CONTINUOUS
 62
     7
100
AcDbLine
 10
1119.979990999999
 20
878.714184
 30
0.0
 11
1119.979990999999
 21
874.914184
 31
0.0
  0
CIRCLE
  5
35C
330
18
100
AcDbEntity
  8
L-ZISSEN
100
AcDbCircle
 10
727.050743
 20
394.602541
 30
0.0
 40
7.474999999999999
  0
LINE
  5
35D
330
18
100
AcDbEntity
  8
L-ZISSEN
100
AcDbLine
 10
1045.775136999999
 20
441.6992079999999
 30
0.0
 11
1053.805451
 21
518.102541
 31
0.0
  0
LINE
  5
35E
330
18
100
AcDbEntity
  8
L-ZISSEN
  6
CONTINUOUS
 62
     7
100
AcDbLine
 10
1164.691534
 20
421.602541
 30
0.0
 11
1044.091534
 21
421.602541
 31
0.0
  0
LINE
  5
35F
330
18
100
AcDbEntity
  8
L-ZISSEN
  6
CONTINUOUS
 62
     7
100
AcDbLine
 10
1163.007523
 20
441.7025409999999
 30
0.0
 11
1163.358369999999
 21
421.602541
 31
0.0
  0
LINE
  5
360
330
18
100
AcDbEntity
  8
L-ZISSEN
100
AcDbLine
 10
1163.007931
 20
441.6992079999999
 30
0.0
 11
1154.977617999999
 21
518.102541
 31
0.0
  0
LINE
  5
361
330
18
100
AcDbEntity
  8
L-ZISSEN
100
AcDbLine
 10
706.780979
 20
551.102541
 30
0.0
 11
706.780979
 21
534.1025409999999
 31
0.0
  0
LINE
  5
362
330
18
100
AcDbEntity
  8
L-ZISSEN
100
AcDbLine
 10
661.320507
 20
551.102541
 30
0.0
 11
661.320507
 21
534.1025409999999
 31
0.0
  0
LINE
  5
396
330
18
100
AcDbEntity
  8
L-ZISSEN
100
AcDbLine
 10
718.550743
 20
237.852846
 30
0.0
 11
657.050743
 21
237.852846
 31
0.0
  0
LINE
  5
3A1
330
18
100
AcDbEntity
  8
L-ZISSEN
100
AcDbLine
 10
1189.391534
 20
430.102541
 30
0.0
 11
1189.391534
 21
417.102541
 31
0.0
  0
LINE
  5
3A2
330
18
100
AcDbEntity
  8
L-ZISSEN
100
AcDbLine
 10
1229.391534
 20
430.102541
 30
0.0
 11
1229.391534
 21
417.102541
 31
0.0
  0
LINE
  5
3A3
330
18
100
AcDbEntity
  8
L-ZISSEN
100
AcDbLine
 10
1189.641534
 20
434.302541
 30
0.0
 11
1189.641534
 21
430.102541
 31
0.0
  0
LINE
  5
3A4
330
18
100
AcDbEntity
  8
L-ZISSEN
100
AcDbLine
 10
1229.141534
 20
434.302541
 30
0.0
 11
1229.141534
 21
430.102541
 31
0.0
  0
LINE
  5
3A5
330
18
100
AcDbEntity
  8
L-ZISSEN
  6
CONTINUOUS
 62
     7
100
AcDbLine
 10
1229.141534
 20
434.302541
 30
0.0
 11
1189.641534
 21
434.302541
 31
0.0
  0
LINE
  5
3A6
330
18
100
AcDbEntity
  8
L-ZISSEN
100
AcDbLine
 10
1214.141534
 20
484.302541
 30
0.0
 11
1214.141534
 21
459.8025409999999
 31
0.0
  0
CIRCLE
  5
3A7
330
18
100
AcDbEntity
  8
L-ZISSEN
100
AcDbCircle
 10
1221.141534
 20
764.4141839999999
 30
0.0
 40
3.5
  0
ARC
  5
3A8
330
18
100
AcDbEntity
  8
L-ZISSEN
100
AcDbCircle
 10
1197.641534
 20
835.414184
 30
0.0
 40
3.5
100
AcDbArc
 50
223.260921
 51
104.6751329999999
  0
LINE
  5
3A9
330
18
100
AcDbEntity
  8
L-ZISSEN
100
AcDbLine
 10
1204.641534
 20
835.414184
 30
0.0
 11
1204.641534
 21
842.414184
 31
0.0
  0
LINE
  5
3AA
330
18
100
AcDbEntity
  8
L-ZISSEN
100
AcDbLine
 10
1197.641534
 20
828.414184
 30
0.0
 11
1193.186742
 21
828.414184
 31
0.0
  0
LINE
  5
3AB
330
18
100
AcDbEntity
  8
L-ZISSEN
100
AcDbLine
 10
1221.141534
 20
771.4141839999999
 30
0.0
 11
1228.141534
 21
771.4141839999999
 31
0.0
  0
LINE
  5
3AC
330
18
100
AcDbEntity
  8
L-ZISSEN
100
AcDbLine
 10
1214.141534
 20
764.4141839999999
 30
0.0
 11
1214.141534
 21
757.414184
 31
0.0
  0
ARC
  5
3AD
330
18
100
AcDbEntity
  8
L-ZISSEN
100
AcDbCircle
 10
1221.141534
 20
764.4141839999999
 30
0.0
 40
7.0
100
AcDbArc
 50
90.0
 51
180.0
  0
ARC
  5
3AE
330
18
100
AcDbEntity
  8
L-ZISSEN
100
AcDbCircle
 10
1197.641534
 20
835.414184
 30
0.0
 40
7.0
100
AcDbArc
 50
270.0
 51
0.0
  0
LINE
  5
3AF
330
18
100
AcDbEntity
  8
L-ZISSEN
100
AcDbLine
 10
1224.962869
 20
771.4141839999999
 30
0.0
 11
1224.962869
 21
839.6029710000002
 31
0.0
  0
LINE
  5
3B0
330
18
100
AcDbEntity
  8
L-ZISSEN
100
AcDbLine
 10
1193.8202
 20
760.225398
 30
0.0
 11
1193.8202
 21
828.414184
 31
0.0
  0
LINE
  5
3B1
330
18
100
AcDbEntity
  8
L-ZISSEN
100
AcDbLine
 10
1214.141534
 20
760.225398
 30
0.0
 11
1193.8202
 21
760.225398
 31
0.0
  0
LINE
  5
3B2
330
18
100
AcDbEntity
  8
L-ZISSEN
100
AcDbLine
 10
1224.962869
 20
839.6029710000002
 30
0.0
 11
1204.641534
 21
839.6029710000002
 31
0.0
  0
LINE
  5
3B3
330
18
100
AcDbEntity
  8
L-ZISSEN
100
AcDbLine
 10
1227.473792999999
 20
455.602541
 30
0.0
 11
1224.962869
 21
484.302541
 31
0.0
  0
LINE
  5
3B4
330
18
100
AcDbEntity
  8
L-ZISSEN
100
AcDbLine
 10
1228.031553
 20
434.302541
 30
0.0
 11
1227.473792999999
 21
455.602541
 31
0.0
  0
LINE
  5
3B5
330
18
100
AcDbEntity
  8
L-ZISSEN
100
AcDbLine
 10
1191.309275
 20
455.602541
 30
0.0
 11
1193.8202
 21
484.302541
 31
0.0
  0
LINE
  5
3B6
330
18
100
AcDbEntity
  8
L-ZISSEN
100
AcDbLine
 10
1190.751515
 20
434.302541
 30
0.0
 11
1191.309275
 21
455.602541
 31
0.0
  0
LINE
  5
3B7
330
18
100
AcDbEntity
  8
L-ZISSEN
  6
CONTINUOUS
 62
     7
100
AcDbLine
 10
1229.391534
 20
430.102541
 30
0.0
 11
1189.391534
 21
430.102541
 31
0.0
  0
LINE
  5
3B8
330
18
100
AcDbEntity
  8
L-ZISSEN
  6
CONTINUOUS
 62
     7
100
AcDbLine
 10
1224.962869
 20
484.302541
 30
0.0
 11
1193.8202
 21
484.302541
 31
0.0
  0
LINE
  5
3B9
330
18
100
AcDbEntity
  8
L-ZISSEN
  6
CONTINUOUS
 62
     7
100
AcDbLine
 10
1227.106341
 20
459.8025409999999
 30
0.0
 11
1214.141534
 21
459.8025409999999
 31
0.0
  0
LINE
  5
3BA
330
18
100
AcDbEntity
  8
L-ZISSEN
  6
CONTINUOUS
 62
     7
100
AcDbLine
 10
1224.641534
 20
463.3095439999999
 30
0.0
 11
1224.641534
 21
459.8025409999999
 31
0.0
  0
LINE
  5
3BB
330
18
100
AcDbEntity
  8
L-ZISSEN
  6
CONTINUOUS
 62
     7
100
AcDbLine
 10
1224.641534
 20
463.3095439999999
 30
0.0
 11
1217.641534
 21
463.3095439999999
 31
0.0
  0
LINE
  5
3BC
330
18
100
AcDbEntity
  8
L-ZISSEN
  6
CONTINUOUS
 62
     7
100
AcDbLine
 10
1217.641534
 20
463.3095439999999
 30
0.0
 11
1217.641534
 21
459.8025409999999
 31
0.0
  0
LINE
  5
3BD
330
18
100
AcDbEntity
  8
L-ZISSEN
100
AcDbLine
 10
1190.641534
 20
822.2695099999999
 30
0.0
 11
1190.641534
 21
757.414184
 31
0.0
  0
LINE
  5
3BE
330
18
100
AcDbEntity
  8
L-ZISSEN
100
AcDbLine
 10
1228.141534
 20
842.414184
 30
0.0
 11
1228.141534
 21
757.414184
 31
0.0
  0
LINE
  5
3BF
330
18
100
AcDbEntity
  8
L-ZISSEN
100
AcDbLine
 10
1190.641534
 20
757.414184
 30
0.0
 11
1228.141534
 21
757.414184
 31
0.0
  0
LINE
  5
3C0
330
18
100
AcDbEntity
  8
L-ZISSEN
100
AcDbLine
 10
1195.257808999999
 20
842.414184
 30
0.0
 11
1228.141534
 21
842.414184
 31
0.0
  0
LINE
  5
3C1
330
18
100
AcDbEntity
  8
L-ZISSEN
100
AcDbLine
 10
1229.141534
 20
843.414184
 30
0.0
 11
1229.141534
 21
756.4141839999999
 31
0.0
  0
LINE
  5
3C2
330
18
100
AcDbEntity
  8
L-ZISSEN
100
AcDbLine
 10
1189.641534
 20
821.5007049999998
 30
0.0
 11
1189.641534
 21
756.4141839999999
 31
0.0
  0
LINE
  5
3C3
330
18
100
AcDbEntity
  8
L-ZISSEN
100
AcDbLine
 10
1229.141534
 20
843.414184
 30
0.0
 11
1194.843596
 21
843.414184
 31
0.0
  0
LINE
  5
3C4
330
18
100
AcDbEntity
  8
L-ZISSEN
100
AcDbLine
 10
1229.141534
 20
756.4141839999999
 30
0.0
 11
1189.641534
 21
756.4141839999999
 31
0.0
  0
LINE
  5
3C5
330
18
100
AcDbEntity
  8
L-ZISSEN
100
AcDbLine
 10
1207.791534
 20
895.2556509999999
 30
0.0
 11
1207.791534
 21
863.4141839999999
 31
0.0
  0
LINE
  5
3CD
330
18
100
AcDbEntity
  8
L-ZISSEN
100
AcDbLine
 10
1210.991534
 20
896.1489849999999
 30
0.0
 11
1210.991534
 21
863.4141839999999
 31
0.0
  0
LINE
  5
3CE
330
18
100
AcDbEntity
  8
L-ZISSEN
  6
CONTINUOUS
 62
     7
100
AcDbLine
 10
1210.991534
 20
874.914184
 30
0.0
 11
1256.891534
 21
874.914184
 31
0.0
  0
LINE
  5
3CF
330
18
100
AcDbEntity
  8
L-ZISSEN
  6
CONTINUOUS
 62
     7
100
AcDbLine
 10
1088.803077
 20
878.714184
 30
0.0
 11
1119.979990999999
 21
878.714184
 31
0.0
  0
LINE
  5
3D1
330
18
100
AcDbEntity
  8
L-ZISSEN
100
AcDbLine
 10
974.8915119999999
 20
721.4141839999999
 30
0.0
 11
1012.891512
 21
721.4141839999999
 31
0.0
  0
LINE
  5
3D2
330
18
100
AcDbEntity
  8
L-ZISSEN
100
AcDbLine
 10
1012.391511999999
 20
724.414184
 30
0.0
 11
1012.391511999999
 21
745.414184
 31
0.0
  0
LINE
  5
3D3
330
18
100
AcDbEntity
  8
L-ZISSEN
100
AcDbLine
 10
1012.391511999999
 20
745.414184
 30
0.0
 11
975.391512
 21
745.414184
 31
0.0
  0
LINE
  5
3D4
330
18
100
AcDbEntity
  8
L-ZISSEN
100
AcDbLine
 10
975.391512
 20
745.414184
 30
0.0
 11
975.391512
 21
724.414184
 31
0.0
  0
LINE
  5
3D5
330
18
100
AcDbEntity
  8
L-ZISSEN
100
AcDbLine
 10
974.8915119999999
 20
724.414184
 30
0.0
 11
1012.891512
 21
724.414184
 31
0.0
  0
LINE
  5
3D6
330
18
100
AcDbEntity
  8
L-ZISSEN
100
AcDbLine
 10
1002.391511999999
 20
754.4141839999999
 30
0.0
 11
985.3915119999999
 21
754.4141839999999
 31
0.0
  0
LINE
  5
3D7
330
18
100
AcDbEntity
  8
L-ZISSEN
100
AcDbLine
 10
999.8915119999999
 20
754.4141839999999
 30
0.0
 11
999.8915119999999
 21
745.414184
 31
0.0
  0
LINE
  5
3D8
330
18
100
AcDbEntity
  8
L-ZISSEN
100
AcDbLine
 10
987.891512
 20
754.4141839999999
 30
0.0
 11
987.891512
 21
745.414184
 31
0.0
  0
LINE
  5
3D9
330
18
100
AcDbEntity
  8
L-ZISSEN
100
AcDbLine
 10
1002.391511999999
 20
754.4141839999999
 30
0.0
 11
1002.391511999999
 21
759.4141839999999
 31
0.0
  0
LINE
  5
3DA
330
18
100
AcDbEntity
  8
L-ZISSEN
100
AcDbLine
 10
985.3915119999999
 20
754.4141839999999
 30
0.0
 11
985.3915119999999
 21
759.4141839999999
 31
0.0
  0
LINE
  5
3DB
330
18
100
AcDbEntity
  8
L-ZISSEN
100
AcDbLine
 10
1002.391511999999
 20
759.4141839999999
 30
0.0
 11
985.3915119999999
 21
759.4141839999999
 31
0.0
  0
LINE
  5
3DC
330
18
100
AcDbEntity
  8
L-ZISSEN
100
AcDbLine
 10
988.891512
 20
759.4141839999999
 30
0.0
 11
988.891512
 21
763.4141839999999
 31
0.0
  0
LINE
  5
3DD
330
18
100
AcDbEntity
  8
L-ZISSEN
100
AcDbLine
 10
998.8915119999999
 20
759.4141839999999
 30
0.0
 11
998.8915119999999
 21
763.4141839999999
 31
0.0
  0
LINE
  5
3DE
330
18
100
AcDbEntity
  8
L-ZISSEN
100
AcDbLine
 10
1012.891512
 20
721.4141839999999
 30
0.0
 11
1012.891512
 21
724.414184
 31
0.0
  0
LINE
  5
3DF
330
18
100
AcDbEntity
  8
L-ZISSEN
100
AcDbLine
 10
974.8915119999999
 20
724.414184
 30
0.0
 11
974.8915119999999
 21
721.4141839999999
 31
0.0
  0
LINE
  5
3E0
330
18
100
AcDbEntity
  8
L-ZISSEN
100
AcDbLine
 10
1190.391534
 20
715.914184
 30
0.0
 11
1190.391534
 21
712.9141839999999
 31
0.0
  0
LINE
  5
3E1
330
18
100
AcDbEntity
  8
L-ZISSEN
100
AcDbLine
 10
1228.391534
 20
712.9141839999999
 30
0.0
 11
1228.391534
 21
715.914184
 31
0.0
  0
LINE
  5
3E2
330
18
100
AcDbEntity
  8
L-ZISSEN
100
AcDbLine
 10
1217.891534
 20
750.9141839999999
 30
0.0
 11
1200.891534
 21
750.9141839999999
 31
0.0
  0
LINE
  5
3E3
330
18
100
AcDbEntity
  8
L-ZISSEN
100
AcDbLine
 10
1200.891534
 20
745.914184
 30
0.0
 11
1200.891534
 21
750.9141839999999
 31
0.0
  0
LINE
  5
3E4
330
18
100
AcDbEntity
  8
L-ZISSEN
100
AcDbLine
 10
1217.891534
 20
745.914184
 30
0.0
 11
1217.891534
 21
750.9141839999999
 31
0.0
  0
LINE
  5
3E5
330
18
100
AcDbEntity
  8
L-ZISSEN
100
AcDbLine
 10
1203.391534
 20
745.914184
 30
0.0
 11
1203.391534
 21
736.914184
 31
0.0
  0
LINE
  5
3E6
330
18
100
AcDbEntity
  8
L-ZISSEN
100
AcDbLine
 10
1215.391534
 20
745.914184
 30
0.0
 11
1215.391534
 21
736.914184
 31
0.0
  0
LINE
  5
3E7
330
18
100
AcDbEntity
  8
L-ZISSEN
100
AcDbLine
 10
1217.891534
 20
745.914184
 30
0.0
 11
1200.891534
 21
745.914184
 31
0.0
  0
LINE
  5
3E8
330
18
100
AcDbEntity
  8
L-ZISSEN
100
AcDbLine
 10
1190.391534
 20
715.914184
 30
0.0
 11
1228.391534
 21
715.914184
 31
0.0
  0
LINE
  5
3E9
330
18
100
AcDbEntity
  8
L-ZISSEN
100
AcDbLine
 10
1190.891534
 20
736.914184
 30
0.0
 11
1190.891534
 21
715.914184
 31
0.0
  0
LINE
  5
3EA
330
18
100
AcDbEntity
  8
L-ZISSEN
100
AcDbLine
 10
1227.891534
 20
736.914184
 30
0.0
 11
1190.891534
 21
736.914184
 31
0.0
  0
LINE
  5
3EB
330
18
100
AcDbEntity
  8
L-ZISSEN
100
AcDbLine
 10
1227.891534
 20
715.914184
 30
0.0
 11
1227.891534
 21
736.914184
 31
0.0
  0
LINE
  5
3EC
330
18
100
AcDbEntity
  8
L-ZISSEN
100
AcDbLine
 10
1190.391534
 20
712.9141839999999
 30
0.0
 11
1228.391534
 21
712.9141839999999
 31
0.0
  0
LINE
  5
3ED
330
18
100
AcDbEntity
  8
L-ZISSEN
100
AcDbLine
 10
1214.391534
 20
750.9141839999999
 30
0.0
 11
1214.391534
 21
754.9141839999999
 31
0.0
  0
LINE
  5
3EE
330
18
100
AcDbEntity
  8
L-ZISSEN
100
AcDbLine
 10
1204.391534
 20
750.9141839999999
 30
0.0
 11
1204.391534
 21
754.9141839999999
 31
0.0
  0
CIRCLE
  5
3EF
330
18
100
AcDbEntity
  8
L-ZISSEN
100
AcDbCircle
 10
1209.391534
 20
394.602541
 30
0.0
 40
19.0
  0
CIRCLE
  5
3F0
330
18
100
AcDbEntity
  8
L-ZISSEN
100
AcDbCircle
 10
993.8915339999999
 20
397.102521
 30
0.0
 40
19.0
  0
LINE
  5
3F1
330
18
100
AcDbEntity
  8
L-ZISSEN
  6
CONTINUOUS
 62
     7
100
AcDbLine
 10
983.1817359999998
 20
386.6001289999999
 30
0.0
 11
997.5451060000001
 21
400.515937
 31
0.0
  0
LINE
  5
402
330
18
100
AcDbEntity
  8
L-ZISSEN
100
AcDbLine
 10
797.943553
 20
378.102541
 30
0.0
 11
800.9435530000001
 21
378.102541
 31
0.0
  0
LINE
  5
403
330
18
100
AcDbEntity
  8
L-ZISSEN
100
AcDbLine
 10
800.9435530000001
 20
416.102541
 30
0.0
 11
797.943553
 21
416.102541
 31
0.0
  0
LINE
  5
404
330
18
100
AcDbEntity
  8
L-ZISSEN
100
AcDbLine
 10
762.9435530000001
 20
402.102541
 30
0.0
 11
758.9435530000001
 21
402.102541
 31
0.0
  0
LINE
  5
405
330
18
100
AcDbEntity
  8
L-ZISSEN
100
AcDbLine
 10
762.9435530000001
 20
392.102541
 30
0.0
 11
758.9435530000001
 21
392.102541
 31
0.0
  0
LINE
  5
406
330
18
100
AcDbEntity
  8
L-ZISSEN
100
AcDbLine
 10
762.9435530000001
 20
405.602541
 30
0.0
 11
762.9435530000001
 21
388.602541
 31
0.0
  0
LINE
  5
407
330
18
100
AcDbEntity
  8
L-ZISSEN
100
AcDbLine
 10
767.9435530000001
 20
388.602541
 30
0.0
 11
762.9435530000001
 21
388.602541
 31
0.0
  0
LINE
  5
408
330
18
100
AcDbEntity
  8
L-ZISSEN
100
AcDbLine
 10
767.9435530000001
 20
405.602541
 30
0.0
 11
762.9435530000001
 21
405.602541
 31
0.0
  0
LINE
  5
409
330
18
100
AcDbEntity
  8
L-ZISSEN
100
AcDbLine
 10
767.9435530000001
 20
391.102541
 30
0.0
 11
776.943553
 21
391.102541
 31
0.0
  0
LINE
  5
40A
330
18
100
AcDbEntity
  8
L-ZISSEN
100
AcDbLine
 10
767.9435530000001
 20
403.102541
 30
0.0
 11
776.943553
 21
403.102541
 31
0.0
  0
LINE
  5
40B
330
18
100
AcDbEntity
  8
L-ZISSEN
100
AcDbLine
 10
767.9435530000001
 20
405.602541
 30
0.0
 11
767.9435530000001
 21
388.602541
 31
0.0
  0
LINE
  5
40C
330
18
100
AcDbEntity
  8
L-ZISSEN
100
AcDbLine
 10
797.943553
 20
378.102541
 30
0.0
 11
797.943553
 21
416.102541
 31
0.0
  0
LINE
  5
40D
330
18
100
AcDbEntity
  8
L-ZISSEN
100
AcDbLine
 10
776.943553
 20
378.602541
 30
0.0
 11
797.943553
 21
378.602541
 31
0.0
  0
LINE
  5
40E
330
18
100
AcDbEntity
  8
L-ZISSEN
100
AcDbLine
 10
776.943553
 20
415.602541
 30
0.0
 11
776.943553
 21
378.602541
 31
0.0
  0
LINE
  5
40F
330
18
100
AcDbEntity
  8
L-ZISSEN
100
AcDbLine
 10
797.943553
 20
415.602541
 30
0.0
 11
776.943553
 21
415.602541
 31
0.0
  0
LINE
  5
410
330
18
100
AcDbEntity
  8
L-ZISSEN
100
AcDbLine
 10
800.9435530000001
 20
378.102541
 30
0.0
 11
800.9435530000001
 21
416.102541
 31
0.0
  0
LINE
  5
411
330
18
100
AcDbEntity
  8
L-ZISSEN
  6
CONTINUOUS
 62
     7
100
AcDbLine
 10
767.050743
 20
405.602541
 30
0.0
 11
767.050743
 21
417.102541
 31
0.0
  0
LINE
  5
41D
330
18
100
AcDbEntity
  8
L-ZISSEN
  6
CONTINUOUS
 62
     7
100
AcDbLine
 10
647.050743
 20
417.102541
 30
0.0
 11
647.050743
 21
211.1025409999999
 31
0.0
  0
LINE
  5
41E
330
18
100
AcDbEntity
  8
L-ZISSEN
100
AcDbLine
 10
665.5495599999999
 20
854.050913
 30
0.0
 11
686.5495599999999
 21
854.050913
 31
0.0
  0
LINE
  5
41F
330
18
100
AcDbEntity
  8
L-ZISSEN
100
AcDbLine
 10
686.5495599999999
 20
854.050913
 30
0.0
 11
686.5495599999999
 21
789.050913
 31
0.0
  0
LINE
  5
420
330
18
100
AcDbEntity
  8
L-ZISSEN
100
AcDbLine
 10
686.5495599999999
 20
794.050913
 30
0.0
 11
665.5495599999999
 21
794.050913
 31
0.0
  0
LINE
  5
421
330
18
100
AcDbEntity
  8
L-ZISSEN
100
AcDbLine
 10
665.5495599999999
 20
794.050913
 30
0.0
 11
665.5495599999999
 21
859.050913
 31
0.0
  0
LINE
  5
422
330
18
100
AcDbEntity
  8
L-ZISSEN
100
AcDbLine
 10
673.94956
 20
744.1521219999999
 30
0.0
 11
673.94956
 21
794.050913
 31
0.0
  0
LINE
  5
423
330
18
100
AcDbEntity
  8
L-ZISSEN
100
AcDbLine
 10
669.5495599999999
 20
744.3094809999999
 30
0.0
 11
669.5495599999999
 21
794.050913
 31
0.0
  0
LINE
  5
424
330
18
100
AcDbEntity
  8
L-ZISSEN
100
AcDbLine
 10
686.5495599999999
 20
789.050913
 30
0.0
 11
676.0495599999999
 21
789.050913
 31
0.0
  0
LINE
  5
425
330
18
100
AcDbEntity
  8
L-ZISSEN
100
AcDbLine
 10
676.0495599999999
 20
859.050913
 30
0.0
 11
676.0495599999999
 21
854.050913
 31
0.0
  0
LINE
  5
426
330
18
100
AcDbEntity
  8
L-ZISSEN
100
AcDbLine
 10
665.5495599999999
 20
859.050913
 30
0.0
 11
676.0495599999999
 21
859.050913
 31
0.0
  0
LINE
  5
427
330
18
100
AcDbEntity
  8
L-ZISSEN
100
AcDbLine
 10
676.0495599999999
 20
794.050913
 30
0.0
 11
676.0495599999999
 21
789.050913
 31
0.0
  0
LINE
  5
428
330
18
100
AcDbEntity
  8
L-ZISSEN
100
AcDbLine
 10
667.5495599999999
 20
852.050913
 30
0.0
 11
684.5495599999999
 21
852.050913
 31
0.0
  0
LINE
  5
429
330
18
100
AcDbEntity
  8
L-ZISSEN
100
AcDbLine
 10
684.5495599999999
 20
852.050913
 30
0.0
 11
684.5495599999999
 21
822.0509129999999
 31
0.0
  0
LINE
  5
42A
330
18
100
AcDbEntity
  8
L-ZISSEN
100
AcDbLine
 10
667.5495599999999
 20
822.0509129999999
 30
0.0
 11
667.5495599999999
 21
852.050913
 31
0.0
  0
LINE
  5
42B
330
18
100
AcDbEntity
  8
L-ZISSEN
100
AcDbLine
 10
667.5495599999999
 20
822.0509129999999
 30
0.0
 11
684.5495599999999
 21
822.0509129999999
 31
0.0
  0
LINE
  5
42C
330
18
100
AcDbEntity
  8
L-ZISSEN
100
AcDbLine
 10
645.5495599999999
 20
822.0509129999999
 30
0.0
 11
645.5495599999999
 21
854.050913
 31
0.0
  0
LINE
  5
42D
330
18
100
AcDbEntity
  8
L-ZISSEN
100
AcDbLine
 10
645.5495599999999
 20
854.050913
 30
0.0
 11
613.0495599999999
 21
854.050913
 31
0.0
  0
LINE
  5
42E
330
18
100
AcDbEntity
  8
L-ZISSEN
100
AcDbLine
 10
609.5495599999999
 20
789.050913
 30
0.0
 11
609.5495599999999
 21
859.050913
 31
0.0
  0
LINE
  5
42F
330
18
100
AcDbEntity
  8
L-ZISSEN
100
AcDbLine
 10
613.0495599999999
 20
794.050913
 30
0.0
 11
638.046983
 21
794.050913
 31
0.0
  0
LINE
  5
430
330
18
100
AcDbEntity
  8
L-ZISSEN
100
AcDbLine
 10
613.0495599999999
 20
789.050913
 30
0.0
 11
609.5495599999999
 21
789.050913
 31
0.0
  0
LINE
  5
431
330
18
100
AcDbEntity
  8
L-ZISSEN
100
AcDbLine
 10
613.0495599999999
 20
789.050913
 30
0.0
 11
613.0495599999999
 21
794.050913
 31
0.0
  0
LINE
  5
432
330
18
100
AcDbEntity
  8
L-ZISSEN
100
AcDbLine
 10
613.0495599999999
 20
854.050913
 30
0.0
 11
613.0495599999999
 21
859.050913
 31
0.0
  0
LINE
  5
433
330
18
100
AcDbEntity
  8
L-ZISSEN
100
AcDbLine
 10
609.5495599999999
 20
859.050913
 30
0.0
 11
613.0495599999999
 21
859.050913
 31
0.0
  0
LINE
  5
434
330
18
100
AcDbEntity
  8
L-ZISSEN
100
AcDbLine
 10
614.84956
 20
744.3094809999999
 30
0.0
 11
614.84956
 21
794.050913
 31
0.0
  0
LINE
  5
435
330
18
100
AcDbEntity
  8
L-ZISSEN
100
AcDbLine
 10
619.2495599999999
 20
744.1521219999999
 30
0.0
 11
619.2495599999999
 21
794.050913
 31
0.0
  0
LINE
  5
436
330
18
100
AcDbEntity
  8
L-ZISSEN
100
AcDbLine
 10
645.5495599999999
 20
822.0509129999999
 30
0.0
 11
638.046983
 21
794.050913
 31
0.0
  0
LINE
  5
437
330
18
100
AcDbEntity
  8
L-ZISSEN
100
AcDbLine
 10
634.5495599999999
 20
794.050913
 30
0.0
 11
634.5495599999999
 21
854.050913
 31
0.0
  0
LINE
  5
438
330
18
100
AcDbEntity
  8
L-ZISSEN
100
AcDbLine
 10
617.0495599999999
 20
744.2308009999999
 30
0.0
 11
615.9888999999999
 21
743.170141
 31
0.0
  0
LINE
  5
439
330
18
100
AcDbEntity
  8
L-ZISSEN
100
AcDbLine
 10
615.9888999999999
 20
743.170141
 30
0.0
 11
612.4533659999999
 21
746.705675
 31
0.0
  0
LINE
  5
43A
330
18
100
AcDbEntity
  8
L-ZISSEN
100
AcDbLine
 10
618.110221
 20
745.291462
 30
0.0
 11
621.645755
 21
741.755928
 31
0.0
  0
LINE
  5
43B
330
18
100
AcDbEntity
  8
L-ZISSEN
100
AcDbLine
 10
617.0495599999999
 20
744.2308009999999
 30
0.0
 11
618.110221
 21
745.291462
 31
0.0
  0
LINE
  5
43C
330
18
100
AcDbEntity
  8
L-ZISSEN
100
AcDbLine
 10
671.7495599999999
 20
744.2308009999999
 30
0.0
 11
670.6889
 21
743.170141
 31
0.0
  0
LINE
  5
43D
330
18
100
AcDbEntity
  8
L-ZISSEN
100
AcDbLine
 10
670.6889
 20
743.170141
 30
0.0
 11
667.153366
 21
746.705675
 31
0.0
  0
LINE
  5
43E
330
18
100
AcDbEntity
  8
L-ZISSEN
100
AcDbLine
 10
672.8102209999999
 20
745.291462
 30
0.0
 11
676.3457549999999
 21
741.755928
 31
0.0
  0
LINE
  5
43F
330
18
100
AcDbEntity
  8
L-ZISSEN
100
AcDbLine
 10
671.7495599999999
 20
744.2308009999999
 30
0.0
 11
672.8102209999999
 21
745.291462
 31
0.0
  0
LINE
  5
440
330
18
100
AcDbEntity
  8
L-ZISSEN
100
AcDbLine
 10
1211.391534
 20
863.4141839999999
 30
0.0
 11
1207.391534
 21
863.4141839999999
 31
0.0
  0
LINE
  5
441
330
18
100
AcDbEntity
  8
L-ZISSEN
100
AcDbLine
 10
1217.641534
 20
850.4141839999999
 30
0.0
 11
1201.141534
 21
850.4141839999999
 31
0.0
  0
LINE
  5
442
330
18
100
AcDbEntity
  8
L-ZISSEN
100
AcDbLine
 10
1201.141534
 20
858.4141839999999
 30
0.0
 11
1201.141534
 21
850.4141839999999
 31
0.0
  0
LINE
  5
443
330
18
100
AcDbEntity
  8
L-ZISSEN
100
AcDbLine
 10
1217.641534
 20
858.4141839999999
 30
0.0
 11
1217.641534
 21
850.4141839999999
 31
0.0
  0
LINE
  5
444
330
18
100
AcDbEntity
  8
L-ZISSEN
100
AcDbLine
 10
1217.641534
 20
848.4141839999999
 30
0.0
 11
1201.141534
 21
848.4141839999999
 31
0.0
  0
LINE
  5
445
330
18
100
AcDbEntity
  8
L-ZISSEN
100
AcDbLine
 10
1201.141534
 20
848.4141839999999
 30
0.0
 11
1201.141534
 21
843.414184
 31
0.0
  0
LINE
  5
446
330
18
100
AcDbEntity
  8
L-ZISSEN
100
AcDbLine
 10
1217.641534
 20
848.4141839999999
 30
0.0
 11
1217.641534
 21
843.414184
 31
0.0
  0
LINE
  5
447
330
18
100
AcDbEntity
  8
L-ZISSEN
100
AcDbLine
 10
1217.641534
 20
858.4141839999999
 30
0.0
 11
1201.141534
 21
858.4141839999999
 31
0.0
  0
LINE
  5
448
330
18
100
AcDbEntity
  8
L-ZISSEN
100
AcDbLine
 10
1203.391534
 20
859.414184
 30
0.0
 11
1203.391534
 21
858.4141839999999
 31
0.0
  0
LINE
  5
449
330
18
100
AcDbEntity
  8
L-ZISSEN
100
AcDbLine
 10
1215.391534
 20
859.414184
 30
0.0
 11
1215.391534
 21
858.4141839999999
 31
0.0
  0
ARC
  5
44A
330
18
100
AcDbEntity
  8
L-ZISSEN
100
AcDbCircle
 10
1207.391534
 20
859.414184
 30
0.0
 40
4.0
100
AcDbArc
 50
90.0
 51
180.0
  0
ARC
  5
44B
330
18
100
AcDbEntity
  8
L-ZISSEN
100
AcDbCircle
 10
1211.391534
 20
859.414184
 30
0.0
 40
4.0
100
AcDbArc
 50
0.0
 51
90.0
  0
LINE
  5
44C
330
18
100
AcDbEntity
  8
L-ZISSEN
100
AcDbLine
 10
1203.391534
 20
850.4141839999999
 30
0.0
 11
1203.391534
 21
848.4141839999999
 31
0.0
  0
LINE
  5
44D
330
18
100
AcDbEntity
  8
L-ZISSEN
100
AcDbLine
 10
1215.391534
 20
850.4141839999999
 30
0.0
 11
1215.391534
 21
848.4141839999999
 31
0.0
  0
LINE
  5
44E
330
18
100
AcDbEntity
  8
L-ZISSEN
100
AcDbLine
 10
1204.391534
 20
858.4141839999999
 30
0.0
 11
1204.391534
 21
850.4141839999999
 31
0.0
  0
LINE
  5
44F
330
18
100
AcDbEntity
  8
L-ZISSEN
100
AcDbLine
 10
1214.391534
 20
858.4141839999999
 30
0.0
 11
1214.391534
 21
850.4141839999999
 31
0.0
  0
LINE
  5
450
330
18
100
AcDbEntity
  8
L-ZISSEN
100
AcDbLine
 10
1204.391534
 20
848.4141839999999
 30
0.0
 11
1204.391534
 21
843.414184
 31
0.0
  0
LINE
  5
451
330
18
100
AcDbEntity
  8
L-ZISSEN
100
AcDbLine
 10
1214.391534
 20
848.4141839999999
 30
0.0
 11
1214.391534
 21
843.414184
 31
0.0
  0
CIRCLE
  5
4C7
330
18
100
AcDbEntity
  8
L-ZISSEN
100
AcDbCircle
 10
677.050743
 20
400.102541
 30
0.0
 40
9.3155
  0
LINE
  5
4CA
330
18
100
AcDbEntity
  8
L-ZISSEN
100
AcDbLine
 10
1205.024148
 20
894.4830900000001
 30
0.0
 11
1214.073644
 21
897.009407
 31
0.0
  0
LINE
  5
4CB
330
18
100
AcDbEntity
  8
L-ZISSEN
100
AcDbLine
 10
1204.709425
 20
895.6104579999999
 30
0.0
 11
1213.75892
 21
898.1367740000001
 31
0.0
  0
SOLID
  5
4CE
330
18
100
AcDbEntity
  8
L-ZISSEN
100
AcDbTrace
 10
961.2130229999999
 20
396.2524559999999
 30
0.0
 11
960.7416179999999
 21
395.7810519999999
 31
0.0
 12
962.3915339999999
 22
394.602541
 32
0.0
 13
962.3915339999999
 23
394.602541
 33
0.0
  0
LINE
  5
4CF
330
18
100
AcDbEntity
  8
L-ZISSEN
100
AcDbLine
 10
960.977321
 20
396.016754
 30
0.0
 11
919.965127
 21
437.0289469999999
 31
0.0
  0
LINE
  5
4D0
330
18
100
AcDbEntity
  8
L-ZISSEN
100
AcDbLine
 10
919.965127
 20
437.0289469999999
 30
0.0
 11
917.9651269999999
 21
437.0289469999999
 31
0.0
  0
LINE
  5
4D1
330
18
100
AcDbEntity
  8
L-ZISSEN
100
AcDbLine
 10
917.9651269999999
 20
437.0289469999999
 30
0.0
 11
831.5417940000001
 21
437.0289469999999
 31
0.0
  0
MTEXT
  5
4D2
330
18
100
AcDbEntity
  8
L-ZISSEN
100
AcDbMText
 10
917.8751269999999
 20
447.0289469999999
 30
0.0
 40
10.0
 41
0.0
 71
     6
 72
     1
  1
\A1;IN PORT Rc3/8
1001
ACAD
1000
MTEXTBEGIN
1070
    73
1070
     1
1070
    44
1040
1.0
1070
    74
1070
     0
1000
MTEXTEND
  0
SOLID
  5
4D3
330
18
100
AcDbEntity
  8
L-ZISSEN
100
AcDbTrace
 10
1176.04145
 20
564.2810519999999
 30
0.0
 11
1175.570044999999
 21
564.7524559999999
 31
0.0
 12
1174.391534
 22
563.1025409999999
 32
0.0
 13
1174.391534
 23
563.1025409999999
 33
0.0
  0
LINE
  5
4D4
330
18
100
AcDbEntity
  8
L-ZISSEN
100
AcDbLine
 10
1175.805747999999
 20
564.516754
 30
0.0
 11
1216.817941
 21
605.5289469999999
 31
0.0
  0
LINE
  5
4D5
330
18
100
AcDbEntity
  8
L-ZISSEN
100
AcDbLine
 10
1216.817941
 20
605.5289469999999
 30
0.0
 11
1218.817941
 21
605.5289469999999
 31
0.0
  0
LINE
  5
4D6
330
18
100
AcDbEntity
  8
L-ZISSEN
100
AcDbLine
 10
1218.817941
 20
605.5289469999999
 30
0.0
 11
1340.241274
 21
605.5289469999999
 31
0.0
  0
MTEXT
  5
4D7
330
18
100
AcDbEntity
  8
L-ZISSEN
100
AcDbMText
 10
1218.907941
 20
615.528947
 30
0.0
 40
10.0
 41
0.0
 71
     4
 72
     1
  1
\A1;FOG OUT PORT Rc1/2
1001
ACAD
1000
MTEXTBEGIN
1070
    73
1070
     1
1070
    44
1040
1.0
1070
    74
1070
     0
1000
MTEXTEND
  0
TEXT
  5
4D8
330
18
100
AcDbEntity
  8
L-ZISSEN
100
AcDbText
 10
589.4229239999999
 20
687.9373059999998
 30
0.0
 40
10.0
  1
DRIP MONITOR AMP
 41
0.7
100
AcDbText
  0
TEXT
  5
4DA
330
18
100
AcDbEntity
  8
L-ZISSEN
100
AcDbText
 10
178.064756
 20
838.274919
 30
0.0
 40
10.0
  1
MODEL No.
 41
0.7
100
AcDbText
  0
TEXT
  5
4DB
330
18
100
AcDbEntity
  8
L-ZISSEN
100
AcDbText
 10
178.064756
 20
813.274919
 30
0.0
 40
10.0
  1
MC5-A2L4-3D130
 41
0.7
100
AcDbText
  0
TEXT
  5
4DC
330
18
100
AcDbEntity
  8
L-ZISSEN
100
AcDbText
 10
178.064756
 20
788.2749190000001
 30
0.0
 40
10.0
  1
DXF.No.TM0502
 41
0.7
100
AcDbText
  0
ENDSEC
  0
SECTION
  2
OBJECTS
  0
DICTIONARY
  5
C
330
0
100
AcDbDictionary
  3
ACAD_GROUP
350
D
  3
ACAD_LAYOUT
350
4F6
  3
ACAD_MLINESTYLE
350
E
  3
ACAD_PLOTSETTINGS
350
4F7
1001
ACAD
1000
TREAT_AS_HARD
1070
     0
  0
DICTIONARY
  5
4FF
330
18
100
AcDbDictionary
  3
ACAD_LAYOUTSELFREF
350
500
  0
DICTIONARY
  5
4FD
330
15
100
AcDbDictionary
  3
ACAD_LAYOUTSELFREF
350
4FE
  0
DICTIONARY
  5
D
102
{ACAD_REACTORS
330
C
102
}
330
0
100
AcDbDictionary
1001
ACAD
1000
TREAT_AS_HARD
1070
     0
  0
DICTIONARY
  5
4F6
102
{ACAD_REACTORS
330
C
102
}
330
C
100
AcDbDictionary
1001
ACAD
1000
TREAT_AS_HARD
1070
     0
  0
DICTIONARY
  5
E
102
{ACAD_REACTORS
330
C
102
}
330
0
100
AcDbDictionary
  3
STANDARD
350
1B
1001
ACAD
1000
TREAT_AS_HARD
1070
     0
  0
DICTIONARY
  5
4F7
102
{ACAD_REACTORS
330
C
102
}
330
C
100
AcDbDictionary
1001
ACAD
1000
TREAT_AS_HARD
1070
     0
  0
XRECORD
  5
500
102
{ACAD_REACTORS
330
4FF
102
}
330
4FF
100
AcDbXrecord
340
18
  0
XRECORD
  5
4FE
102
{ACAD_REACTORS
330
4FD
102
}
330
4FD
100
AcDbXrecord
340
15
  0
MLINESTYLE
  5
1B
102
{ACAD_REACTORS
330
E
102
}
330
0
100
AcDbMlineStyle
  2
STANDARD
 70
     0
  3

 62
     0
 51
90.0
 52
90.0
 71
     2
 49
0.5
 62
   256
  6
BYLAYER
 49
-0.5
 62
   256
  6
BYLAYER
  0
ENDSEC
  0
EOF
