  0
SECTION
  2
HEADER
  9
$ACADVER
  1
AC1006
  9
$INSBASE
 10
0.0
 20
0.0
 30
0.0
  9
$EXTMIN
 10
0.0
 20
0.0
  9
$EXTMAX
 10
420.0
 20
297.0
  9
$LIMMIN
 10
0.0
 20
0.0
  9
$LIMMAX
 10
420.0
 20
297.0
  9
$ORTHOMODE
 70
     0
  9
$REGENMODE
 70
     1
  9
$FILLMODE
 70
     1
  9
$QTEXTMODE
 70
     0
  9
$MIRRTEXT
 70
     1
  9
$DRAGMODE
 70
     2
  9
$LTSCALE
 40
1.0
  9
$OSMODE
 70
     0
  9
$ATTMODE
 70
     1
  9
$TEXTSIZE
 40
0.2
  9
$TRACEWID
 40
0.05
  9
$TEXTSTYLE
  7
STANDARD
  9
$CLAYER
  8
L-ZISSEN
  9
$CELTYPE
  6
BYLAYER
  9
$CECOLOR
 62
   256
  9
$DIMSCALE
 40
1.0
  9
$DIMASZ
 40
1.5
  9
$DIMEXO
 40
1.0
  9
$DIMDLI
 40
0.38
  9
$DIMRND
 40
0.0
  9
$DIMDLE
 40
0.0
  9
$DIMEXE
 40
1.0
  9
$DIMTP
 40
0.0
  9
$DIMTM
 40
0.0
  9
$DIMTXT
 40
2.5
  9
$DIMCEN
 40
0.09
  9
$DIMTSZ
 40
0.0
  9
$DIMTOL
 70
     0
  9
$DIMLIM
 70
     0
  9
$DIMTIH
 70
     0
  9
$DIMTOH
 70
     0
  9
$DIMSE1
 70
     0
  9
$DIMSE2
 70
     0
  9
$DIMTAD
 70
     1
  9
$DIMZIN
 70
     0
  9
$DIMBLK
  1

  9
$DIMASO
 70
     1
  9
$DIMSHO
 70
     0
  9
$DIMPOST
  1

  9
$DIMAPOST
  1

  9
$DIMALT
 70
     0
  9
$DIMALTD
 70
     2
  9
$DIMALTF
 40
25.4
  9
$DIMLFAC
 40
1.0
  9
$DIMTOFL
 70
     1
  9
$DIMTVP
 40
0.0
  9
$DIMTIX
 70
     1
  9
$DIMSOXD
 70
     0
  9
$DIMSAH
 70
     0
  9
$DIMBLK1
  1

  9
$DIMBLK2
  1

  9
$LUNITS
 70
     2
  9
$LUPREC
 70
     4
  9
$AXISMODE
 70
     0
  9
$AXISUNIT
 10
0.0
 20
0.0
  9
$SKETCHINC
 40
0.1
  9
$FILLETRAD
 40
0.0
  9
$AUNITS
 70
     0
  9
$AUPREC
 70
     0
  9
$MENU
  1
acad
  9
$ELEVATION
 40
0.0
  9
$THICKNESS
 40
0.0
  9
$LIMCHECK
 70
     0
  9
$BLIPMODE
 70
     1
  9
$CHAMFERA
 40
0.0
  9
$CHAMFERB
 40
0.0
  9
$SKPOLY
 70
     0
  9
$TDCREATE
 40
2449644.5495402776
  9
$TDUPDATE
 40
2449644.5508129629
  9
$TDINDWG
 40
0.0010520833
  9
$TDUSRTIMER
 40
0.0010520833
  9
$USRTIMER
 70
     1
  9
$ANGBASE
 50
0.0
  9
$ANGDIR
 70
     0
  9
$PDMODE
 70
     0
  9
$PDSIZE
 40
0.0
  9
$PLINEWID
 40
0.0
  9
$COORDS
 70
     0
  9
$SPLFRAME
 70
     0
  9
$SPLINETYPE
 70
     6
  9
$SPLINESEGS
 70
     8
  9
$ATTDIA
 70
     0
  9
$ATTREQ
 70
     1
  9
$HANDLING
 70
     0
  9
$HANDSEED
  5
0
  9
$SURFTAB1
 70
     6
  9
$SURFTAB2
 70
     6
  9
$SURFTYPE
 70
     6
  9
$SURFU
 70
     6
  9
$SURFV
 70
     6
  9
$FLATLAND
 70
     0
  9
$UCSNAME
  2

  9
$UCSORG
 10
0.0
 20
0.0
 30
0.0
  9
$UCSXDIR
 10
1.0
 20
0.0
 30
0.0
  9
$UCSYDIR
 10
0.0
 20
1.0
 30
0.0
  9
$USERI1
 70
     0
  9
$USERI2
 70
     0
  9
$USERI3
 70
     0
  9
$USERI4
 70
     0
  9
$USERI5
 70
     0
  9
$USERR1
 40
0.0
  9
$USERR2
 40
0.0
  9
$USERR3
 40
0.0
  9
$USERR4
 40
0.0
  9
$USERR5
 40
0.0
  9
$WORLDVIEW
 70
     1
  0
ENDSEC
  0
SECTION
  2
TABLES
  0
TABLE
  2
VPORT
 70
     2
  0
VPORT
  2
*ACTIVE
 70
     0
 10
0.0
 20
0.0
 11
1.0
 21
1.0
 12
207.195245
 22
154.05124
 13
0.0
 23
0.0
 14
1.0
 24
1.0
 15
0.0
 25
0.0
 16
0.0
 26
0.0
 36
1.0
 17
0.0
 27
0.0
 37
0.0
 40
250.226031
 41
1.5487
 42
50.0
 43
0.0
 44
0.0
 50
0.0
 51
0.0
 71
     0
 72
   100
 73
     1
 74
     0
 75
     0
 76
     0
 77
     0
 78
     0
  0
ENDTAB
  0
TABLE
  2
LTYPE
 70
     2
  0
LTYPE
  2
CONTINUOUS
 70
    64
  3
Solid line
 72
    65
 73
     0
 40
0.0
  0
LTYPE
  2
CENTER
 70
    64
  3
_____ _ ____ _ ____ _ ____
 72
    65
 73
     4
 40
18.0
 49
15.0
 49
-1.0
 49
1.0
 49
-1.0
  0
ENDTAB
  0
TABLE
  2
LAYER
 70
     3
  0
LAYER
  2
0
 70
    64
 62
     7
  6
CONTINUOUS
  0
LAYER
  2
L-ZISSEN
 70
    64
 62
     7
  6
CONTINUOUS
  0
LAYER
  2
L-TYUSIN
 70
    64
 62
     1
  6
CENTER
  0
ENDTAB
  0
TABLE
  2
STYLE
 70
     1
  0
STYLE
  2
STANDARD
 70
    64
 40
0.0
 41
1.0
 50
0.0
 71
     0
 42
0.2
  3
txt
  4

  0
ENDTAB
  0
TABLE
  2
VIEW
 70
     0
  0
ENDTAB
  0
TABLE
  2
UCS
 70
     0
  0
ENDTAB
  0
TABLE
  2
DWGMGR
 70
     0
  0
ENDTAB
  0
ENDSEC
  0
SECTION
  2
BLOCKS
  0
BLOCK
  8
0
  2
BORDER
 70
    64
 10
0.0
 20
0.0
 30
0.0
  0
LINE
  8
0
 10
0.0
 20
0.0
 30
0.0
 11
1.0
 21
0.0
 31
0.0
  0
LINE
  8
0
 10
1.0
 20
0.0
 30
0.0
 11
1.0
 21
1.0
 31
0.0
  0
LINE
  8
0
 10
1.0
 20
1.0
 30
0.0
 11
0.0
 21
1.0
 31
0.0
  0
LINE
  8
0
 10
0.0
 20
1.0
 30
0.0
 11
0.0
 21
0.0
 31
0.0
  0
ENDBLK
  8
0
  0
ENDSEC
  0
SECTION
  2
ENTITIES
  0
INSERT
  8
0
  2
BORDER
 10
0.0
 20
0.0
 30
0.0
 41
420.0
 42
297.0
 43
420.0
  0
LINE
  8
L-TYUSIN
 10
81.468848
 20
133.767123
 30
0.0
 11
123.468848
 21
133.767123
 31
0.0
  0
LINE
  8
L-TYUSIN
 10
188.468848
 20
216.767123
 30
0.0
 11
188.468848
 21
174.767123
 31
0.0
  0
LINE
  8
L-ZISSEN
 10
138.468848
 20
159.767123
 30
0.0
 11
138.468848
 21
107.767123
 31
0.0
  0
LINE
  8
L-ZISSEN
 10
238.468848
 20
159.767123
 30
0.0
 11
238.468848
 21
107.767123
 31
0.0
  0
LINE
  8
L-ZISSEN
 10
138.468848
 20
159.767123
 30
0.0
 11
238.468848
 21
159.767123
 31
0.0
  0
LINE
  8
L-ZISSEN
 10
138.468848
 20
107.767123
 30
0.0
 11
238.468848
 21
107.767123
 31
0.0
  0
LINE
  8
L-ZISSEN
 10
138.468848
 20
179.767123
 30
0.0
 11
238.468848
 21
179.767123
 31
0.0
  0
LINE
  8
L-ZISSEN
 10
118.468848
 20
159.767123
 30
0.0
 11
118.468848
 21
107.767123
 31
0.0
  0
LINE
  8
L-ZISSEN
 10
138.468848
 20
87.767123
 30
0.0
 11
238.468848
 21
87.767123
 31
0.0
  0
LINE
  8
L-ZISSEN
 10
258.468848
 20
159.767123
 30
0.0
 11
258.468848
 21
107.767123
 31
0.0
  0
LINE
  8
L-TYUSIN
 10
274.468848
 20
164.767123
 30
0.0
 11
274.468848
 21
102.767123
 31
0.0
  0
LINE
  8
L-ZISSEN
 10
290.468848
 20
159.767123
 30
0.0
 11
290.468848
 21
107.767123
 31
0.0
  0
LINE
  8
L-TYUSIN
 10
102.468848
 20
164.767123
 30
0.0
 11
102.468848
 21
102.767123
 31
0.0
  0
LINE
  8
L-ZISSEN
 10
86.468848
 20
159.767123
 30
0.0
 11
86.468848
 21
107.767123
 31
0.0
  0
LINE
  8
L-TYUSIN
 10
133.468848
 20
71.767123
 30
0.0
 11
243.468848
 21
71.767123
 31
0.0
  0
LINE
  8
L-ZISSEN
 10
138.468848
 20
55.767123
 30
0.0
 11
238.468848
 21
55.767123
 31
0.0
  0
LINE
  8
L-TYUSIN
 10
133.468848
 20
195.767123
 30
0.0
 11
243.468848
 21
195.767123
 31
0.0
  0
LINE
  8
L-ZISSEN
 10
138.468848
 20
211.767123
 30
0.0
 11
238.468848
 21
211.767123
 31
0.0
  0
LINE
  8
L-ZISSEN
 10
138.468848
 20
211.767123
 30
0.0
 11
138.468848
 21
179.767123
 31
0.0
  0
LINE
  8
L-ZISSEN
 10
238.468848
 20
211.767123
 30
0.0
 11
238.468848
 21
179.767123
 31
0.0
  0
LINE
  8
L-ZISSEN
 10
138.468848
 20
87.767123
 30
0.0
 11
138.468848
 21
55.767123
 31
0.0
  0
LINE
  8
L-ZISSEN
 10
238.468848
 20
87.767123
 30
0.0
 11
238.468848
 21
55.767123
 31
0.0
  0
LINE
  8
L-ZISSEN
 10
86.468848
 20
159.767123
 30
0.0
 11
118.468848
 21
159.767123
 31
0.0
  0
LINE
  8
L-ZISSEN
 10
86.468848
 20
107.767123
 30
0.0
 11
118.468848
 21
107.767123
 31
0.0
  0
LINE
  8
L-ZISSEN
 10
258.468848
 20
159.767123
 30
0.0
 11
290.468848
 21
159.767123
 31
0.0
  0
LINE
  8
L-ZISSEN
 10
258.468848
 20
107.767123
 30
0.0
 11
290.468848
 21
107.767123
 31
0.0
  0
LINE
  8
L-TYUSIN
 10
175.968848
 20
125.517123
 30
0.0
 11
175.968848
 21
110.017123
 31
0.0
  0
LINE
  8
L-TYUSIN
 10
200.968848
 20
157.517123
 30
0.0
 11
200.968848
 21
142.017123
 31
0.0
  0
LINE
  8
L-TYUSIN
 10
193.218848
 20
149.767123
 30
0.0
 11
208.718848
 21
149.767123
 31
0.0
  0
LINE
  8
L-TYUSIN
 10
168.218848
 20
117.767123
 30
0.0
 11
183.718848
 21
117.767123
 31
0.0
  0
CIRCLE
  8
L-ZISSEN
 10
200.968848
 20
149.767123
 30
0.0
 40
2.75
  0
CIRCLE
  8
L-ZISSEN
 10
175.968848
 20
117.767123
 30
0.0
 40
2.75
  0
LINE
  8
L-TYUSIN
 10
163.468848
 20
206.489623
 30
0.0
 11
163.468848
 21
185.044623
 31
0.0
  0
LINE
  8
L-TYUSIN
 10
213.468848
 20
206.489623
 30
0.0
 11
213.468848
 21
185.044623
 31
0.0
  0
CIRCLE
  8
L-ZISSEN
 10
163.468848
 20
195.767123
 30
0.0
 40
5.7225
  0
CIRCLE
  8
L-ZISSEN
 10
188.468848
 20
195.767123
 30
0.0
 40
5.7225
  0
CIRCLE
  8
L-ZISSEN
 10
213.468848
 20
195.767123
 30
0.0
 40
5.7225
  0
CIRCLE
  8
L-ZISSEN
 10
213.468848
 20
71.767123
 30
0.0
 40
5.7225
  0
CIRCLE
  8
L-ZISSEN
 10
188.468848
 20
71.767123
 30
0.0
 40
5.7225
  0
CIRCLE
  8
L-ZISSEN
 10
163.468848
 20
71.767123
 30
0.0
 40
5.7225
  0
LINE
  8
L-TYUSIN
 10
213.468848
 20
61.044623
 30
0.0
 11
213.468848
 21
82.489623
 31
0.0
  0
LINE
  8
L-TYUSIN
 10
163.468848
 20
61.044623
 30
0.0
 11
163.468848
 21
82.489623
 31
0.0
  0
CIRCLE
  8
L-ZISSEN
 10
102.468848
 20
133.767123
 30
0.0
 40
9.3155
  0
CIRCLE
  8
L-ZISSEN
 10
274.468848
 20
133.767123
 30
0.0
 40
9.3155
  0
LINE
  8
L-TYUSIN
 10
188.468848
 20
92.767123
 30
0.0
 11
188.468848
 21
50.767123
 31
0.0
  0
LINE
  8
L-TYUSIN
 10
188.468848
 20
164.767123
 30
0.0
 11
188.468848
 21
102.767123
 31
0.0
  0
LINE
  8
L-TYUSIN
 10
133.468848
 20
133.767123
 30
0.0
 11
243.468848
 21
133.767123
 31
0.0
  0
LINE
  8
L-TYUSIN
 10
253.468848
 20
133.767123
 30
0.0
 11
295.468848
 21
133.767123
 31
0.0
  0
TEXT
  8
L-ZISSEN
 10
86.468848
 20
243.767123
 30
0.0
 40
4.5
  1
MODEL NO. : PB4-260
  0
LINE
  8
L-ZISSEN
 10
203.356516
 20
151.131505
 30
0.0
 11
267.468848
 21
187.767123
 31
0.0
  0
SOLID
  8
L-ZISSEN
 10
205.258382
 20
151.834369
 30
0.0
 11
204.927623
 21
152.413198
 31
0.0
 12
203.356516
 22
151.131505
 32
0.0
 13
203.356516
 23
151.131505
 33
0.0
  0
LINE
  8
L-ZISSEN
 10
267.468848
 20
187.767123
 30
0.0
 11
269.468848
 21
187.767123
 31
0.0
  0
TEXT
  8
L-ZISSEN
 10
271.468848
 20
185.517123
 30
0.0
 40
4.5
  1
2-%%C5.5
  0
LINE
  8
L-ZISSEN
 10
190.897671
 20
200.948612
 30
0.0
 11
203.468848
 21
227.767123
 31
0.0
  0
SOLID
  8
L-ZISSEN
 10
192.048358
 20
202.618052
 30
0.0
 11
191.444719
 21
202.901008
 31
0.0
 12
190.897671
 22
200.948612
 32
0.0
 13
190.897671
 23
200.948612
 33
0.0
  0
LINE
  8
L-ZISSEN
 10
203.468848
 20
227.767123
 30
0.0
 11
205.468848
 21
227.767123
 31
0.0
  0
TEXT
  8
L-ZISSEN
 10
207.468848
 20
225.517123
 30
0.0
 40
4.5
  1
6-Rc1/4
  0
LINE
  8
L-ZISSEN
 10
277.002263
 20
124.80273
 30
0.0
 11
287.468848
 21
87.767123
 31
0.0
  0
SOLID
  8
L-ZISSEN
 10
277.225407
 20
122.787459
 30
0.0
 11
277.866947
 21
122.968764
 31
0.0
 12
277.002263
 22
124.80273
 32
0.0
 13
277.002263
 23
124.80273
 33
0.0
  0
LINE
  8
L-ZISSEN
 10
287.468848
 20
87.767123
 30
0.0
 11
289.468848
 21
87.767123
 31
0.0
  0
TEXT
  8
L-ZISSEN
 10
291.468848
 20
85.517123
 30
0.0
 40
4.5
  1
2-Rc1/2
  0
ENDSEC
  0
EOF
