  0
SECTION
  2
HEADER
  9
$ACADVER
  1
AC1014
  9
$ACADMAINTVER
 70
     9
  9
$DWGCODEPAGE
  3
ANSI_932
  9
$INSBASE
 10
0.0
 20
0.0
 30
0.0
  9
$EXTMIN
 10
112.5256372823626
 20
103.6604997397959
 30
-0.5694010000000001
  9
$EXTMAX
 10
807.2622128560423
 20
672.1342781647572
 30
0.006134
  9
$LIMMIN
 10
0.0
 20
0.0
  9
$LIMMAX
 10
12.0
 20
9.0
  9
$ORTHOMODE
 70
     1
  9
$REGENMODE
 70
     1
  9
$FILLMODE
 70
     1
  9
$QTEXTMODE
 70
     0
  9
$MIRRTEXT
 70
     1
  9
$DRAGMODE
 70
     2
  9
$LTSCALE
 40
10.0
  9
$OSMODE
 70
  3071
  9
$ATTMODE
 70
     1
  9
$TEXTSIZE
 40
4.5
  9
$TRACEWID
 40
0.05
  9
$TEXTSTYLE
  7
STANDARD
  9
$CLAYER
  8
L-ZISSEN
  9
$CELTYPE
  6
BYLAYER
  9
$CECOLOR
 62
   256
  9
$CELTSCALE
 40
1.0
  9
$DELOBJ
 70
     1
  9
$DISPSILH
 70
     0
  9
$DIMSCALE
 40
1.0
  9
$DIMASZ
 40
4.5
  9
$DIMEXO
 40
1.0
  9
$DIMDLI
 40
0.38
  9
$DIMRND
 40
0.0
  9
$DIMDLE
 40
0.0
  9
$DIMEXE
 40
1.0
  9
$DIMTP
 40
0.0
  9
$DIMTM
 40
0.0
  9
$DIMTXT
 40
4.5
  9
$DIMCEN
 40
0.09
  9
$DIMTSZ
 40
0.0
  9
$DIMTOL
 70
     0
  9
$DIMLIM
 70
     0
  9
$DIMTIH
 70
     1
  9
$DIMTOH
 70
     1
  9
$DIMSE1
 70
     0
  9
$DIMSE2
 70
     0
  9
$DIMTAD
 70
     0
  9
$DIMZIN
 70
     0
  9
$DIMBLK
  1

  9
$DIMASO
 70
     1
  9
$DIMSHO
 70
     0
  9
$DIMPOST
  1

  9
$DIMAPOST
  1

  9
$DIMALT
 70
     0
  9
$DIMALTD
 70
     2
  9
$DIMALTF
 40
25.4
  9
$DIMLFAC
 40
1.0
  9
$DIMTOFL
 70
     0
  9
$DIMTVP
 40
0.0
  9
$DIMTIX
 70
     0
  9
$DIMSOXD
 70
     0
  9
$DIMSAH
 70
     1
  9
$DIMBLK1
  1
OPEN
  9
$DIMBLK2
  1
OPEN
  9
$DIMSTYLE
  2
STANDARD
  9
$DIMCLRD
 70
     0
  9
$DIMCLRE
 70
     0
  9
$DIMCLRT
 70
     0
  9
$DIMTFAC
 40
1.0
  9
$DIMGAP
 40
1.0
  9
$DIMJUST
 70
     0
  9
$DIMSD1
 70
     0
  9
$DIMSD2
 70
     0
  9
$DIMTOLJ
 70
     1
  9
$DIMTZIN
 70
     0
  9
$DIMALTZ
 70
     0
  9
$DIMALTTZ
 70
     0
  9
$DIMFIT
 70
     3
  9
$DIMUPT
 70
     0
  9
$DIMUNIT
 70
     2
  9
$DIMDEC
 70
     4
  9
$DIMTDEC
 70
     4
  9
$DIMALTU
 70
     2
  9
$DIMALTTD
 70
     2
  9
$DIMTXSTY
  7
STANDARD
  9
$DIMAUNIT
 70
     0
  9
$LUNITS
 70
     2
  9
$LUPREC
 70
     4
  9
$SKETCHINC
 40
0.1
  9
$FILLETRAD
 40
0.0
  9
$AUNITS
 70
     0
  9
$AUPREC
 70
     0
  9
$MENU
  1
acad
  9
$ELEVATION
 40
0.0
  9
$PELEVATION
 40
0.0
  9
$THICKNESS
 40
0.0
  9
$LIMCHECK
 70
     0
  9
$BLIPMODE
 70
     0
  9
$CHAMFERA
 40
0.0
  9
$CHAMFERB
 40
0.0
  9
$CHAMFERC
 40
0.0
  9
$CHAMFERD
 40
0.0
  9
$SKPOLY
 70
     0
  9
$TDCREATE
 40
2450856.681758217
  9
$TDUPDATE
 40
2452381.386766319
  9
$TDINDWG
 40
0.1549886921
  9
$TDUSRTIMER
 40
0.1549886921
  9
$USRTIMER
 70
     1
  9
$ANGBASE
 50
0.0
  9
$ANGDIR
 70
     0
  9
$PDMODE
 70
     0
  9
$PDSIZE
 40
0.0
  9
$PLINEWID
 40
0.0
  9
$COORDS
 70
     2
  9
$SPLFRAME
 70
     0
  9
$SPLINETYPE
 70
     6
  9
$SPLINESEGS
 70
     8
  9
$ATTDIA
 70
     0
  9
$ATTREQ
 70
     1
  9
$HANDLING
 70
-16383
  9
$HANDSEED
  5
B68
  9
$SURFTAB1
 70
     6
  9
$SURFTAB2
 70
     6
  9
$SURFTYPE
 70
     6
  9
$SURFU
 70
     6
  9
$SURFV
 70
     6
  9
$UCSNAME
  2

  9
$UCSORG
 10
0.0
 20
0.0
 30
0.0
  9
$UCSXDIR
 10
1.0
 20
0.0
 30
0.0
  9
$UCSYDIR
 10
0.0
 20
1.0
 30
0.0
  9
$PUCSNAME
  2

  9
$PUCSORG
 10
0.0
 20
0.0
 30
0.0
  9
$PUCSXDIR
 10
1.0
 20
0.0
 30
0.0
  9
$PUCSYDIR
 10
0.0
 20
1.0
 30
0.0
  9
$USERI1
 70
     0
  9
$USERI2
 70
     0
  9
$USERI3
 70
     0
  9
$USERI4
 70
     0
  9
$USERI5
 70
     0
  9
$USERR1
 40
0.0
  9
$USERR2
 40
0.0
  9
$USERR3
 40
0.0
  9
$USERR4
 40
0.0
  9
$USERR5
 40
0.0
  9
$WORLDVIEW
 70
     1
  9
$SHADEDGE
 70
     3
  9
$SHADEDIF
 70
    70
  9
$TILEMODE
 70
     1
  9
$MAXACTVP
 70
    16
  9
$PINSBASE
 10
0.0
 20
0.0
 30
0.0
  9
$PLIMCHECK
 70
     0
  9
$PEXTMIN
 10
1.000000000000000E+20
 20
1.000000000000000E+20
 30
1.000000000000000E+20
  9
$PEXTMAX
 10
-1.000000000000000E+20
 20
-1.000000000000000E+20
 30
-1.000000000000000E+20
  9
$PLIMMIN
 10
0.0
 20
0.0
  9
$PLIMMAX
 10
12.0
 20
9.0
  9
$UNITMODE
 70
     0
  9
$VISRETAIN
 70
     0
  9
$PLINEGEN
 70
     0
  9
$PSLTSCALE
 70
     0
  9
$TREEDEPTH
 70
  3020
  9
$PICKSTYLE
 70
     1
  9
$CMLSTYLE
  2
STANDARD
  9
$CMLJUST
 70
     0
  9
$CMLSCALE
 40
1.0
  9
$PROXYGRAPHICS
 70
     1
  9
$MEASUREMENT
 70
     0
  0
ENDSEC
  0
SECTION
  2
CLASSES
  0
CLASS
  1
LWPOLYLINE
  2
AcDbPolyline
  3
AutoCAD 2000
 90
        0
280
     0
281
     1
  0
CLASS
  1
ACDBDICTIONARYWDFLT
  2
AcDbDictionaryWithDefault
  3
AutoCAD 2000
 90
        0
280
     0
281
     0
  0
CLASS
  1
ACDBPLACEHOLDER
  2
AcDbPlaceHolder
  3
AutoCAD 2000
 90
        0
280
     0
281
     0
  0
CLASS
  1
LAYOUT
  2
AcDbLayout
  3
AutoCAD 2000
 90
        0
280
     0
281
     0
  0
CLASS
  1
LONG_TRANSACTION
  2
AcDbLongTransaction
  3
AutoCAD 2000
 90
        0
280
     0
281
     0
  0
CLASS
  1
LWPOLYLINE
  2
AcDbPolyline
  3
AutoCAD 2000
 90
        0
280
     0
281
     1
  0
CLASS
  1
HATCH
  2
AcDbHatch
  3
AutoCAD 2000
 90
        0
280
     0
281
     1
  0
CLASS
  1
XRECORD
  2
AcDbXrecord
  3
AutoCAD 2000
 90
        0
280
     0
281
     0
  0
CLASS
  1
LONG_TRANSACTION
  2
AcDbLongTransaction
  3
AutoCAD 2000
 90
        0
280
     0
281
     0
  0
CLASS
  1
LWPOLYLINE
  2
AcDbPolyline
  3
AutoCAD 2000
 90
        0
280
     0
281
     1
  0
CLASS
  1
HATCH
  2
AcDbHatch
  3
AutoCAD 2000
 90
        0
280
     0
281
     1
  0
CLASS
  1
XRECORD
  2
AcDbXrecord
  3
AutoCAD 2000
 90
        0
280
     0
281
     0
  0
CLASS
  1
LONG_TRANSACTION
  2
AcDbLongTransaction
  3
AutoCAD 2000
 90
        0
280
     0
281
     0
  0
CLASS
  1
LWPOLYLINE
  2
AcDbPolyline
  3
AutoCAD 2000
 90
        0
280
     0
281
     1
  0
CLASS
  1
HATCH
  2
AcDbHatch
  3
AutoCAD 2000
 90
        0
280
     0
281
     1
  0
CLASS
  1
XRECORD
  2
AcDbXrecord
  3
AutoCAD 2000
 90
        0
280
     0
281
     0
  0
ENDSEC
  0
SECTION
  2
TABLES
  0
TABLE
  2
VPORT
  5
8
330
0
100
AcDbSymbolTable
 70
     2
  0
VPORT
  5
B44
330
8
100
AcDbSymbolTableRecord
100
AcDbViewportTableRecord
  2
*ACTIVE
 70
     0
 10
0.0
 20
0.0
 11
1.0
 21
1.0
 12
459.9068959267096
 22
391.7424204301252
 13
0.0
 23
0.0
 14
1.0
 24
1.0
 15
0.0
 25
0.0
 16
0.0
 26
0.0
 36
1.0
 17
0.0
 27
0.0
 37
0.0
 40
582.8835256957468
 41
1.510025062656641
 42
50.0
 43
0.0
 44
0.0
 50
0.0
 51
0.0
 71
     0
 72
   100
 73
     1
 74
     1
 75
     0
 76
     0
 77
     0
 78
     0
  0
ENDTAB
  0
TABLE
  2
LTYPE
  5
5
330
0
100
AcDbSymbolTable
 70
     5
  0
LTYPE
  5
12
330
5
100
AcDbSymbolTableRecord
100
AcDbLinetypeTableRecord
  2
BYBLOCK
 70
     0
  3

 72
    65
 73
     0
 40
0.0
  0
LTYPE
  5
13
330
5
100
AcDbSymbolTableRecord
100
AcDbLinetypeTableRecord
  2
BYLAYER
 70
     0
  3

 72
    65
 73
     0
 40
0.0
  0
LTYPE
  5
14
330
5
100
AcDbSymbolTableRecord
100
AcDbLinetypeTableRecord
  2
CONTINUOUS
 70
     0
  3
実線
 72
    65
 73
     0
 40
0.0
  0
LTYPE
  5
20
330
5
100
AcDbSymbolTableRecord
100
AcDbLinetypeTableRecord
  2
CENTER
 70
     0
  3
____ _ ____ _ ____ _ ____ _ ____ _ ____ _ ____
 72
    65
 73
     4
 40
2.0
 49
1.25
 74
     0
 49
-0.25
 74
     0
 49
0.25
 74
     0
 49
-0.25
 74
     0
  0
LTYPE
  5
1AB
330
5
100
AcDbSymbolTableRecord
100
AcDbLinetypeTableRecord
  2
CENTER2
 70
     0
  3
___ _ ___ _ ___ _ ___ _ ___ _ ___ _ ___ _ ___ _
 72
    65
 73
     4
 40
1.125
 49
0.75
 74
     0
 49
-0.125
 74
     0
 49
0.125
 74
     0
 49
-0.125
 74
     0
  0
LTYPE
  5
697
330
5
100
AcDbSymbolTableRecord
100
AcDbLinetypeTableRecord
  2
DASHED
 70
     0
  3
__ __ __ __ __ __ __ __ __ __ __ __ __ __ __
 72
    65
 73
     2
 40
0.75
 49
0.5
 74
     0
 49
-0.25
 74
     0
  0
LTYPE
  5
6C8
330
5
100
AcDbSymbolTableRecord
100
AcDbLinetypeTableRecord
  2
HIDDEN
 70
     0
  3
_ _ _ _ _ _ _ _ _ _ _ _ _ _ _ _ _ _ _ _ _ _ _
 72
    65
 73
     2
 40
0.375
 49
0.25
 74
     0
 49
-0.125
 74
     0
  0
ENDTAB
  0
TABLE
  2
LAYER
  5
2
330
0
100
AcDbSymbolTable
 70
     5
  0
LAYER
  5
F
330
2
100
AcDbSymbolTableRecord
100
AcDbLayerTableRecord
  2
0
 70
     0
 62
     7
  6
CONTINUOUS
  0
LAYER
  5
29
330
2
100
AcDbSymbolTableRecord
100
AcDbLayerTableRecord
  2
PV
 70
     0
 62
     7
  6
CONTINUOUS
  0
LAYER
  5
1AD
330
2
100
AcDbSymbolTableRecord
100
AcDbLayerTableRecord
  2
L-ZISSEN
 70
     0
 62
     7
  6
CONTINUOUS
  0
LAYER
  5
1AE
330
2
100
AcDbSymbolTableRecord
100
AcDbLayerTableRecord
  2
L-TYUSIN
 70
     0
 62
     1
  6
CENTER2
  0
LAYER
  5
6C9
330
2
100
AcDbSymbolTableRecord
100
AcDbLayerTableRecord
  2
L-HASEN
 70
     0
 62
     5
  6
HIDDEN
  0
ENDTAB
  0
TABLE
  2
STYLE
  5
3
330
0
100
AcDbSymbolTable
 70
     1
  0
STYLE
  5
10
330
3
100
AcDbSymbolTableRecord
100
AcDbTextStyleTableRecord
  2
STANDARD
 70
     0
 40
0.0
 41
1.0
 50
0.0
 71
     0
 42
4.5
  3
txt
  4

  0
ENDTAB
  0
TABLE
  2
VIEW
  5
6
330
0
100
AcDbSymbolTable
 70
     0
  0
ENDTAB
  0
TABLE
  2
UCS
  5
7
330
0
100
AcDbSymbolTable
 70
     0
  0
ENDTAB
  0
TABLE
  2
APPID
  5
9
330
0
100
AcDbSymbolTable
 70
     1
  0
APPID
  5
11
330
9
100
AcDbSymbolTableRecord
100
AcDbRegAppTableRecord
  2
ACAD
 70
     0
  0
ENDTAB
  0
TABLE
  2
DIMSTYLE
  5
A
330
0
100
AcDbSymbolTable
 70
     1
  0
DIMSTYLE
105
1A3
330
A
100
AcDbSymbolTableRecord
100
AcDbDimStyleTableRecord
  2
STANDARD
 70
     0
  3

  4

  5

  6

  7

 40
1.0
 41
0.18
 42
0.0625
 43
0.38
 44
0.18
 45
0.0
 46
0.0
 47
0.0
 48
0.0
140
0.18
141
0.09
142
0.0
143
25.4
144
1.0
145
0.0
146
1.0
147
0.09
 71
     0
 72
     0
 73
     1
 74
     1
 75
     0
 76
     0
 77
     0
 78
     0
170
     0
171
     2
172
     0
173
     0
174
     0
175
     0
176
     0
177
     0
178
     0
270
     2
271
     4
272
     4
273
     2
274
     2
340
10
275
     0
280
     0
281
     0
282
     0
283
     1
284
     0
285
     0
286
     0
287
     3
288
     0
  0
ENDTAB
  0
TABLE
  2
BLOCK_RECORD
  5
1
330
0
100
AcDbSymbolTable
 70
     1
  0
BLOCK_RECORD
  5
18
102
{ACAD_XDICTIONARY
360
AFE
102
}
330
1
100
AcDbSymbolTableRecord
100
AcDbBlockTableRecord
  2
*MODEL_SPACE
  0
BLOCK_RECORD
  5
15
102
{ACAD_XDICTIONARY
360
AFC
102
}
330
1
100
AcDbSymbolTableRecord
100
AcDbBlockTableRecord
  2
*PAPER_SPACE
  0
BLOCK_RECORD
  5
23C
330
1
100
AcDbSymbolTableRecord
100
AcDbBlockTableRecord
  2
_OPEN
  0
ENDTAB
  0
ENDSEC
  0
SECTION
  2
BLOCKS
  0
BLOCK
  5
2C
330
18
100
AcDbEntity
  8
0
100
AcDbBlockBegin
  2
*MODEL_SPACE
 70
     0
 10
0.0
 20
0.0
 30
0.0
  3
*MODEL_SPACE
  1

  0
ENDBLK
  5
2D
330
18
100
AcDbEntity
  8
0
100
AcDbBlockEnd
  0
BLOCK
  5
2A
330
15
100
AcDbEntity
 67
     1
  8
0
100
AcDbBlockBegin
  2
*PAPER_SPACE
 70
     0
 10
0.0
 20
0.0
 30
0.0
  3
*PAPER_SPACE
  1

  0
ENDBLK
  5
2B
330
15
100
AcDbEntity
 67
     1
  8
0
100
AcDbBlockEnd
  0
BLOCK
  5
240
330
23C
100
AcDbEntity
  8
0
100
AcDbBlockBegin
  2
_OPEN
 70
     0
 10
0.0
 20
0.0
 30
0.0
  3
_OPEN
  1

  0
LINE
  5
23D
330
23C
100
AcDbEntity
  8
0
  6
BYBLOCK
 62
     0
100
AcDbLine
 10
-1.0
 20
0.166667
 30
0.0
 11
0.0
 21
0.0
 31
0.0
  0
LINE
  5
23E
330
23C
100
AcDbEntity
  8
0
  6
BYBLOCK
 62
     0
100
AcDbLine
 10
0.0
 20
0.0
 30
0.0
 11
-1.0
 21
-0.166667
 31
0.0
  0
LINE
  5
23F
330
23C
100
AcDbEntity
  8
0
  6
BYBLOCK
 62
     0
100
AcDbLine
 10
0.0
 20
0.0
 30
0.0
 11
-1.0
 21
0.0
 31
0.0
  0
ENDBLK
  5
241
330
23C
100
AcDbEntity
  8
0
100
AcDbBlockEnd
  0
ENDSEC
  0
SECTION
  2
ENTITIES
  0
LINE
  5
2E
330
18
100
AcDbEntity
  8
PV
 62
     7
100
AcDbLine
 10
604.8829692823625
 20
510.5453807397959
 30
0.0
 11
741.3829692823625
 21
510.5453807397959
 31
0.0
  0
LINE
  5
30
330
18
100
AcDbEntity
  8
PV
 62
     7
100
AcDbLine
 10
544.3829692823626
 20
306.4603807397959
 30
0.0
 11
602.8829692823625
 21
306.4603807397959
 31
0.0
  0
LINE
  5
31
330
18
100
AcDbEntity
  8
PV
 62
     7
100
AcDbLine
 10
602.8829692823625
 20
513.045380739796
 30
0.0
 11
602.8829692823625
 21
512.5453807397959
 31
0.0
  0
LINE
  5
32
330
18
100
AcDbEntity
  8
PV
 62
     7
100
AcDbLine
 10
602.8829692823625
 20
256.4603807397959
 30
0.0
 11
602.8829692823625
 21
306.4603807397959
 31
0.0
  0
LINE
  5
33
330
18
100
AcDbEntity
  8
PV
 62
     7
100
AcDbLine
 10
544.3829692823626
 20
256.4603807397959
 30
0.0
 11
563.0109692823626
 21
256.4603807397959
 31
0.0
  0
LINE
  5
34
330
18
100
AcDbEntity
  8
PV
 62
     7
100
AcDbLine
 10
744.3829692823625
 20
258.4603807397959
 30
0.0
 11
744.3829692823625
 21
299.4603807397959
 31
0.0
  0
LINE
  5
35
330
18
100
AcDbEntity
  8
PV
 62
     7
100
AcDbLine
 10
744.8829692823625
 20
301.4603807397959
 30
0.0
 11
653.3829692823625
 21
301.4603807397959
 31
0.0
  0
LINE
  5
36
330
18
100
AcDbEntity
  8
PV
 62
     7
100
AcDbLine
 10
544.3829692823626
 20
306.4603807397959
 30
0.0
 11
544.3829692823626
 21
256.4603807397959
 31
0.0
  0
LINE
  5
37
330
18
100
AcDbEntity
  8
PV
 62
     7
100
AcDbLine
 10
744.3829692823625
 20
513.545380739796
 30
0.0
 11
744.3829692823625
 21
514.6893807397959
 31
0.0
  0
LINE
  5
38
330
18
100
AcDbEntity
  8
PV
 62
     7
100
AcDbLine
 10
741.3829692823625
 20
632.5453807397959
 30
0.0
 11
547.3829692823626
 21
632.5453807397959
 31
0.0
  0
LINE
  5
39
330
18
100
AcDbEntity
  8
PV
 62
     7
100
AcDbLine
 10
544.3829692823626
 20
629.545380739796
 30
0.0
 11
544.3829692823626
 21
579.2953807397959
 31
0.0
  0
LINE
  5
3A
330
18
100
AcDbEntity
  8
PV
  6
CENTER
 62
     1
100
AcDbLine
 10
443.3829692823626
 20
571.5453807397961
 30
0.0
 11
751.8829692823624
 21
571.5453807397961
 31
0.0
  0
ARC
  5
3B
330
18
100
AcDbEntity
  8
PV
 62
     7
100
AcDbCircle
 10
741.3829692823625
 20
629.545380739796
 30
0.0
 40
3.0
100
AcDbArc
 50
0.0
 51
90.0
  0
ARC
  5
3C
330
18
100
AcDbEntity
  8
PV
 62
     7
100
AcDbCircle
 10
741.3829692823625
 20
513.545380739796
 30
0.0
 40
3.0
100
AcDbArc
 50
270.0
 51
0.0
  0
ARC
  5
3D
330
18
100
AcDbEntity
  8
PV
 62
     7
100
AcDbCircle
 10
547.3829692823626
 20
629.545380739796
 30
0.0
 40
3.0
100
AcDbArc
 50
90.0
 51
180.0
  0
ARC
  5
3E
330
18
100
AcDbEntity
  8
PV
 62
     7
100
AcDbCircle
 10
742.3829692823625
 20
299.4603807397959
 30
0.0
 40
2.0
100
AcDbArc
 50
0.0
 51
90.0
  0
ARC
  5
3F
330
18
100
AcDbEntity
  8
PV
 62
     7
100
AcDbCircle
 10
742.3829692823625
 20
258.4603807397959
 30
0.0
 40
2.0
100
AcDbArc
 50
270.0
 51
0.0
  0
LINE
  5
40
330
18
100
AcDbEntity
  8
PV
 62
     7
100
AcDbLine
 10
556.3829692823625
 20
318.4603807397959
 30
0.0
 11
556.3829692823625
 21
321.6603807397959
 31
0.0
  0
ARC
  5
41
330
18
100
AcDbEntity
  8
PV
 62
     7
100
AcDbCircle
 10
584.8829692823625
 20
344.4603807397959
 30
0.0
 40
2.0
100
AcDbArc
 50
0.0
 51
90.0
  0
LINE
  5
42
330
18
100
AcDbEntity
  8
PV
 62
     7
100
AcDbLine
 10
586.8829692823624
 20
321.6603807397959
 30
0.0
 11
586.8829692823624
 21
344.4603807397959
 31
0.0
  0
ARC
  5
43
330
18
100
AcDbEntity
  8
PV
 62
     7
100
AcDbCircle
 10
568.8829692823625
 20
344.4603807397959
 30
0.0
 40
2.0
100
AcDbArc
 50
90.0
 51
180.0
  0
LINE
  5
44
330
18
100
AcDbEntity
  8
PV
 62
     7
100
AcDbLine
 10
566.8829692823625
 20
321.6603807397959
 30
0.0
 11
566.8829692823625
 21
344.4603807397959
 31
0.0
  0
LINE
  5
45
330
18
100
AcDbEntity
  8
PV
 62
     7
100
AcDbLine
 10
584.8829692823625
 20
346.4603807397959
 30
0.0
 11
568.8829692823625
 21
346.4603807397959
 31
0.0
  0
LINE
  5
46
330
18
100
AcDbEntity
  8
PV
 62
     7
100
AcDbLine
 10
556.3829692823625
 20
321.6603807397959
 30
0.0
 11
597.3829692823625
 21
321.6603807397959
 31
0.0
  0
LINE
  5
47
330
18
100
AcDbEntity
  8
PV
 62
     7
100
AcDbLine
 10
595.8829692823625
 20
321.6603807397959
 30
0.0
 11
595.8829692823625
 21
324.4603807397959
 31
0.0
  0
LINE
  5
48
330
18
100
AcDbEntity
  8
PV
 62
     7
100
AcDbLine
 10
595.8829692823625
 20
324.4603807397959
 30
0.0
 11
586.8829692823624
 21
324.4603807397959
 31
0.0
  0
LINE
  5
4A
330
18
100
AcDbEntity
  8
PV
 62
     7
100
AcDbLine
 10
602.8829692823624
 20
318.460380739796
 30
0.0
 11
602.8829692823625
 21
306.4603807397959
 31
0.0
  0
LINE
  5
4C
330
18
100
AcDbEntity
  8
PV
 62
     7
100
AcDbLine
 10
563.8829692823625
 20
321.6603807397959
 30
0.0
 11
563.8829692823625
 21
324.4603807397959
 31
0.0
  0
CIRCLE
  5
4E
330
18
100
AcDbEntity
  8
PV
 62
     7
100
AcDbCircle
 10
597.6329692823625
 20
627.295380739796
 30
0.0
 40
4.0
  0
CIRCLE
  5
4F
330
18
100
AcDbEntity
  8
PV
 62
     7
100
AcDbCircle
 10
597.6329692823625
 20
595.7953807397959
 30
0.0
 40
4.0
  0
CIRCLE
  5
50
330
18
100
AcDbEntity
  8
PV
 62
     7
100
AcDbCircle
 10
562.1329692823625
 20
595.7953807397959
 30
0.0
 40
4.0
  0
CIRCLE
  5
51
330
18
100
AcDbEntity
  8
PV
 62
     7
100
AcDbCircle
 10
579.8829692823625
 20
611.5453807397959
 30
0.0
 40
5.0
  0
CIRCLE
  5
52
330
18
100
AcDbEntity
  8
PV
 62
     7
100
AcDbCircle
 10
579.8829692823625
 20
611.5453807397959
 30
0.0
 40
9.599999999999999
  0
LINE
  5
53
330
18
100
AcDbEntity
  8
PV
  6
CENTER
 62
     1
100
AcDbLine
 10
579.8829692823625
 20
636.5453807397959
 30
0.0
 11
579.8829692823625
 21
586.5453807397959
 31
0.0
  0
LINE
  5
54
330
18
100
AcDbEntity
  8
PV
 62
     7
100
AcDbLine
 10
597.8829692823625
 20
591.0453807397959
 30
0.0
 11
561.8829692823624
 21
591.0453807397959
 31
0.0
  0
LINE
  5
55
330
18
100
AcDbEntity
  8
PV
 62
     7
100
AcDbLine
 10
597.8829692823625
 20
632.0453807397959
 30
0.0
 11
561.8829692823624
 21
632.0453807397959
 31
0.0
  0
CIRCLE
  5
56
330
18
100
AcDbEntity
  8
PV
 62
     7
100
AcDbCircle
 10
579.8829692823625
 20
611.5453807397959
 30
0.0
 40
16.0
  0
ARC
  5
57
330
18
100
AcDbEntity
  8
PV
 62
     7
100
AcDbCircle
 10
561.8829692823624
 20
596.045380739796
 30
0.0
 40
5.0
100
AcDbArc
 50
180.0
 51
270.0
  0
ARC
  5
58
330
18
100
AcDbEntity
  8
PV
 62
     7
100
AcDbCircle
 10
561.8829692823624
 20
627.0453807397959
 30
0.0
 40
5.0
100
AcDbArc
 50
90.0
 51
180.0
  0
LINE
  5
59
330
18
100
AcDbEntity
  8
PV
 62
     7
100
AcDbLine
 10
556.8829692823625
 20
627.0453807397959
 30
0.0
 11
556.8829692823625
 21
596.045380739796
 31
0.0
  0
CIRCLE
  5
5A
330
18
100
AcDbEntity
  8
PV
 62
     7
100
AcDbCircle
 10
562.1329692823625
 20
627.295380739796
 30
0.0
 40
4.0
  0
CIRCLE
  5
5B
330
18
100
AcDbEntity
  8
PV
 62
     7
100
AcDbCircle
 10
592.6329692823625
 20
525.7953807397959
 30
0.0
 40
4.0
  0
CIRCLE
  5
5C
330
18
100
AcDbEntity
  8
PV
 62
     7
100
AcDbCircle
 10
561.1329692823625
 20
557.295380739796
 30
0.0
 40
4.0
  0
LINE
  5
5D
330
18
100
AcDbEntity
  8
PV
 62
     7
100
AcDbLine
 10
556.3829692823625
 20
562.0453807397959
 30
0.0
 11
597.3829692823625
 21
562.0453807397959
 31
0.0
  0
LINE
  5
5E
330
18
100
AcDbEntity
  8
PV
 62
     7
100
AcDbLine
 10
597.3829692823625
 20
521.045380739796
 30
0.0
 11
556.3829692823625
 21
521.045380739796
 31
0.0
  0
LINE
  5
5F
330
18
100
AcDbEntity
  8
PV
 62
     7
100
AcDbLine
 10
597.3829692823625
 20
562.0453807397959
 30
0.0
 11
597.3829692823625
 21
521.045380739796
 31
0.0
  0
CIRCLE
  5
60
330
18
100
AcDbEntity
  8
PV
 62
     7
100
AcDbCircle
 10
576.8829692823625
 20
541.5453807397959
 30
0.0
 40
10.15
  0
LINE
  5
61
330
18
100
AcDbEntity
  8
PV
 62
     7
100
AcDbLine
 10
556.3829692823625
 20
562.0453807397959
 30
0.0
 11
556.3829692823625
 21
521.045380739796
 31
0.0
  0
LINE
  5
62
330
18
100
AcDbEntity
  8
PV
  6
CENTER
 62
     1
100
AcDbLine
 10
595.8829692823625
 20
350.9973807397959
 30
0.0
 11
595.8829692823625
 21
337.9223807397959
 31
0.0
  0
CIRCLE
  5
63
330
18
100
AcDbEntity
  8
PV
 62
     7
100
AcDbCircle
 10
576.8829692823625
 20
267.9603807397959
 30
0.0
 40
18.0
  0
LINE
  5
64
330
18
100
AcDbEntity
  8
PV
 62
     7
100
AcDbLine
 10
577.8829692823625
 20
641.245380739796
 30
0.0
 11
613.8829692823625
 21
641.245380739796
 31
0.0
  0
LINE
  5
65
330
18
100
AcDbEntity
  8
PV
 62
     7
100
AcDbLine
 10
577.8829692823625
 20
643.5453807397959
 30
0.0
 11
613.8829692823625
 21
643.5453807397959
 31
0.0
  0
LINE
  5
68
330
18
100
AcDbEntity
  8
PV
 62
     7
100
AcDbLine
 10
262.9732212823627
 20
306.460380739796
 30
0.0
 11
250.3659672823626
 21
306.4603807397959
 31
0.0
  0
LINE
  5
69
330
18
100
AcDbEntity
  8
PV
 62
     7
100
AcDbLine
 10
156.8659692823625
 20
313.4603807397959
 30
0.0
 11
156.8659692823625
 21
324.4603807397959
 31
0.0
  0
LINE
  5
6B
330
18
100
AcDbEntity
  8
PV
 62
     7
100
AcDbLine
 10
175.3659692823625
 20
313.4603807397959
 30
0.0
 11
152.3659692823625
 21
313.4603807397959
 31
0.0
  0
LINE
  5
6C
330
18
100
AcDbEntity
  8
PV
 62
     7
100
AcDbLine
 10
175.3659692823625
 20
324.4603807397959
 30
0.0
 11
156.8659692823625
 21
324.4603807397959
 31
0.0
  0
LINE
  5
6E
330
18
100
AcDbEntity
  8
PV
 62
     7
100
AcDbLine
 10
262.3659692823625
 20
306.460380739796
 30
0.0
 11
262.3659692823625
 21
321.6603807397959
 31
0.0
  0
LINE
  5
6F
330
18
100
AcDbEntity
  8
PV
 62
     7
100
AcDbLine
 10
250.3659692823625
 20
321.6603807397959
 30
0.0
 11
262.3659692823625
 21
321.6603807397959
 31
0.0
  0
LINE
  5
70
330
18
100
AcDbEntity
  8
PV
 62
     7
100
AcDbLine
 10
250.8659692823625
 20
346.4603807397959
 30
0.0
 11
234.8659692823626
 21
346.4603807397959
 31
0.0
  0
LINE
  5
73
330
18
100
AcDbEntity
  8
PV
 62
     7
100
AcDbLine
 10
252.8659692823625
 20
321.6603807397959
 30
0.0
 11
252.8659692823625
 21
344.4603807397959
 31
0.0
  0
ARC
  5
74
330
18
100
AcDbEntity
  8
PV
 62
     7
100
AcDbCircle
 10
250.8659692823625
 20
344.4603807397959
 30
0.0
 40
2.0
100
AcDbArc
 50
0.0
 51
90.0
  0
LINE
  5
76
330
18
100
AcDbEntity
  8
PV
 62
     7
100
AcDbLine
 10
152.3659692823625
 20
313.4603807397959
 30
0.0
 11
152.3659692823625
 21
306.4603807397959
 31
0.0
  0
LINE
  5
7F
330
18
100
AcDbEntity
  8
PV
 62
     7
100
AcDbLine
 10
574.9079692823626
 20
569.5453807397959
 30
0.0
 11
584.8579692823625
 21
569.5453807397959
 31
0.0
  0
LINE
  5
80
330
18
100
AcDbEntity
  8
PV
 62
     7
100
AcDbLine
 10
574.9079692823626
 20
584.545380739796
 30
0.0
 11
584.8579692823625
 21
584.545380739796
 31
0.0
  0
CIRCLE
  5
81
330
18
100
AcDbEntity
  8
PV
 62
     7
100
AcDbCircle
 10
579.8829692823625
 20
577.0453807397959
 30
0.0
 40
4.75
  0
CIRCLE
  5
82
330
18
100
AcDbEntity
  8
PV
 62
     7
100
AcDbCircle
 10
579.8829692823625
 20
577.0453807397959
 30
0.0
 40
9.0
  0
LINE
  5
85
330
18
100
AcDbEntity
  8
PV
 62
     7
100
AcDbLine
 10
300.8659692823625
 20
285.9603807397959
 30
0.0
 11
300.8659692823625
 21
249.9603807397959
 31
0.0
  0
LINE
  5
86
330
18
100
AcDbEntity
  8
PV
 62
     7
100
AcDbLine
 10
300.8659692823625
 20
249.9603807397959
 30
0.0
 11
278.8659692823626
 21
249.9603807397959
 31
0.0
  0
LINE
  5
87
330
18
100
AcDbEntity
  8
PV
 62
     7
100
AcDbLine
 10
300.8659692823625
 20
285.9603807397959
 30
0.0
 11
289.9732212823627
 21
285.9603807397959
 31
0.0
  0
LINE
  5
8D
330
18
100
AcDbEntity
  8
PV
 62
     7
100
AcDbLine
 10
140.8659692823625
 20
293.1603807397959
 30
0.0
 11
140.8659692823625
 21
354.4603807397959
 31
0.0
  0
LINE
  5
8F
330
18
100
AcDbEntity
  8
PV
 62
     7
100
AcDbLine
 10
143.1659692823625
 20
354.4603807397959
 30
0.0
 11
143.1659692823625
 21
295.4603807397959
 31
0.0
  0
LINE
  5
91
330
18
100
AcDbEntity
  8
PV
 62
     7
100
AcDbLine
 10
613.8829692823625
 20
632.5453807397959
 30
0.0
 11
613.8829692823625
 21
643.5453807397959
 31
0.0
  0
LINE
  5
92
330
18
100
AcDbEntity
  8
PV
 62
     7
100
AcDbLine
 10
679.8829692823625
 20
643.5453807397959
 30
0.0
 11
715.8829692823625
 21
643.5453807397959
 31
0.0
  0
LINE
  5
93
330
18
100
AcDbEntity
  8
PV
 62
     7
100
AcDbLine
 10
679.8829692823625
 20
641.245380739796
 30
0.0
 11
715.8829692823625
 21
641.245380739796
 31
0.0
  0
LINE
  5
94
330
18
100
AcDbEntity
  8
PV
 62
     7
100
AcDbLine
 10
715.8829692823625
 20
632.5453807397959
 30
0.0
 11
715.8829692823625
 21
643.5453807397959
 31
0.0
  0
LINE
  5
95
330
18
100
AcDbEntity
  8
PV
 62
     7
100
AcDbLine
 10
679.8829692823625
 20
632.5453807397959
 30
0.0
 11
679.8829692823625
 21
643.5453807397959
 31
0.0
  0
LINE
  5
96
330
18
100
AcDbEntity
  8
PV
 62
     7
100
AcDbLine
 10
584.6199692823624
 20
255.5533807397959
 30
0.0
 11
568.9629692823626
 21
280.6593807397959
 31
0.0
  0
LINE
  5
99
330
18
100
AcDbEntity
  8
PV
 62
     7
100
AcDbLine
 10
577.8829692823625
 20
632.5453807397959
 30
0.0
 11
577.8829692823625
 21
643.5453807397959
 31
0.0
  0
LINE
  5
9A
330
18
100
AcDbEntity
  8
PV
 62
     7
100
AcDbLine
 10
662.3829692823625
 20
632.5453807397959
 30
0.0
 11
662.3829692823625
 21
642.545380739796
 31
0.0
  0
LINE
  5
9B
330
18
100
AcDbEntity
  8
PV
 62
     7
100
AcDbLine
 10
662.3829692823625
 20
642.545380739796
 30
0.0
 11
652.3829692823625
 21
642.545380739796
 31
0.0
  0
LINE
  5
9C
330
18
100
AcDbEntity
  8
PV
 62
     7
100
AcDbLine
 10
652.3829692823625
 20
642.545380739796
 30
0.0
 11
652.3829692823625
 21
632.5453807397959
 31
0.0
  0
LINE
  5
9E
330
18
100
AcDbEntity
  8
PV
 62
     7
100
AcDbLine
 10
711.8829692823624
 20
255.9603807397959
 30
0.0
 11
590.2993771473612
 21
255.9603807397959
 31
0.0
  0
LINE
  5
9F
330
18
100
AcDbEntity
  8
PV
 62
     7
100
AcDbLine
 10
711.8829692823624
 20
255.9603807397959
 30
0.0
 11
711.8829692823624
 21
252.4603807397959
 31
0.0
  0
LINE
  5
A0
330
18
100
AcDbEntity
  8
PV
 62
     7
100
AcDbLine
 10
711.8829692823624
 20
252.4603807397959
 30
0.0
 11
586.0344718912241
 21
252.4603807397959
 31
0.0
  0
LINE
  5
A1
330
18
100
AcDbEntity
  8
PV
 62
     7
100
AcDbLine
 10
545.8829692823626
 20
255.9603807397959
 30
0.0
 11
545.8829692823626
 21
252.4603807397959
 31
0.0
  0
LINE
  5
A4
330
18
100
AcDbEntity
  8
PV
 62
     7
100
AcDbLine
 10
633.3572541246265
 20
252.4603807397959
 30
0.0
 11
634.487698583201
 21
122.9603807397959
 31
0.0
  0
LINE
  5
A6
330
18
100
AcDbEntity
  8
PV
 62
     7
100
AcDbLine
 10
624.4089692823625
 20
252.4603807397959
 30
0.0
 11
623.2782377648528
 21
122.9603807397959
 31
0.0
  0
LINE
  5
A7
330
18
100
AcDbEntity
  8
PV
 62
     7
100
AcDbLine
 10
155.3659692823625
 20
255.9603807397959
 30
0.0
 11
155.3659692823625
 21
252.4603807397959
 31
0.0
  0
LINE
  5
A8
330
18
100
AcDbEntity
  8
PV
 62
     7
100
AcDbLine
 10
270.3659692823626
 20
252.4603807397959
 30
0.0
 11
252.2448182823625
 21
252.4603807397959
 31
0.0
  0
LINE
  5
A9
330
18
100
AcDbEntity
  8
PV
 62
     7
100
AcDbLine
 10
270.3659692823626
 20
255.9603807397959
 30
0.0
 11
252.3508792823625
 21
255.9603807397959
 31
0.0
  0
LINE
  5
AA
330
18
100
AcDbEntity
  8
PV
 62
     7
100
AcDbLine
 10
270.3659692823626
 20
255.9603807397959
 30
0.0
 11
270.3659692823626
 21
252.4603807397959
 31
0.0
  0
LINE
  5
AB
330
18
100
AcDbEntity
  8
PV
 62
     7
100
AcDbLine
 10
278.8659692823626
 20
256.9603197397959
 30
0.0
 11
278.8659692823626
 21
249.9603807397959
 31
0.0
  0
LINE
  5
B1
330
18
100
AcDbEntity
  8
PV
  6
CENTER
 62
     1
100
AcDbLine
 10
172.8659692823625
 20
329.1953807397959
 30
0.0
 11
172.8659692823625
 21
302.7113807397959
 31
0.0
  0
ARC
  5
B3
330
18
100
AcDbEntity
  8
PV
 62
     7
100
AcDbCircle
 10
597.8829692823625
 20
627.0453807397959
 30
0.0
 40
5.0
100
AcDbArc
 50
0.0
 51
90.0
  0
ARC
  5
B4
330
18
100
AcDbEntity
  8
PV
 62
     7
100
AcDbCircle
 10
597.8829692823625
 20
596.045380739796
 30
0.0
 40
5.0
100
AcDbArc
 50
270.0
 51
0.0
  0
LINE
  5
B5
330
18
100
AcDbEntity
  8
PV
 62
     7
100
AcDbLine
 10
558.8829692823625
 20
483.545380739796
 30
0.0
 11
558.8829692823625
 21
505.545380739796
 31
0.0
  0
LINE
  5
B6
330
18
100
AcDbEntity
  8
PV
 62
     7
100
AcDbLine
 10
594.8829692823625
 20
483.545380739796
 30
0.0
 11
594.8829692823625
 21
505.545380739796
 31
0.0
  0
LINE
  5
B7
330
18
100
AcDbEntity
  8
PV
 62
     7
100
AcDbLine
 10
594.8829692823625
 20
505.545380739796
 30
0.0
 11
558.8829692823625
 21
505.545380739796
 31
0.0
  0
LINE
  5
B8
330
18
100
AcDbEntity
  8
PV
 62
     7
100
AcDbLine
 10
582.8829692823624
 20
511.5453807397959
 30
0.0
 11
570.8829692823625
 21
511.5453807397959
 31
0.0
  0
LINE
  5
B9
330
18
100
AcDbEntity
  8
PV
 62
     7
100
AcDbLine
 10
570.8829692823625
 20
505.545380739796
 30
0.0
 11
570.8829692823625
 21
511.5453807397959
 31
0.0
  0
LINE
  5
BA
330
18
100
AcDbEntity
  8
PV
 62
     7
100
AcDbLine
 10
582.8829692823624
 20
505.545380739796
 30
0.0
 11
582.8829692823624
 21
511.5453807397959
 31
0.0
  0
LINE
  5
BB
330
18
100
AcDbEntity
  8
PV
 62
     7
100
AcDbLine
 10
594.8829692823625
 20
483.545380739796
 30
0.0
 11
558.8829692823625
 21
483.545380739796
 31
0.0
  0
LINE
  5
BC
330
18
100
AcDbEntity
  8
PV
 62
     7
100
AcDbLine
 10
571.8829692823625
 20
511.5453807397959
 30
0.0
 11
571.8829692823625
 21
515.0453807397959
 31
0.0
  0
LINE
  5
BD
330
18
100
AcDbEntity
  8
PV
 62
     7
100
AcDbLine
 10
581.8829692823625
 20
511.5453807397959
 30
0.0
 11
581.8829692823625
 21
515.0453807397959
 31
0.0
  0
LINE
  5
BE
330
18
100
AcDbEntity
  8
PV
 62
     7
100
AcDbLine
 10
600.8829692823625
 20
515.0453807397959
 30
0.0
 11
546.3829692823626
 21
515.0453807397959
 31
0.0
  0
ARC
  5
BF
330
18
100
AcDbEntity
  8
PV
 62
     7
100
AcDbCircle
 10
546.3829692823626
 20
517.045380739796
 30
0.0
 40
2.0
100
AcDbArc
 50
180.0
 51
270.0
  0
ARC
  5
C0
330
18
100
AcDbEntity
  8
PV
 62
     7
100
AcDbCircle
 10
604.8829692823625
 20
512.5453807397959
 30
0.0
 40
2.0
100
AcDbArc
 50
180.0
 51
270.0
  0
ARC
  5
C1
330
18
100
AcDbEntity
  8
PV
 62
     7
100
AcDbCircle
 10
600.8829692823625
 20
513.045380739796
 30
0.0
 40
2.0
100
AcDbArc
 50
0.0
 51
90.0
  0
LINE
  5
C2
330
18
100
AcDbEntity
  8
PV
 62
     7
100
AcDbLine
 10
602.8829692823625
 20
513.045380739796
 30
0.0
 11
602.8829692823625
 21
632.5453807397959
 31
0.0
  0
LINE
  5
C3
330
18
100
AcDbEntity
  8
PV
 62
     7
100
AcDbLine
 10
151.8659692823625
 20
306.4603807397959
 30
0.0
 11
151.8659692823625
 21
256.4603807397959
 31
0.0
  0
LINE
  5
C4
330
18
100
AcDbEntity
  8
PV
 62
     7
100
AcDbLine
 10
151.8659692823625
 20
286.4603807397959
 30
0.0
 11
151.8659692823625
 21
280.4603807397959
 31
0.0
  0
LINE
  5
C5
330
18
100
AcDbEntity
  8
PV
 62
     7
100
AcDbLine
 10
151.8659692823625
 20
280.4603807397959
 30
0.0
 11
149.5659692823626
 21
280.4603807397959
 31
0.0
  0
LINE
  5
C6
330
18
100
AcDbEntity
  8
PV
 62
     7
100
AcDbLine
 10
149.5659692823626
 20
280.4603807397959
 30
0.0
 11
149.5659692823626
 21
293.1603807397959
 31
0.0
  0
LINE
  5
C7
330
18
100
AcDbEntity
  8
PV
 62
     7
100
AcDbLine
 10
149.5659692823626
 20
293.1603807397959
 30
0.0
 11
140.8659692823625
 21
293.1603807397959
 31
0.0
  0
LINE
  5
C8
330
18
100
AcDbEntity
  8
PV
 62
     7
100
AcDbLine
 10
151.8659692823625
 20
295.4603807397959
 30
0.0
 11
143.1659692823625
 21
295.4603807397959
 31
0.0
  0
LINE
  5
CA
330
18
100
AcDbEntity
  8
PV
 62
     7
100
AcDbLine
 10
563.4399692823625
 20
255.9603807397959
 30
0.0
 11
545.8829692823626
 21
255.9603807397959
 31
0.0
  0
LINE
  5
CB
330
18
100
AcDbEntity
  8
PV
 62
     7
100
AcDbLine
 10
567.6809692823626
 20
252.4603807397959
 30
0.0
 11
545.8829692823626
 21
252.4603807397959
 31
0.0
  0
LINE
  5
CC
330
18
100
AcDbEntity
  8
PV
 62
     7
100
AcDbLine
 10
566.8829692823625
 20
324.4603807397959
 30
0.0
 11
563.8829692823625
 21
324.4603807397959
 31
0.0
  0
LINE
  5
D0
330
18
100
AcDbEntity
  8
PV
  6
CENTER
 62
     1
100
AcDbLine
 10
146.8659692823625
 20
295.4603807397959
 30
0.0
 11
146.8659692823625
 21
179.8203807397959
 31
0.0
  0
LINE
  5
D1
330
18
100
AcDbEntity
  8
PV
 62
     7
100
AcDbLine
 10
148.8659692823626
 20
193.6923807397959
 30
0.0
 11
148.8659692823626
 21
276.4713807397959
 31
0.0
  0
LINE
  5
D2
330
18
100
AcDbEntity
  8
PV
 62
     7
100
AcDbLine
 10
144.8659692823625
 20
192.8493807397959
 30
0.0
 11
144.8659692823625
 21
276.4713807397959
 31
0.0
  0
LINE
  5
D3
330
18
100
AcDbEntity
  8
PV
 62
     7
100
AcDbLine
 10
142.3419692823625
 20
192.3173807397959
 30
0.0
 11
150.5239692823626
 21
194.0423807397959
 31
0.0
  0
LINE
  5
D4
330
18
100
AcDbEntity
  8
PV
 62
     7
100
AcDbLine
 10
657.8829692823624
 20
297.9603807397959
 30
0.0
 11
653.3829692823625
 21
297.9603807397959
 31
0.0
  0
LINE
  5
D5
330
18
100
AcDbEntity
  8
PV
 62
     7
100
AcDbLine
 10
611.8829692823624
 20
294.9603807397959
 30
0.0
 11
611.8829692823624
 21
265.9603807397959
 31
0.0
  0
LINE
  5
D6
330
18
100
AcDbEntity
  8
PV
 62
     7
100
AcDbLine
 10
657.8829692823624
 20
262.9603807397959
 30
0.0
 11
614.8829692823625
 21
262.9603807397959
 31
0.0
  0
LINE
  5
D7
330
18
100
AcDbEntity
  8
PV
 62
     7
100
AcDbLine
 10
660.8829692823625
 20
265.9603807397959
 30
0.0
 11
660.8829692823625
 21
294.9603807397959
 31
0.0
  0
ARC
  5
D8
330
18
100
AcDbEntity
  8
PV
 62
     7
100
AcDbCircle
 10
636.3829692823625
 20
280.4603807397959
 30
0.0
 40
17.0
100
AcDbArc
 50
180.0
 51
0.0
  0
LINE
  5
D9
330
18
100
AcDbEntity
  8
PV
 62
     7
100
AcDbLine
 10
653.3829692823625
 20
280.4603807397959
 30
0.0
 11
653.3829692823625
 21
322.9603807397959
 31
0.0
  0
LINE
  5
DA
330
18
100
AcDbEntity
  8
PV
 62
     7
100
AcDbLine
 10
619.3829692823625
 20
280.4603807397959
 30
0.0
 11
619.3829692823625
 21
290.2573807397959
 31
0.0
  0
LINE
  5
DB
330
18
100
AcDbEntity
  8
PV
 62
     7
100
AcDbLine
 10
619.3829692823625
 20
297.9603807397959
 30
0.0
 11
614.8829692823625
 21
297.9603807397959
 31
0.0
  0
ARC
  5
DC
330
18
100
AcDbEntity
  8
PV
 62
     7
100
AcDbCircle
 10
615.8829692823625
 20
292.9603807397959
 30
0.0
 40
4.5
100
AcDbArc
 50
321.058
 51
38.94239999999999
  0
LINE
  5
DD
330
18
100
AcDbEntity
  8
PV
 62
     7
100
AcDbLine
 10
619.3829692823625
 20
295.9143807397959
 30
0.0
 11
619.3829692823625
 21
322.9603807397959
 31
0.0
  0
ARC
  5
DE
330
18
100
AcDbEntity
  8
PV
 62
     7
100
AcDbCircle
 10
657.8829692823624
 20
265.9603807397959
 30
0.0
 40
3.0
100
AcDbArc
 50
270.0
 51
0.0
  0
ARC
  5
DF
330
18
100
AcDbEntity
  8
PV
 62
     7
100
AcDbCircle
 10
614.8829692823625
 20
265.9603807397959
 30
0.0
 40
3.0
100
AcDbArc
 50
180.0
 51
270.0
  0
ARC
  5
E0
330
18
100
AcDbEntity
  8
PV
 62
     7
100
AcDbCircle
 10
657.8829692823624
 20
294.9603807397959
 30
0.0
 40
3.0
100
AcDbArc
 50
0.0
 51
90.0
  0
ARC
  5
E1
330
18
100
AcDbEntity
  8
PV
 62
     7
100
AcDbCircle
 10
614.8829692823625
 20
294.9603807397959
 30
0.0
 40
3.0
100
AcDbArc
 50
90.0
 51
180.0
  0
LINE
  5
E2
330
18
100
AcDbEntity
  8
PV
 62
     7
100
AcDbLine
 10
731.3829692823625
 20
298.4603807397959
 30
0.0
 11
653.3829692823625
 21
298.4603807397959
 31
0.0
  0
LINE
  5
E4
330
18
100
AcDbEntity
  8
PV
 62
     7
100
AcDbLine
 10
619.3829692823625
 20
301.4603807397959
 30
0.0
 11
602.8829692823625
 21
301.4603807397959
 31
0.0
  0
LINE
  5
E5
330
18
100
AcDbEntity
  8
PV
 62
     7
100
AcDbLine
 10
619.3829692823625
 20
298.4603807397959
 30
0.0
 11
602.8829692823625
 21
298.4603807397959
 31
0.0
  0
LINE
  5
E6
330
18
100
AcDbEntity
  8
PV
 62
     7
100
AcDbLine
 10
731.3829692823625
 20
262.4603807397959
 30
0.0
 11
731.3829692823625
 21
298.4603807397959
 31
0.0
  0
LINE
  5
E9
330
18
100
AcDbEntity
  8
PV
  6
CENTER
 62
     1
100
AcDbLine
 10
212.8659692823625
 20
409.8733807397959
 30
0.0
 11
212.8659692823625
 21
103.6604997397959
 31
0.0
  0
LINE
  5
EA
330
18
100
AcDbEntity
  8
PV
 62
     7
100
AcDbLine
 10
611.8829692823624
 20
492.045380739796
 30
0.0
 11
611.8829692823624
 21
510.5453807397959
 31
0.0
  0
LINE
  5
EB
330
18
100
AcDbEntity
  8
PV
 62
     7
100
AcDbLine
 10
660.8829692823625
 20
492.045380739796
 30
0.0
 11
660.8829692823625
 21
510.5453807397959
 31
0.0
  0
LINE
  5
ED
330
18
100
AcDbEntity
  8
PV
 62
     7
100
AcDbLine
 10
288.8659692823626
 20
307.9603197397959
 30
0.0
 11
288.8659692823626
 21
322.9603807397959
 31
0.0
  0
LINE
  5
EE
330
18
100
AcDbEntity
  8
PV
 62
     7
100
AcDbLine
 10
322.8659692823625
 20
280.4603807397959
 30
0.0
 11
322.8659692823625
 21
322.9603807397959
 31
0.0
  0
ARC
  5
EF
330
18
100
AcDbEntity
  8
PV
 62
     7
100
AcDbCircle
 10
305.8659692823626
 20
280.4603807397959
 30
0.0
 40
17.0
100
AcDbArc
 50
270.0
 51
0.0
  0
ARC
  5
F0
330
18
100
AcDbEntity
  8
PV
 62
     7
100
AcDbCircle
 10
612.3829692823625
 20
492.045380739796
 30
0.0
 40
0.5
100
AcDbArc
 50
180.0
 51
270.0
  0
LINE
  5
F1
330
18
100
AcDbEntity
  8
PV
 62
     7
100
AcDbLine
 10
305.8659692823626
 20
263.4603807397959
 30
0.0
 11
300.8659692823625
 21
263.4603807397959
 31
0.0
  0
LINE
  5
F3
330
18
100
AcDbEntity
  8
PV
 62
     7
100
AcDbLine
 10
612.3829692823625
 20
491.5453807397959
 30
0.0
 11
625.4289692823626
 21
491.5453807397959
 31
0.0
  0
LINE
  5
F4
330
18
100
AcDbEntity
  8
PV
 62
     7
100
AcDbLine
 10
743.5519692823625
 20
305.9603807397959
 30
0.0
 11
743.3769692823625
 21
326.0223807397959
 31
0.0
  0
LINE
  5
F5
330
18
100
AcDbEntity
  8
PV
 62
     7
100
AcDbLine
 10
743.3769692823625
 20
326.0223807397959
 30
0.0
 11
739.3716475066054
 21
402.4603807397959
 31
0.0
  0
LINE
  5
F6
330
18
100
AcDbEntity
  8
PV
 62
     7
100
AcDbLine
 10
629.7942785700912
 20
402.4603807397959
 30
0.0
 11
739.3716475066054
 21
402.4603807397959
 31
0.0
  0
LINE
  5
F8
330
18
100
AcDbEntity
  8
PV
 62
     7
100
AcDbLine
 10
626.0899692823625
 20
331.7633807397959
 30
0.0
 11
629.7942785700912
 21
402.4603807397959
 31
0.0
  0
LINE
  5
100
330
18
100
AcDbEntity
  8
PV
 62
     7
100
AcDbLine
 10
734.3709692823625
 20
516.756380739796
 30
0.0
 11
634.7949692823625
 21
516.756380739796
 31
0.0
  0
LINE
  5
101
330
18
100
AcDbEntity
  8
PV
 62
     7
100
AcDbLine
 10
629.7949692823626
 20
621.3333807397958
 30
0.0
 11
629.7949692823626
 21
561.8653807397959
 31
0.0
  0
LINE
  5
103
330
18
100
AcDbEntity
  8
PV
 62
     7
100
AcDbLine
 10
739.3709692823626
 20
621.3333807397958
 30
0.0
 11
739.3709692823626
 21
521.756380739796
 31
0.0
  0
LINE
  5
104
330
18
100
AcDbEntity
  8
PV
 62
     7
100
AcDbLine
 10
734.3709692823625
 20
626.3333807397958
 30
0.0
 11
634.7949692823625
 21
626.3333807397958
 31
0.0
  0
ARC
  5
105
330
18
100
AcDbEntity
  8
PV
 62
     7
100
AcDbCircle
 10
734.3709692823625
 20
521.756380739796
 30
0.0
 40
5.0
100
AcDbArc
 50
270.0
 51
0.0
  0
ARC
  5
106
330
18
100
AcDbEntity
  8
PV
 62
     7
100
AcDbCircle
 10
734.3709692823625
 20
621.3333807397958
 30
0.0
 40
5.0
100
AcDbArc
 50
0.0
 51
90.0
  0
ARC
  5
107
330
18
100
AcDbEntity
  8
PV
 62
     7
100
AcDbCircle
 10
634.7949692823625
 20
621.3333807397958
 30
0.0
 40
5.0
100
AcDbArc
 50
90.0
 51
180.0
  0
ARC
  5
108
330
18
100
AcDbEntity
  8
PV
 62
     7
100
AcDbCircle
 10
634.7949692823625
 20
521.756380739796
 30
0.0
 40
5.0
100
AcDbArc
 50
180.0
 51
270.0
  0
ARC
  5
109
330
18
100
AcDbEntity
  8
PV
 62
     7
100
AcDbCircle
 10
614.5829692823626
 20
548.5453807397959
 30
0.0
 40
20.2193
100
AcDbArc
 50
318.792
 51
41.2077
  0
LINE
  5
10A
330
18
100
AcDbEntity
  8
PV
 62
     7
100
AcDbLine
 10
629.7949692823626
 20
535.2243807397959
 30
0.0
 11
629.7949692823626
 21
521.756380739796
 31
0.0
  0
LINE
  5
10B
330
18
100
AcDbEntity
  8
PV
 62
     7
100
AcDbLine
 10
744.8829692823625
 20
626.045380739796
 30
0.0
 11
744.8829692823625
 21
517.045380739796
 31
0.0
  0
LINE
  5
10C
330
18
100
AcDbEntity
  8
PV
 62
     7
100
AcDbLine
 10
630.0829692823626
 20
511.2453807397959
 30
0.0
 11
739.0829692823626
 21
511.2453807397959
 31
0.0
  0
ARC
  5
10D
330
18
100
AcDbEntity
  8
PV
 62
     7
100
AcDbCircle
 10
739.0829692823626
 20
517.045380739796
 30
0.0
 40
5.799999999999999
100
AcDbArc
 50
270.0
 51
0.0
  0
ARC
  5
10E
330
18
100
AcDbEntity
  8
PV
 62
     7
100
AcDbCircle
 10
630.0829692823626
 20
517.045380739796
 30
0.0
 40
5.799999999999999
100
AcDbArc
 50
180.0
 51
270.0
  0
ARC
  5
10F
330
18
100
AcDbEntity
  8
PV
 62
     7
100
AcDbCircle
 10
739.0829692823626
 20
626.045380739796
 30
0.0
 40
5.799999999999999
100
AcDbArc
 50
0.0
 51
90.0
  0
LINE
  5
110
330
18
100
AcDbEntity
  8
PV
 62
     7
100
AcDbLine
 10
630.0829692823626
 20
631.845380739796
 30
0.0
 11
739.0829692823626
 21
631.845380739796
 31
0.0
  0
ARC
  5
111
330
18
100
AcDbEntity
  8
PV
 62
     7
100
AcDbCircle
 10
630.0829692823626
 20
626.045380739796
 30
0.0
 40
5.799999999999999
100
AcDbArc
 50
90.0
 51
180.0
  0
LINE
  5
112
330
18
100
AcDbEntity
  8
PV
 62
     7
100
AcDbLine
 10
624.2829692823626
 20
626.045380739796
 30
0.0
 11
624.2829692823626
 21
562.7483807397959
 31
0.0
  0
ARC
  5
114
330
18
100
AcDbEntity
  8
PV
 62
     7
100
AcDbCircle
 10
614.5829692823626
 20
548.5453807397959
 30
0.0
 40
17.19999999999999
100
AcDbArc
 50
304.3299999999999
 51
55.67029999999999
  0
LINE
  5
115
330
18
100
AcDbEntity
  8
PV
 62
     7
100
AcDbLine
 10
624.2829692823626
 20
534.3413807397959
 30
0.0
 11
624.2829692823626
 21
517.045380739796
 31
0.0
  0
LINE
  5
116
330
18
100
AcDbEntity
  8
PV
 62
     7
100
AcDbLine
 10
744.8829692823625
 20
301.4603807397959
 30
0.0
 11
744.8829692823625
 21
305.9603807397959
 31
0.0
  0
LINE
  5
117
330
18
100
AcDbEntity
  8
PV
 62
     7
100
AcDbLine
 10
744.8829692823625
 20
305.9603807397959
 30
0.0
 11
653.3829692823625
 21
305.9603807397959
 31
0.0
  0
LINE
  5
118
330
18
100
AcDbEntity
  8
PV
 62
     7
100
AcDbLine
 10
271.6609692823625
 20
325.9363807397959
 30
0.0
 11
267.6546338244063
 21
402.3733807397958
 31
0.0
  0
LINE
  5
119
330
18
100
AcDbEntity
  8
PV
 62
     7
100
AcDbLine
 10
271.8177659067457
 20
307.9603197397959
 30
0.0
 11
271.6609692823625
 21
325.9363807397959
 31
0.0
  0
LINE
  5
11B
330
18
100
AcDbEntity
  8
PV
 62
     7
100
AcDbLine
 10
158.0772386585044
 20
402.373380739796
 30
0.0
 11
267.6546338244063
 21
402.3733807397959
 31
0.0
  0
LINE
  5
11D
330
18
100
AcDbEntity
  8
PV
 62
     7
100
AcDbLine
 10
154.0719692823626
 20
325.9363807397959
 30
0.0
 11
158.0772386585044
 21
402.373380739796
 31
0.0
  0
LINE
  5
120
330
18
100
AcDbEntity
  8
PV
 62
     7
100
AcDbLine
 10
153.9629692823625
 20
313.4603807397959
 30
0.0
 11
154.0719692823626
 21
325.9363807397959
 31
0.0
  0
LINE
  5
121
330
18
100
AcDbEntity
  8
PV
  6
CENTER
 62
     1
100
AcDbLine
 10
557.8829692823624
 20
585.5453807397959
 30
0.0
 11
576.8829692823625
 21
541.5453807397959
 31
0.0
  0
LINE
  5
122
330
18
100
AcDbEntity
  8
PV
  6
CENTER
 62
     1
100
AcDbLine
 10
595.8829692823625
 20
357.4893807397959
 30
0.0
 11
595.8829692823625
 21
331.4313807397959
 31
0.0
  0
LINE
  5
125
330
18
100
AcDbEntity
  8
PV
 62
     7
100
AcDbLine
 10
613.8829692823625
 20
301.4603807397959
 30
0.0
 11
613.8829692823625
 21
352.9603807397959
 31
0.0
  0
LINE
  5
126
330
18
100
AcDbEntity
  8
PV
 62
     7
100
AcDbLine
 10
246.8659692823625
 20
346.4603807397959
 30
0.0
 11
246.8659692823625
 21
358.9603807397959
 31
0.0
  0
LINE
  5
128
330
18
100
AcDbEntity
  8
PV
 62
     7
100
AcDbLine
 10
246.8659692823625
 20
358.9603807397959
 30
0.0
 11
238.8659692823626
 21
358.9603807397959
 31
0.0
  0
LINE
  5
12D
330
18
100
AcDbEntity
  8
PV
 62
     7
100
AcDbLine
 10
580.5829692823626
 20
358.9603807397959
 30
0.0
 11
573.1829692823626
 21
358.9603807397959
 31
0.0
  0
LINE
  5
12F
330
18
100
AcDbEntity
  8
PV
 62
     7
100
AcDbLine
 10
572.8829692823625
 20
358.6603807397959
 30
0.0
 11
573.1829692823626
 21
358.9603807397959
 31
0.0
  0
LINE
  5
131
330
18
100
AcDbEntity
  8
PV
 62
     7
100
AcDbLine
 10
580.5829692823626
 20
358.9603807397959
 30
0.0
 11
580.8829692823625
 21
358.6603807397959
 31
0.0
  0
LINE
  5
139
330
18
100
AcDbEntity
  8
PV
  6
CENTER
 62
     1
100
AcDbLine
 10
605.8829692823625
 20
350.9973807397959
 30
0.0
 11
605.8829692823625
 21
337.9223807397959
 31
0.0
  0
LINE
  5
13A
330
18
100
AcDbEntity
  8
PV
  6
CENTER
 62
     1
100
AcDbLine
 10
585.8829692823625
 20
350.9973807397959
 30
0.0
 11
585.8829692823625
 21
337.9223807397959
 31
0.0
  0
LINE
  5
13B
330
18
100
AcDbEntity
  8
PV
 62
     7
100
AcDbLine
 10
744.3829692823625
 20
628.400380739796
 30
0.0
 11
744.3829692823625
 21
629.545380739796
 31
0.0
  0
ARC
  5
13C
330
18
100
AcDbEntity
  8
PV
 62
     7
100
AcDbCircle
 10
660.3829692823625
 20
492.045380739796
 30
0.0
 40
0.5
100
AcDbArc
 50
270.0
 51
0.0
  0
LINE
  5
13D
330
18
100
AcDbEntity
  8
PV
 62
     7
100
AcDbLine
 10
619.3829692823625
 20
322.9603807397959
 30
0.0
 11
653.3829692823625
 21
322.9603807397959
 31
0.0
  0
LINE
  5
13E
330
18
100
AcDbEntity
  8
PV
 62
     7
100
AcDbLine
 10
288.8659692823626
 20
322.9603807397959
 30
0.0
 11
322.8659692823625
 21
322.9603807397959
 31
0.0
  0
LINE
  5
13F
330
18
100
AcDbEntity
  8
PV
 62
     7
100
AcDbLine
 10
621.8829692823625
 20
330.9603807397959
 30
0.0
 11
650.8829692823625
 21
330.9603807397959
 31
0.0
  0
LINE
  5
140
330
18
100
AcDbEntity
  8
PV
 62
     7
100
AcDbLine
 10
652.3829692823625
 20
329.4603807397959
 30
0.0
 11
652.3829692823625
 21
322.9603807397959
 31
0.0
  0
LINE
  5
141
330
18
100
AcDbEntity
  8
PV
 62
     7
100
AcDbLine
 10
620.3829692823624
 20
329.4603807397959
 30
0.0
 11
620.3829692823624
 21
322.9603807397959
 31
0.0
  0
ARC
  5
142
330
18
100
AcDbEntity
  8
PV
 62
     7
100
AcDbCircle
 10
650.8829692823625
 20
329.4603807397959
 30
0.0
 40
1.5
100
AcDbArc
 50
0.0
 51
90.0
  0
ARC
  5
143
330
18
100
AcDbEntity
  8
PV
 62
     7
100
AcDbCircle
 10
621.8829692823625
 20
329.4603807397959
 30
0.0
 40
1.5
100
AcDbArc
 50
90.0
 51
180.0
  0
LINE
  5
144
330
18
100
AcDbEntity
  8
PV
 62
     7
100
AcDbLine
 10
289.8659692823625
 20
329.4603807397959
 30
0.0
 11
289.8659692823625
 21
322.9603807397959
 31
0.0
  0
LINE
  5
145
330
18
100
AcDbEntity
  8
PV
 62
     7
100
AcDbLine
 10
321.8659692823625
 20
329.4603807397959
 30
0.0
 11
321.8659692823625
 21
322.9603807397959
 31
0.0
  0
LINE
  5
146
330
18
100
AcDbEntity
  8
PV
 62
     7
100
AcDbLine
 10
291.3659692823626
 20
330.9603807397959
 30
0.0
 11
320.3659692823626
 21
330.9603807397959
 31
0.0
  0
ARC
  5
147
330
18
100
AcDbEntity
  8
PV
 62
     7
100
AcDbCircle
 10
291.3659692823626
 20
329.4603807397959
 30
0.0
 40
1.5
100
AcDbArc
 50
90.0
 51
180.0
  0
ARC
  5
148
330
18
100
AcDbEntity
  8
PV
 62
     7
100
AcDbCircle
 10
320.3659692823626
 20
329.4603807397959
 30
0.0
 40
1.5
100
AcDbArc
 50
0.0
 51
90.0
  0
CIRCLE
  5
149
330
18
100
AcDbEntity
  8
PV
 62
     7
100
AcDbCircle
 10
636.3829692823625
 20
478.5453807397959
 30
0.0
 40
17.0
  0
LINE
  5
14A
330
18
100
AcDbEntity
  8
PV
 62
     7
100
AcDbLine
 10
647.3369692823625
 20
491.5453807397959
 30
0.0
 11
660.3829692823625
 21
491.5453807397959
 31
0.0
  0
LINE
  5
14F
330
18
100
AcDbEntity
  8
PV
 62
     7
100
AcDbLine
 10
629.3829692823625
 20
330.9603807397959
 30
0.0
 11
643.3829692823625
 21
330.9603807397959
 31
0.0
  0
LINE
  5
153
330
18
100
AcDbEntity
  8
PV
 62
     7
100
AcDbLine
 10
632.7689692823625
 20
338.3713807397959
 30
0.0
 11
639.9969692823624
 21
338.3713807397959
 31
0.0
  0
LINE
  5
154
330
18
100
AcDbEntity
  8
PV
 62
     7
100
AcDbLine
 10
639.9969692823624
 20
338.3713807397959
 30
0.0
 11
641.3829692823625
 21
337.5713807397959
 31
0.0
  0
LINE
  5
155
330
18
100
AcDbEntity
  8
PV
 62
     7
100
AcDbLine
 10
632.7689692823625
 20
338.3713807397959
 30
0.0
 11
631.3829692823625
 21
337.5713807397959
 31
0.0
  0
LINE
  5
156
330
18
100
AcDbEntity
  8
PV
 62
     7
100
AcDbLine
 10
641.3829692823625
 20
336.9603807397959
 30
0.0
 11
641.3829692823625
 21
337.5713807397959
 31
0.0
  0
LINE
  5
157
330
18
100
AcDbEntity
  8
PV
 62
     7
100
AcDbLine
 10
631.3829692823625
 20
336.9603807397959
 30
0.0
 11
631.3829692823625
 21
337.5713807397959
 31
0.0
  0
LINE
  5
158
330
18
100
AcDbEntity
  8
PV
 62
     7
100
AcDbLine
 10
644.4659692823624
 20
336.3353807397959
 30
0.0
 11
644.4659692823624
 21
331.5863807397959
 31
0.0
  0
LINE
  5
159
330
18
100
AcDbEntity
  8
PV
 62
     7
100
AcDbLine
 10
629.3829692823625
 20
336.9603807397959
 30
0.0
 11
643.3829692823625
 21
336.9603807397959
 31
0.0
  0
LINE
  5
15A
330
18
100
AcDbEntity
  8
PV
 62
     7
100
AcDbLine
 10
643.3829692823625
 20
336.9603807397959
 30
0.0
 11
644.4659692823624
 21
336.3353807397959
 31
0.0
  0
LINE
  5
15B
330
18
100
AcDbEntity
  8
PV
 62
     7
100
AcDbLine
 10
643.3829692823625
 20
330.9603807397959
 30
0.0
 11
644.4659692823624
 21
331.5863807397959
 31
0.0
  0
LINE
  5
15C
330
18
100
AcDbEntity
  8
PV
 62
     7
100
AcDbLine
 10
628.2999692823624
 20
336.3353807397959
 30
0.0
 11
628.2999692823624
 21
331.5863807397959
 31
0.0
  0
LINE
  5
15D
330
18
100
AcDbEntity
  8
PV
 62
     7
100
AcDbLine
 10
629.3829692823625
 20
336.9603807397959
 30
0.0
 11
628.2999692823624
 21
336.3353807397959
 31
0.0
  0
LINE
  5
15E
330
18
100
AcDbEntity
  8
PV
 62
     7
100
AcDbLine
 10
629.3829692823625
 20
330.9603807397959
 30
0.0
 11
628.2999692823624
 21
331.5863807397959
 31
0.0
  0
LINE
  5
162
330
18
100
AcDbEntity
  8
PV
 62
     7
100
AcDbLine
 10
602.8829692823626
 20
262.4603807397959
 30
0.0
 11
731.3829692823625
 21
262.4603807397959
 31
0.0
  0
LINE
  5
164
330
18
100
AcDbEntity
  8
PV
 62
     7
100
AcDbLine
 10
590.7303517064887
 20
256.4603807397959
 30
0.0
 11
742.3829692823625
 21
256.4603807397959
 31
0.0
  0
LINE
  5
171
330
18
100
AcDbEntity
  8
PV
 62
     7
100
AcDbLine
 10
555.8619692823625
 20
589.0453807397959
 30
0.0
 11
553.8419692823626
 21
585.5453807397959
 31
0.0
  0
LINE
  5
172
330
18
100
AcDbEntity
  8
PV
 62
     7
100
AcDbLine
 10
553.8419692823626
 20
585.5453807397959
 30
0.0
 11
555.8619692823625
 21
582.0453807397959
 31
0.0
  0
LINE
  5
173
330
18
100
AcDbEntity
  8
PV
 62
     7
100
AcDbLine
 10
555.8619692823625
 20
582.0453807397959
 30
0.0
 11
559.9039692823626
 21
582.0453807397959
 31
0.0
  0
LINE
  5
174
330
18
100
AcDbEntity
  8
PV
 62
     7
100
AcDbLine
 10
559.9039692823626
 20
582.0453807397959
 30
0.0
 11
561.9239692823625
 21
585.5453807397959
 31
0.0
  0
LINE
  5
175
330
18
100
AcDbEntity
  8
PV
 62
     7
100
AcDbLine
 10
561.9239692823625
 20
585.5453807397959
 30
0.0
 11
559.9039692823626
 21
589.0453807397959
 31
0.0
  0
LINE
  5
176
330
18
100
AcDbEntity
  8
PV
 62
     7
100
AcDbLine
 10
559.9039692823626
 20
589.0453807397959
 30
0.0
 11
555.8619692823625
 21
589.0453807397959
 31
0.0
  0
CIRCLE
  5
177
330
18
100
AcDbEntity
  8
PV
 62
     7
100
AcDbCircle
 10
656.8829692823625
 20
267.9603807397959
 30
0.0
 40
3.799999999999999
  0
CIRCLE
  5
178
330
18
100
AcDbEntity
  8
PV
 62
     7
100
AcDbCircle
 10
615.8829692823625
 20
292.9603807397959
 30
0.0
 40
3.799999999999999
  0
LINE
  5
179
330
18
100
AcDbEntity
  8
PV
 62
     7
100
AcDbLine
 10
550.3829692823626
 20
252.4603807397959
 30
0.0
 11
552.6434245352809
 21
122.9603807397959
 31
0.0
  0
LINE
  5
17A
330
18
100
AcDbEntity
  8
PV
 62
     7
100
AcDbLine
 10
559.3829692823625
 20
252.4603807397959
 30
0.0
 11
561.643424535281
 21
122.9603807397959
 31
0.0
  0
LINE
  5
17B
330
18
100
AcDbEntity
  8
PV
 62
     7
100
AcDbLine
 10
707.3829692823625
 20
252.4603807397959
 30
0.0
 11
705.1225140294443
 21
122.9603807397959
 31
0.0
  0
LINE
  5
17C
330
18
100
AcDbEntity
  8
PV
 62
     7
100
AcDbLine
 10
698.3829692823625
 20
252.4603807397959
 30
0.0
 11
696.1225140294443
 21
122.9603807397959
 31
0.0
  0
LINE
  5
17D
330
18
100
AcDbEntity
  8
PV
 62
     7
100
AcDbLine
 10
586.8829692823624
 20
114.9603807397959
 30
0.0
 11
586.8829692823624
 21
121.9603807397959
 31
0.0
  0
LINE
  5
17E
330
18
100
AcDbEntity
  8
PV
 62
     7
100
AcDbLine
 10
570.8829692823625
 20
114.9603807397959
 30
0.0
 11
570.8829692823625
 21
121.9603807397959
 31
0.0
  0
LINE
  5
180
330
18
100
AcDbEntity
  8
PV
 62
     7
100
AcDbLine
 10
670.8829692823625
 20
114.9603807397959
 30
0.0
 11
670.8829692823625
 21
121.9603807397959
 31
0.0
  0
LINE
  5
181
330
18
100
AcDbEntity
  8
PV
 62
     7
100
AcDbLine
 10
686.8829692823624
 20
114.9603807397959
 30
0.0
 11
686.8829692823624
 21
121.9603807397959
 31
0.0
  0
LINE
  5
182
330
18
100
AcDbEntity
  8
PV
 62
     7
100
AcDbLine
 10
636.8829692823624
 20
116.9603807397959
 30
0.0
 11
620.8829692823625
 21
116.9603807397959
 31
0.0
  0
LINE
  5
183
330
18
100
AcDbEntity
  8
PV
 62
     7
100
AcDbLine
 10
620.8829692823625
 20
116.9603807397959
 30
0.0
 11
620.8829692823625
 21
121.9603807397959
 31
0.0
  0
LINE
  5
184
330
18
100
AcDbEntity
  8
PV
 62
     7
100
AcDbLine
 10
636.8829692823624
 20
116.9603807397959
 30
0.0
 11
636.8829692823624
 21
121.9603807397959
 31
0.0
  0
LINE
  5
185
330
18
100
AcDbEntity
  8
PV
 62
     7
100
AcDbLine
 10
597.3829692823625
 20
318.4603807397959
 30
0.0
 11
597.3829692823625
 21
321.6603807397959
 31
0.0
  0
LINE
  5
188
330
18
100
AcDbEntity
  8
PV
 62
     7
100
AcDbLine
 10
159.8659692823625
 20
252.4603807397959
 30
0.0
 11
162.1264245352809
 21
122.9603807397959
 31
0.0
  0
LINE
  5
189
330
18
100
AcDbEntity
  8
PV
 62
     7
100
AcDbLine
 10
168.8659692823625
 20
252.4603807397959
 30
0.0
 11
171.1264245352808
 21
122.9603807397959
 31
0.0
  0
LINE
  5
18B
330
18
100
AcDbEntity
  8
PV
 62
     7
100
AcDbLine
 10
256.8659692823625
 20
252.4603807397959
 30
0.0
 11
254.6055140294442
 21
122.9603807397959
 31
0.0
  0
LINE
  5
18C
330
18
100
AcDbEntity
  8
PV
 62
     7
100
AcDbLine
 10
265.8659692823625
 20
252.4603807397959
 30
0.0
 11
263.6055140294443
 21
122.9603807397959
 31
0.0
  0
LINE
  5
18E
330
18
100
AcDbEntity
  8
PV
 62
     7
100
AcDbLine
 10
236.3659692823625
 20
114.9603807397959
 30
0.0
 11
236.3659692823625
 21
121.9603807397959
 31
0.0
  0
LINE
  5
18F
330
18
100
AcDbEntity
  8
PV
 62
     7
100
AcDbLine
 10
252.3659692823625
 20
114.9603807397959
 30
0.0
 11
252.3659692823625
 21
121.9603807397959
 31
0.0
  0
LINE
  5
194
330
18
100
AcDbEntity
  8
PV
 62
     7
100
AcDbLine
 10
189.3659692823625
 20
114.9603807397959
 30
0.0
 11
189.3659692823625
 21
121.9603807397959
 31
0.0
  0
LINE
  5
195
330
18
100
AcDbEntity
  8
PV
 62
     7
100
AcDbLine
 10
173.3659692823625
 20
114.9603807397959
 30
0.0
 11
173.3659692823625
 21
121.9603807397959
 31
0.0
  0
LINE
  5
197
330
18
100
AcDbEntity
  8
PV
  6
CENTER
 62
     1
100
AcDbLine
 10
595.8829692823625
 20
647.3953807397959
 30
0.0
 11
595.8829692823625
 21
637.395380739796
 31
0.0
  0
LINE
  5
198
330
18
100
AcDbEntity
  8
PV
  6
CENTER
 62
     1
100
AcDbLine
 10
697.8829692823625
 20
647.3953807397959
 30
0.0
 11
697.8829692823625
 21
637.395380739796
 31
0.0
  0
LINE
  5
19A
330
18
100
AcDbEntity
  8
PV
 62
     7
100
AcDbLine
 10
741.8829692823625
 20
256.4603807397959
 30
0.0
 11
741.8829692823625
 21
248.4603807397959
 31
0.0
  0
LINE
  5
19B
330
18
100
AcDbEntity
  8
PV
 62
     7
100
AcDbLine
 10
741.8829692823625
 20
248.4603807397959
 30
0.0
 11
714.8829692823625
 21
248.4603807397959
 31
0.0
  0
LINE
  5
19C
330
18
100
AcDbEntity
  8
PV
 62
     7
100
AcDbLine
 10
716.3829692823625
 20
243.4603807397959
 30
0.0
 11
740.3829692823625
 21
243.4603807397959
 31
0.0
  0
LINE
  5
19D
330
18
100
AcDbEntity
  8
PV
 62
     7
100
AcDbLine
 10
740.3829692823625
 20
243.4603807397959
 30
0.0
 11
740.3829692823625
 21
228.4603807397959
 31
0.0
  0
LINE
  5
19E
330
18
100
AcDbEntity
  8
PV
 62
     7
100
AcDbLine
 10
740.3829692823625
 20
228.4603807397959
 30
0.0
 11
716.3829692823625
 21
228.4603807397959
 31
0.0
  0
LINE
  5
19F
330
18
100
AcDbEntity
  8
PV
 62
     7
100
AcDbLine
 10
714.8829692823625
 20
256.4603807397959
 30
0.0
 11
714.8829692823625
 21
248.4603807397959
 31
0.0
  0
LINE
  5
1A0
330
18
100
AcDbEntity
  8
PV
 62
     7
100
AcDbLine
 10
716.3829692823625
 20
243.4603807397959
 30
0.0
 11
716.3829692823625
 21
228.4603807397959
 31
0.0
  0
LINE
  5
1A1
330
18
100
AcDbEntity
  8
PV
 62
     7
100
AcDbLine
 10
737.8829692823625
 20
248.4603807397959
 30
0.0
 11
737.8829692823625
 21
243.4603807397959
 31
0.0
  0
LINE
  5
1A2
330
18
100
AcDbEntity
  8
PV
 62
     7
100
AcDbLine
 10
718.3829692823625
 20
243.4603807397959
 30
0.0
 11
718.3829692823625
 21
248.4603807397959
 31
0.0
  0
LINE
  5
1F2
330
18
100
AcDbEntity
  8
L-ZISSEN
100
AcDbLine
 10
530.3829692823626
 20
553.5453807397959
 30
0.0
 11
535.3829692823626
 21
553.5453807397959
 31
0.0
  0
LINE
  5
1F3
330
18
100
AcDbEntity
  8
L-ZISSEN
100
AcDbLine
 10
544.3829692823626
 20
546.545380739796
 30
0.0
 11
542.3829692823626
 21
546.545380739796
 31
0.0
  0
LINE
  5
1F4
330
18
100
AcDbEntity
  8
L-ZISSEN
100
AcDbLine
 10
542.3829692823626
 20
546.545380739796
 30
0.0
 11
535.3829692823626
 21
553.5453807397959
 31
0.0
  0
LINE
  5
1F5
330
18
100
AcDbEntity
  8
L-ZISSEN
100
AcDbLine
 10
532.3829692823626
 20
549.5453807397959
 30
0.0
 11
533.8388502823625
 21
553.5453807397959
 31
0.0
  0
LINE
  5
1F6
330
18
100
AcDbEntity
  8
L-ZISSEN
100
AcDbLine
 10
530.3829692823626
 20
549.5453807397959
 30
0.0
 11
532.3829692823626
 21
549.5453807397959
 31
0.0
  0
LINE
  5
1F7
330
18
100
AcDbEntity
  8
L-ZISSEN
100
AcDbLine
 10
532.3829692823626
 20
593.5453807397959
 30
0.0
 11
533.8388502823625
 21
589.5453807397959
 31
0.0
  0
LINE
  5
1F8
330
18
100
AcDbEntity
  8
L-ZISSEN
100
AcDbLine
 10
530.3829692823626
 20
593.5453807397959
 30
0.0
 11
532.3829692823626
 21
593.5453807397959
 31
0.0
  0
LINE
  5
1F9
330
18
100
AcDbEntity
  8
L-ZISSEN
100
AcDbLine
 10
542.3829692823626
 20
596.545380739796
 30
0.0
 11
535.3829692823626
 21
589.5453807397959
 31
0.0
  0
LINE
  5
1FA
330
18
100
AcDbEntity
  8
L-ZISSEN
100
AcDbLine
 10
544.3829692823626
 20
596.545380739796
 30
0.0
 11
542.3829692823626
 21
596.545380739796
 31
0.0
  0
LINE
  5
1FB
330
18
100
AcDbEntity
  8
L-ZISSEN
100
AcDbLine
 10
530.3829692823626
 20
589.5453807397959
 30
0.0
 11
535.3829692823626
 21
589.5453807397959
 31
0.0
  0
LINE
  5
1FC
330
18
100
AcDbEntity
  8
L-ZISSEN
100
AcDbLine
 10
544.3829692823626
 20
596.545380739796
 30
0.0
 11
544.3829692823626
 21
579.2953807397959
 31
0.0
  0
LINE
  5
239
330
18
100
AcDbEntity
  8
L-ZISSEN
100
AcDbLine
 10
519.3329692823627
 20
302.4603807397959
 30
0.0
 11
544.3829692823626
 21
302.4603807397959
 31
0.0
  0
LINE
  5
23A
330
18
100
AcDbEntity
  8
L-ZISSEN
100
AcDbLine
 10
519.3329692823627
 20
257.4603807397959
 30
0.0
 11
544.3829692823626
 21
257.4603807397959
 31
0.0
  0
LINE
  5
466
330
18
100
AcDbEntity
  8
L-ZISSEN
100
AcDbLine
 10
228.3989782823625
 20
256.9603807397959
 30
0.006134
 11
228.3989782823625
 21
239.9603847397959
 31
0.006134
  0
LINE
  5
467
330
18
100
AcDbEntity
  8
L-ZISSEN
  6
CONTINUOUS
 62
     7
100
AcDbLine
 10
251.8660272823625
 20
239.9603997397959
 30
0.006134
 11
252.3660322823625
 21
256.4604147397959
 31
0.006134
  0
LINE
  5
468
330
18
100
AcDbEntity
  8
L-ZISSEN
  6
CONTINUOUS
 62
     7
100
AcDbLine
 10
173.8661032823625
 20
239.9604107397959
 30
0.006134
 11
173.3661062823625
 21
256.4604377397959
 31
0.006134
  0
LINE
  5
469
330
18
100
AcDbEntity
  8
L-ZISSEN
100
AcDbLine
 10
197.3329602823626
 20
256.9603807397959
 30
0.006134
 11
197.3329602823626
 21
239.9603847397959
 31
0.006134
  0
CIRCLE
  5
46A
330
18
100
AcDbEntity
  8
L-ZISSEN
100
AcDbCircle
 10
212.8659692823625
 20
279.9603807397959
 30
0.006134
 40
8.65
  0
LINE
  5
46C
330
18
100
AcDbEntity
  8
L-ZISSEN
100
AcDbLine
 10
208.6546212823625
 20
257.9603807397959
 30
-0.5694010000000001
 11
208.6546212823625
 21
257.4603807397959
 31
-0.5694010000000001
  0
LINE
  5
46D
330
18
100
AcDbEntity
  8
L-ZISSEN
  6
CONTINUOUS
 62
     7
100
AcDbLine
 10
174.3661072823625
 20
239.9603997397959
 30
0.006134
 11
174.3661072823625
 21
236.4603997397959
 31
0.006134
  0
ARC
  5
46E
330
18
100
AcDbEntity
  8
L-ZISSEN
  6
CONTINUOUS
 62
     7
100
AcDbCircle
 10
174.8661222823625
 20
236.4603997397959
 30
0.006134
 40
0.5
100
AcDbArc
 50
180.0
 51
269.99998
  0
ARC
  5
46F
330
18
100
AcDbEntity
  8
L-ZISSEN
  6
CONTINUOUS
 62
     7
100
AcDbCircle
 10
175.3264642823626
 20
236.260402739796
 30
0.006134
 40
0.3
100
AcDbArc
 50
269.99998
 51
358.0003599999999
  0
LINE
  5
470
330
18
100
AcDbEntity
  8
L-ZISSEN
  6
CONTINUOUS
 62
     7
100
AcDbLine
 10
174.8661222823625
 20
235.9603997397959
 30
0.006134
 11
175.3264642823626
 21
235.9603997397959
 31
0.006134
  0
LINE
  5
471
330
18
100
AcDbEntity
  8
L-ZISSEN
  6
CONTINUOUS
 62
     7
100
AcDbLine
 10
174.3659672823626
 20
239.9603997397959
 30
0.006134
 11
173.8659672823625
 21
239.9603997397959
 31
0.006134
  0
LINE
  5
472
330
18
100
AcDbEntity
  8
L-ZISSEN
  6
CONTINUOUS
 62
     7
100
AcDbLine
 10
251.3659692823626
 20
235.9603997397959
 30
0.006134
 11
175.3264642823626
 21
235.9603997397959
 31
0.006134
  0
LINE
  5
473
330
18
100
AcDbEntity
  8
L-ZISSEN
100
AcDbLine
 10
174.3659672823626
 20
239.9603997397959
 30
0.006134
 11
251.8660272823625
 21
239.9603997397959
 31
0.006134
  0
LINE
  5
474
330
18
100
AcDbEntity
  8
L-ZISSEN
  6
CONTINUOUS
 62
     7
100
AcDbLine
 10
251.7928322823625
 20
239.9603997397959
 30
0.006134
 11
254.8873712823625
 21
220.4222447397959
 31
0.006134
  0
LINE
  5
475
330
18
100
AcDbEntity
  8
L-ZISSEN
  6
CONTINUOUS
 62
     7
100
AcDbLine
 10
253.4664522823625
 20
218.2040447397959
 30
0.006134
 11
252.1035352823626
 21
217.5974467397959
 31
0.006134
  0
LINE
  5
476
330
18
100
AcDbEntity
  8
L-ZISSEN
  6
CONTINUOUS
 62
     7
100
AcDbLine
 10
257.5801322823625
 20
218.4658657397959
 30
0.006134
 11
254.8873872823626
 21
220.4222587397959
 31
0.006134
  0
ARC
  5
477
330
18
100
AcDbEntity
  8
L-ZISSEN
  6
CONTINUOUS
 62
     7
100
AcDbCircle
 10
257.5667122823625
 20
216.2904777397959
 30
0.006134
 40
0.5
100
AcDbArc
 50
279.00011
 51
9.00004
  0
ARC
  5
478
330
18
100
AcDbEntity
  8
L-ZISSEN
  6
CONTINUOUS
 62
     7
100
AcDbCircle
 10
257.2862552823626
 20
218.0613057397959
 30
0.006134
 40
0.5
100
AcDbArc
 50
9.00004
 51
54.0
  0
LINE
  5
479
330
18
100
AcDbEntity
  8
L-ZISSEN
  6
CONTINUOUS
 62
     7
100
AcDbLine
 10
257.7800752823625
 20
218.1395507397959
 30
0.006134
 11
258.0605472823625
 21
216.3687327397959
 31
0.006134
  0
LINE
  5
47A
330
18
100
AcDbEntity
  8
L-ZISSEN
  6
CONTINUOUS
 62
     7
100
AcDbLine
 10
253.4664522823625
 20
218.2040447397959
 30
0.006134
 11
254.4109732823626
 21
217.0376587397959
 31
0.006134
  0
LINE
  5
47B
330
18
100
AcDbEntity
  8
L-ZISSEN
  6
CONTINUOUS
 62
     7
100
AcDbLine
 10
257.6449212823626
 20
215.7966707397959
 30
0.006134
 11
254.6818552823625
 21
215.3273677397959
 31
0.006134
  0
LINE
  5
47C
330
18
100
AcDbEntity
  8
L-ZISSEN
  6
CONTINUOUS
 62
     7
100
AcDbLine
 10
254.6818552823625
 20
215.3273677397959
 30
0.006134
 11
254.4109732823626
 21
217.0376627397959
 31
0.006134
  0
ARC
  5
47D
330
18
100
AcDbEntity
  8
L-ZISSEN
  6
CONTINUOUS
 62
     7
100
AcDbCircle
 10
251.8595892823625
 20
218.1455497397959
 30
0.006134
 40
0.6
100
AcDbArc
 50
228.9918899999999
 51
293.99307
  0
LINE
  5
47E
330
18
100
AcDbEntity
  8
L-ZISSEN
  6
CONTINUOUS
 62
     7
100
AcDbLine
 10
247.0074792823626
 20
221.5694727397959
 30
0.006134
 11
251.4658892823625
 21
217.6928217397959
 31
0.006134
  0
LINE
  5
47F
330
18
100
AcDbEntity
  8
L-ZISSEN
  6
CONTINUOUS
 62
     7
100
AcDbLine
 10
251.3659692823626
 20
239.9603997397959
 30
0.006134
 11
251.3659692823626
 21
235.9603997397959
 31
0.006134
  0
LINE
  5
480
330
18
100
AcDbEntity
  8
L-ZISSEN
  6
CONTINUOUS
 62
     7
100
AcDbLine
 10
251.7922822823625
 20
239.9603847397959
 30
0.006134
 11
251.8659522823625
 21
239.9603847397959
 31
0.006134
  0
LINE
  5
481
330
18
100
AcDbEntity
  8
L-ZISSEN
100
AcDbLine
 10
226.6159692823626
 20
392.024345739796
 30
0.006134
 11
226.6159692823626
 21
388.0243457397959
 31
0.006134
  0
LINE
  5
482
330
18
100
AcDbEntity
  8
L-ZISSEN
100
AcDbLine
 10
199.1159692823625
 20
392.024345739796
 30
0.006134
 11
199.1159692823625
 21
388.0243457397959
 31
0.006134
  0
LINE
  5
483
330
18
100
AcDbEntity
  8
L-ZISSEN
  6
CONTINUOUS
 62
     7
100
AcDbLine
 10
193.8659692823625
 20
361.1243457397959
 30
0.006134
 11
231.8659692823625
 21
361.1243457397959
 31
0.006134
  0
LINE
  5
484
330
18
100
AcDbEntity
  8
L-ZISSEN
  6
CONTINUOUS
 62
     7
100
AcDbLine
 10
197.8659692823626
 20
374.0243457397959
 30
0.006134
 11
227.8659692823625
 21
374.0243457397959
 31
0.006134
  0
LINE
  5
486
330
18
100
AcDbEntity
  8
L-ZISSEN
100
AcDbLine
 10
194.8659692823625
 20
301.9603807397959
 30
0.006134
 11
230.8659692823626
 21
301.9603807397959
 31
0.006134
  0
LINE
  5
488
330
18
100
AcDbEntity
  8
L-ZISSEN
100
AcDbLine
 10
175.3659672823626
 20
308.9603457397959
 30
0.006134
 11
250.3659692823625
 21
308.9603457397959
 31
0.006134
  0
LINE
  5
48A
330
18
100
AcDbEntity
  8
L-ZISSEN
  6
CONTINUOUS
 62
     7
100
AcDbLine
 10
193.8659692823625
 20
349.0243457397959
 30
0.006134
 11
231.8659692823625
 21
349.0243457397959
 31
0.006134
  0
LINE
  5
48C
330
18
100
AcDbEntity
  8
L-ZISSEN
100
AcDbLine
 10
194.8659692823625
 20
256.9603807397959
 30
0.006134
 11
212.8659692823625
 21
256.9603807397959
 31
0.006134
  0
LINE
  5
48F
330
18
100
AcDbEntity
  8
L-ZISSEN
100
AcDbLine
 10
175.3659692823625
 20
326.6603457397959
 30
0.006134
 11
175.3659692823625
 21
308.9603457397959
 31
0.006134
1001
ACAD
1000
ASC_BOUNDS
1002
{
1070
    19
1002
}
  0
LINE
  5
490
330
18
100
AcDbEntity
  8
L-ZISSEN
100
AcDbLine
 10
177.0645492823625
 20
296.4797117397959
 30
0.006134
 11
177.0645492823625
 21
268.4410547397959
 31
0.006134
  0
LINE
  5
491
330
18
100
AcDbEntity
  8
L-ZISSEN
100
AcDbLine
 10
194.8659692823625
 20
256.9603807397959
 30
0.006134
 11
194.8659692823625
 21
270.4603807397959
 31
0.006134
  0
LINE
  5
492
330
18
100
AcDbEntity
  8
L-ZISSEN
100
AcDbLine
 10
194.8659692823625
 20
270.4603807397959
 30
0.006134
 11
190.8659692823625
 21
271.9603807397959
 31
0.006134
  0
LINE
  5
493
330
18
100
AcDbEntity
  8
L-ZISSEN
  6
CONTINUOUS
 62
     7
100
AcDbLine
 10
175.8659822823625
 20
267.749061739796
 30
0.006134
 11
177.0645492823625
 21
268.4410547397959
 31
0.006134
  0
LINE
  5
494
330
18
100
AcDbEntity
  8
L-ZISSEN
  6
CONTINUOUS
 62
     7
100
AcDbLine
 10
175.3659672823626
 20
266.8830337397959
 30
0.006134
 11
175.3659672823626
 21
257.4603997397959
 31
0.006134
  0
ARC
  5
495
330
18
100
AcDbEntity
  8
L-ZISSEN
  6
CONTINUOUS
 62
     7
100
AcDbCircle
 10
176.3659672823625
 20
266.8830337397959
 30
0.006134
 40
1.0
100
AcDbArc
 50
120.000067
 51
180.0
  0
ARC
  5
496
330
18
100
AcDbEntity
  8
L-ZISSEN
  6
CONTINUOUS
 62
     7
100
AcDbCircle
 10
176.3659672823625
 20
266.8830337397959
 30
0.006134
 40
1.0
100
AcDbArc
 50
120.000012
 51
180.0
  0
LINE
  5
497
330
18
100
AcDbEntity
  8
L-ZISSEN
100
AcDbLine
 10
190.8659692823625
 20
271.9603807397959
 30
0.006134
 11
190.8659692823625
 21
287.9603807397959
 31
0.006134
  0
LINE
  5
498
330
18
100
AcDbEntity
  8
L-ZISSEN
100
AcDbLine
 10
194.8659692823625
 20
289.4603807397959
 30
0.006134
 11
190.8659692823625
 21
287.9603807397959
 31
0.006134
  0
LINE
  5
499
330
18
100
AcDbEntity
  8
L-ZISSEN
100
AcDbLine
 10
197.3329602823626
 20
308.9603457397959
 30
0.006134
 11
197.3329602823626
 21
301.9603807397959
 31
0.006134
  0
LINE
  5
49A
330
18
100
AcDbEntity
  8
L-ZISSEN
100
AcDbLine
 10
194.8659692823625
 20
301.9603807397959
 30
0.006134
 11
194.8659692823625
 21
289.4603807397959
 31
0.006134
  0
LINE
  5
49B
330
18
100
AcDbEntity
  8
L-ZISSEN
  6
CONTINUOUS
 62
     7
100
AcDbLine
 10
175.3659672823626
 20
308.9603457397959
 30
0.006134
 11
175.3659672823626
 21
298.0377277397959
 31
0.006134
  0
ARC
  5
49C
330
18
100
AcDbEntity
  8
L-ZISSEN
  6
CONTINUOUS
 62
     7
100
AcDbCircle
 10
176.3659672823625
 20
298.0377277397959
 30
0.006134
 40
1.0
100
AcDbArc
 50
180.0
 51
239.99999
  0
LINE
  5
49D
330
18
100
AcDbEntity
  8
L-ZISSEN
  6
CONTINUOUS
 62
     7
100
AcDbLine
 10
175.8659792823625
 20
297.1717067397959
 30
0.006134
 11
177.0645492823625
 21
296.4797117397959
 31
0.006134
  0
LINE
  5
49E
330
18
100
AcDbEntity
  8
L-ZISSEN
  6
CONTINUOUS
 62
     7
100
AcDbLine
 10
193.8659692823625
 20
349.0243457397959
 30
0.006134
 11
193.8659692823625
 21
361.1243457397959
 31
0.006134
  0
LINE
  5
49F
330
18
100
AcDbEntity
  8
L-ZISSEN
  6
CONTINUOUS
 62
     7
100
AcDbLine
 10
195.8659692823625
 20
326.6603457397959
 30
0.006134
 11
195.8659692823625
 21
346.5243457397959
 31
0.006134
  0
LINE
  5
4A0
330
18
100
AcDbEntity
  8
L-ZISSEN
  6
CONTINUOUS
 62
     7
100
AcDbLine
 10
197.0659692823626
 20
346.5243457397959
 30
0.006134
 11
197.0659692823626
 21
349.0243457397959
 31
0.006134
  0
LINE
  5
4A1
330
18
100
AcDbEntity
  8
L-ZISSEN
100
AcDbLine
 10
175.3659692823625
 20
326.6603457397959
 30
0.006134
 11
175.3659692823625
 21
323.5288137397959
 31
0.006134
  0
LINE
  5
4A2
330
18
100
AcDbEntity
  8
L-ZISSEN
  6
CONTINUOUS
 62
     7
100
AcDbLine
 10
197.8659692823626
 20
361.1243457397959
 30
0.006134
 11
197.8659692823626
 21
374.0243457397959
 31
0.006134
  0
LINE
  5
4A3
330
18
100
AcDbEntity
  8
L-ZISSEN
100
AcDbLine
 10
250.3659692823625
 20
326.6603457397959
 30
0.006134
 11
250.3659692823625
 21
308.9603457397959
 31
0.006134
  0
LINE
  5
4A4
330
18
100
AcDbEntity
  8
L-ZISSEN
  6
CONTINUOUS
 62
     7
100
AcDbLine
 10
249.4732172823626
 20
267.9758087397959
 30
0.006134
 11
249.4732252823625
 21
296.9449527397959
 31
0.006134
  0
LINE
  5
4A5
330
18
100
AcDbEntity
  8
L-ZISSEN
  6
CONTINUOUS
 62
     7
100
AcDbLine
 10
249.9732212823626
 20
272.4603807397959
 30
0.006134
 11
249.9732252823625
 21
292.4603727397959
 31
0.006134
  0
LINE
  5
4A6
330
18
100
AcDbEntity
  8
L-ZISSEN
100
AcDbLine
 10
230.8659692823626
 20
256.9603807397959
 30
0.006134
 11
212.8659692823625
 21
256.9603807397959
 31
0.006134
  0
LINE
  5
4A7
330
18
100
AcDbEntity
  8
L-ZISSEN
  6
CONTINUOUS
 62
     7
100
AcDbLine
 10
250.3659672823626
 20
266.8830337397959
 30
0.006134
 11
250.3659672823626
 21
257.4603847397959
 31
0.006134
  0
ARC
  5
4A8
330
18
100
AcDbEntity
  8
L-ZISSEN
  6
CONTINUOUS
 62
     7
100
AcDbCircle
 10
251.3659522823625
 20
256.4603847397959
 30
0.006134
 40
1.0
100
AcDbArc
 50
359.9999799999999
 51
90.00001800000001
  0
LINE
  5
4A9
330
18
100
AcDbEntity
  8
L-ZISSEN
  6
CONTINUOUS
 62
     7
100
AcDbLine
 10
249.8659672823626
 20
267.7490537397959
 30
0.006134
 11
249.4732172823626
 21
267.9758087397959
 31
0.006134
  0
ARC
  5
4AA
330
18
100
AcDbEntity
  8
L-ZISSEN
  6
CONTINUOUS
 62
     7
100
AcDbCircle
 10
249.3659672823625
 20
266.8830337397959
 30
0.006134
 40
1.0
100
AcDbArc
 50
0.00004
 51
60.00002
  0
LINE
  5
4AB
330
18
100
AcDbEntity
  8
L-ZISSEN
  6
CONTINUOUS
 62
     7
100
AcDbLine
 10
249.4732062823625
 20
272.4603887397959
 30
0.006134
 11
249.9732062823625
 21
272.4603887397959
 31
0.006134
  0
LINE
  5
4AC
330
18
100
AcDbEntity
  8
L-ZISSEN
100
AcDbLine
 10
230.8659692823626
 20
256.9603807397959
 30
0.006134
 11
230.8659692823626
 21
270.4603807397959
 31
0.006134
  0
LINE
  5
4AD
330
18
100
AcDbEntity
  8
L-ZISSEN
100
AcDbLine
 10
230.8659692823626
 20
270.4603807397959
 30
0.006134
 11
234.8659692823626
 21
271.9603807397959
 31
0.006134
  0
LINE
  5
4AE
330
18
100
AcDbEntity
  8
L-ZISSEN
100
AcDbLine
 10
230.8659692823626
 20
257.4603997397959
 30
0.006134
 11
251.3659522823625
 21
257.4603997397959
 31
0.006134
  0
LINE
  5
4AF
330
18
100
AcDbEntity
  8
L-ZISSEN
100
AcDbLine
 10
234.8659692823626
 20
271.9603807397959
 30
0.006134
 11
234.8659692823626
 21
287.9603807397959
 31
0.006134
  0
LINE
  5
4B0
330
18
100
AcDbEntity
  8
L-ZISSEN
100
AcDbLine
 10
228.3989782823625
 20
308.9603457397959
 30
0.006134
 11
228.3989782823625
 21
301.9603807397959
 31
0.006134
  0
LINE
  5
4B1
330
18
100
AcDbEntity
  8
L-ZISSEN
  6
CONTINUOUS
 62
     7
100
AcDbLine
 10
250.3659672823626
 20
308.9603457397959
 30
0.006134
 11
250.3659672823626
 21
298.0377277397959
 31
0.006134
  0
LINE
  5
4B2
330
18
100
AcDbEntity
  8
L-ZISSEN
  6
CONTINUOUS
 62
     7
100
AcDbLine
 10
249.4732022823625
 20
292.4603807397959
 30
0.006134
 11
249.9732022823625
 21
292.4603807397959
 31
0.006134
  0
ARC
  5
4B3
330
18
100
AcDbEntity
  8
L-ZISSEN
  6
CONTINUOUS
 62
     7
100
AcDbCircle
 10
249.3659672823625
 20
298.0377277397959
 30
0.006134
 40
1.0
100
AcDbArc
 50
299.99997
 51
0.00002
  0
LINE
  5
4B4
330
18
100
AcDbEntity
  8
L-ZISSEN
  6
CONTINUOUS
 62
     7
100
AcDbLine
 10
249.8659632823625
 20
297.1716997397959
 30
0.006134
 11
249.4732252823625
 21
296.9449527397959
 31
0.006134
  0
LINE
  5
4B5
330
18
100
AcDbEntity
  8
L-ZISSEN
100
AcDbLine
 10
230.8659692823626
 20
301.9603807397959
 30
0.006134
 11
230.8659692823626
 21
289.4603807397959
 31
0.006134
  0
LINE
  5
4B6
330
18
100
AcDbEntity
  8
L-ZISSEN
100
AcDbLine
 10
230.8659692823626
 20
289.4603807397959
 30
0.006134
 11
234.8659692823626
 21
287.9603807397959
 31
0.006134
  0
LINE
  5
4B7
330
18
100
AcDbEntity
  8
L-ZISSEN
  6
CONTINUOUS
 62
     7
100
AcDbLine
 10
231.8659692823625
 20
349.0243457397959
 30
0.006134
 11
231.8659692823625
 21
361.1243457397959
 31
0.006134
  0
LINE
  5
4B8
330
18
100
AcDbEntity
  8
L-ZISSEN
  6
CONTINUOUS
 62
     7
100
AcDbLine
 10
229.8659692823625
 20
326.6603457397959
 30
0.006134
 11
229.8659692823625
 21
346.5243457397959
 31
0.006134
  0
LINE
  5
4B9
330
18
100
AcDbEntity
  8
L-ZISSEN
  6
CONTINUOUS
 62
     7
100
AcDbLine
 10
228.6659692823625
 20
346.5243457397959
 30
0.006134
 11
228.6659692823625
 21
349.0243457397959
 31
0.006134
  0
LINE
  5
4BA
330
18
100
AcDbEntity
  8
L-ZISSEN
100
AcDbLine
 10
250.3659692823625
 20
326.6603457397959
 30
0.006134
 11
175.3659692823625
 21
326.6603457397959
 31
0.006134
  0
LINE
  5
4BB
330
18
100
AcDbEntity
  8
L-ZISSEN
  6
CONTINUOUS
 62
     7
100
AcDbLine
 10
227.8659692823625
 20
361.1243457397959
 30
0.006134
 11
227.8659692823625
 21
374.0243457397959
 31
0.006134
  0
LINE
  5
4BC
330
18
100
AcDbEntity
  8
L-ZISSEN
  6
CONTINUOUS
 62
     7
100
AcDbLine
 10
222.8659692823625
 20
374.0243457397959
 30
0.006134
 11
222.8659692823625
 21
375.824345739796
 31
0.006134
  0
LINE
  5
4BD
330
18
100
AcDbEntity
  8
L-ZISSEN
100
AcDbLine
 10
226.1159692823625
 20
388.0243457397959
 30
0.006134
 11
226.1159692823625
 21
375.824345739796
 31
0.006134
  0
LINE
  5
4BE
330
18
100
AcDbEntity
  8
L-ZISSEN
  6
CONTINUOUS
 62
     7
100
AcDbLine
 10
202.8659692823625
 20
374.0243457397959
 30
0.006134
 11
202.8659692823625
 21
375.824345739796
 31
0.006134
  0
LINE
  5
4BF
330
18
100
AcDbEntity
  8
L-ZISSEN
100
AcDbLine
 10
199.6159692823625
 20
388.0243457397959
 30
0.006134
 11
199.6159692823625
 21
375.824345739796
 31
0.006134
  0
LINE
  5
4C0
330
18
100
AcDbEntity
  8
L-ZISSEN
  6
CONTINUOUS
 62
     7
100
AcDbLine
 10
199.1159692823625
 20
388.0243457397959
 30
0.006134
 11
226.6159692823626
 21
388.0243457397959
 31
0.006134
  0
LINE
  5
4C1
330
18
100
AcDbEntity
  8
L-ZISSEN
  6
CONTINUOUS
 62
     7
100
AcDbLine
 10
199.6159692823625
 20
375.824345739796
 30
0.006134
 11
226.1159692823625
 21
375.824345739796
 31
0.006134
  0
LINE
  5
4C2
330
18
100
AcDbEntity
  8
L-ZISSEN
  6
CONTINUOUS
 62
     7
100
AcDbLine
 10
225.3659692823625
 20
392.024345739796
 30
0.006134
 11
225.3659692823625
 21
394.024345739796
 31
0.006134
  0
LINE
  5
4C3
330
18
100
AcDbEntity
  8
L-ZISSEN
  6
CONTINUOUS
 62
     7
100
AcDbLine
 10
200.3659692823625
 20
392.024345739796
 30
0.006134
 11
200.3659692823625
 21
394.024345739796
 31
0.006134
  0
LINE
  5
4C4
330
18
100
AcDbEntity
  8
L-ZISSEN
  6
CONTINUOUS
 62
     7
100
AcDbLine
 10
199.1159692823625
 20
392.024345739796
 30
0.006134
 11
226.6159692823626
 21
392.024345739796
 31
0.006134
  0
LINE
  5
4C5
330
18
100
AcDbEntity
  8
L-ZISSEN
  6
CONTINUOUS
 62
     7
100
AcDbLine
 10
200.3659692823625
 20
394.024345739796
 30
0.006134
 11
225.3659692823625
 21
394.024345739796
 31
0.006134
  0
LINE
  5
4C6
330
18
100
AcDbEntity
  8
L-ZISSEN
100
AcDbLine
 10
455.3829692823625
 20
302.4603457397959
 30
0.0
 11
455.3829692823625
 21
257.6294257397959
 31
0.0
  0
LINE
  5
4C7
330
18
100
AcDbEntity
  8
L-ZISSEN
  6
CONTINUOUS
 62
     7
100
AcDbLine
 10
450.3829692823625
 20
292.8603817397959
 30
0.0
 11
450.3829692823625
 21
267.0603637397959
 31
0.0
  0
LINE
  5
4C8
330
18
100
AcDbEntity
  8
L-TYUSIN
100
AcDbLine
 10
490.3829692823626
 20
334.4115067397959
 30
0.0
 11
490.3829692823626
 21
108.7129357397959
 31
0.0
  0
ARC
  5
4C9
330
18
100
AcDbEntity
  8
L-ZISSEN
  6
CONTINUOUS
 62
     7
100
AcDbCircle
 10
519.1396692823625
 20
143.1400417397959
 30
0.0
 40
4.999998
100
AcDbArc
 50
344.99998
 51
359.49991
  0
ARC
  5
4CA
330
18
100
AcDbEntity
  8
L-ZISSEN
  6
CONTINUOUS
 62
     7
100
AcDbCircle
 10
461.6261292823625
 20
143.1401027397959
 30
0.0
 40
4.999998
100
AcDbArc
 50
180.4999
 51
195.00001
  0
LINE
  5
4CB
330
18
100
AcDbEntity
  8
L-ZISSEN
  6
CONTINUOUS
 62
     7
100
AcDbLine
 10
463.1478592823626
 20
132.4604107397959
 30
0.0
 11
517.6178312823626
 21
132.4604107397959
 31
0.0
  0
LINE
  5
4CC
330
18
100
AcDbEntity
  8
L-ZISSEN
  6
CONTINUOUS
 62
     7
100
AcDbLine
 10
456.7964792823626
 20
141.8460697397959
 30
0.0
 11
458.3183492823625
 21
136.1663747397959
 31
0.0
  0
ARC
  5
4CD
330
18
100
AcDbEntity
  8
L-ZISSEN
  6
CONTINUOUS
 62
     7
100
AcDbCircle
 10
463.1478592823626
 20
137.4604147397959
 30
0.0
 40
4.999998
100
AcDbArc
 50
195.00006
 51
270.00002
  0
LINE
  5
4CE
330
18
100
AcDbEntity
  8
L-ZISSEN
  6
CONTINUOUS
 62
     7
100
AcDbLine
 10
499.8829792823626
 20
130.7471847397959
 30
0.0
 11
499.3829792823625
 21
131.2471847397959
 31
0.0
  0
LINE
  5
4CF
330
18
100
AcDbEntity
  8
L-ZISSEN
100
AcDbLine
 10
497.5995542823625
 20
132.4604107397959
 30
0.0
 11
497.5995542823625
 21
131.2471697397959
 31
0.0
  0
LINE
  5
4D0
330
18
100
AcDbEntity
  8
L-ZISSEN
  6
CONTINUOUS
 62
     7
100
AcDbLine
 10
498.8829792823625
 20
131.2471697397959
 30
0.0
 11
499.3829792823625
 21
131.2471697397959
 31
0.0
  0
LINE
  5
4D1
330
18
100
AcDbEntity
  8
L-ZISSEN
100
AcDbLine
 10
483.1663842823626
 20
132.4604107397959
 30
0.0
 11
483.1663842823626
 21
131.2471697397959
 31
0.0
  0
LINE
  5
4D2
330
18
100
AcDbEntity
  8
L-ZISSEN
  6
CONTINUOUS
 62
     7
100
AcDbLine
 10
498.3829392823626
 20
114.7472307397959
 30
0.0
 11
499.5539792823625
 21
115.1734547397959
 31
0.0
  0
ARC
  5
4D3
330
18
100
AcDbEntity
  8
L-ZISSEN
  6
CONTINUOUS
 62
     7
100
AcDbCircle
 10
499.3829792823625
 20
115.6432567397959
 30
0.0
 40
0.5
100
AcDbArc
 50
290.00012
 51
0.000355
  0
LINE
  5
4D4
330
18
100
AcDbEntity
  8
L-ZISSEN
  6
CONTINUOUS
 62
     7
100
AcDbLine
 10
493.3329692823625
 20
110.9603807397959
 30
0.0
 11
493.3329692823625
 21
112.6604997397959
 31
0.0
  0
LINE
  5
4D5
330
18
100
AcDbEntity
  8
L-ZISSEN
  6
CONTINUOUS
 62
     7
100
AcDbLine
 10
493.7330192823625
 20
113.3533477397959
 30
0.0
 11
493.3330092823626
 21
112.6605227397959
 31
0.0
  0
LINE
  5
4D6
330
18
100
AcDbEntity
  8
L-ZISSEN
  6
CONTINUOUS
 62
     7
100
AcDbLine
 10
493.7329792823625
 20
113.353324739796
 30
0.0
 11
493.7329792823625
 21
114.7471847397959
 31
0.0
  0
LINE
  5
4D7
330
18
100
AcDbEntity
  8
L-ZISSEN
  6
CONTINUOUS
 62
     7
100
AcDbLine
 10
487.4329692823626
 20
110.9603807397959
 30
0.0
 11
487.4329692823626
 21
112.6604997397959
 31
0.0
  0
LINE
  5
4D8
330
18
100
AcDbEntity
  8
L-ZISSEN
  6
CONTINUOUS
 62
     7
100
AcDbLine
 10
487.0329192823625
 20
113.3533477397959
 30
0.0
 11
487.4329292823625
 21
112.6605227397959
 31
0.0
  0
LINE
  5
4D9
330
18
100
AcDbEntity
  8
L-ZISSEN
  6
CONTINUOUS
 62
     7
100
AcDbLine
 10
487.0329592823625
 20
113.353324739796
 30
0.0
 11
487.0329592823625
 21
114.7471847397959
 31
0.0
  0
LINE
  5
4DA
330
18
100
AcDbEntity
  8
L-ZISSEN
100
AcDbLine
 10
493.3329692823625
 20
112.6604997397959
 30
0.0
 11
487.4329692823626
 21
112.6604997397959
 31
0.0
  0
LINE
  5
4DB
330
18
100
AcDbEntity
  8
L-ZISSEN
100
AcDbLine
 10
493.7329792823625
 20
113.353324739796
 30
0.0
 11
487.0329322823625
 21
113.353324739796
 31
0.0
  0
LINE
  5
4DC
330
18
100
AcDbEntity
  8
L-ZISSEN
100
AcDbLine
 10
498.3829392823626
 20
114.7471847397959
 30
0.0
 11
482.3830292823625
 21
114.7471847397959
 31
0.0
  0
LINE
  5
4DD
330
18
100
AcDbEntity
  8
L-ZISSEN
  6
CONTINUOUS
 62
     7
100
AcDbLine
 10
493.3329692823625
 20
110.9603807397959
 30
0.0
 11
487.4329692823626
 21
110.9603807397959
 31
0.0
  0
LINE
  5
4DE
330
18
100
AcDbEntity
  8
L-ZISSEN
  6
CONTINUOUS
 62
     7
100
AcDbLine
 10
499.8829792823626
 20
130.7471697397959
 30
0.0
 11
499.8829792823626
 21
115.6432567397959
 31
0.0
  0
LINE
  5
4DF
330
18
100
AcDbEntity
  8
L-ZISSEN
  6
CONTINUOUS
 62
     7
100
AcDbLine
 10
481.3829992823626
 20
131.2471927397959
 30
0.0
 11
480.8830192823625
 21
130.7471997397959
 31
0.0
  0
ARC
  5
4E0
330
18
100
AcDbEntity
  8
L-ZISSEN
  6
CONTINUOUS
 62
     7
100
AcDbCircle
 10
481.3829792823625
 20
115.6432567397959
 30
0.0
 40
0.5
100
AcDbArc
 50
179.9996399999999
 51
249.9998399999999
  0
LINE
  5
4E1
330
18
100
AcDbEntity
  8
L-ZISSEN
  6
CONTINUOUS
 62
     7
100
AcDbLine
 10
480.8829792823625
 20
115.6432567397959
 30
0.0
 11
480.8829792823625
 21
130.7471697397959
 31
0.0
  0
LINE
  5
4E2
330
18
100
AcDbEntity
  8
L-ZISSEN
  6
CONTINUOUS
 62
     7
100
AcDbLine
 10
481.2120092823626
 20
115.1734547397959
 30
0.0
 11
482.3830292823625
 21
114.747237739796
 31
0.0
  0
LINE
  5
4E3
330
18
100
AcDbEntity
  8
L-ZISSEN
  6
CONTINUOUS
 62
     7
100
AcDbLine
 10
481.3829692823626
 20
131.2471697397959
 30
0.0
 11
498.8829792823625
 21
131.2471697397959
 31
0.0
  0
LINE
  5
4E4
330
18
100
AcDbEntity
  8
L-ZISSEN
  6
CONTINUOUS
 62
     7
100
AcDbLine
 10
523.9692952823625
 20
141.8459317397959
 30
0.0
 11
522.4474452823625
 21
136.1662977397959
 31
0.0
  0
ARC
  5
4E5
330
18
100
AcDbEntity
  8
L-ZISSEN
  6
CONTINUOUS
 62
     7
100
AcDbCircle
 10
517.6178292823625
 20
137.4604147397959
 30
0.0
 40
4.999998
100
AcDbArc
 50
270.00002
 51
344.99997
  0
LINE
  5
4E6
330
18
100
AcDbEntity
  8
L-TYUSIN
  6
CENTER
100
AcDbLine
 10
544.3829692823626
 20
279.9603807397959
 30
0.0
 11
445.3829692823625
 21
279.9603807397959
 31
0.0
  0
LINE
  5
4E7
330
18
100
AcDbEntity
  8
L-ZISSEN
100
AcDbLine
 10
519.7819052823627
 20
227.6287137397959
 30
0.0
 11
519.7819052823627
 21
207.7642657397959
 31
0.0
  0
LINE
  5
4E8
330
18
100
AcDbEntity
  8
L-ZISSEN
100
AcDbLine
 10
507.7911822823625
 20
207.7642657397959
 30
0.0
 11
507.7911822823625
 21
227.6287137397959
 31
0.0
  0
LINE
  5
4E9
330
18
100
AcDbEntity
  8
L-ZISSEN
100
AcDbLine
 10
460.9840332823625
 20
227.6287137397959
 30
0.0
 11
460.9840332823625
 21
207.7642657397959
 31
0.0
  0
LINE
  5
4EA
330
18
100
AcDbEntity
  8
L-ZISSEN
100
AcDbLine
 10
472.9747562823625
 20
207.7642657397959
 30
0.0
 11
472.9747562823625
 21
227.6287137397959
 31
0.0
  0
LINE
  5
4EB
330
18
100
AcDbEntity
  8
L-ZISSEN
  6
CONTINUOUS
 62
     7
100
AcDbLine
 10
524.9500632823626
 20
235.9603847397959
 30
0.0
 11
524.1396372823626
 21
143.0963627397959
 31
0.0
  0
LINE
  5
4EC
330
18
100
AcDbEntity
  8
L-ZISSEN
100
AcDbLine
 10
472.9747562823625
 20
155.7383257397959
 30
0.0
 11
472.9747562823625
 21
202.0887067397959
 31
0.0
  0
LINE
  5
4ED
330
18
100
AcDbEntity
  8
L-ZISSEN
100
AcDbLine
 10
460.9840332823625
 20
202.0887067397959
 30
0.0
 11
460.9840332823625
 21
155.7383257397959
 31
0.0
  0
LINE
  5
4EE
330
18
100
AcDbEntity
  8
L-ZISSEN
100
AcDbLine
 10
460.9840332823625
 20
155.7383257397959
 30
0.0
 11
472.9747562823625
 21
155.7383257397959
 31
0.0
  0
LINE
  5
4EF
330
18
100
AcDbEntity
  8
L-ZISSEN
100
AcDbLine
 10
460.9840332823625
 20
207.7642657397959
 30
0.0
 11
472.9747562823625
 21
207.7642657397959
 31
0.0
  0
LINE
  5
4F0
330
18
100
AcDbEntity
  8
L-ZISSEN
100
AcDbLine
 10
472.9747562823625
 20
202.0887067397959
 30
0.0
 11
460.9840332823625
 21
202.0887067397959
 31
0.0
  0
LINE
  5
4F1
330
18
100
AcDbEntity
  8
L-ZISSEN
100
AcDbLine
 10
519.7819052823627
 20
202.0887067397959
 30
0.0
 11
519.7819052823627
 21
155.7383257397959
 31
0.0
  0
LINE
  5
4F2
330
18
100
AcDbEntity
  8
L-ZISSEN
100
AcDbLine
 10
507.7911822823625
 20
155.7383257397959
 30
0.0
 11
507.7911822823625
 21
202.0887067397959
 31
0.0
  0
LINE
  5
4F3
330
18
100
AcDbEntity
  8
L-ZISSEN
100
AcDbLine
 10
519.7819052823627
 20
155.7383257397959
 30
0.0
 11
507.7911822823625
 21
155.7383257397959
 31
0.0
  0
LINE
  5
4F4
330
18
100
AcDbEntity
  8
L-ZISSEN
100
AcDbLine
 10
519.7819052823627
 20
207.7642657397959
 30
0.0
 11
507.7911822823625
 21
207.7642657397959
 31
0.0
  0
LINE
  5
4F5
330
18
100
AcDbEntity
  8
L-ZISSEN
100
AcDbLine
 10
507.7911822823625
 20
202.0887067397959
 30
0.0
 11
519.7819052823627
 21
202.0887067397959
 31
0.0
  0
LINE
  5
4F6
330
18
100
AcDbEntity
  8
L-ZISSEN
100
AcDbLine
 10
451.8829692823626
 20
239.9603847397959
 30
0.0
 11
529.0225202823626
 21
239.9603847397959
 31
0.0
  0
LINE
  5
4F7
330
18
100
AcDbEntity
  8
L-ZISSEN
  6
CONTINUOUS
 62
     7
100
AcDbLine
 10
496.8829692823625
 20
235.9603847397959
 30
0.0
 11
528.3828162823625
 21
235.9603847397959
 31
0.0
  0
LINE
  5
4F8
330
18
100
AcDbEntity
  8
L-ZISSEN
  6
CONTINUOUS
 62
     7
100
AcDbLine
 10
450.8940662823626
 20
256.0839917397959
 30
0.0
 11
451.3679692823625
 21
240.4452667397959
 31
0.0
  0
LINE
  5
4F9
330
18
100
AcDbEntity
  8
L-ZISSEN
  6
CONTINUOUS
 62
     7
100
AcDbLine
 10
452.3829692823626
 20
235.9603847397959
 30
0.0
 11
483.8829692823625
 21
235.9603847397959
 31
0.0
  0
LINE
  5
4FA
330
18
100
AcDbEntity
  8
L-ZISSEN
  6
CONTINUOUS
 62
     7
100
AcDbLine
 10
451.8678292823626
 20
239.9603847397959
 30
0.0
 11
451.8829692823626
 21
239.9603847397959
 31
0.0
  0
ARC
  5
4FB
330
18
100
AcDbEntity
  8
L-ZISSEN
  6
CONTINUOUS
 62
     7
100
AcDbCircle
 10
451.8678292823626
 20
240.460384739796
 30
0.0
 40
0.5
100
AcDbArc
 50
181.73567
 51
270.00002
  0
LINE
  5
4FC
330
18
100
AcDbEntity
  8
L-ZISSEN
100
AcDbLine
 10
472.9747562823625
 20
227.6287137397959
 30
0.0
 11
460.9840332823625
 21
227.6287137397959
 31
0.0
  0
ARC
  5
4FD
330
18
100
AcDbEntity
  8
L-ZISSEN
  6
CONTINUOUS
 62
     7
100
AcDbCircle
 10
452.3829692823626
 20
236.460384739796
 30
0.0
 40
0.5
100
AcDbArc
 50
179.99996
 51
270.0
  0
LINE
  5
4FE
330
18
100
AcDbEntity
  8
L-ZISSEN
  6
CONTINUOUS
 62
     7
100
AcDbLine
 10
451.8829692823626
 20
239.9603847397959
 30
0.0
 11
451.8829692823626
 21
236.460384739796
 31
0.0
  0
LINE
  5
4FF
330
18
100
AcDbEntity
  8
L-ZISSEN
100
AcDbLine
 10
496.8829692823625
 20
215.3273677397959
 30
0.0
 11
483.8829692823625
 21
215.3273677397959
 31
0.0
  0
LINE
  5
500
330
18
100
AcDbEntity
  8
L-ZISSEN
100
AcDbLine
 10
496.8829692823625
 20
239.9603847397959
 30
0.0
 11
496.8829692823625
 21
215.3273677397959
 31
0.0
  0
LINE
  5
501
330
18
100
AcDbEntity
  8
L-ZISSEN
100
AcDbLine
 10
483.8829692823625
 20
239.9603847397959
 30
0.0
 11
483.8829692823625
 21
215.3273677397959
 31
0.0
  0
LINE
  5
502
330
18
100
AcDbEntity
  8
L-ZISSEN
100
AcDbLine
 10
452.3933782823625
 20
257.6294257397959
 30
0.0
 11
519.3329692823627
 21
257.6294257397959
 31
0.0
  0
LINE
  5
503
330
18
100
AcDbEntity
  8
L-ZISSEN
  6
CONTINUOUS
 62
     7
100
AcDbLine
 10
452.8829692823626
 20
265.5603787397959
 30
0.0
 11
452.8829692823626
 21
262.3603787397959
 31
0.0
  0
ARC
  5
504
330
18
100
AcDbEntity
  8
L-ZISSEN
  6
CONTINUOUS
 62
     7
100
AcDbCircle
 10
451.8829692823626
 20
262.3603787397959
 30
0.0
 40
1.0
100
AcDbArc
 50
270.00002
 51
0.0
  0
LINE
  5
505
330
18
100
AcDbEntity
  8
L-ZISSEN
  6
CONTINUOUS
 62
     7
100
AcDbLine
 10
450.8829692823625
 20
261.3603787397959
 30
0.0
 11
451.8829692823626
 21
261.3603787397959
 31
0.0
  0
ARC
  5
506
330
18
100
AcDbEntity
  8
L-ZISSEN
100
AcDbCircle
 10
452.3933782823625
 20
256.129425739796
 30
0.0
 40
1.5
100
AcDbArc
 50
90.0
 51
181.7357129999999
  0
LINE
  5
507
330
18
100
AcDbEntity
  8
L-ZISSEN
  6
CONTINUOUS
 62
     7
100
AcDbLine
 10
450.3829692823625
 20
256.4603687397959
 30
0.0
 11
450.8827292823625
 21
256.4603687397959
 31
0.0
  0
LINE
  5
508
330
18
100
AcDbEntity
  8
L-ZISSEN
  6
CONTINUOUS
 62
     7
100
AcDbLine
 10
450.3829692823625
 20
260.8603937397959
 30
0.0
 11
450.3829692823625
 21
256.4603687397959
 31
0.0
  0
ARC
  5
509
330
18
100
AcDbEntity
  8
L-ZISSEN
  6
CONTINUOUS
 62
     7
100
AcDbCircle
 10
450.8829692823625
 20
260.8603937397959
 30
0.0
 40
0.5
100
AcDbArc
 50
89.99998199999998
 51
179.99996
  0
LINE
  5
50A
330
18
100
AcDbEntity
  8
L-ZISSEN
  6
CONTINUOUS
 62
     7
100
AcDbLine
 10
450.8829692823625
 20
266.5603787397959
 30
0.0
 11
451.8829692823626
 21
266.5603787397959
 31
0.0
  0
ARC
  5
50B
330
18
100
AcDbEntity
  8
L-ZISSEN
  6
CONTINUOUS
 62
     7
100
AcDbCircle
 10
450.8829692823625
 20
267.0603637397959
 30
0.0
 40
0.5
100
AcDbArc
 50
179.99996
 51
270.0
  0
ARC
  5
50C
330
18
100
AcDbEntity
  8
L-ZISSEN
  6
CONTINUOUS
 62
     7
100
AcDbCircle
 10
451.8829692823626
 20
265.5603787397959
 30
0.0
 40
1.0
100
AcDbArc
 50
0.0
 51
89.99998199999998
  0
LINE
  5
50D
330
18
100
AcDbEntity
  8
L-ZISSEN
  6
CONTINUOUS
 62
     7
100
AcDbLine
 10
529.8711652823626
 20
256.0839917397959
 30
0.0
 11
529.3972662823626
 21
240.4453007397959
 31
0.0
  0
LINE
  5
50E
330
18
100
AcDbEntity
  8
L-ZISSEN
  6
CONTINUOUS
 62
     7
100
AcDbLine
 10
528.8828312823625
 20
239.9604147397959
 30
0.0
 11
528.8974802823625
 21
239.9604147397959
 31
0.0
  0
ARC
  5
50F
330
18
100
AcDbEntity
  8
L-ZISSEN
  6
CONTINUOUS
 62
     7
100
AcDbCircle
 10
528.8974802823625
 20
240.4604147397959
 30
0.0
 40
0.5
100
AcDbArc
 50
270.00002
 51
358.26432
  0
ARC
  5
510
330
18
100
AcDbEntity
  8
L-ZISSEN
  6
CONTINUOUS
 62
     7
100
AcDbCircle
 10
528.3828162823625
 20
236.460384739796
 30
0.0
 40
0.5
100
AcDbArc
 50
270.00002
 51
0.0
  0
LINE
  5
511
330
18
100
AcDbEntity
  8
L-ZISSEN
100
AcDbLine
 10
507.7911822823625
 20
227.6287137397959
 30
0.0
 11
519.7819052823627
 21
227.6287137397959
 31
0.0
  0
LINE
  5
512
330
18
100
AcDbEntity
  8
L-ZISSEN
  6
CONTINUOUS
 62
     7
100
AcDbLine
 10
528.8828312823625
 20
239.9603847397959
 30
0.0
 11
528.8828312823625
 21
236.460384739796
 31
0.0
  0
ARC
  5
514
330
18
100
AcDbEntity
  8
L-ZISSEN
100
AcDbCircle
 10
528.3718542823626
 20
256.129425739796
 30
0.0
 40
1.5
100
AcDbArc
 50
358.264297
 51
62.53631680579479
  0
LINE
  5
515
330
18
100
AcDbEntity
  8
L-TYUSIN
100
AcDbLine
 10
479.8829292823625
 20
591.268137739796
 30
0.0
 11
479.8829292823625
 21
552.0324397397959
 31
0.0
1001
ACAD
1000
ASC_BOUNDS
1002
{
1070
    19
1002
}
  0
LINE
  5
516
330
18
100
AcDbEntity
  8
L-ZISSEN
100
AcDbLine
 10
450.3829692823625
 20
593.5453807397959
 30
0.0
 11
450.3829692823625
 21
549.5453807397959
 31
0.0
1001
ACAD
1000
ASC_BOUNDS
1002
{
1070
    19
1002
}
  0
CIRCLE
  5
517
330
18
100
AcDbEntity
  8
L-ZISSEN
  6
CONTINUOUS
 62
     7
100
AcDbCircle
 10
479.8829292823625
 20
571.545380739796
 30
0.0
 40
15.0
  0
CIRCLE
  5
518
330
18
100
AcDbEntity
  8
L-ZISSEN
  6
CONTINUOUS
 62
     7
100
AcDbCircle
 10
479.8829292823625
 20
571.545380739796
 30
0.0
 40
13.5
  0
CIRCLE
  5
519
330
18
100
AcDbEntity
  8
L-ZISSEN
  6
CONTINUOUS
 62
     7
100
AcDbCircle
 10
479.8829292823625
 20
571.545380739796
 30
0.0
 40
11.5
  0
CIRCLE
  5
51A
330
18
100
AcDbEntity
  8
L-ZISSEN
  6
CONTINUOUS
 62
     7
100
AcDbCircle
 10
479.8829292823625
 20
571.545380739796
 30
0.0
 40
19.0
  0
ARC
  5
51B
330
18
100
AcDbEntity
  8
L-ZISSEN
100
AcDbCircle
 10
490.3829692823626
 20
571.545380739796
 30
0.0
 40
37.5
100
AcDbArc
 50
11.53695899999999
 51
348.463041
1001
ACAD
1000
ASC_BOUNDS
1002
{
1070
    19
1002
}
  0
LINE
  5
51C
330
18
100
AcDbEntity
  8
L-TYUSIN
100
AcDbLine
 10
490.3829692823626
 20
616.5453807397959
 30
0.0
 11
490.3829692823626
 21
489.0453807397959
 31
0.0
1001
ACAD
1000
ASC_BOUNDS
1002
{
1070
    19
1002
}
  0
LINE
  5
51D
330
18
100
AcDbEntity
  8
L-ZISSEN
100
AcDbLine
 10
525.8829692823626
 20
351.8603457397959
 30
0.0
 11
527.8829692823626
 21
353.8603457397959
 31
0.0
  0
LINE
  5
51E
330
18
100
AcDbEntity
  8
L-TYUSIN
100
AcDbLine
 10
546.8829692823626
 20
358.4103457397959
 30
0.0
 11
546.8829692823626
 21
330.3056447397959
 31
0.0
  0
LINE
  5
51F
330
18
100
AcDbEntity
  8
L-ZISSEN
100
AcDbLine
 10
539.8829692823626
 20
353.3603457397959
 30
0.0
 11
539.8829692823626
 21
344.8603457397959
 31
0.0
  0
LINE
  5
520
330
18
100
AcDbEntity
  8
L-ZISSEN
100
AcDbLine
 10
553.8829692823624
 20
353.3603457397959
 30
0.0
 11
553.8829692823624
 21
344.8603457397959
 31
0.0
  0
LINE
  5
521
330
18
100
AcDbEntity
  8
L-TYUSIN
100
AcDbLine
 10
513.8829692823626
 20
337.5137307397959
 30
0.0
 11
513.8829692823626
 21
376.360345739796
 31
0.0
  0
LINE
  5
522
330
18
100
AcDbEntity
  8
L-ZISSEN
100
AcDbLine
 10
501.8829692823626
 20
371.860345739796
 30
0.0
 11
501.8829692823626
 21
344.8603457397959
 31
0.0
  0
LINE
  5
523
330
18
100
AcDbEntity
  8
L-TYUSIN
100
AcDbLine
 10
480.3429552823626
 20
326.2726667397959
 30
0.0
 11
480.3429552823626
 21
397.2934017397959
 31
0.0
  0
LINE
  5
524
330
18
100
AcDbEntity
  8
L-ZISSEN
100
AcDbLine
 10
498.8829692823625
 20
344.8603457397959
 30
0.0
 11
525.8829692823626
 21
344.8603457397959
 31
0.0
  0
LINE
  5
525
330
18
100
AcDbEntity
  8
L-ZISSEN
100
AcDbLine
 10
527.8829692823626
 20
308.9603457397959
 30
0.0
 11
452.8829692823626
 21
308.9603457397959
 31
0.0
  0
LINE
  5
526
330
18
100
AcDbEntity
  8
L-ZISSEN
100
AcDbLine
 10
452.8829692823626
 20
309.6603457397959
 30
0.0
 11
527.8829692823626
 21
309.6603457397959
 31
0.0
  0
LINE
  5
527
330
18
100
AcDbEntity
  8
L-ZISSEN
100
AcDbLine
 10
452.8829692823626
 20
325.6603457397959
 30
0.0
 11
452.8829692823626
 21
302.4603457397959
 31
0.0
  0
ARC
  5
528
330
18
100
AcDbEntity
  8
L-ZISSEN
  6
CONTINUOUS
 62
     7
100
AcDbCircle
 10
453.3829692823625
 20
298.0603557397959
 30
0.0
 40
0.5
100
AcDbArc
 50
89.99998199999998
 51
179.99996
  0
LINE
  5
529
330
18
100
AcDbEntity
  8
L-ZISSEN
  6
CONTINUOUS
 62
     7
100
AcDbLine
 10
451.8829692823626
 20
293.3603667397959
 30
0.0
 11
450.8829692823625
 21
293.3603667397959
 31
0.0
  0
ARC
  5
52A
330
18
100
AcDbEntity
  8
L-ZISSEN
  6
CONTINUOUS
 62
     7
100
AcDbCircle
 10
450.8829692823625
 20
292.8603817397959
 30
0.0
 40
0.5
100
AcDbArc
 50
89.99998199999998
 51
179.99996
  0
ARC
  5
52B
330
18
100
AcDbEntity
  8
L-ZISSEN
  6
CONTINUOUS
 62
     7
100
AcDbCircle
 10
451.8829692823626
 20
294.3603667397959
 30
0.0
 40
1.0
100
AcDbArc
 50
270.00002
 51
0.0
  0
LINE
  5
52C
330
18
100
AcDbEntity
  8
L-ZISSEN
  6
CONTINUOUS
 62
     7
100
AcDbLine
 10
452.8829692823626
 20
298.0603557397959
 30
0.0
 11
452.8829692823626
 21
294.3603667397959
 31
0.0
  0
LINE
  5
52D
330
18
100
AcDbEntity
  8
L-ZISSEN
100
AcDbLine
 10
455.3829692823625
 20
298.5603547397959
 30
0.0
 11
450.9828192823626
 21
298.5603557397959
 31
0.0
  0
ARC
  5
52E
330
18
100
AcDbEntity
  8
L-ZISSEN
  6
CONTINUOUS
 62
     7
100
AcDbCircle
 10
450.9828192823626
 20
301.9603657397959
 30
0.0
 40
0.5
100
AcDbArc
 50
89.99998199999998
 51
179.99996
  0
LINE
  5
52F
330
18
100
AcDbEntity
  8
L-ZISSEN
  6
CONTINUOUS
 62
     7
100
AcDbLine
 10
453.3829692823625
 20
298.5603557397959
 30
0.0
 11
450.9828192823626
 21
298.5603557397959
 31
0.0
  0
LINE
  5
530
330
18
100
AcDbEntity
  8
L-ZISSEN
  6
CONTINUOUS
 62
     7
100
AcDbLine
 10
450.4828192823626
 20
301.9603657397959
 30
0.0
 11
450.4828192823626
 21
299.0603407397959
 31
0.0
  0
ARC
  5
531
330
18
100
AcDbEntity
  8
L-ZISSEN
  6
CONTINUOUS
 62
     7
100
AcDbCircle
 10
450.9828192823626
 20
299.0603407397959
 30
0.0
 40
0.5
100
AcDbArc
 50
179.99996
 51
270.0
  0
LINE
  5
532
330
18
100
AcDbEntity
  8
L-ZISSEN
  6
CONTINUOUS
 62
     7
100
AcDbLine
 10
455.3829692823625
 20
302.4603457397959
 30
0.0
 11
450.9828192823626
 21
302.4603457397959
 31
0.0
  0
LINE
  5
533
330
18
100
AcDbEntity
  8
L-ZISSEN
100
AcDbLine
 10
463.3829692823625
 20
346.6603457397959
 30
0.0
 11
497.3829692823626
 21
346.6603457397959
 31
0.0
  0
LINE
  5
534
330
18
100
AcDbEntity
  8
L-ZISSEN
100
AcDbLine
 10
463.3829692823625
 20
326.6603457397959
 30
0.0
 11
463.3829692823625
 21
346.6603457397959
 31
0.0
  0
ARC
  5
535
330
18
100
AcDbEntity
  8
L-ZISSEN
100
AcDbCircle
 10
453.8829692823625
 20
325.6603457397959
 30
0.0
 40
1.0
100
AcDbArc
 50
90.0
 51
180.0
  0
LINE
  5
536
330
18
100
AcDbEntity
  8
L-ZISSEN
100
AcDbLine
 10
453.8829692823625
 20
326.6603457397959
 30
0.0
 11
526.8829692823626
 21
326.6603457397959
 31
0.0
  0
LINE
  5
537
330
18
100
AcDbEntity
  8
L-ZISSEN
100
AcDbLine
 10
465.6329692823625
 20
346.6603457397959
 30
0.0
 11
465.6329692823625
 21
349.1603457397959
 31
0.0
  0
LINE
  5
538
330
18
100
AcDbEntity
  8
L-ZISSEN
100
AcDbLine
 10
498.8829692823625
 20
344.8603457397959
 30
0.0
 11
498.8829692823625
 21
326.6603457397959
 31
0.0
  0
LINE
  5
539
330
18
100
AcDbEntity
  8
L-ZISSEN
100
AcDbLine
 10
497.3829692823626
 20
326.6603457397959
 30
0.0
 11
497.3829692823626
 21
346.6603457397959
 31
0.0
1001
ACAD
1000
ASC_BOUNDS
1002
{
1070
    19
1002
}
  0
LINE
  5
53A
330
18
100
AcDbEntity
  8
L-ZISSEN
100
AcDbLine
 10
495.1329692823626
 20
346.6603457397959
 30
0.0
 11
495.1329692823626
 21
349.1603457397959
 31
0.0
  0
LINE
  5
53B
330
18
100
AcDbEntity
  8
L-ZISSEN
100
AcDbLine
 10
527.8829692823626
 20
325.6603457397959
 30
0.0
 11
527.8829692823626
 21
302.4603457397959
 31
0.0
  0
ARC
  5
53C
330
18
100
AcDbEntity
  8
L-ZISSEN
100
AcDbCircle
 10
526.8829692823626
 20
325.6603457397959
 30
0.0
 40
1.0
100
AcDbArc
 50
0.0
 51
90.0
  0
LINE
  5
53D
330
18
100
AcDbEntity
  8
L-ZISSEN
100
AcDbLine
 10
525.8829692823626
 20
351.8603457397959
 30
0.0
 11
525.8829692823626
 21
326.6603457397959
 31
0.0
  0
LINE
  5
53E
330
18
100
AcDbEntity
  8
L-TYUSIN
100
AcDbLine
 10
512.3829692823626
 20
347.1844087397959
 30
0.0
 11
512.3829692823626
 21
318.9370917397959
 31
0.0
  0
LINE
  5
53F
330
18
100
AcDbEntity
  8
L-ZISSEN
100
AcDbLine
 10
554.3885222823625
 20
334.1603457397959
 30
0.0
 11
554.3885222823625
 21
338.3603457397959
 31
0.0
  0
LINE
  5
540
330
18
100
AcDbEntity
  8
L-ZISSEN
100
AcDbLine
 10
553.3829692823626
 20
344.3603457397959
 30
0.0
 11
540.3829692823626
 21
344.3603457397959
 31
0.0
  0
LINE
  5
541
330
18
100
AcDbEntity
  8
L-ZISSEN
100
AcDbLine
 10
554.0885222823626
 20
333.8603457397959
 30
0.0
 11
539.6774162823626
 21
333.8603457397959
 31
0.0
  0
ARC
  5
542
330
18
100
AcDbEntity
  8
L-ZISSEN
100
AcDbCircle
 10
540.3829692823626
 20
344.8603457397959
 30
0.0
 40
0.5
100
AcDbArc
 50
180.0
 51
270.0
  0
LINE
  5
543
330
18
100
AcDbEntity
  8
L-ZISSEN
100
AcDbLine
 10
540.5829692823625
 20
344.3603457397959
 30
0.0
 11
540.5829692823625
 21
338.3603457397959
 31
0.0
  0
ARC
  5
544
330
18
100
AcDbEntity
  8
L-ZISSEN
100
AcDbCircle
 10
539.6774162823626
 20
334.1603457397959
 30
0.0
 40
0.3
100
AcDbArc
 50
180.0
 51
270.0
  0
LINE
  5
545
330
18
100
AcDbEntity
  8
L-ZISSEN
100
AcDbLine
 10
539.3774162823625
 20
334.1603457397959
 30
0.0
 11
539.3774162823625
 21
338.3603457397959
 31
0.0
  0
LINE
  5
546
330
18
100
AcDbEntity
  8
L-ZISSEN
100
AcDbLine
 10
553.1829692823626
 20
344.3603457397959
 30
0.0
 11
553.1829692823626
 21
338.3603457397959
 31
0.0
  0
ARC
  5
547
330
18
100
AcDbEntity
  8
L-ZISSEN
100
AcDbCircle
 10
553.3829692823626
 20
344.8603457397959
 30
0.0
 40
0.5
100
AcDbArc
 50
270.0
 51
0.0
  0
LINE
  5
548
330
18
100
AcDbEntity
  8
L-ZISSEN
100
AcDbLine
 10
554.3885222823625
 20
338.3603457397959
 30
0.0
 11
539.3774162823625
 21
338.3603457397959
 31
0.0
  0
ARC
  5
549
330
18
100
AcDbEntity
  8
L-ZISSEN
100
AcDbCircle
 10
554.0885222823626
 20
334.1603457397959
 30
0.0
 40
0.3
100
AcDbArc
 50
270.0
 51
0.0
  0
LINE
  5
54A
330
18
100
AcDbEntity
  8
L-ZISSEN
100
AcDbLine
 10
503.8829692823625
 20
373.860345739796
 30
0.0
 11
523.8829692823626
 21
373.860345739796
 31
0.0
  0
LINE
  5
54B
330
18
100
AcDbEntity
  8
L-ZISSEN
100
AcDbLine
 10
525.8829692823626
 20
369.860345739796
 30
0.0
 11
501.8090492823625
 21
369.860345739796
 31
0.0
  0
LINE
  5
54C
330
18
100
AcDbEntity
  8
L-ZISSEN
100
AcDbLine
 10
501.8829692823626
 20
371.860345739796
 30
0.0
 11
503.8829692823625
 21
373.860345739796
 31
0.0
  0
LINE
  5
54D
330
18
100
AcDbEntity
  8
L-ZISSEN
100
AcDbLine
 10
551.8829692823626
 20
368.860345739796
 30
0.0
 11
536.8829692823626
 21
368.860345739796
 31
0.0
  0
LINE
  5
54E
330
18
100
AcDbEntity
  8
L-ZISSEN
100
AcDbLine
 10
553.8829692823624
 20
353.3603457397959
 30
0.0
 11
536.8829692823626
 21
353.3603457397959
 31
0.0
  0
LINE
  5
54F
330
18
100
AcDbEntity
  8
L-ZISSEN
100
AcDbLine
 10
536.8829692823626
 20
368.860345739796
 30
0.0
 11
528.8829692823626
 21
368.610345739796
 31
0.0
  0
LINE
  5
550
330
18
100
AcDbEntity
  8
L-ZISSEN
100
AcDbLine
 10
536.8829692823626
 20
353.3603457397959
 30
0.0
 11
528.8829692823626
 21
353.6103457397959
 31
0.0
  0
LINE
  5
551
330
18
100
AcDbEntity
  8
L-ZISSEN
100
AcDbLine
 10
528.8829692823626
 20
353.6103457397959
 30
0.0
 11
528.8829692823626
 21
368.610345739796
 31
0.0
  0
LINE
  5
552
330
18
100
AcDbEntity
  8
L-ZISSEN
100
AcDbLine
 10
525.8829692823626
 20
369.860345739796
 30
0.0
 11
525.8829692823626
 21
371.860345739796
 31
0.0
  0
LINE
  5
553
330
18
100
AcDbEntity
  8
L-ZISSEN
100
AcDbLine
 10
525.8829692823626
 20
369.860345739796
 30
0.0
 11
527.8829692823626
 21
368.7056447397959
 31
0.0
  0
LINE
  5
554
330
18
100
AcDbEntity
  8
L-ZISSEN
100
AcDbLine
 10
525.8829692823626
 20
371.860345739796
 30
0.0
 11
523.8829692823626
 21
373.860345739796
 31
0.0
  0
LINE
  5
555
330
18
100
AcDbEntity
  8
L-ZISSEN
100
AcDbLine
 10
527.8829692823626
 20
359.3103457397959
 30
0.0
 11
527.8829692823626
 21
353.8603457397959
 31
0.0
  0
LINE
  5
556
330
18
100
AcDbEntity
  8
L-ZISSEN
100
AcDbLine
 10
527.8829692823626
 20
353.6103457397959
 30
0.0
 11
527.8829692823626
 21
368.610345739796
 31
0.0
  0
LINE
  5
557
330
18
100
AcDbEntity
  8
L-ZISSEN
100
AcDbLine
 10
528.8829692823626
 20
368.610345739796
 30
0.0
 11
527.8829692823626
 21
368.610345739796
 31
0.0
  0
LINE
  5
558
330
18
100
AcDbEntity
  8
L-ZISSEN
100
AcDbLine
 10
528.8829692823626
 20
353.6103457397959
 30
0.0
 11
527.8829692823626
 21
353.6103457397959
 31
0.0
  0
ARC
  5
559
330
18
100
AcDbEntity
  8
L-ZISSEN
100
AcDbCircle
 10
551.8829692823626
 20
368.360345739796
 30
0.0
 40
0.5
100
AcDbArc
 50
0.0
 51
90.0
  0
LINE
  5
55A
330
18
100
AcDbEntity
  8
L-ZISSEN
100
AcDbLine
 10
553.8829692823624
 20
353.3603457397959
 30
0.0
 11
552.3829692823626
 21
355.958421739796
 31
0.0
  0
LINE
  5
55B
330
18
100
AcDbEntity
  8
L-ZISSEN
100
AcDbLine
 10
552.3829692823626
 20
368.360345739796
 30
0.0
 11
552.3829692823626
 21
353.3603457397959
 31
0.0
  0
LINE
  5
55D
330
18
100
AcDbEntity
  8
L-ZISSEN
100
AcDbLine
 10
452.3829692823626
 20
553.5453807397959
 30
0.0
 11
452.3829692823626
 21
549.5453807397959
 31
0.0
1001
ACAD
1000
ASC_BOUNDS
1002
{
1070
    19
1002
}
  0
LINE
  5
55E
330
18
100
AcDbEntity
  8
L-ZISSEN
100
AcDbLine
 10
452.3829692823626
 20
549.5453807397959
 30
0.0
 11
453.8388502823625
 21
553.5453807397959
 31
0.0
  0
LINE
  5
55F
330
18
100
AcDbEntity
  8
L-ZISSEN
100
AcDbLine
 10
450.3829692823625
 20
549.5453807397959
 30
0.0
 11
452.3829692823626
 21
549.5453807397959
 31
0.0
  0
LINE
  5
560
330
18
100
AcDbEntity
  8
L-ZISSEN
100
AcDbLine
 10
450.3829692823625
 20
553.5453807397959
 30
0.0
 11
455.3499602823626
 21
553.5453807397959
 31
0.0
  0
ARC
  5
564
330
18
100
AcDbEntity
  8
L-ZISSEN
100
AcDbCircle
 10
504.8829692823625
 20
567.045380739796
 30
0.0
 40
3.0
100
AcDbArc
 50
0.0
 51
90.0
  0
LINE
  5
565
330
18
100
AcDbEntity
  8
L-ZISSEN
100
AcDbLine
 10
525.8829692823626
 20
562.5453807397959
 30
0.0
 11
498.8829692823625
 21
562.5453807397959
 31
0.0
  0
LINE
  5
566
330
18
100
AcDbEntity
  8
L-ZISSEN
100
AcDbLine
 10
525.8829692823626
 20
580.545380739796
 30
0.0
 11
498.8829692823625
 21
580.545380739796
 31
0.0
  0
LINE
  5
567
330
18
100
AcDbEntity
  8
L-ZISSEN
100
AcDbLine
 10
519.8829692823626
 20
577.0453807397959
 30
0.0
 11
503.8829692823625
 21
577.0453807397959
 31
0.0
  0
LINE
  5
568
330
18
100
AcDbEntity
  8
L-ZISSEN
100
AcDbLine
 10
528.8829692823626
 20
564.0453807397959
 30
0.0
 11
501.8829692823626
 21
564.0453807397959
 31
0.0
  0
LINE
  5
569
330
18
100
AcDbEntity
  8
L-ZISSEN
100
AcDbLine
 10
528.8829692823626
 20
579.0453807397959
 30
0.0
 11
501.8829692823626
 21
579.0453807397959
 31
0.0
  0
LINE
  5
56B
330
18
100
AcDbEntity
  8
L-ZISSEN
100
AcDbLine
 10
452.3829692823626
 20
593.5453807397959
 30
0.0
 11
453.8388502823625
 21
589.5453807397959
 31
0.0
  0
LINE
  5
56C
330
18
100
AcDbEntity
  8
L-ZISSEN
100
AcDbLine
 10
452.3829692823626
 20
593.5453807397959
 30
0.0
 11
452.3829692823626
 21
589.5453807397959
 31
0.0
1001
ACAD
1000
ASC_BOUNDS
1002
{
1070
    19
1002
}
  0
LINE
  5
56D
330
18
100
AcDbEntity
  8
L-ZISSEN
100
AcDbLine
 10
450.3829692823625
 20
589.5453807397959
 30
0.0
 11
455.3499602823626
 21
589.5453807397959
 31
0.0
  0
LINE
  5
56E
330
18
100
AcDbEntity
  8
L-ZISSEN
100
AcDbLine
 10
450.3829692823625
 20
593.5453807397959
 30
0.0
 11
452.3829692823626
 21
593.5453807397959
 31
0.0
  0
CIRCLE
  5
56F
330
18
100
AcDbEntity
  8
L-ZISSEN
100
AcDbCircle
 10
504.8829692823625
 20
567.045380739796
 30
0.0
 40
2.25
  0
LINE
  5
570
330
18
100
AcDbEntity
  8
L-ZISSEN
100
AcDbLine
 10
504.8829722823625
 20
570.0453807397959
 30
0.0
 11
501.8829692823626
 21
570.0453807397959
 31
0.0
  0
LINE
  5
571
330
18
100
AcDbEntity
  8
L-ZISSEN
100
AcDbLine
 10
498.8829692823625
 20
562.5453807397959
 30
0.0
 11
498.8829692823625
 21
580.545380739796
 31
0.0
  0
LINE
  5
572
330
18
100
AcDbEntity
  8
L-ZISSEN
100
AcDbLine
 10
501.8829692823626
 20
564.0453807397959
 30
0.0
 11
501.8829692823626
 21
579.0453807397959
 31
0.0
  0
LINE
  5
573
330
18
100
AcDbEntity
  8
L-ZISSEN
100
AcDbLine
 10
503.8829692823625
 20
577.0453807397959
 30
0.0
 11
501.8829692823626
 21
579.0453807397959
 31
0.0
  0
LINE
  5
574
330
18
100
AcDbEntity
  8
L-ZISSEN
100
AcDbLine
 10
503.8829692823625
 20
570.0453807397959
 30
0.0
 11
503.8829692823625
 21
577.0453807397959
 31
0.0
  0
LINE
  5
576
330
18
100
AcDbEntity
  8
L-ZISSEN
100
AcDbLine
 10
551.8829692823626
 20
563.7953807397959
 30
0.0
 11
536.8829692823626
 21
563.7953807397959
 31
0.0
  0
LINE
  5
577
330
18
100
AcDbEntity
  8
L-ZISSEN
100
AcDbLine
 10
551.8829692823626
 20
579.2953807397959
 30
0.0
 11
536.8829692823626
 21
579.2953807397959
 31
0.0
  0
LINE
  5
578
330
18
100
AcDbEntity
  8
L-ZISSEN
100
AcDbLine
 10
536.8829692823626
 20
563.7953807397959
 30
0.0
 11
528.8829692823626
 21
564.0453807397959
 31
0.0
  0
LINE
  5
579
330
18
100
AcDbEntity
  8
L-ZISSEN
100
AcDbLine
 10
536.8829692823626
 20
579.2953807397959
 30
0.0
 11
528.8829692823626
 21
579.0453807397959
 31
0.0
  0
LINE
  5
57A
330
18
100
AcDbEntity
  8
L-ZISSEN
100
AcDbLine
 10
525.8829692823626
 20
562.5453807397959
 30
0.0
 11
525.8829692823626
 21
580.545380739796
 31
0.0
  0
LINE
  5
57B
330
18
100
AcDbEntity
  8
L-ZISSEN
100
AcDbLine
 10
525.8829692823626
 20
564.0453807397959
 30
0.0
 11
525.8829692823626
 21
579.0453807397959
 31
0.0
  0
LINE
  5
57C
330
18
100
AcDbEntity
  8
L-ZISSEN
100
AcDbLine
 10
519.8829692823626
 20
576.045380739796
 30
0.0
 11
519.8829692823626
 21
579.0453807397959
 31
0.0
  0
LINE
  5
57D
330
18
100
AcDbEntity
  8
L-ZISSEN
100
AcDbLine
 10
523.8829692823626
 20
566.0453807397959
 30
0.0
 11
523.8829692823626
 21
573.0453807397959
 31
0.0
  0
LINE
  5
57E
330
18
100
AcDbEntity
  8
L-ZISSEN
100
AcDbLine
 10
525.8829692823626
 20
573.0453807397959
 30
0.0
 11
522.8829692823626
 21
573.0453807397959
 31
0.0
  0
ARC
  5
57F
330
18
100
AcDbEntity
  8
L-ZISSEN
100
AcDbCircle
 10
522.8829692823626
 20
576.045380739796
 30
0.0
 40
3.0
100
AcDbArc
 50
180.0
 51
270.0
  0
CIRCLE
  5
580
330
18
100
AcDbEntity
  8
L-ZISSEN
100
AcDbCircle
 10
522.8829692823626
 20
576.045380739796
 30
0.0
 40
2.25
  0
LINE
  5
581
330
18
100
AcDbEntity
  8
L-ZISSEN
100
AcDbLine
 10
507.8829692823625
 20
564.0453807397959
 30
0.0
 11
507.8829692823625
 21
567.045382739796
 31
0.0
  0
LINE
  5
582
330
18
100
AcDbEntity
  8
L-ZISSEN
100
AcDbLine
 10
523.8829692823626
 20
566.0453807397959
 30
0.0
 11
507.8829692823625
 21
566.0453807397959
 31
0.0
  0
LINE
  5
584
330
18
100
AcDbEntity
  8
L-ZISSEN
100
AcDbLine
 10
552.3829692823626
 20
578.7953807397959
 30
0.0
 11
552.3829692823626
 21
564.2953807397959
 31
0.0
  0
ARC
  5
585
330
18
100
AcDbEntity
  8
L-ZISSEN
100
AcDbCircle
 10
551.8829692823626
 20
564.2953807397959
 30
0.0
 40
0.5
100
AcDbArc
 50
270.0
 51
0.0
  0
ARC
  5
586
330
18
100
AcDbEntity
  8
L-ZISSEN
100
AcDbCircle
 10
551.8829692823626
 20
578.7953807397959
 30
0.0
 40
0.5
100
AcDbArc
 50
0.0
 51
90.0
  0
LINE
  5
587
330
18
100
AcDbEntity
  8
L-ZISSEN
100
AcDbLine
 10
530.3829692823626
 20
593.5453807397959
 30
0.0
 11
528.3829692823626
 21
593.5453807397959
 31
0.0
  0
LINE
  5
588
330
18
100
AcDbEntity
  8
L-ZISSEN
100
AcDbLine
 10
530.3829692823626
 20
589.5453807397959
 30
0.0
 11
525.4159782823626
 21
589.5453807397959
 31
0.0
  0
LINE
  5
58A
330
18
100
AcDbEntity
  8
L-ZISSEN
100
AcDbLine
 10
528.3829692823626
 20
593.5453807397959
 30
0.0
 11
526.9270882823625
 21
589.5453807397959
 31
0.0
  0
LINE
  5
58C
330
18
100
AcDbEntity
  8
L-ZISSEN
100
AcDbLine
 10
530.3829692823626
 20
553.5453807397959
 30
0.0
 11
525.4159782823626
 21
553.5453807397959
 31
0.0
  0
LINE
  5
58D
330
18
100
AcDbEntity
  8
L-ZISSEN
100
AcDbLine
 10
530.3829692823626
 20
549.5453807397959
 30
0.0
 11
528.3829692823626
 21
549.5453807397959
 31
0.0
  0
LINE
  5
58E
330
18
100
AcDbEntity
  8
L-ZISSEN
100
AcDbLine
 10
528.3829692823626
 20
549.5453807397959
 30
0.0
 11
526.9270882823625
 21
553.5453807397959
 31
0.0
  0
LINE
  5
599
330
18
100
AcDbEntity
  8
L-ZISSEN
  6
CONTINUOUS
 62
     7
100
AcDbLine
 10
525.3829692823626
 20
302.4603457397959
 30
0.0
 11
529.7831192823625
 21
302.4603457397959
 31
0.0
  0
LEADER
  5
5A7
330
18
100
AcDbEntity
  8
L-ZISSEN
 62
     7
100
AcDbLeader
  3
STANDARD
 76
     2
 10
231.2948442823625
 20
577.5284857397959
 30
0.0
 10
216.2419662823625
 20
577.5284857397959
 30
0.0
1001
ACAD
1000
DSTYLE
1002
{
1070
     5
1000

1070
    41
1040
3.5
1070
   176
1070
     7
1070
   177
1070
     7
1070
   178
1070
     7
1070
   342
1005
0
1002
}
  0
LINE
  5
5A8
330
18
100
AcDbEntity
  8
L-ZISSEN
100
AcDbLine
 10
216.1539352823625
 20
571.0192607397959
 30
0.0
 11
219.5870532823625
 21
571.0192607397959
 31
0.0
  0
LINE
  5
5A9
330
18
100
AcDbEntity
  8
L-ZISSEN
100
AcDbLine
 10
169.6938902823626
 20
562.339338739796
 30
0.0
 11
219.6680502823626
 21
562.339338739796
 31
0.0
  0
LEADER
  5
5AA
330
18
100
AcDbEntity
  8
L-ZISSEN
 62
     7
100
AcDbLeader
  3
STANDARD
 76
     2
 10
216.3299922823625
 20
555.801745739796
 30
0.0
 10
231.3828762823626
 20
562.3109717397959
 30
0.0
1001
ACAD
1000
DSTYLE
1002
{
1070
     5
1000

1070
    41
1040
3.5
1070
   176
1070
     7
1070
   177
1070
     7
1070
   178
1070
     7
1070
   342
1005
0
1002
}
  0
LINE
  5
5AB
330
18
100
AcDbEntity
  8
L-ZISSEN
100
AcDbLine
 10
191.7993292823625
 20
530.8601567397959
 30
0.0
 11
240.8921992823625
 21
530.8601567397959
 31
0.0
  0
LINE
  5
5AC
330
18
100
AcDbEntity
  8
L-ZISSEN
100
AcDbLine
 10
191.7993292823625
 20
521.0599887397959
 30
0.0
 11
191.7993292823625
 21
530.8601567397959
 31
0.0
  0
LINE
  5
5AD
330
18
100
AcDbEntity
  8
L-ZISSEN
100
AcDbLine
 10
169.6938902823626
 20
513.499988739796
 30
0.0
 11
169.6938902823626
 21
562.339338739796
 31
0.0
  0
LWPOLYLINE
  5
5AF
330
18
100
AcDbEntity
  8
L-ZISSEN
100
AcDbPolyline
 90
        2
 70
     1
 43
0.63
 10
169.3788902823625
 20
513.499988739796
 42
1.0
 10
170.0088902823625
 20
513.499988739796
 42
1.0
  0
LINE
  5
5B3
330
18
100
AcDbEntity
  8
L-ZISSEN
100
AcDbLine
 10
139.7971367149954
 20
508.9179097397959
 30
0.0
 11
151.9290972823624
 21
508.9179097397958
 31
0.0
  0
SOLID
  5
5B4
330
18
100
AcDbEntity
  8
0
  6
BYBLOCK
 62
     7
100
AcDbTrace
 10
194.9393082823626
 20
514.2349887397959
 30
0.0
 11
194.9393082823626
 21
512.7649887397959
 31
0.0
 12
199.3493082823625
 22
513.499988739796
 32
0.0
 13
199.3493082823625
 23
513.499988739796
 33
0.0
  0
LINE
  5
5B5
330
18
100
AcDbEntity
  8
L-ZISSEN
100
AcDbLine
 10
196.2125672823625
 20
554.779338739796
 30
0.0
 11
187.3860922823626
 21
552.4194387397959
 31
0.0
  0
LINE
  5
5B6
330
18
100
AcDbEntity
  8
L-ZISSEN
100
AcDbLine
 10
196.2125672823625
 20
550.059537739796
 30
0.0
 11
187.3860922823626
 21
547.6996367397958
 31
0.0
  0
LINE
  5
5B7
330
18
100
AcDbEntity
  8
L-ZISSEN
100
AcDbLine
 10
187.3860922823626
 20
552.4194387397959
 30
0.0
 11
196.2125672823625
 21
550.059537739796
 31
0.0
  0
LINE
  5
5B8
330
18
100
AcDbEntity
  8
L-ZISSEN
100
AcDbLine
 10
187.3860922823626
 20
547.6996367397958
 30
0.0
 11
196.2125672823625
 21
545.3397357397959
 31
0.0
  0
SOLID
  5
5B9
330
18
100
AcDbEntity
  8
0
  6
BYBLOCK
 62
     7
100
AcDbTrace
 10
188.6753162823625
 20
563.0743387397959
 30
0.0
 11
188.6753162823625
 21
561.6043387397959
 31
0.0
 12
184.2653162823626
 22
562.339338739796
 32
0.0
 13
184.2653162823626
 23
562.339338739796
 33
0.0
  0
SOLID
  5
5BA
330
18
100
AcDbEntity
  8
0
  6
BYBLOCK
 62
     7
100
AcDbTrace
 10
194.9393082823626
 20
563.0733057397959
 30
0.0
 11
194.9393082823626
 21
561.6033057397959
 31
0.0
 12
199.3493082823625
 22
562.3383057397959
 32
0.0
 13
199.3493082823625
 23
562.3383057397959
 33
0.0
  0
LINE
  5
5BB
330
18
100
AcDbEntity
  8
L-ZISSEN
100
AcDbLine
 10
240.8921992823625
 20
530.8601567397959
 30
0.0
 11
240.8921992823625
 21
562.364847739796
 31
0.0
  0
LINE
  5
5BC
330
18
100
AcDbEntity
  8
L-ZISSEN
100
AcDbLine
 10
219.1505962823625
 20
544.8693637397959
 30
0.0
 11
227.9770722823625
 21
542.5094627397959
 31
0.0
  0
LINE
  5
5BD
330
18
100
AcDbEntity
  8
L-ZISSEN
100
AcDbLine
 10
227.9770722823625
 20
547.2292647397958
 30
0.0
 11
219.1505962823625
 21
544.8693637397959
 31
0.0
  0
LINE
  5
5BE
330
18
100
AcDbEntity
  8
L-ZISSEN
100
AcDbLine
 10
227.9770722823625
 20
551.9490667397959
 30
0.0
 11
219.1505962823625
 21
549.5891657397959
 31
0.0
  0
LINE
  5
5BF
330
18
100
AcDbEntity
  8
L-ZISSEN
100
AcDbLine
 10
219.1505962823625
 20
549.5891657397959
 30
0.0
 11
227.9770722823625
 21
547.2292647397958
 31
0.0
  0
LINE
  5
5C0
330
18
100
AcDbEntity
  8
L-ZISSEN
100
AcDbLine
 10
219.6750792823626
 20
572.7785117397959
 30
0.0
 11
219.6750792823626
 21
569.3479737397959
 31
0.0
  0
LINE
  5
5C1
330
18
100
AcDbEntity
  8
L-ZISSEN
100
AcDbLine
 10
219.7631052823626
 20
563.8063327397959
 30
0.0
 11
219.7631052823626
 21
560.4637597397959
 31
0.0
  0
LINE
  5
5C2
330
18
100
AcDbEntity
  8
L-ZISSEN
100
AcDbLine
 10
240.8921992823625
 20
562.364847739796
 30
0.0
 11
231.3274242823625
 21
562.364847739796
 31
0.0
  0
LINE
  5
5C3
330
18
100
AcDbEntity
  8
L-ZISSEN
100
AcDbLine
 10
224.4147102823625
 20
585.8339397397959
 30
0.0
 11
229.7067852823626
 21
587.914504739796
 31
0.0
  0
LINE
  5
5C4
330
18
100
AcDbEntity
  8
L-ZISSEN
100
AcDbLine
 10
224.4147102823625
 20
590.4919447397959
 30
0.0
 11
229.7067852823626
 21
590.4919447397959
 31
0.0
  0
ARC
  5
5C5
330
18
100
AcDbEntity
  8
L-ZISSEN
100
AcDbCircle
 10
220.3921112823625
 20
588.160014739796
 30
0.0
 40
2.893487999999999
100
AcDbArc
 50
19.143853
 51
160.8561469999999
  0
LINE
  5
5C6
330
18
100
AcDbEntity
  8
L-ZISSEN
100
AcDbLine
 10
223.1255842823625
 20
589.1089077397959
 30
0.0
 11
217.6586392823626
 21
589.1089077397959
 31
0.0
  0
LINE
  5
5C7
330
18
100
AcDbEntity
  8
L-ZISSEN
100
AcDbLine
 10
218.9167912823624
 20
589.1089077397959
 30
0.0
 11
218.9167912823624
 21
582.2771177397959
 31
0.0
  0
LINE
  5
5C8
330
18
100
AcDbEntity
  8
L-ZISSEN
100
AcDbLine
 10
221.8664732823625
 20
582.2183977397959
 30
0.0
 11
221.8664732823625
 21
589.1089077397959
 31
0.0
  0
LINE
  5
5C9
330
18
100
AcDbEntity
  8
L-ZISSEN
100
AcDbLine
 10
224.4147102823625
 20
582.2183977397959
 30
0.0
 11
224.4147102823625
 21
590.4919447397959
 31
0.0
  0
LINE
  5
5CA
330
18
100
AcDbEntity
  8
L-ZISSEN
100
AcDbLine
 10
229.7067852823626
 20
590.4919447397959
 30
0.0
 11
229.7067852823626
 21
582.1037397397959
 31
0.0
  0
LINE
  5
5E9
330
18
100
AcDbEntity
  8
L-TYUSIN
100
AcDbLine
 10
257.8659692823626
 20
279.9603807397959
 30
0.006134
 11
167.8659692823625
 21
279.9603807397959
 31
0.006134
  0
LINE
  5
5EC
330
18
100
AcDbEntity
  8
L-ZISSEN
100
AcDbLine
 10
229.8659692823625
 20
346.5243457397959
 30
0.006134
 11
195.8659692823625
 21
346.5243457397959
 31
0.006134
  0
LINE
  5
5F1
330
18
100
AcDbEntity
  8
L-ZISSEN
  6
CONTINUOUS
 62
     7
100
AcDbLine
 10
455.8158752823626
 20
235.9603847397959
 30
0.0
 11
456.6263012823625
 21
143.0963627397959
 31
0.0
  0
LINE
  5
5F2
330
18
100
AcDbEntity
  8
L-ZISSEN
100
AcDbLine
 10
505.9159782823625
 20
609.045380739796
 30
0.0
 11
527.8829692823626
 21
587.0783897397959
 31
0.0
  0
LINE
  5
5F3
330
18
100
AcDbEntity
  8
L-ZISSEN
100
AcDbLine
 10
527.8829692823626
 20
587.0783897397959
 30
0.0
 11
527.8829692823626
 21
556.0123717397959
 31
0.0
  0
LINE
  5
5F4
330
18
100
AcDbEntity
  8
L-ZISSEN
100
AcDbLine
 10
527.8829692823626
 20
556.0123717397959
 30
0.0
 11
505.9159782823625
 21
534.045380739796
 31
0.0
  0
LINE
  5
5F5
330
18
100
AcDbEntity
  8
L-ZISSEN
100
AcDbLine
 10
505.9159782823625
 20
534.045380739796
 30
0.0
 11
474.8499602823626
 21
534.045380739796
 31
0.0
  0
LINE
  5
5F6
330
18
100
AcDbEntity
  8
L-ZISSEN
100
AcDbLine
 10
474.8499602823626
 20
534.045380739796
 30
0.0
 11
452.8829692823626
 21
556.0123717397959
 31
0.0
  0
LINE
  5
5F7
330
18
100
AcDbEntity
  8
L-ZISSEN
100
AcDbLine
 10
452.8829692823626
 20
556.0123717397959
 30
0.0
 11
452.8829692823626
 21
587.0783897397959
 31
0.0
  0
LINE
  5
5F8
330
18
100
AcDbEntity
  8
L-ZISSEN
100
AcDbLine
 10
452.8829692823626
 20
587.0783897397959
 30
0.0
 11
474.8499602823626
 21
609.045380739796
 31
0.0
  0
LINE
  5
5F9
330
18
100
AcDbEntity
  8
L-ZISSEN
100
AcDbLine
 10
474.8499602823626
 20
609.045380739796
 30
0.0
 11
505.9159782823625
 21
609.045380739796
 31
0.0
  0
LINE
  5
5FA
330
18
100
AcDbEntity
  8
L-ZISSEN
100
AcDbLine
 10
194.8659692823625
 20
257.4603997397959
 30
0.006134
 11
174.3659862823625
 21
257.4603997397959
 31
0.006134
  0
ARC
  5
5FB
330
18
100
AcDbEntity
  8
L-ZISSEN
  6
CONTINUOUS
 62
     7
100
AcDbCircle
 10
174.3659862823625
 20
256.4603847397959
 30
0.006134
 40
1.0
100
AcDbArc
 50
89.99998199999998
 51
180.00002
  0
LINE
  5
5FC
330
18
100
AcDbEntity
  8
L-ZISSEN
  6
CONTINUOUS
 62
     7
100
AcDbLine
 10
203.3659592823626
 20
130.7471847397959
 30
0.0
 11
203.8659592823626
 21
131.2471847397959
 31
0.0
  0
LINE
  5
5FD
330
18
100
AcDbEntity
  8
L-ZISSEN
  6
CONTINUOUS
 62
     7
100
AcDbLine
 10
221.8659392823625
 20
131.2471927397959
 30
0.0
 11
222.3659192823626
 21
130.7471997397959
 31
0.0
  0
LINE
  5
5FE
330
18
100
AcDbEntity
  8
L-ZISSEN
100
AcDbLine
 10
209.9159692823625
 20
112.6604997397959
 30
0.0
 11
215.8159692823626
 21
112.6604997397959
 31
0.0
  0
LINE
  5
5FF
330
18
100
AcDbEntity
  8
L-ZISSEN
  6
CONTINUOUS
 62
     7
100
AcDbLine
 10
209.9159692823625
 20
110.9603807397959
 30
0.0
 11
215.8159692823626
 21
110.9603807397959
 31
0.0
  0
LINE
  5
600
330
18
100
AcDbEntity
  8
L-ZISSEN
100
AcDbLine
 10
209.5159592823625
 20
113.353324739796
 30
0.0
 11
216.2160062823625
 21
113.353324739796
 31
0.0
  0
LINE
  5
601
330
18
100
AcDbEntity
  8
L-ZISSEN
100
AcDbLine
 10
204.8659992823625
 20
114.7471847397959
 30
0.0
 11
220.8659092823625
 21
114.7471847397959
 31
0.0
  0
LINE
  5
602
330
18
100
AcDbEntity
  8
L-ZISSEN
  6
CONTINUOUS
 62
     7
100
AcDbLine
 10
222.3659592823626
 20
115.6432567397959
 30
0.0
 11
222.3659592823626
 21
130.7471697397959
 31
0.0
  0
LINE
  5
603
330
18
100
AcDbEntity
  8
L-ZISSEN
  6
CONTINUOUS
 62
     7
100
AcDbLine
 10
222.0369292823626
 20
115.1734547397959
 30
0.0
 11
220.8659092823625
 21
114.747237739796
 31
0.0
  0
ARC
  5
604
330
18
100
AcDbEntity
  8
L-ZISSEN
  6
CONTINUOUS
 62
     7
100
AcDbCircle
 10
221.8659592823626
 20
115.6432567397959
 30
0.0
 40
0.5
100
AcDbArc
 50
290.0001599999999
 51
0.00036
  0
LINE
  5
605
330
18
100
AcDbEntity
  8
L-ZISSEN
  6
CONTINUOUS
 62
     7
100
AcDbLine
 10
216.2159792823625
 20
113.353324739796
 30
0.0
 11
216.2159792823625
 21
114.7471847397959
 31
0.0
  0
LINE
  5
606
330
18
100
AcDbEntity
  8
L-ZISSEN
  6
CONTINUOUS
 62
     7
100
AcDbLine
 10
216.2160192823626
 20
113.3533477397959
 30
0.0
 11
215.8160092823625
 21
112.6605227397959
 31
0.0
  0
LINE
  5
607
330
18
100
AcDbEntity
  8
L-ZISSEN
  6
CONTINUOUS
 62
     7
100
AcDbLine
 10
215.8159692823625
 20
110.9603807397959
 30
0.0
 11
215.8159692823626
 21
112.6604997397959
 31
0.0
  0
LINE
  5
608
330
18
100
AcDbEntity
  8
L-ZISSEN
  6
CONTINUOUS
 62
     7
100
AcDbLine
 10
203.3659592823626
 20
130.7471697397959
 30
0.0
 11
203.3659592823626
 21
115.6432567397959
 31
0.0
  0
ARC
  5
609
330
18
100
AcDbEntity
  8
L-ZISSEN
  6
CONTINUOUS
 62
     7
100
AcDbCircle
 10
203.8659592823626
 20
115.6432567397959
 30
0.0
 40
0.5
100
AcDbArc
 50
179.9996449999999
 51
249.99988
  0
LINE
  5
60A
330
18
100
AcDbEntity
  8
L-ZISSEN
  6
CONTINUOUS
 62
     7
100
AcDbLine
 10
209.5159592823625
 20
113.353324739796
 30
0.0
 11
209.5159592823625
 21
114.7471847397959
 31
0.0
  0
LINE
  5
60B
330
18
100
AcDbEntity
  8
L-ZISSEN
  6
CONTINUOUS
 62
     7
100
AcDbLine
 10
209.5159192823625
 20
113.3533477397959
 30
0.0
 11
209.9159292823626
 21
112.6605227397959
 31
0.0
  0
LINE
  5
60C
330
18
100
AcDbEntity
  8
L-ZISSEN
  6
CONTINUOUS
 62
     7
100
AcDbLine
 10
209.9159692823625
 20
110.9603807397959
 30
0.0
 11
209.9159692823625
 21
112.6604997397959
 31
0.0
  0
LINE
  5
60D
330
18
100
AcDbEntity
  8
L-ZISSEN
  6
CONTINUOUS
 62
     7
100
AcDbLine
 10
204.8659992823625
 20
114.7472307397959
 30
0.0
 11
203.6949592823625
 21
115.1734547397959
 31
0.0
  0
LINE
  5
60E
330
18
100
AcDbEntity
  8
L-ZISSEN
100
AcDbLine
 10
230.2741822823625
 20
207.7642657397959
 30
0.0
 11
230.2741822823625
 21
227.6287137397959
 31
0.0
  0
LINE
  5
60F
330
18
100
AcDbEntity
  8
L-ZISSEN
100
AcDbLine
 10
242.2649052823626
 20
227.6287137397959
 30
0.0
 11
242.2649052823626
 21
207.7642657397959
 31
0.0
  0
LINE
  5
610
330
18
100
AcDbEntity
  8
L-ZISSEN
100
AcDbLine
 10
195.4577562823626
 20
207.7642657397959
 30
0.0
 11
195.4577562823626
 21
227.6287137397959
 31
0.0
  0
LINE
  5
611
330
18
100
AcDbEntity
  8
L-ZISSEN
100
AcDbLine
 10
183.4670332823625
 20
227.6287137397959
 30
0.0
 11
183.4670332823625
 21
207.7642657397959
 31
0.0
  0
LINE
  5
612
330
18
100
AcDbEntity
  8
L-ZISSEN
  6
CONTINUOUS
 62
     7
100
AcDbLine
 10
240.1010792823625
 20
132.4604107397959
 30
0.0
 11
185.6311072823625
 21
132.4604107397959
 31
0.0
  0
LINE
  5
613
330
18
100
AcDbEntity
  8
L-ZISSEN
100
AcDbLine
 10
242.2649052823626
 20
202.0887067397959
 30
0.0
 11
242.2649052823626
 21
155.7383257397959
 31
0.0
  0
LINE
  5
614
330
18
100
AcDbEntity
  8
L-ZISSEN
100
AcDbLine
 10
230.2741822823625
 20
155.7383257397959
 30
0.0
 11
230.2741822823625
 21
202.0887067397959
 31
0.0
  0
LINE
  5
615
330
18
100
AcDbEntity
  8
L-ZISSEN
  6
CONTINUOUS
 62
     7
100
AcDbLine
 10
246.4524592823625
 20
141.8460697397959
 30
0.0
 11
244.9305892823625
 21
136.1663747397959
 31
0.0
  0
ARC
  5
616
330
18
100
AcDbEntity
  8
L-ZISSEN
  6
CONTINUOUS
 62
     7
100
AcDbCircle
 10
240.1010792823625
 20
137.4604147397959
 30
0.0
 40
4.999998
100
AcDbArc
 50
269.99998
 51
344.9999399999999
  0
ARC
  5
617
330
18
100
AcDbEntity
  8
L-ZISSEN
  6
CONTINUOUS
 62
     7
100
AcDbCircle
 10
241.6228092823625
 20
143.1401027397959
 30
0.0
 40
4.999998
100
AcDbArc
 50
344.9999899999999
 51
359.5000999999999
  0
LINE
  5
618
330
18
100
AcDbEntity
  8
L-ZISSEN
100
AcDbLine
 10
242.2649052823626
 20
155.7383257397959
 30
0.0
 11
230.2741822823625
 21
155.7383257397959
 31
0.0
  0
LINE
  5
619
330
18
100
AcDbEntity
  8
L-ZISSEN
  6
CONTINUOUS
 62
     7
100
AcDbLine
 10
221.8659692823625
 20
131.2471697397959
 30
0.0
 11
204.3659592823626
 21
131.2471697397959
 31
0.0
  0
LINE
  5
61A
330
18
100
AcDbEntity
  8
L-ZISSEN
100
AcDbLine
 10
220.0825542823626
 20
132.4604107397959
 30
0.0
 11
220.0825542823626
 21
131.2471697397959
 31
0.0
  0
LINE
  5
61B
330
18
100
AcDbEntity
  8
L-ZISSEN
  6
CONTINUOUS
 62
     7
100
AcDbLine
 10
204.3659592823626
 20
131.2471697397959
 30
0.0
 11
203.8659592823626
 21
131.2471697397959
 31
0.0
  0
LINE
  5
61C
330
18
100
AcDbEntity
  8
L-ZISSEN
100
AcDbLine
 10
205.6493842823625
 20
132.4604107397959
 30
0.0
 11
205.6493842823625
 21
131.2471697397959
 31
0.0
  0
LINE
  5
61D
330
18
100
AcDbEntity
  8
L-ZISSEN
100
AcDbLine
 10
230.2741822823625
 20
202.0887067397959
 30
0.0
 11
242.2649052823626
 21
202.0887067397959
 31
0.0
  0
LINE
  5
61E
330
18
100
AcDbEntity
  8
L-ZISSEN
100
AcDbLine
 10
242.2649052823626
 20
207.7642657397959
 30
0.0
 11
230.2741822823625
 21
207.7642657397959
 31
0.0
  0
LINE
  5
61F
330
18
100
AcDbEntity
  8
L-ZISSEN
100
AcDbLine
 10
195.4577562823626
 20
155.7383257397959
 30
0.0
 11
195.4577562823626
 21
202.0887067397959
 31
0.0
  0
LINE
  5
620
330
18
100
AcDbEntity
  8
L-ZISSEN
100
AcDbLine
 10
183.4670332823625
 20
202.0887067397959
 30
0.0
 11
183.4670332823625
 21
155.7383257397959
 31
0.0
  0
ARC
  5
621
330
18
100
AcDbEntity
  8
L-ZISSEN
  6
CONTINUOUS
 62
     7
100
AcDbCircle
 10
185.6311092823625
 20
137.4604147397959
 30
0.0
 40
4.999998
100
AcDbArc
 50
195.00003
 51
269.99998
  0
LINE
  5
622
330
18
100
AcDbEntity
  8
L-ZISSEN
  6
CONTINUOUS
 62
     7
100
AcDbLine
 10
179.2796432823626
 20
141.8459317397959
 30
0.0
 11
180.8014932823625
 21
136.1662977397959
 31
0.0
  0
ARC
  5
623
330
18
100
AcDbEntity
  8
L-ZISSEN
  6
CONTINUOUS
 62
     7
100
AcDbCircle
 10
184.1092692823625
 20
143.1400417397959
 30
0.0
 40
4.999998
100
AcDbArc
 50
180.50009
 51
195.00002
  0
LINE
  5
624
330
18
100
AcDbEntity
  8
L-ZISSEN
100
AcDbLine
 10
183.4670332823625
 20
155.7383257397959
 30
0.0
 11
195.4577562823626
 21
155.7383257397959
 31
0.0
  0
LINE
  5
625
330
18
100
AcDbEntity
  8
L-ZISSEN
100
AcDbLine
 10
195.4577562823626
 20
202.0887067397959
 30
0.0
 11
183.4670332823625
 21
202.0887067397959
 31
0.0
  0
LINE
  5
626
330
18
100
AcDbEntity
  8
L-ZISSEN
100
AcDbLine
 10
183.4670332823625
 20
207.7642657397959
 30
0.0
 11
195.4577562823626
 21
207.7642657397959
 31
0.0
  0
LINE
  5
627
330
18
100
AcDbEntity
  8
L-ZISSEN
100
AcDbLine
 10
230.2741822823625
 20
227.6287137397959
 30
0.0
 11
242.2649052823626
 21
227.6287137397959
 31
0.0
  0
LINE
  5
628
330
18
100
AcDbEntity
  8
L-ZISSEN
100
AcDbLine
 10
195.4577562823626
 20
227.6287137397959
 30
0.0
 11
183.4670332823625
 21
227.6287137397959
 31
0.0
  0
LINE
  5
629
330
18
100
AcDbEntity
  8
L-ZISSEN
  6
CONTINUOUS
 62
     7
100
AcDbLine
 10
247.4330632823626
 20
235.9603847397959
 30
0.0
 11
246.6226372823626
 21
143.0963627397959
 31
0.0
  0
LINE
  5
62A
330
18
100
AcDbEntity
  8
L-ZISSEN
  6
CONTINUOUS
 62
     7
100
AcDbLine
 10
178.2988752823625
 20
235.9603847397959
 30
0.0
 11
179.1093012823625
 21
143.0963627397959
 31
0.0
  0
LINE
  5
62B
330
18
100
AcDbEntity
  8
0
100
AcDbLine
 10
467.0929552823626
 20
388.1603457397959
 30
0.0
 11
467.0929552823626
 21
375.960345739796
 31
0.0
  0
LINE
  5
62C
330
18
100
AcDbEntity
  8
0
100
AcDbLine
 10
493.5929552823625
 20
388.1603457397959
 30
0.0
 11
493.5929552823625
 21
375.960345739796
 31
0.0
  0
LINE
  5
62D
330
18
100
AcDbEntity
  8
L-ZISSEN
  6
CONTINUOUS
 62
     7
100
AcDbLine
 10
465.3429552823626
 20
374.160345739796
 30
0.0
 11
495.3429552823625
 21
374.160345739796
 31
0.0
  0
LINE
  5
62E
330
18
100
AcDbEntity
  8
L-ZISSEN
  6
CONTINUOUS
 62
     7
100
AcDbLine
 10
467.0929552823626
 20
375.960345739796
 30
0.0
 11
493.5929552823625
 21
375.960345739796
 31
0.0
  0
LINE
  5
62F
330
18
100
AcDbEntity
  8
L-ZISSEN
  6
CONTINUOUS
 62
     7
100
AcDbLine
 10
461.3429552823625
 20
349.1603457397959
 30
0.0
 11
499.3429552823625
 21
349.1603457397959
 31
0.0
  0
LINE
  5
630
330
18
100
AcDbEntity
  8
L-ZISSEN
  6
CONTINUOUS
 62
     7
100
AcDbLine
 10
461.3429552823625
 20
361.2603457397959
 30
0.0
 11
499.3429552823625
 21
361.2603457397959
 31
0.0
  0
LINE
  5
631
330
18
100
AcDbEntity
  8
L-ZISSEN
  6
CONTINUOUS
 62
     7
100
AcDbLine
 10
461.3429552823625
 20
349.1603457397959
 30
0.0
 11
461.3429552823625
 21
361.2603457397959
 31
0.0
  0
LINE
  5
632
330
18
100
AcDbEntity
  8
L-ZISSEN
  6
CONTINUOUS
 62
     7
100
AcDbLine
 10
465.3429552823626
 20
361.2603457397959
 30
0.0
 11
465.3429552823626
 21
374.160345739796
 31
0.0
  0
LINE
  5
633
330
18
100
AcDbEntity
  8
L-ZISSEN
  6
CONTINUOUS
 62
     7
100
AcDbLine
 10
470.3429552823625
 20
374.160345739796
 30
0.0
 11
470.3429552823625
 21
375.960345739796
 31
0.0
  0
LINE
  5
634
330
18
100
AcDbEntity
  8
L-ZISSEN
  6
CONTINUOUS
 62
     7
100
AcDbLine
 10
499.3429552823625
 20
349.1603457397959
 30
0.0
 11
499.3429552823625
 21
361.2603457397959
 31
0.0
  0
LINE
  5
635
330
18
100
AcDbEntity
  8
L-ZISSEN
  6
CONTINUOUS
 62
     7
100
AcDbLine
 10
490.3429552823626
 20
374.160345739796
 30
0.0
 11
490.3429552823626
 21
375.960345739796
 31
0.0
  0
LINE
  5
636
330
18
100
AcDbEntity
  8
L-ZISSEN
  6
CONTINUOUS
 62
     7
100
AcDbLine
 10
495.3429552823625
 20
361.2603457397959
 30
0.0
 11
495.3429552823625
 21
374.160345739796
 31
0.0
  0
LINE
  5
637
330
18
100
AcDbEntity
  8
L-ZISSEN
  6
CONTINUOUS
 62
     7
100
AcDbLine
 10
466.5929552823626
 20
388.1603457397959
 30
0.0
 11
494.0929552823625
 21
388.1603457397959
 31
0.0
  0
LINE
  5
638
330
18
100
AcDbEntity
  8
L-ZISSEN
  6
CONTINUOUS
 62
     7
100
AcDbLine
 10
466.5929552823626
 20
392.160345739796
 30
0.0
 11
494.0929552823625
 21
392.160345739796
 31
0.0
  0
LINE
  5
639
330
18
100
AcDbEntity
  8
L-ZISSEN
  6
CONTINUOUS
 62
     7
100
AcDbLine
 10
467.8429552823626
 20
394.160345739796
 30
0.0
 11
492.8429552823626
 21
394.160345739796
 31
0.0
  0
LINE
  5
63A
330
18
100
AcDbEntity
  8
0
100
AcDbLine
 10
466.5929552823626
 20
392.160345739796
 30
0.0
 11
466.5929552823626
 21
388.1603457397959
 31
0.0
  0
LINE
  5
63B
330
18
100
AcDbEntity
  8
L-ZISSEN
  6
CONTINUOUS
 62
     7
100
AcDbLine
 10
467.8429552823626
 20
392.160345739796
 30
0.0
 11
467.8429552823626
 21
394.160345739796
 31
0.0
  0
LINE
  5
63C
330
18
100
AcDbEntity
  8
0
100
AcDbLine
 10
494.0929552823625
 20
392.160345739796
 30
0.0
 11
494.0929552823625
 21
388.1603457397959
 31
0.0
  0
LINE
  5
63D
330
18
100
AcDbEntity
  8
L-ZISSEN
  6
CONTINUOUS
 62
     7
100
AcDbLine
 10
492.8429552823626
 20
392.160345739796
 30
0.0
 11
492.8429552823626
 21
394.160345739796
 31
0.0
  0
LINE
  5
646
330
18
100
AcDbEntity
  8
L-TYUSIN
100
AcDbLine
 10
546.8829692823626
 20
581.5453807397959
 30
0.0
 11
546.8829692823626
 21
561.5453807397959
 31
0.0
  0
LINE
  5
649
330
18
100
AcDbEntity
  8
L-ZISSEN
100
AcDbLine
 10
415.0276302823625
 20
315.3157197397959
 30
0.0
 11
385.0276302823625
 21
315.3157197397959
 31
0.0
  0
LINE
  5
651
330
18
100
AcDbEntity
  8
L-ZISSEN
100
AcDbLine
 10
135.1716622823626
 20
513.543383739796
 30
0.0
 11
145.8631172823625
 21
502.8519297397959
 31
0.0
  0
LINE
  5
652
330
18
100
AcDbEntity
  8
L-ZISSEN
100
AcDbLine
 10
145.8631172823625
 20
502.8519297397959
 30
0.0
 11
156.5545712823625
 21
513.543383739796
 31
0.0
  0
LINE
  5
653
330
18
100
AcDbEntity
  8
L-ZISSEN
100
AcDbLine
 10
156.5545712823625
 20
513.543383739796
 30
0.0
 11
145.8631172823625
 21
524.2348387397959
 31
0.0
  0
LINE
  5
654
330
18
100
AcDbEntity
  8
L-ZISSEN
100
AcDbLine
 10
145.8631172823625
 20
524.2348387397959
 30
0.0
 11
135.1716622823626
 21
513.543383739796
 31
0.0
  0
LINE
  5
655
330
18
100
AcDbEntity
  8
L-ZISSEN
100
AcDbLine
 10
184.2393292823626
 20
569.899338739796
 30
0.0
 11
184.2393292823626
 21
554.779338739796
 31
0.0
  0
LINE
  5
656
330
18
100
AcDbEntity
  8
L-ZISSEN
100
AcDbLine
 10
184.2393292823626
 20
554.779338739796
 30
0.0
 11
199.3593292823625
 21
554.779338739796
 31
0.0
  0
LINE
  5
657
330
18
100
AcDbEntity
  8
L-ZISSEN
100
AcDbLine
 10
199.3593292823625
 20
554.779338739796
 30
0.0
 11
199.3593292823625
 21
569.899338739796
 31
0.0
  0
LINE
  5
658
330
18
100
AcDbEntity
  8
L-ZISSEN
100
AcDbLine
 10
199.3593292823625
 20
569.899338739796
 30
0.0
 11
184.2393292823626
 21
569.899338739796
 31
0.0
  0
LINE
  5
659
330
18
100
AcDbEntity
  8
L-ZISSEN
100
AcDbLine
 10
184.2429392823626
 20
561.4539267397959
 30
0.0
 11
179.4654712823626
 21
558.6956547397959
 31
0.0
  0
LINE
  5
65A
330
18
100
AcDbEntity
  8
L-ZISSEN
100
AcDbLine
 10
179.4654712823626
 20
558.6956547397959
 30
0.0
 11
184.2429392823626
 21
555.9373827397958
 31
0.0
  0
LINE
  5
65B
330
18
100
AcDbEntity
  8
L-ZISSEN
100
AcDbLine
 10
184.2429392823626
 20
555.9373827397958
 30
0.0
 11
184.2429392823626
 21
561.4539267397959
 31
0.0
  0
LINE
  5
65C
330
18
100
AcDbEntity
  8
L-ZISSEN
100
AcDbLine
 10
184.2393292823626
 20
521.0599887397959
 30
0.0
 11
184.2393292823626
 21
505.9399887397959
 31
0.0
  0
LINE
  5
65D
330
18
100
AcDbEntity
  8
L-ZISSEN
100
AcDbLine
 10
184.2393292823626
 20
505.9399887397959
 30
0.0
 11
199.3593292823625
 21
505.9399887397959
 31
0.0
  0
LINE
  5
65E
330
18
100
AcDbEntity
  8
L-ZISSEN
100
AcDbLine
 10
199.3593292823625
 20
505.9399887397959
 30
0.0
 11
199.3593292823625
 21
521.0599887397959
 31
0.0
  0
LINE
  5
65F
330
18
100
AcDbEntity
  8
L-ZISSEN
100
AcDbLine
 10
199.3593292823625
 20
521.0599887397959
 30
0.0
 11
184.2393292823626
 21
521.0599887397959
 31
0.0
  0
LINE
  5
660
330
18
100
AcDbEntity
  8
L-ZISSEN
100
AcDbLine
 10
216.2452542823625
 20
567.0690667397959
 30
0.0
 11
216.2452542823625
 21
551.9490667397959
 31
0.0
  0
LINE
  5
661
330
18
100
AcDbEntity
  8
L-ZISSEN
100
AcDbLine
 10
216.2452542823625
 20
551.9490667397959
 30
0.0
 11
231.3652542823625
 21
551.9490667397959
 31
0.0
  0
LINE
  5
662
330
18
100
AcDbEntity
  8
L-ZISSEN
100
AcDbLine
 10
231.3652542823625
 20
551.9490667397959
 30
0.0
 11
231.3652542823625
 21
567.0690667397959
 31
0.0
  0
LINE
  5
663
330
18
100
AcDbEntity
  8
L-ZISSEN
100
AcDbLine
 10
231.3652542823625
 20
567.0690667397959
 30
0.0
 11
216.2452542823625
 21
567.0690667397959
 31
0.0
  0
LINE
  5
664
330
18
100
AcDbEntity
  8
L-ZISSEN
100
AcDbLine
 10
216.2452542823625
 20
582.2183977397959
 30
0.0
 11
216.2452542823625
 21
567.0983977397959
 31
0.0
  0
LINE
  5
665
330
18
100
AcDbEntity
  8
L-ZISSEN
100
AcDbLine
 10
231.3652542823625
 20
567.0983977397959
 30
0.0
 11
231.3652542823625
 21
582.2183977397959
 31
0.0
  0
LINE
  5
666
330
18
100
AcDbEntity
  8
L-ZISSEN
100
AcDbLine
 10
231.3652542823625
 20
582.2183977397959
 30
0.0
 11
216.2452542823625
 21
582.2183977397959
 31
0.0
  0
LINE
  5
66A
330
18
100
AcDbEntity
  8
L-ZISSEN
100
AcDbLine
 10
143.0784032823626
 20
508.9179097397959
 30
0.0
 11
146.0616272823625
 21
505.9346857397959
 31
0.0
  0
LINE
  5
66B
330
18
100
AcDbEntity
  8
L-ZISSEN
100
AcDbLine
 10
146.0616272823625
 20
505.9346857397959
 30
0.0
 11
149.0448512823625
 21
508.9179097397959
 31
0.0
  0
LINE
  5
66F
330
18
100
AcDbEntity
  8
L-ZISSEN
100
AcDbLine
 10
145.8631172823625
 20
502.8519297397959
 30
0.0
 11
145.8631172823625
 21
499.851929739796
 31
0.0
  0
LINE
  5
686
330
18
100
AcDbEntity
  8
PV
 62
     7
100
AcDbLine
 10
175.3659672823626
 20
306.4603807397959
 30
0.0
 11
151.8659692823625
 21
306.4603807397959
 31
0.0
  0
LINE
  5
687
330
18
100
AcDbEntity
  8
PV
 62
     7
100
AcDbLine
 10
238.8659692823626
 20
346.4603807397959
 30
0.0
 11
238.8659692823626
 21
358.9603807397959
 31
0.0
  0
ARC
  5
688
330
18
100
AcDbEntity
  8
PV
 62
     7
100
AcDbCircle
 10
234.8659692823626
 20
344.4603807397959
 30
0.0
 40
2.0
100
AcDbArc
 50
90.0
 51
180.0
  0
LINE
  5
689
330
18
100
AcDbEntity
  8
PV
 62
     7
100
AcDbLine
 10
232.8659692823626
 20
326.660345739796
 30
0.0
 11
232.8659692823626
 21
344.4603807397959
 31
0.0
  0
LINE
  5
68B
330
18
100
AcDbEntity
  8
PV
 62
     7
100
AcDbLine
 10
173.3812592823626
 20
255.9603807397959
 30
0.0
 11
155.3659692823625
 21
255.9603807397959
 31
0.0
  0
LINE
  5
68C
330
18
100
AcDbEntity
  8
PV
 62
     7
100
AcDbLine
 10
173.3661082823625
 20
256.4603807397959
 30
0.0
 11
151.8659692823625
 21
256.4603807397959
 31
0.0
  0
LINE
  5
68D
330
18
100
AcDbEntity
  8
PV
 62
     7
100
AcDbLine
 10
173.4873192823625
 20
252.4603807397959
 30
0.0
 11
155.3659692823625
 21
252.4603807397959
 31
0.0
  0
LINE
  5
6AD
330
18
100
AcDbEntity
  8
PV
  6
CENTER
 62
     1
100
AcDbLine
 10
707.8829692823624
 20
350.9973807397959
 30
0.0
 11
707.8829692823624
 21
337.9223807397959
 31
0.0
  0
LINE
  5
6AF
330
18
100
AcDbEntity
  8
PV
  6
CENTER
 62
     1
100
AcDbLine
 10
697.8829692823625
 20
350.9973807397959
 30
0.0
 11
697.8829692823625
 21
337.9223807397959
 31
0.0
  0
LINE
  5
6B0
330
18
100
AcDbEntity
  8
PV
  6
CENTER
 62
     1
100
AcDbLine
 10
697.8829692823625
 20
357.4893807397959
 30
0.0
 11
697.8829692823625
 21
331.4313807397959
 31
0.0
  0
LINE
  5
6B1
330
18
100
AcDbEntity
  8
PV
  6
CENTER
 62
     1
100
AcDbLine
 10
687.8829692823625
 20
350.9973807397959
 30
0.0
 11
687.8829692823625
 21
337.9223807397959
 31
0.0
  0
LINE
  5
6BE
330
18
100
AcDbEntity
  8
PV
 62
     7
100
AcDbLine
 10
544.3829692823626
 20
563.7953807397959
 30
0.0
 11
544.3829692823626
 21
517.045380739796
 31
0.0
  0
LINE
  5
6BF
330
18
100
AcDbEntity
  8
L-ZISSEN
100
AcDbLine
 10
544.3829692823626
 20
563.7953807397959
 30
0.0
 11
544.3829692823626
 21
546.545380739796
 31
0.0
  0
LINE
  5
7EF
330
18
100
AcDbEntity
  8
L-ZISSEN
100
AcDbLine
 10
275.5292072823625
 20
490.033925739796
 30
0.0
 11
272.5278352823626
 21
490.033925739796
 31
0.0
  0
SOLID
  5
7F0
330
18
100
AcDbEntity
  8
L-ZISSEN
100
AcDbTrace
 10
277.0898112823625
 20
485.0543027397959
 30
0.0
 11
276.8528252823625
 21
486.535463739796
 31
0.0
 12
272.5278352823626
 22
485.0839257397959
 32
0.0
 13
272.5278352823626
 23
485.0839257397959
 33
0.0
  0
LINE
  5
7F1
330
18
100
AcDbEntity
  8
L-ZISSEN
100
AcDbLine
 10
275.5292072823625
 20
470.083925739796
 30
0.0
 11
272.5278352823626
 21
470.083925739796
 31
0.0
  0
LINE
  5
7F2
330
18
100
AcDbEntity
  8
L-ZISSEN
100
AcDbLine
 10
156.5111762823626
 20
513.499988739796
 30
0.0
 11
339.2002282823625
 21
513.499988739796
 31
0.0
  0
LINE
  5
7F3
330
18
100
AcDbEntity
  8
L-ZISSEN
100
AcDbLine
 10
283.0914842823625
 20
473.2381057397959
 30
0.0
 11
272.5278352823626
 21
475.033925739796
 31
0.0
  0
LINE
  5
7F4
330
18
100
AcDbEntity
  8
L-ZISSEN
100
AcDbLine
 10
272.5278352823626
 20
464.9839257397959
 30
0.0
 11
287.5278352823626
 21
464.9839257397959
 31
0.0
  0
LINE
  5
7F5
330
18
100
AcDbEntity
  8
L-ZISSEN
100
AcDbLine
 10
272.5278352823626
 20
479.9839257397959
 30
0.0
 11
287.5278352823626
 21
479.9839257397959
 31
0.0
  0
LINE
  5
7F6
330
18
100
AcDbEntity
  8
L-ZISSEN
100
AcDbLine
 10
287.5278352823626
 20
494.9839257397959
 30
0.0
 11
272.5278352823626
 21
494.9839257397959
 31
0.0
  0
LINE
  5
7F7
330
18
100
AcDbEntity
  8
L-TYUSIN
100
AcDbLine
 10
250.8921992823625
 20
577.9690447397959
 30
0.0
 11
417.3059922823625
 21
577.9690447397959
 31
0.0
  0
LINE
  5
7F8
330
18
100
AcDbEntity
  8
L-ZISSEN
100
AcDbLine
 10
272.5278352823626
 20
494.9839257397959
 30
0.0
 11
272.5278352823626
 21
464.9839257397959
 31
0.0
  0
LINE
  5
804
330
18
100
AcDbEntity
  8
L-ZISSEN
100
AcDbLine
 10
135.1716622823626
 20
513.543383739796
 30
0.0
 11
120.1716622823626
 21
513.543383739796
 31
0.0
  0
LINE
  5
823
330
18
100
AcDbEntity
  8
L-ZISSEN
100
AcDbLine
 10
265.0278352823626
 20
535.9476487397959
 30
0.0
 11
265.0278352823626
 21
513.499988739796
 31
0.0
  0
LINE
  5
833
330
18
100
AcDbEntity
  8
L-ZISSEN
100
AcDbLine
 10
265.0278352823626
 20
513.499988739796
 30
0.0
 11
265.0278352823626
 21
490.033925739796
 31
0.0
  0
LINE
  5
834
330
18
100
AcDbEntity
  8
L-ZISSEN
100
AcDbLine
 10
265.0278352823626
 20
490.033925739796
 30
0.0
 11
272.5278352823626
 21
490.033925739796
 31
0.0
  0
ARC
  5
835
330
18
100
AcDbEntity
  8
L-ZISSEN
100
AcDbCircle
 10
265.0278352823626
 20
513.499988739796
 30
0.0
 40
0.5625
100
AcDbArc
 50
0.0
 51
180.0
  0
ARC
  5
836
330
18
100
AcDbEntity
  8
L-ZISSEN
100
AcDbCircle
 10
265.0278352823626
 20
513.499988739796
 30
0.0
 40
0.5625
100
AcDbArc
 50
180.0
 51
0.0
  0
LINE
  5
845
330
18
100
AcDbEntity
  8
L-ZISSEN
100
AcDbLine
 10
258.5499452823626
 20
553.4726737397959
 30
0.0
 11
263.0499452823626
 21
554.3726737397959
 31
0.0
  0
LINE
  5
846
330
18
100
AcDbEntity
  8
L-ZISSEN
100
AcDbLine
 10
257.5278352823626
 20
550.9476487397959
 30
0.0
 11
257.5278352823626
 21
535.9476487397959
 31
0.0
  0
LINE
  5
847
330
18
100
AcDbEntity
  8
L-ZISSEN
100
AcDbLine
 10
272.5278352823626
 20
535.9476487397959
 30
0.0
 11
272.5278352823626
 21
550.9476487397959
 31
0.0
  0
LINE
  5
848
330
18
100
AcDbEntity
  8
L-ZISSEN
100
AcDbLine
 10
257.5278352823626
 20
550.9476487397959
 30
0.0
 11
272.5278352823626
 21
535.9476487397959
 31
0.0
  0
LINE
  5
849
330
18
100
AcDbEntity
  8
L-ZISSEN
100
AcDbLine
 10
265.0278352823626
 20
539.514774739796
 30
0.0
 11
262.9683542823626
 21
535.9476487397959
 31
0.0
  0
LINE
  5
84A
330
18
100
AcDbEntity
  8
L-ZISSEN
100
AcDbLine
 10
257.5278352823626
 20
535.9476487397959
 30
0.0
 11
272.5278352823626
 21
535.9476487397959
 31
0.0
  0
LINE
  5
84B
330
18
100
AcDbEntity
  8
L-ZISSEN
100
AcDbLine
 10
267.0873162823626
 20
535.9476487397959
 30
0.0
 11
265.0278352823626
 21
539.514774739796
 31
0.0
  0
ARC
  5
84C
330
18
100
AcDbEntity
  8
L-ZISSEN
100
AcDbCircle
 10
264.9804782823625
 20
548.536809739796
 30
0.0
 40
0.225
100
AcDbArc
 50
0.0
 51
180.0
  0
ARC
  5
84D
330
18
100
AcDbEntity
  8
L-ZISSEN
100
AcDbCircle
 10
264.9804782823625
 20
548.536809739796
 30
0.0
 40
0.225
100
AcDbArc
 50
180.0
 51
0.0
  0
LINE
  5
84E
330
18
100
AcDbEntity
  8
L-ZISSEN
100
AcDbLine
 10
272.5278352823626
 20
550.9476487397959
 30
0.0
 11
257.5278352823626
 21
550.9476487397959
 31
0.0
  0
LINE
  5
84F
330
18
100
AcDbEntity
  8
L-ZISSEN
100
AcDbLine
 10
258.5499452823626
 20
551.6726737397959
 30
0.0
 11
262.1750732823625
 21
550.9476487397959
 31
0.0
  0
LINE
  5
850
330
18
100
AcDbEntity
  8
L-ZISSEN
100
AcDbLine
 10
258.5499452823626
 20
553.4726737397959
 30
0.0
 11
263.0499452823626
 21
552.5726737397959
 31
0.0
  0
LINE
  5
851
330
18
100
AcDbEntity
  8
L-ZISSEN
100
AcDbLine
 10
258.5499452823626
 20
551.6726737397959
 30
0.0
 11
263.0499452823626
 21
552.5726737397959
 31
0.0
  0
LINE
  5
852
330
18
100
AcDbEntity
  8
L-ZISSEN
100
AcDbLine
 10
262.9076052823624
 20
548.536809739796
 30
0.0
 11
264.9804782823625
 21
548.536809739796
 31
0.0
  0
ARC
  5
853
330
18
100
AcDbEntity
  8
L-ZISSEN
100
AcDbCircle
 10
269.3531612823626
 20
548.536809739796
 30
0.0
 40
0.225
100
AcDbArc
 50
0.0
 51
180.0
  0
ARC
  5
854
330
18
100
AcDbEntity
  8
L-ZISSEN
100
AcDbCircle
 10
269.3531612823626
 20
548.536809739796
 30
0.0
 40
0.225
100
AcDbArc
 50
180.0
 51
0.0
  0
LINE
  5
855
330
18
100
AcDbEntity
  8
L-ZISSEN
100
AcDbLine
 10
269.3531612823626
 20
548.536809739796
 30
0.0
 11
265.2376952823625
 21
546.6922017397958
 31
0.0
  0
LINE
  5
856
330
18
100
AcDbEntity
  8
L-ZISSEN
100
AcDbLine
 10
269.1281612823625
 20
548.536809739796
 30
0.0
 11
271.2010352823625
 21
548.536809739796
 31
0.0
  0
LINE
  5
857
330
18
100
AcDbEntity
  8
L-ZISSEN
100
AcDbLine
 10
258.5499452823626
 20
555.2726737397959
 30
0.0
 11
263.0499452823626
 21
554.3726737397959
 31
0.0
  0
LINE
  5
859
330
18
100
AcDbEntity
  8
L-ZISSEN
100
AcDbLine
 10
370.0726232823626
 20
471.3493667397959
 30
0.0
 11
370.0726232823626
 21
468.2168117397959
 31
0.0
  0
LINE
  5
85A
330
18
100
AcDbEntity
  8
L-ZISSEN
100
AcDbLine
 10
365.5726232823626
 20
471.3493667397959
 30
0.0
 11
365.5726232823626
 21
468.2168117397959
 31
0.0
  0
LINE
  5
85B
330
18
100
AcDbEntity
  8
L-ZISSEN
100
AcDbLine
 10
330.4110892823625
 20
468.8200297397959
 30
0.0
 11
330.4110892823625
 21
483.8200297397959
 31
0.0
  0
LINE
  5
85C
330
18
100
AcDbEntity
  8
L-ZISSEN
100
AcDbLine
 10
315.4110892823625
 20
468.8200297397959
 30
0.0
 11
315.4110892823625
 21
483.8200297397959
 31
0.0
  0
LINE
  5
85D
330
18
100
AcDbEntity
  8
L-ZISSEN
100
AcDbLine
 10
300.4110892823625
 20
483.8200297397959
 30
0.0
 11
300.4110892823625
 21
468.8200297397959
 31
0.0
  0
LINE
  5
85E
330
18
100
AcDbEntity
  8
L-ZISSEN
100
AcDbLine
 10
307.8615972823624
 20
468.8200297397959
 30
0.0
 11
307.8615972823624
 21
483.8200297397959
 31
0.0
  0
LINE
  5
85F
330
18
100
AcDbEntity
  8
L-ZISSEN
100
AcDbLine
 10
287.5278352823626
 20
464.9839257397959
 30
0.0
 11
287.5278352823626
 21
494.9839257397959
 31
0.0
  0
LINE
  5
860
330
18
100
AcDbEntity
  8
L-ZISSEN
100
AcDbLine
 10
294.0672322823625
 20
487.4839257397959
 30
0.0
 11
294.0672322823625
 21
465.9499887397958
 31
0.0
  0
LINE
  5
861
330
18
100
AcDbEntity
  8
L-ZISSEN
100
AcDbLine
 10
275.5292072823625
 20
471.5728987397959
 30
0.0
 11
275.5292072823625
 21
468.5949537397959
 31
0.0
  0
LINE
  5
862
330
18
100
AcDbEntity
  8
L-ZISSEN
100
AcDbLine
 10
381.1357192823625
 20
468.9932987397959
 30
0.0
 11
425.7583642823625
 21
468.9932987397959
 31
0.0
  0
LINE
  5
863
330
18
100
AcDbEntity
  8
L-ZISSEN
100
AcDbLine
 10
311.7264862823625
 20
465.9499887397958
 30
0.0
 11
345.4110892823625
 21
465.9499887397958
 31
0.0
  0
LINE
  5
864
330
18
100
AcDbEntity
  8
L-ZISSEN
100
AcDbLine
 10
300.4110892823625
 20
468.8200297397959
 30
0.0
 11
330.4110892823625
 21
468.8200297397959
 31
0.0
  0
LINE
  5
865
330
18
100
AcDbEntity
  8
L-ZISSEN
100
AcDbLine
 10
294.0672322823625
 20
465.9499887397958
 30
0.0
 11
304.2104872823625
 21
465.9499887397958
 31
0.0
  0
LINE
  5
866
330
18
100
AcDbEntity
  8
L-ZISSEN
100
AcDbLine
 10
277.0278352823626
 20
457.4839257397959
 30
0.0
 11
283.0278352823626
 21
457.4839257397959
 31
0.0
  0
LINE
  5
867
330
18
100
AcDbEntity
  8
L-ZISSEN
100
AcDbLine
 10
277.0278352823626
 20
461.853445739796
 30
0.0
 11
283.0278352823626
 21
460.0208637397959
 31
0.0
  0
LINE
  5
868
330
18
100
AcDbEntity
  8
L-ZISSEN
100
AcDbLine
 10
277.0278352823626
 20
464.9839257397959
 30
0.0
 11
277.0278352823626
 21
457.4839257397959
 31
0.0
  0
LINE
  5
869
330
18
100
AcDbEntity
  8
L-ZISSEN
100
AcDbLine
 10
283.0278352823626
 20
464.9839257397959
 30
0.0
 11
283.0278352823626
 21
457.4839257397959
 31
0.0
  0
LINE
  5
86A
330
18
100
AcDbEntity
  8
L-ZISSEN
100
AcDbLine
 10
304.2104872823625
 20
468.8200297397959
 30
0.0
 11
304.2104872823625
 21
465.9499887397958
 31
0.0
  0
LINE
  5
86B
330
18
100
AcDbEntity
  8
L-ZISSEN
100
AcDbLine
 10
311.7264862823625
 20
468.8200297397959
 30
0.0
 11
311.7264862823625
 21
465.9499887397958
 31
0.0
  0
LINE
  5
86C
330
18
100
AcDbEntity
  8
L-ZISSEN
100
AcDbLine
 10
360.3964862823625
 20
462.1122677397959
 30
0.0
 11
375.2487592823626
 21
462.1122677397959
 31
0.0
  0
LINE
  5
86D
330
18
100
AcDbEntity
  8
L-ZISSEN
100
AcDbLine
 10
360.3964862823625
 20
460.012267739796
 30
0.0
 11
375.2487592823626
 21
460.012267739796
 31
0.0
  0
CIRCLE
  5
86E
330
18
100
AcDbEntity
  8
L-ZISSEN
100
AcDbCircle
 10
367.8226232823626
 20
461.062267739796
 30
0.0
 40
7.5
  0
LINE
  5
86F
330
18
100
AcDbEntity
  8
L-ZISSEN
100
AcDbLine
 10
355.1183062823625
 20
461.8825357397959
 30
0.0
 11
350.7038722823625
 21
461.8825357397959
 31
0.0
  0
LINE
  5
870
330
18
100
AcDbEntity
  8
L-ZISSEN
100
AcDbLine
 10
350.7038722823625
 20
461.8825357397959
 30
0.0
 11
352.9110892823625
 21
458.0595237397959
 31
0.0
  0
LINE
  5
871
330
18
100
AcDbEntity
  8
L-ZISSEN
100
AcDbLine
 10
350.7038722823625
 20
461.8825357397959
 30
0.0
 11
354.0146982823626
 21
459.971029739796
 31
0.0
  0
LINE
  5
872
330
18
100
AcDbEntity
  8
L-ZISSEN
100
AcDbLine
 10
343.2038722823625
 20
458.0595237397959
 30
0.0
 11
347.6183062823626
 21
458.0595237397959
 31
0.0
  0
LINE
  5
873
330
18
100
AcDbEntity
  8
L-ZISSEN
100
AcDbLine
 10
345.4110892823625
 20
461.8825357397959
 30
0.0
 11
343.2038722823625
 21
458.0595237397959
 31
0.0
  0
LINE
  5
874
330
18
100
AcDbEntity
  8
L-ZISSEN
100
AcDbLine
 10
344.7387072823625
 20
458.9456607397959
 30
0.0
 11
346.0834712823625
 21
458.9456607397959
 31
0.0
  0
LINE
  5
875
330
18
100
AcDbEntity
  8
L-ZISSEN
100
AcDbLine
 10
345.4110892823625
 20
460.110260739796
 30
0.0
 11
344.7387072823625
 21
458.9456607397959
 31
0.0
  0
LINE
  5
876
330
18
100
AcDbEntity
  8
L-ZISSEN
100
AcDbLine
 10
346.0834712823625
 20
458.9456607397959
 30
0.0
 11
345.4110892823625
 21
460.110260739796
 31
0.0
  0
LINE
  5
877
330
18
100
AcDbEntity
  8
L-ZISSEN
100
AcDbLine
 10
347.6183062823626
 20
458.0595237397959
 30
0.0
 11
345.4110892823625
 21
461.8825357397959
 31
0.0
  0
LINE
  5
878
330
18
100
AcDbEntity
  8
L-ZISSEN
100
AcDbLine
 10
343.9419762823625
 20
458.485667739796
 30
0.0
 11
346.8802022823625
 21
458.485667739796
 31
0.0
  0
LINE
  5
879
330
18
100
AcDbEntity
  8
L-ZISSEN
100
AcDbLine
 10
345.4110892823625
 20
461.030246739796
 30
0.0
 11
343.9419762823625
 21
458.485667739796
 31
0.0
  0
LINE
  5
87A
330
18
100
AcDbEntity
  8
L-ZISSEN
100
AcDbLine
 10
346.8802022823625
 20
458.485667739796
 30
0.0
 11
345.4110892823625
 21
461.030246739796
 31
0.0
  0
LINE
  5
87B
330
18
100
AcDbEntity
  8
L-ZISSEN
100
AcDbLine
 10
347.6183062823626
 20
458.0595237397959
 30
0.0
 11
344.3074812823625
 21
459.971029739796
 31
0.0
  0
LINE
  5
87C
330
18
100
AcDbEntity
  8
L-ZISSEN
100
AcDbLine
 10
354.3802022823625
 20
461.4563907397958
 30
0.0
 11
351.4419762823625
 21
461.4563907397958
 31
0.0
  0
LINE
  5
87D
330
18
100
AcDbEntity
  8
L-ZISSEN
100
AcDbLine
 10
352.9110892823625
 20
458.9118117397958
 30
0.0
 11
354.3802022823625
 21
461.4563907397958
 31
0.0
  0
LINE
  5
87E
330
18
100
AcDbEntity
  8
L-ZISSEN
100
AcDbLine
 10
351.4419762823625
 20
461.4563907397958
 30
0.0
 11
352.9110892823625
 21
458.9118117397958
 31
0.0
  0
LINE
  5
87F
330
18
100
AcDbEntity
  8
L-ZISSEN
100
AcDbLine
 10
352.9110892823625
 20
458.0595237397959
 30
0.0
 11
355.1183062823625
 21
461.8825357397959
 31
0.0
  0
LINE
  5
880
330
18
100
AcDbEntity
  8
L-ZISSEN
100
AcDbLine
 10
353.5834712823625
 20
460.9963977397959
 30
0.0
 11
352.2387072823625
 21
460.9963977397959
 31
0.0
  0
LINE
  5
881
330
18
100
AcDbEntity
  8
L-ZISSEN
100
AcDbLine
 10
352.9110892823625
 20
459.831797739796
 30
0.0
 11
353.5834712823625
 21
460.9963977397959
 31
0.0
  0
LINE
  5
882
330
18
100
AcDbEntity
  8
L-ZISSEN
100
AcDbLine
 10
352.2387072823625
 20
460.9963977397959
 30
0.0
 11
352.9110892823625
 21
459.831797739796
 31
0.0
  0
LINE
  5
886
330
18
100
AcDbEntity
  8
L-ZISSEN
100
AcDbLine
 10
425.7583642823625
 20
468.9932987397959
 30
0.0
 11
425.7583642823625
 21
461.8825357397959
 31
0.0
  0
LINE
  5
887
330
18
100
AcDbEntity
  8
L-ZISSEN
100
AcDbLine
 10
408.6351552823625
 20
571.4138057397959
 30
0.0
 11
393.6351552823625
 21
571.4138057397959
 31
0.0
  0
LINE
  5
888
330
18
100
AcDbEntity
  8
L-ZISSEN
100
AcDbLine
 10
393.6351552823625
 20
556.4138057397959
 30
0.0
 11
408.6351552823625
 21
556.4138057397959
 31
0.0
  0
LINE
  5
889
330
18
100
AcDbEntity
  8
L-ZISSEN
100
AcDbLine
 10
409.9064232823626
 20
507.5549807397959
 30
0.0
 11
394.9064232823626
 21
507.5549807397959
 31
0.0
  0
LINE
  5
88A
330
18
100
AcDbEntity
  8
L-ZISSEN
100
AcDbLine
 10
394.9064232823626
 20
492.5549807397959
 30
0.0
 11
409.9064232823626
 21
492.5549807397959
 31
0.0
  0
LINE
  5
88B
330
18
100
AcDbEntity
  8
L-ZISSEN
100
AcDbLine
 10
394.6572652823626
 20
572.1388317397959
 30
0.0
 11
398.2823932823626
 21
571.4138057397959
 31
0.0
  0
LINE
  5
88C
330
18
100
AcDbEntity
  8
L-ZISSEN
100
AcDbLine
 10
394.6572652823626
 20
575.738831739796
 30
0.0
 11
399.1572652823625
 21
574.8388317397959
 31
0.0
  0
LINE
  5
88D
330
18
100
AcDbEntity
  8
L-ZISSEN
100
AcDbLine
 10
394.6572652823626
 20
572.1388317397959
 30
0.0
 11
399.1572652823625
 21
573.0388317397959
 31
0.0
  0
LINE
  5
88E
330
18
100
AcDbEntity
  8
L-ZISSEN
100
AcDbLine
 10
394.6572652823626
 20
573.9388317397959
 30
0.0
 11
399.1572652823625
 21
574.8388317397959
 31
0.0
  0
LINE
  5
88F
330
18
100
AcDbEntity
  8
L-ZISSEN
100
AcDbLine
 10
394.6572652823626
 20
573.9388317397959
 30
0.0
 11
399.1572652823625
 21
573.0388317397959
 31
0.0
  0
LINE
  5
890
330
18
100
AcDbEntity
  8
L-HASEN
100
AcDbLine
 10
389.7925962823626
 20
486.7322067397959
 30
0.0
 11
402.4064232823626
 21
486.7322067397959
 31
0.0
  0
LINE
  5
891
330
18
100
AcDbEntity
  8
L-ZISSEN
100
AcDbLine
 10
293.2977542823625
 20
541.5491617397958
 30
0.0
 11
401.1351552823625
 21
541.5491617397958
 31
0.0
  0
LINE
  5
892
330
18
100
AcDbEntity
  8
L-ZISSEN
100
AcDbLine
 10
409.9064232823626
 20
496.826792739796
 30
0.0
 11
394.9064232823626
 21
496.826792739796
 31
0.0
  0
LINE
  5
893
330
18
100
AcDbEntity
  8
L-ZISSEN
100
AcDbLine
 10
393.6351552823625
 20
571.4138057397959
 30
0.0
 11
408.6351552823625
 21
556.4138057397959
 31
0.0
  0
LINE
  5
894
330
18
100
AcDbEntity
  8
L-ZISSEN
  6
CONTINUOUS
 62
     7
100
AcDbLine
 10
380.4749192823625
 20
583.785421739796
 30
0.0
 11
380.4749192823625
 21
513.499988739796
 31
0.0
  0
LINE
  5
895
330
18
100
AcDbEntity
  8
L-ZISSEN
100
AcDbLine
 10
330.4110892823625
 20
476.3200297397959
 30
0.0
 11
342.4092662823625
 21
476.3200297397959
 31
0.0
  0
ARC
  5
896
330
18
100
AcDbEntity
  8
L-ZISSEN
100
AcDbCircle
 10
278.6319942823626
 20
527.329230739796
 30
0.0
 40
12.70827099999999
100
AcDbArc
 50
346.434071
 51
0.0
  0
ARC
  5
897
330
18
100
AcDbEntity
  8
L-ZISSEN
100
AcDbCircle
 10
307.9635132823625
 20
527.329230739796
 30
0.0
 40
12.70827099999999
100
AcDbArc
 50
180.0
 51
193.5659289999999
  0
LINE
  5
898
330
18
100
AcDbEntity
  8
L-ZISSEN
100
AcDbLine
 10
288.4838602823625
 20
529.688164739796
 30
0.0
 11
300.4557062823626
 21
522.377446739796
 31
0.0
  0
LINE
  5
899
330
18
100
AcDbEntity
  8
L-ZISSEN
100
AcDbLine
 10
293.2977542823625
 20
546.438017739796
 30
0.0
 11
293.2977542823625
 21
513.499988739796
 31
0.0
  0
LINE
  5
89A
330
18
100
AcDbEntity
  8
L-ZISSEN
100
AcDbLine
 10
300.4110892823625
 20
483.8200297397959
 30
0.0
 11
330.4110892823625
 21
483.8200297397959
 31
0.0
  0
LINE
  5
89B
330
18
100
AcDbEntity
  8
L-ZISSEN
100
AcDbLine
 10
276.2778352823626
 20
499.192301739796
 30
0.0
 11
283.7778352823626
 21
497.6923017397959
 31
0.0
  0
LINE
  5
89C
330
18
100
AcDbEntity
  8
L-ZISSEN
100
AcDbLine
 10
287.5278352823626
 20
487.4839257397959
 30
0.0
 11
294.0672322823625
 21
487.4839257397959
 31
0.0
  0
SOLID
  5
89D
330
18
100
AcDbEntity
  8
L-ZISSEN
100
AcDbTrace
 10
283.2171812823626
 20
473.9774977397959
 30
0.0
 11
282.9657872823626
 21
472.498713739796
 31
0.0
 12
287.5278352823626
 22
472.4839257397959
 32
0.0
 13
287.5278352823626
 23
472.4839257397959
 33
0.0
  0
LINE
  5
89E
330
18
100
AcDbEntity
  8
L-ZISSEN
100
AcDbLine
 10
276.9713182823626
 20
485.794883739796
 30
0.0
 11
287.5278352823626
 21
487.4839257397959
 31
0.0
  0
LINE
  5
89F
330
18
100
AcDbEntity
  8
L-ZISSEN
100
AcDbLine
 10
276.2778352823626
 20
496.192301739796
 30
0.0
 11
283.7778352823626
 21
497.6923017397959
 31
0.0
  0
LINE
  5
8A0
330
18
100
AcDbEntity
  8
L-ZISSEN
100
AcDbLine
 10
276.2778352823626
 20
496.192301739796
 30
0.0
 11
282.3197162823626
 21
494.9839257397959
 31
0.0
  0
LINE
  5
8A1
330
18
100
AcDbEntity
  8
L-ZISSEN
100
AcDbLine
 10
275.5292072823625
 20
491.5228987397958
 30
0.0
 11
275.5292072823625
 21
488.544953739796
 31
0.0
  0
ARC
  5
8A2
330
18
100
AcDbEntity
  8
L-ZISSEN
100
AcDbCircle
 10
287.0133442823625
 20
522.5148317397959
 30
0.0
 40
2.613277999999999
100
AcDbArc
 50
270.0
 51
305.4146169999999
  0
LINE
  5
8A3
330
18
100
AcDbEntity
  8
L-ZISSEN
100
AcDbLine
 10
276.2778352823626
 20
502.1923017397959
 30
0.0
 11
283.7778352823626
 21
500.6923017397959
 31
0.0
  0
LINE
  5
8A4
330
18
100
AcDbEntity
  8
L-ZISSEN
100
AcDbLine
 10
276.2778352823626
 20
499.192301739796
 30
0.0
 11
283.7778352823626
 21
500.6923017397959
 31
0.0
  0
ARC
  5
8A5
330
18
100
AcDbEntity
  8
L-ZISSEN
100
AcDbCircle
 10
303.8238062823625
 20
526.3303357397959
 30
0.0
 40
8.449753999999998
100
AcDbArc
 50
193.5659289999999
 51
210.222524
  0
ARC
  5
8A6
330
18
100
AcDbEntity
  8
L-ZISSEN
100
AcDbCircle
 10
293.2977542823625
 20
513.499988739796
 30
0.0
 40
0.5625
100
AcDbArc
 50
0.0
 51
180.0
  0
ARC
  5
8A7
330
18
100
AcDbEntity
  8
L-ZISSEN
100
AcDbCircle
 10
293.2977542823625
 20
513.499988739796
 30
0.0
 40
0.5625
100
AcDbArc
 50
180.0
 51
0.0
  0
ARC
  5
8A8
330
18
100
AcDbEntity
  8
L-ZISSEN
100
AcDbCircle
 10
282.7717022823626
 20
526.3303357397959
 30
0.0
 40
8.449753999999998
100
AcDbArc
 50
329.7774759999999
 51
346.434071
  0
ARC
  5
8A9
330
18
100
AcDbEntity
  8
L-ZISSEN
100
AcDbCircle
 10
285.3812532823625
 20
524.810166739796
 30
0.0
 40
5.429707999999999
100
AcDbArc
 50
305.4146169999999
 51
329.7774759999999
  0
ARC
  5
8AA
330
18
100
AcDbEntity
  8
L-ZISSEN
100
AcDbCircle
 10
301.2142542823626
 20
524.810166739796
 30
0.0
 40
5.429707999999999
100
AcDbArc
 50
210.222524
 51
234.585383
  0
ARC
  5
8AB
330
18
100
AcDbEntity
  8
L-ZISSEN
100
AcDbCircle
 10
299.5821642823625
 20
522.5148317397959
 30
0.0
 40
2.613277999999999
100
AcDbArc
 50
234.585383
 51
270.0
  0
LINE
  5
8AC
330
18
100
AcDbEntity
  8
L-ZISSEN
100
AcDbLine
 10
314.0582492823625
 20
476.3200297397959
 30
0.0
 11
307.8615972823624
 21
479.8976687397959
 31
0.0
  0
LINE
  5
8AD
330
18
100
AcDbEntity
  8
L-ZISSEN
100
AcDbLine
 10
307.8615972823624
 20
472.7423907397959
 30
0.0
 11
314.0582492823625
 21
476.3200297397959
 31
0.0
  0
LINE
  5
8AE
330
18
100
AcDbEntity
  8
L-ZISSEN
100
AcDbLine
 10
292.0953322823624
 20
555.7812187397959
 30
0.0
 11
296.4636112823625
 21
550.697421739796
 31
0.0
  0
CIRCLE
  5
8AF
330
18
100
AcDbEntity
  8
L-ZISSEN
100
AcDbCircle
 10
293.2977542823625
 20
554.3915327397959
 30
0.0
 40
7.953514999999999
  0
ARC
  5
8B0
330
18
100
AcDbEntity
  8
L-ZISSEN
100
AcDbCircle
 10
287.0133442823625
 20
532.1436297397959
 30
0.0
 40
2.613277999999999
100
AcDbArc
 50
54.58538299999999
 51
90.0
  0
SOLID
  5
8B1
330
18
100
AcDbEntity
  8
L-ZISSEN
100
AcDbTrace
 10
288.0929842823625
 20
529.048074739796
 30
0.0
 11
288.8747372823626
 21
530.328254739796
 31
0.0
 12
284.6433202823625
 22
532.033425739796
 32
0.0
 13
284.6433202823625
 23
532.033425739796
 33
0.0
  0
ARC
  5
8B2
330
18
100
AcDbEntity
  8
L-ZISSEN
100
AcDbCircle
 10
303.8238062823625
 20
528.3281257397959
 30
0.0
 40
8.449753999999998
100
AcDbArc
 50
149.777476
 51
166.4340709999999
  0
ARC
  5
8B3
330
18
100
AcDbEntity
  8
L-ZISSEN
100
AcDbCircle
 10
285.3812532823625
 20
529.8482947397959
 30
0.0
 40
5.429707999999999
100
AcDbArc
 50
30.222524
 51
54.58538299999999
  0
ARC
  5
8B4
330
18
100
AcDbEntity
  8
L-ZISSEN
100
AcDbCircle
 10
282.7717022823626
 20
528.3281257397959
 30
0.0
 40
8.449753999999998
100
AcDbArc
 50
13.565929
 51
30.222524
  0
ARC
  5
8B5
330
18
100
AcDbEntity
  8
L-ZISSEN
100
AcDbCircle
 10
278.6319942823626
 20
527.329230739796
 30
0.0
 40
12.70827099999999
100
AcDbArc
 50
0.0
 51
13.565929
  0
ARC
  5
8B6
330
18
100
AcDbEntity
  8
L-ZISSEN
100
AcDbCircle
 10
307.9635132823625
 20
527.329230739796
 30
0.0
 40
12.70827099999999
100
AcDbArc
 50
166.4340709999999
 51
180.0
  0
ARC
  5
8B7
330
18
100
AcDbEntity
  8
L-ZISSEN
100
AcDbCircle
 10
299.5821642823625
 20
532.1436297397959
 30
0.0
 40
2.613277999999999
100
AcDbArc
 50
90.0
 51
125.414617
  0
ARC
  5
8B8
330
18
100
AcDbEntity
  8
L-ZISSEN
100
AcDbCircle
 10
301.2142542823626
 20
529.8482947397959
 30
0.0
 40
5.429707999999999
100
AcDbArc
 50
125.414617
 51
149.777476
  0
ARC
  5
8B9
330
18
100
AcDbEntity
  8
L-ZISSEN
100
AcDbCircle
 10
293.2977542823625
 20
541.5491617397958
 30
0.0
 40
0.5625
100
AcDbArc
 50
0.0
 51
180.0
  0
ARC
  5
8BA
330
18
100
AcDbEntity
  8
L-ZISSEN
100
AcDbCircle
 10
293.2977542823625
 20
541.5491617397958
 30
0.0
 40
0.5625
100
AcDbArc
 50
180.0
 51
0.0
  0
SOLID
  5
8BB
330
18
100
AcDbEntity
  8
L-ZISSEN
100
AcDbTrace
 10
291.5264842823626
 20
555.2924327397959
 30
0.0
 11
292.6641802823626
 21
556.270004739796
 31
0.0
 12
289.1626172823626
 22
559.1943077397959
 32
0.0
 13
289.1626172823626
 23
559.1943077397959
 33
0.0
  0
LINE
  5
8BC
330
18
100
AcDbEntity
  8
L-ZISSEN
  6
CONTINUOUS
 62
     7
100
AcDbLine
 10
362.2242392823626
 20
529.4246187397959
 30
0.0
 11
362.2242392823626
 21
519.5635877397959
 31
0.0
  0
LINE
  5
8BD
330
18
100
AcDbEntity
  8
L-ZISSEN
100
AcDbLine
 10
342.4092662823625
 20
476.3200297397959
 30
0.0
 11
342.4092662823625
 21
529.4246187397959
 31
0.0
  0
LINE
  5
8BE
330
18
100
AcDbEntity
  8
L-ZISSEN
100
AcDbLine
 10
372.8308412823626
 20
513.499988739796
 30
0.0
 11
362.2242392823626
 21
524.1065907397959
 31
0.0
  0
LINE
  5
8BF
330
18
100
AcDbEntity
  8
L-ZISSEN
100
AcDbLine
 10
362.2242392823626
 20
502.8933867397959
 30
0.0
 11
372.8308412823626
 21
513.499988739796
 31
0.0
  0
LINE
  5
8C0
330
18
100
AcDbEntity
  8
L-ZISSEN
100
AcDbLine
 10
375.3226232823625
 20
486.349366739796
 30
0.0
 11
360.3226232823625
 21
486.349366739796
 31
0.0
  0
LINE
  5
8C1
330
18
100
AcDbEntity
  8
L-ZISSEN
100
AcDbLine
 10
360.3226232823625
 20
471.3493667397959
 30
0.0
 11
375.3226232823625
 21
471.3493667397959
 31
0.0
  0
LINE
  5
8C2
330
18
100
AcDbEntity
  8
L-ZISSEN
100
AcDbLine
 10
365.7023922823625
 20
483.9385277397959
 30
0.0
 11
367.7752662823626
 21
483.9385277397959
 31
0.0
  0
LINE
  5
8C4
330
18
100
AcDbEntity
  8
L-ZISSEN
100
AcDbLine
 10
360.3226232823625
 20
486.349366739796
 30
0.0
 11
375.3226232823625
 21
471.3493667397959
 31
0.0
  0
ARC
  5
8C5
330
18
100
AcDbEntity
  8
L-ZISSEN
100
AcDbCircle
 10
348.8391392823625
 20
491.044449739796
 30
0.0
 40
3.67848
100
AcDbArc
 50
285.774466
 51
74.22553399999999
  0
LINE
  5
8C6
330
18
100
AcDbEntity
  8
L-ZISSEN
100
AcDbLine
 10
342.4092662823625
 20
487.3648847397959
 30
0.0
 11
340.2020492823625
 21
483.5418727397959
 31
0.0
  0
LINE
  5
8C7
330
18
100
AcDbEntity
  8
L-ZISSEN
100
AcDbLine
 10
344.6164842823626
 20
483.5418727397959
 30
0.0
 11
342.4092662823625
 21
487.3648847397959
 31
0.0
  0
LINE
  5
8C8
330
18
100
AcDbEntity
  8
L-ZISSEN
100
AcDbLine
 10
342.4092662823625
 20
485.592609739796
 30
0.0
 11
341.7368842823625
 21
484.4280097397959
 31
0.0
  0
LINE
  5
8C9
330
18
100
AcDbEntity
  8
L-ZISSEN
100
AcDbLine
 10
343.0816492823625
 20
484.4280097397959
 30
0.0
 11
342.4092662823625
 21
485.592609739796
 31
0.0
  0
LINE
  5
8CA
330
18
100
AcDbEntity
  8
L-ZISSEN
100
AcDbLine
 10
342.4092662823625
 20
486.5125957397959
 30
0.0
 11
340.9401532823626
 21
483.9680167397959
 31
0.0
  0
LINE
  5
8CB
330
18
100
AcDbEntity
  8
L-ZISSEN
100
AcDbLine
 10
343.8783802823625
 20
483.9680167397959
 30
0.0
 11
342.4092662823625
 21
486.5125957397959
 31
0.0
  0
LINE
  5
8CC
330
18
100
AcDbEntity
  8
L-ZISSEN
100
AcDbLine
 10
344.6164842823626
 20
483.5418727397959
 30
0.0
 11
341.3056582823625
 21
485.453378739796
 31
0.0
  0
LINE
  5
8CD
330
18
100
AcDbEntity
  8
L-ZISSEN
100
AcDbLine
 10
340.2020492823625
 20
483.5418727397959
 30
0.0
 11
344.6164842823626
 21
483.5418727397959
 31
0.0
  0
LINE
  5
8CE
330
18
100
AcDbEntity
  8
L-ZISSEN
100
AcDbLine
 10
340.9401532823626
 20
483.9680167397959
 30
0.0
 11
343.8783802823625
 21
483.9680167397959
 31
0.0
  0
LINE
  5
8CF
330
18
100
AcDbEntity
  8
L-ZISSEN
100
AcDbLine
 10
341.7368842823625
 20
484.4280097397959
 30
0.0
 11
343.0816492823625
 21
484.4280097397959
 31
0.0
  0
LINE
  5
8D0
330
18
100
AcDbEntity
  8
L-ZISSEN
100
AcDbLine
 10
360.3226232823625
 20
486.349366739796
 30
0.0
 11
360.3226232823625
 21
471.3493667397959
 31
0.0
  0
ARC
  5
8D1
330
18
100
AcDbEntity
  8
L-ZISSEN
100
AcDbCircle
 10
356.9830402823626
 20
491.044449739796
 30
0.0
 40
3.67848
100
AcDbArc
 50
105.774466
 51
254.2255339999999
  0
LINE
  5
8D2
330
18
100
AcDbEntity
  8
L-ZISSEN
100
AcDbLine
 10
345.6183052823625
 20
513.499988739796
 30
0.0
 11
351.6176372823625
 21
513.499988739796
 31
0.0
  0
ARC
  5
8D3
330
18
100
AcDbEntity
  8
L-ZISSEN
100
AcDbCircle
 10
342.4092662823625
 20
513.499988739796
 30
0.0
 40
3.209038
100
AcDbArc
 50
0.0
 51
180.0
  0
LINE
  5
8D4
330
18
100
AcDbEntity
  8
L-ZISSEN
100
AcDbLine
 10
351.6176372823625
 20
513.499988739796
 30
0.0
 11
362.2242392823626
 21
502.8933867397959
 31
0.0
  0
LINE
  5
8D5
330
18
100
AcDbEntity
  8
L-ZISSEN
100
AcDbLine
 10
362.2242392823626
 20
501.2604097397959
 30
0.0
 11
352.9110892823625
 21
501.2604097397959
 31
0.0
  0
LINE
  5
8D6
330
18
100
AcDbEntity
  8
L-ZISSEN
  6
CONTINUOUS
 62
     7
100
AcDbLine
 10
362.2242392823626
 20
502.8933867397959
 30
0.0
 11
362.2242392823626
 21
501.2604097397959
 31
0.0
  0
LINE
  5
8D7
330
18
100
AcDbEntity
  8
L-ZISSEN
100
AcDbLine
 10
362.2242392823626
 20
524.1065907397959
 30
0.0
 11
351.6176372823625
 21
513.499988739796
 31
0.0
  0
LINE
  5
8D8
330
18
100
AcDbEntity
  8
L-ZISSEN
100
AcDbLine
 10
394.9064232823626
 20
507.5549807397959
 30
0.0
 11
394.9064232823626
 21
492.5549807397959
 31
0.0
  0
LINE
  5
8D9
330
18
100
AcDbEntity
  8
L-HASEN
100
AcDbLine
 10
394.9064232823626
 20
500.0549807397959
 30
0.0
 11
389.7925962823626
 21
493.6658167397959
 31
0.0
  0
LINE
  5
8DA
330
18
100
AcDbEntity
  8
L-ZISSEN
100
AcDbLine
 10
375.3226232823625
 20
471.3493667397959
 30
0.0
 11
375.3226232823625
 21
486.349366739796
 31
0.0
  0
ARC
  5
8DB
330
18
100
AcDbEntity
  8
L-ZISSEN
100
AcDbCircle
 10
372.1479492823625
 20
483.9385277397959
 30
0.0
 40
0.225
100
AcDbArc
 50
0.0
 51
180.0
  0
ARC
  5
8DC
330
18
100
AcDbEntity
  8
L-ZISSEN
100
AcDbCircle
 10
372.1479492823625
 20
483.9385277397959
 30
0.0
 40
0.225
100
AcDbArc
 50
180.0
 51
0.0
  0
ARC
  5
8DD
330
18
100
AcDbEntity
  8
L-ZISSEN
100
AcDbCircle
 10
367.7752662823626
 20
483.9385277397959
 30
0.0
 40
0.225
100
AcDbArc
 50
0.0
 51
180.0
  0
ARC
  5
8DE
330
18
100
AcDbEntity
  8
L-ZISSEN
100
AcDbCircle
 10
367.7752662823626
 20
483.9385277397959
 30
0.0
 40
0.225
100
AcDbArc
 50
180.0
 51
0.0
  0
LINE
  5
8DF
330
18
100
AcDbEntity
  8
L-ZISSEN
100
AcDbLine
 10
371.9229492823625
 20
483.9385277397959
 30
0.0
 11
373.9958222823625
 21
483.9385277397959
 31
0.0
  0
LINE
  5
8E0
330
18
100
AcDbEntity
  8
L-ZISSEN
100
AcDbLine
 10
372.1479492823625
 20
483.9385277397959
 30
0.0
 11
368.0324822823625
 21
482.093919739796
 31
0.0
  0
LINE
  5
8E1
330
18
100
AcDbEntity
  8
L-HASEN
100
AcDbLine
 10
389.7925962823626
 20
493.6658167397959
 30
0.0
 11
389.7925962823626
 21
486.7322067397959
 31
0.0
  0
LINE
  5
8E2
330
18
100
AcDbEntity
  8
L-ZISSEN
100
AcDbLine
 10
394.9064232823626
 20
500.0549807397959
 30
0.0
 11
379.1357192823625
 21
500.0549807397959
 31
0.0
  0
LINE
  5
8E3
330
18
100
AcDbEntity
  8
L-ZISSEN
100
AcDbLine
 10
372.8308412823626
 20
513.499988739796
 30
0.0
 11
380.4749192823625
 21
513.499988739796
 31
0.0
  0
LINE
  5
8E4
330
18
100
AcDbEntity
  8
L-ZISSEN
100
AcDbLine
 10
342.4092662823625
 20
529.4246187397959
 30
0.0
 11
362.2242392823626
 21
529.4246187397959
 31
0.0
  0
ARC
  5
8E5
330
18
100
AcDbEntity
  8
L-ZISSEN
100
AcDbCircle
 10
380.4749192823625
 20
541.5491617397958
 30
0.0
 40
0.5625
100
AcDbArc
 50
0.0
 51
180.0
  0
ARC
  5
8E6
330
18
100
AcDbEntity
  8
L-ZISSEN
100
AcDbCircle
 10
380.4749192823625
 20
541.5491617397958
 30
0.0
 40
0.5625
100
AcDbArc
 50
180.0
 51
0.0
  0
LINE
  5
8E7
330
18
100
AcDbEntity
  8
L-ZISSEN
100
AcDbLine
 10
393.6351552823625
 20
571.4138057397959
 30
0.0
 11
393.6351552823625
 21
556.4138057397959
 31
0.0
  0
LINE
  5
8E8
330
18
100
AcDbEntity
  8
L-ZISSEN
100
AcDbLine
 10
376.0604852823626
 20
583.785421739796
 30
0.0
 11
384.8893542823626
 21
583.785421739796
 31
0.0
  0
LINE
  5
8E9
330
18
100
AcDbEntity
  8
L-ZISSEN
100
AcDbLine
 10
384.8893542823626
 20
583.785421739796
 30
0.0
 11
380.4749192823625
 21
591.431446739796
 31
0.0
  0
LINE
  5
8EA
330
18
100
AcDbEntity
  8
L-ZISSEN
100
AcDbLine
 10
380.4749192823625
 20
591.431446739796
 30
0.0
 11
376.0604852823626
 21
583.785421739796
 31
0.0
  0
LINE
  5
8EB
330
18
100
AcDbEntity
  8
L-ZISSEN
100
AcDbLine
 10
409.9064232823626
 20
492.5549807397959
 30
0.0
 11
409.9064232823626
 21
507.5549807397959
 31
0.0
  0
LINE
  5
8ED
330
18
100
AcDbEntity
  8
L-ZISSEN
100
AcDbLine
 10
409.9064232823626
 20
496.826792739796
 30
0.0
 11
405.4284102823626
 21
498.0266727397959
 31
0.0
  0
LINE
  5
8EE
330
18
100
AcDbEntity
  8
L-ZISSEN
100
AcDbLine
 10
409.9064232823626
 20
496.826792739796
 30
0.0
 11
405.4284102823626
 21
495.626912739796
 31
0.0
  0
LINE
  5
8EF
330
18
100
AcDbEntity
  8
L-HASEN
100
AcDbLine
 10
402.4064232823626
 20
492.5549807397959
 30
0.0
 11
402.4064232823626
 21
486.7322067397959
 31
0.0
  0
LINE
  5
8F4
330
18
100
AcDbEntity
  8
L-ZISSEN
100
AcDbLine
 10
398.5767942823625
 20
513.7118567397959
 30
0.0
 11
406.2360522823626
 21
511.659564739796
 31
0.0
  0
LINE
  5
8F5
330
18
100
AcDbEntity
  8
L-ZISSEN
100
AcDbLine
 10
398.5767942823625
 20
509.6072727397959
 30
0.0
 11
406.2360522823626
 21
511.659564739796
 31
0.0
  0
LINE
  5
8F6
330
18
100
AcDbEntity
  8
L-ZISSEN
100
AcDbLine
 10
398.5767942823625
 20
509.6072727397959
 30
0.0
 11
406.2360522823626
 21
507.5549807397959
 31
0.0
  0
LINE
  5
8F7
330
18
100
AcDbEntity
  8
L-ZISSEN
100
AcDbLine
 10
398.5767942823625
 20
513.7118567397959
 30
0.0
 11
406.2360522823626
 21
515.7641487397959
 31
0.0
  0
LINE
  5
8F8
330
18
100
AcDbEntity
  8
L-ZISSEN
100
AcDbLine
 10
401.1351552823625
 20
556.4138057397959
 30
0.0
 11
401.1351552823625
 21
541.5491617397958
 31
0.0
  0
LINE
  5
8FA
330
18
100
AcDbEntity
  8
L-ZISSEN
100
AcDbLine
 10
408.6351552823625
 20
556.4138057397959
 30
0.0
 11
408.6351552823625
 21
571.4138057397959
 31
0.0
  0
LINE
  5
8FB
330
18
100
AcDbEntity
  8
L-ZISSEN
100
AcDbLine
 10
405.4604812823625
 20
569.002966739796
 30
0.0
 11
401.3450152823625
 21
567.1583587397959
 31
0.0
  0
LINE
  5
8FC
330
18
100
AcDbEntity
  8
L-ZISSEN
100
AcDbLine
 10
401.1351552823625
 20
559.9809317397959
 30
0.0
 11
399.0756742823625
 21
556.4138057397959
 31
0.0
  0
LINE
  5
8FD
330
18
100
AcDbEntity
  8
L-ZISSEN
100
AcDbLine
 10
403.1946362823625
 20
556.4138057397959
 30
0.0
 11
401.1351552823625
 21
559.9809317397959
 31
0.0
  0
LINE
  5
8FE
330
18
100
AcDbEntity
  8
L-ZISSEN
100
AcDbLine
 10
405.2354812823625
 20
569.002966739796
 30
0.0
 11
407.3083542823625
 21
569.002966739796
 31
0.0
  0
ARC
  5
8FF
330
18
100
AcDbEntity
  8
L-ZISSEN
100
AcDbCircle
 10
405.4604812823625
 20
569.002966739796
 30
0.0
 40
0.225
100
AcDbArc
 50
0.0
 51
180.0
  0
ARC
  5
900
330
18
100
AcDbEntity
  8
L-ZISSEN
100
AcDbCircle
 10
405.4604812823625
 20
569.002966739796
 30
0.0
 40
0.225
100
AcDbArc
 50
180.0
 51
0.0
  0
ARC
  5
901
330
18
100
AcDbEntity
  8
L-ZISSEN
100
AcDbCircle
 10
401.0877982823625
 20
569.002966739796
 30
0.0
 40
0.225
100
AcDbArc
 50
0.0
 51
180.0
  0
ARC
  5
902
330
18
100
AcDbEntity
  8
L-ZISSEN
100
AcDbCircle
 10
401.0877982823625
 20
569.002966739796
 30
0.0
 40
0.225
100
AcDbArc
 50
180.0
 51
0.0
  0
LINE
  5
903
330
18
100
AcDbEntity
  8
L-ZISSEN
100
AcDbLine
 10
399.0149242823625
 20
569.002966739796
 30
0.0
 11
401.0877982823625
 21
569.002966739796
 31
0.0
  0
LINE
  5
904
330
18
100
AcDbEntity
  8
L-TYUSIN
100
AcDbLine
 10
250.8921992823625
 20
428.9967087397959
 30
0.0
 11
417.3059922823625
 21
428.9967087397959
 31
0.0
  0
LINE
  5
905
330
18
100
AcDbEntity
  8
L-TYUSIN
100
AcDbLine
 10
250.8921992823625
 20
577.9690447397959
 30
0.0
 11
250.8921992823625
 21
428.9967087397959
 31
0.0
  0
LINE
  5
906
330
18
100
AcDbEntity
  8
L-ZISSEN
100
AcDbLine
 10
352.9110892823625
 20
501.2604097397959
 30
0.0
 11
352.9110892823625
 21
446.8203687397958
 31
0.0
  0
LINE
  5
907
330
18
100
AcDbEntity
  8
L-ZISSEN
100
AcDbLine
 10
379.1357192823625
 20
500.0549807397959
 30
0.0
 11
379.1357192823625
 21
450.9389857397959
 31
0.0
  0
LINE
  5
908
330
18
100
AcDbEntity
  8
L-TYUSIN
100
AcDbLine
 10
417.3059922823625
 20
428.9967087397959
 30
0.0
 11
417.3059922823625
 21
577.9690447397959
 31
0.0
  0
LINE
  5
90A
330
18
100
AcDbEntity
  8
L-ZISSEN
100
AcDbLine
 10
383.2314482823625
 20
446.8203687397958
 30
0.0
 11
342.0372922823625
 21
446.8203687397958
 31
0.0
  0
LINE
  5
90B
330
18
100
AcDbEntity
  8
L-ZISSEN
100
AcDbLine
 10
345.4110892823625
 20
465.9499887397958
 30
0.0
 11
345.4110892823625
 21
446.8203687397958
 31
0.0
  0
LINE
  5
90C
330
18
100
AcDbEntity
  8
L-ZISSEN
100
AcDbLine
 10
342.0372922823625
 20
446.8203687397958
 30
0.0
 11
342.0372922823625
 21
453.3457187397959
 31
0.0
  0
LINE
  5
90D
330
18
100
AcDbEntity
  8
L-ZISSEN
100
AcDbLine
 10
381.1357192823625
 20
468.9932987397959
 30
0.0
 11
381.1357192823625
 21
450.9389857397959
 31
0.0
  0
LINE
  5
90E
330
18
100
AcDbEntity
  8
L-ZISSEN
100
AcDbLine
 10
367.3445542823626
 20
453.5775197397959
 30
0.0
 11
367.3445542823626
 21
446.8203687397958
 31
0.0
  0
LINE
  5
90F
330
18
100
AcDbEntity
  8
L-ZISSEN
100
AcDbLine
 10
383.2314482823625
 20
453.3457187397959
 30
0.0
 11
383.2314482823625
 21
446.8203687397958
 31
0.0
  0
TEXT
  5
914
330
18
100
AcDbEntity
  8
0
100
AcDbText
 10
221.0471942823626
 20
593.538976739796
 30
0.0
 40
3.5
  1
SOL
100
AcDbText
  0
LINE
  5
915
330
18
100
AcDbEntity
  8
L-HASEN
100
AcDbLine
 10
199.2993292823625
 20
513.4399887397959
 30
0.0
 11
204.4131562823626
 21
507.050825739796
 31
0.0
  0
LINE
  5
916
330
18
100
AcDbEntity
  8
L-HASEN
100
AcDbLine
 10
204.4131562823626
 20
507.050825739796
 30
0.0
 11
204.4131562823626
 21
500.1172147397959
 31
0.0
  0
LINE
  5
917
330
18
100
AcDbEntity
  8
L-HASEN
100
AcDbLine
 10
204.4131562823626
 20
500.1172147397959
 30
0.0
 11
191.7993292823625
 21
500.1172147397959
 31
0.0
  0
LINE
  5
918
330
18
100
AcDbEntity
  8
L-HASEN
100
AcDbLine
 10
191.7993292823625
 20
505.9399887397959
 30
0.0
 11
191.7993292823625
 21
500.1172147397959
 31
0.0
  0
LINE
  5
919
330
18
100
AcDbEntity
  8
L-HASEN
100
AcDbLine
 10
204.4731562823626
 20
575.662112739796
 30
0.0
 11
191.8593292823625
 21
575.662112739796
 31
0.0
  0
LINE
  5
91A
330
18
100
AcDbEntity
  8
L-HASEN
100
AcDbLine
 10
191.8593292823625
 20
569.8393387397959
 30
0.0
 11
191.8593292823625
 21
575.662112739796
 31
0.0
  0
LINE
  5
91B
330
18
100
AcDbEntity
  8
L-HASEN
100
AcDbLine
 10
204.4731562823626
 20
568.728501739796
 30
0.0
 11
204.4731562823626
 21
575.662112739796
 31
0.0
  0
LINE
  5
91C
330
18
100
AcDbEntity
  8
L-HASEN
100
AcDbLine
 10
199.3593292823625
 20
562.339338739796
 30
0.0
 11
204.4731562823626
 21
568.728501739796
 31
0.0
  0
LINE
  5
920
330
18
100
AcDbEntity
  8
L-TYUSIN
100
AcDbLine
 10
245.8921992823625
 20
492.2183977397959
 30
0.0
 11
245.8921992823625
 21
602.2183977397959
 31
0.0
  0
LINE
  5
921
330
18
100
AcDbEntity
  8
L-TYUSIN
100
AcDbLine
 10
130.1716622823626
 20
602.2183977397959
 30
0.0
 11
245.8921992823625
 21
602.2183977397959
 31
0.0
  0
LINE
  5
922
330
18
100
AcDbEntity
  8
L-TYUSIN
100
AcDbLine
 10
130.1716622823626
 20
602.2183977397959
 30
0.0
 11
130.1716622823626
 21
492.2183977397959
 31
0.0
  0
LINE
  5
92F
330
18
100
AcDbEntity
  8
L-TYUSIN
100
AcDbLine
 10
130.1716622823626
 20
492.2183977397959
 30
0.0
 11
245.8921992823625
 21
492.2183977397959
 31
0.0
  0
TEXT
  5
93E
330
18
100
AcDbEntity
  8
L-ZISSEN
100
AcDbText
 10
131.3772253128422
 20
603.8242784719536
 30
0.0
 40
4.5
  1
D04
100
AcDbText
  0
TEXT
  5
93F
330
18
100
AcDbEntity
  8
L-ZISSEN
100
AcDbText
 10
251.6980203407333
 20
579.5766822861987
 30
0.0
 40
4.5
  1
MC9
100
AcDbText
  0
TEXT
  5
940
330
18
100
AcDbEntity
  8
L-ZISSEN
100
AcDbText
 10
258.030693763254
 20
556.9104521008816
 30
0.0
 40
4.5
  1
PS
100
AcDbText
  0
TEXT
  5
941
330
18
100
AcDbEntity
  8
L-ZISSEN
100
AcDbText
 10
275.4455433964335
 20
445.6877831738276
 30
0.0
 40
4.5
  1
PV
100
AcDbText
  0
TEXT
  5
942
330
18
100
AcDbEntity
  8
L-ZISSEN
100
AcDbText
 10
361.4643586516454
 20
487.8575148168876
 30
0.0
 40
4.5
  1
LS
100
AcDbText
  0
TEXT
  5
943
330
18
100
AcDbEntity
  8
L-ZISSEN
100
AcDbText
 10
403.1544569108764
 20
546.3680191901167
 30
0.0
 40
4.5
  1
MPS
100
AcDbText
  0
TEXT
  5
94E
330
18
100
AcDbEntity
  8
L-ZISSEN
100
AcDbText
 10
753.2622128560424
 20
626.296092591147
 30
0.0
 40
4.5
  1
MODEL NO.
100
AcDbText
  0
TEXT
  5
94F
330
18
100
AcDbEntity
  8
L-ZISSEN
100
AcDbText
 10
753.2622128560424
 20
616.20578272082
 30
0.0
 40
4.5
  1
MC9-01L3-*D02
100
AcDbText
  0
TEXT
  5
950
330
18
100
AcDbEntity
  8
L-ZISSEN
100
AcDbText
 10
753.2622128560424
 20
608.20578272082
 30
0.0
 40
4.5
  1
MC9-01L3-*D03
100
AcDbText
  0
TEXT
  5
951
330
18
100
AcDbEntity
  8
L-ZISSEN
100
AcDbText
 10
753.2622128560424
 20
599.20578272082
 30
0.0
 40
4.5
  1
MC9-01L3-*D04
100
AcDbText
  0
TEXT
  5
952
330
18
100
AcDbEntity
  8
L-ZISSEN
100
AcDbText
 10
753.2622128560424
 20
591.20578272082
 30
0.0
 40
4.5
  1
MC9-01L3-*D12
100
AcDbText
  0
TEXT
  5
953
330
18
100
AcDbEntity
  8
L-ZISSEN
100
AcDbText
 10
753.2622128560424
 20
583.20578272082
 30
0.0
 40
4.5
  1
MC9-01L3-*D13
100
AcDbText
  0
TEXT
  5
954
330
18
100
AcDbEntity
  8
L-ZISSEN
100
AcDbText
 10
753.2622128560424
 20
575.20578272082
 30
0.0
 40
4.5
  1
MC9-01L3-*D14
100
AcDbText
  0
TEXT
  5
955
330
18
100
AcDbEntity
  8
L-ZISSEN
100
AcDbText
 10
386.4325059170455
 20
316.5751209669642
 30
0.0
 40
4.5
  1
AIR IN
100
AcDbText
  0
TEXT
  5
956
330
18
100
AcDbEntity
  8
L-ZISSEN
100
AcDbText
 10
387.2562687334034
 20
307.2497815005142
 30
0.0
 40
4.5
  1
Rc3/8
100
AcDbText
  0
LINE
  5
959
330
18
100
AcDbEntity
  8
L-ZISSEN
100
AcDbLine
 10
546.8044538327849
 20
666.9485903802739
 30
0.0
 11
514.1971941684887
 21
666.9485903802738
 31
0.0
  0
TEXT
  5
95A
330
18
100
AcDbEntity
  8
L-ZISSEN
100
AcDbText
 10
515.9133649302052
 20
667.6342781647572
 30
0.0
 40
4.5
  1
FOG OUT
100
AcDbText
  0
TEXT
  5
95B
330
18
100
AcDbEntity
  8
L-ZISSEN
100
AcDbText
 10
515.5701301701951
 20
658.3775078040853
 30
0.0
 40
4.5
  1
Rc1/2
100
AcDbText
  0
LINE
  5
978
330
18
100
AcDbEntity
  8
L-ZISSEN
  6
CONTINUOUS
 62
     7
100
AcDbLine
 10
518.4159782823626
 20
546.545380739796
 30
0.0
 11
542.3499392823625
 21
546.545380739796
 31
0.0
  0
LINE
  5
979
330
18
100
AcDbEntity
  8
L-ZISSEN
  6
CONTINUOUS
 62
     7
100
AcDbLine
 10
518.4159782823625
 20
596.545380739796
 30
0.0
 11
542.3499992823626
 21
596.545380739796
 31
0.0
  0
LINE
  5
97B
330
18
100
AcDbEntity
  8
L-ZISSEN
  6
CONTINUOUS
 62
     7
100
AcDbLine
 10
530.3829692823626
 20
593.5453807397959
 30
0.0
 11
530.3829692823626
 21
579.0922557397959
 31
0.0
  0
LINE
  5
97C
330
18
100
AcDbEntity
  8
L-ZISSEN
  6
CONTINUOUS
 62
     7
100
AcDbLine
 10
525.4160392823625
 20
553.545280739796
 30
0.0
 11
518.4160092823626
 21
546.545280739796
 31
0.0
  0
LINE
  5
97D
330
18
100
AcDbEntity
  8
L-ZISSEN
  6
CONTINUOUS
 62
     7
100
AcDbLine
 10
525.4160092823626
 20
553.5453807397959
 30
0.0
 11
535.3499392823626
 21
553.5453807397959
 31
0.0
  0
LINE
  5
97E
330
18
100
AcDbEntity
  8
L-ZISSEN
  6
CONTINUOUS
 62
     7
100
AcDbLine
 10
525.4159392823626
 20
589.5453807397959
 30
0.0
 11
535.3499992823627
 21
589.5453807397959
 31
0.0
  0
LINE
  5
97F
330
18
100
AcDbEntity
  8
L-ZISSEN
  6
CONTINUOUS
 62
     7
100
AcDbLine
 10
525.4159392823626
 20
589.5453807397959
 30
0.0
 11
518.4159492823625
 21
596.545380739796
 31
0.0
  0
LINE
  5
981
330
18
100
AcDbEntity
  8
L-ZISSEN
  6
CONTINUOUS
 62
     7
100
AcDbLine
 10
519.3329692823627
 20
302.4603807397959
 30
0.0
 11
519.3329692823627
 21
257.4603807397959
 31
0.0
  0
CIRCLE
  5
983
330
18
100
AcDbEntity
  8
L-ZISSEN
  6
CONTINUOUS
 62
     7
100
AcDbCircle
 10
530.3829692823626
 20
263.9603807397959
 30
0.0
 40
3.85714
  0
CIRCLE
  5
984
330
18
100
AcDbEntity
  8
L-ZISSEN
  6
CONTINUOUS
 62
     7
100
AcDbCircle
 10
530.3829692823626
 20
295.9603807397959
 30
0.0
 40
3.85714
  0
LINE
  5
988
330
18
100
AcDbEntity
  8
L-ZISSEN
  6
CONTINUOUS
 62
     7
100
AcDbLine
 10
530.3829692823626
 20
563.9985057397961
 30
0.0
 11
530.3829692823626
 21
549.5453807397959
 31
0.0
  0
LINE
  5
98F
330
18
100
AcDbEntity
  8
PV
  6
CENTER
 62
     1
100
AcDbLine
 10
715.8829692823626
 20
530.545380739796
 30
0.0
 11
740.8829692823626
 21
530.545380739796
 31
0.0
  0
LINE
  5
990
330
18
100
AcDbEntity
  8
PV
  6
CENTER
 62
     1
100
AcDbLine
 10
728.3829692823626
 20
543.045380739796
 30
0.0
 11
728.3829692823626
 21
518.045380739796
 31
0.0
  0
CIRCLE
  5
991
330
18
100
AcDbEntity
  8
L-HASEN
100
AcDbCircle
 10
728.3829692823626
 20
530.545380739796
 30
0.0
 40
10.5
  0
LINE
  5
993
330
18
100
AcDbEntity
  8
PV
  6
CENTER
 62
     1
100
AcDbLine
 10
728.3829692823626
 20
261.8238382684717
 30
0.0
 11
728.3829692823626
 21
223.4603807397959
 31
0.0
  0
CIRCLE
  5
A19
330
18
100
AcDbEntity
  8
L-ZISSEN
100
AcDbCircle
 10
490.3829692823626
 20
282.4603197397959
 30
0.0
 40
25.5
  0
LINE
  5
A1B
330
18
100
AcDbEntity
  8
L-ZISSEN
100
AcDbLine
 10
289.9732212823627
 20
256.9603197397959
 30
0.006134
 11
289.9732212823627
 21
307.9603197397959
 31
0.006134
  0
LINE
  5
A1C
330
18
100
AcDbEntity
  8
L-ZISSEN
100
AcDbLine
 10
289.9732212823627
 20
307.9603197397959
 30
0.006134
 11
262.9732212823627
 21
307.9603197397959
 31
0.006134
  0
LINE
  5
A1D
330
18
100
AcDbEntity
  8
L-ZISSEN
100
AcDbLine
 10
262.9732212823627
 20
307.9603197397959
 30
0.006134
 11
262.9732212823627
 21
256.9603197397959
 31
0.006134
  0
LINE
  5
A1E
330
18
100
AcDbEntity
  8
L-ZISSEN
100
AcDbLine
 10
262.9732212823627
 20
256.9603197397959
 30
0.006134
 11
289.9732212823627
 21
256.9603197397959
 31
0.006134
  0
LINE
  5
A20
330
18
100
AcDbEntity
  8
L-ZISSEN
100
AcDbLine
 10
262.9732212823627
 20
289.4603197397959
 30
0.006134
 11
249.9732212823627
 21
289.4603197397959
 31
0.006134
  0
LINE
  5
A22
330
18
100
AcDbEntity
  8
L-ZISSEN
100
AcDbLine
 10
249.9732212823627
 20
275.4603197397959
 30
0.006134
 11
262.9732212823627
 21
275.4603197397959
 31
0.006134
  0
LINE
  5
A24
330
18
100
AcDbEntity
  8
L-ZISSEN
100
AcDbLine
 10
464.8829692823627
 20
494.0453807397959
 30
0.0
 11
515.8829692823626
 21
494.0453807397959
 31
0.0
  0
LINE
  5
A25
330
18
100
AcDbEntity
  8
L-ZISSEN
100
AcDbLine
 10
515.8829692823626
 20
494.0453807397959
 30
0.0
 11
515.8829692823626
 21
521.045380739796
 31
0.0
  0
LINE
  5
A26
330
18
100
AcDbEntity
  8
L-ZISSEN
100
AcDbLine
 10
515.8829692823626
 20
521.045380739796
 30
0.0
 11
464.8829692823627
 21
521.045380739796
 31
0.0
  0
LINE
  5
A27
330
18
100
AcDbEntity
  8
L-ZISSEN
100
AcDbLine
 10
497.3829692823627
 20
521.045380739796
 30
0.0
 11
497.3829692823627
 21
534.045380739796
 31
0.0
  0
LINE
  5
A28
330
18
100
AcDbEntity
  8
L-ZISSEN
100
AcDbLine
 10
464.8829692823627
 20
521.045380739796
 30
0.0
 11
464.8829692823627
 21
494.0453807397959
 31
0.0
  0
LINE
  5
A29
330
18
100
AcDbEntity
  8
L-ZISSEN
100
AcDbLine
 10
483.3829692823626
 20
521.045380739796
 30
0.0
 11
483.3829692823626
 21
534.045380739796
 31
0.0
  0
LINE
  5
A2C
330
18
100
AcDbEntity
  8
PV
 62
     7
100
AcDbLine
 10
498.1199692823625
 20
270.0533197397959
 30
0.0
 11
479.799320272162
 21
299.430481012715
 31
0.0
  0
LINE
  5
A2E
330
18
100
AcDbEntity
  8
L-ZISSEN
100
AcDbLine
 10
199.3593292823625
 20
513.499988739796
 30
0.0
 11
206.430397094228
 21
520.5710565516613
 31
0.0
  0
LINE
  5
A2F
330
18
100
AcDbEntity
  8
L-ZISSEN
100
AcDbLine
 10
206.430397094228
 20
520.5710565516613
 30
0.0
 11
216.430397094228
 21
520.5710565516613
 31
0.0
  0
LINE
  5
A30
330
18
100
AcDbEntity
  8
L-ZISSEN
100
AcDbLine
 10
216.430397094228
 20
520.5710565516613
 30
0.0
 11
216.430397094228
 21
515.4999887397959
 31
0.0
  0
ARC
  5
A31
330
18
100
AcDbEntity
  8
L-ZISSEN
100
AcDbCircle
 10
216.430397094228
 20
513.499988739796
 30
0.0
 40
2.0
100
AcDbArc
 50
270.0
 51
90.0
  0
CIRCLE
  5
A32
330
18
100
AcDbEntity
  8
L-ZISSEN
100
AcDbCircle
 10
216.430397094228
 20
477.6175415516614
 30
0.0
 40
7.953514999999999
  0
SOLID
  5
A33
330
18
100
AcDbEntity
  8
L-ZISSEN
100
AcDbTrace
 10
214.659127094228
 20
478.5184415516614
 30
0.0
 11
215.796823094228
 21
479.4960135516615
 31
0.0
 12
212.295260094228
 22
482.4203165516614
 32
0.0
 13
212.295260094228
 23
482.4203165516614
 33
0.0
  0
LINE
  5
A34
330
18
100
AcDbEntity
  8
L-ZISSEN
100
AcDbLine
 10
215.2279750942279
 20
479.0072275516614
 30
0.0
 11
219.5962540942279
 21
473.9234305516615
 31
0.0
  0
LINE
  5
A36
330
18
100
AcDbEntity
  8
L-ZISSEN
100
AcDbLine
 10
216.430397094228
 20
511.4999887397959
 30
0.0
 11
216.430397094228
 21
485.5710565516614
 31
0.0
  0
LINE
  5
A3C
330
18
100
AcDbEntity
  8
L-ZISSEN
100
AcDbLine
 10
653.3829692823625
 20
478.5453807397959
 30
0.0
 11
653.3829692823625
 21
491.5453807397959
 31
0.0
  0
LINE
  5
A3D
330
18
100
AcDbEntity
  8
L-ZISSEN
100
AcDbLine
 10
619.3829692823625
 20
478.5453807397959
 30
0.0
 11
619.3829692823625
 21
491.5453807397959
 31
0.0
  0
LINE
  5
A49
330
18
100
AcDbEntity
  8
PV
  6
CENTER
 62
     1
100
AcDbLine
 10
554.8829692823625
 20
611.5453807397959
 30
0.0
 11
604.8829692823625
 21
611.5453807397959
 31
0.0
  0
INSERT
  5
A4C
330
18
100
AcDbEntity
  8
L-ZISSEN
100
AcDbBlockReference
  2
_OPEN
 10
573.7826893673731
 20
618.9579771107566
 30
0.0
 41
4.5
 42
4.5
 43
4.5
 50
299.342801034322
  0
LINE
  5
A4D
330
18
100
AcDbEntity
  8
L-ZISSEN
100
AcDbLine
 10
571.5775374139247
 20
622.8806426410053
 30
0.0
 11
546.8044538327849
 21
666.948590380274
 31
0.0
  0
INSERT
  5
A4E
330
18
100
AcDbEntity
  8
L-ZISSEN
100
AcDbBlockReference
  2
_OPEN
 10
450.3829692823625
 20
279.9603807397959
 30
0.0
 41
4.5
 42
4.5
 43
4.5
 50
315.0
  0
LINE
  5
A4F
330
18
100
AcDbEntity
  8
L-ZISSEN
100
AcDbLine
 10
447.2009887670231
 20
283.1423612551353
 30
0.0
 11
415.0276302823625
 21
315.3157197397959
 31
0.0
  0
LINE
  5
A50
330
18
100
AcDbEntity
  8
L-ZISSEN
100
AcDbLine
 10
413.7294352823625
 20
500.054980739796
 30
0.0
 11
409.9064232823626
 21
502.2621977397959
 31
0.0
  0
LINE
  5
A52
330
18
100
AcDbEntity
  8
L-ZISSEN
100
AcDbLine
 10
409.9064232823626
 20
497.8477637397959
 30
0.0
 11
413.7294352823625
 21
500.054980739796
 31
0.0
  0
LINE
  5
A53
330
18
100
AcDbEntity
  8
L-ZISSEN
100
AcDbLine
 10
425.7583647823626
 20
454.2365107397959
 30
0.0
 11
430.1727987823626
 21
461.8825357397959
 31
0.0
  0
LINE
  5
A54
330
18
100
AcDbEntity
  8
L-ZISSEN
100
AcDbLine
 10
421.3439297823625
 20
461.8825357397959
 30
0.0
 11
425.7583647823626
 21
454.2365107397959
 31
0.0
  0
LINE
  5
A55
330
18
100
AcDbEntity
  8
L-ZISSEN
100
AcDbLine
 10
430.1727987823626
 20
461.8825357397959
 30
0.0
 11
421.3439297823625
 21
461.8825357397959
 31
0.0
  0
LINE
  5
A56
330
18
100
AcDbEntity
  8
L-HASEN
100
AcDbLine
 10
145.8631172823625
 20
508.9179097397958
 30
0.0
 11
145.8631172823625
 21
524.2348387397959
 31
0.0
  0
LINE
  5
A57
330
18
100
AcDbEntity
  8
L-ZISSEN
100
AcDbLine
 10
120.1716622823626
 20
513.543383739796
 30
0.0
 11
112.5256372823626
 21
517.9578177397959
 31
0.0
  0
LINE
  5
A58
330
18
100
AcDbEntity
  8
L-ZISSEN
100
AcDbLine
 10
112.5256372823626
 20
509.1289487397959
 30
0.0
 11
120.1716622823626
 21
513.543383739796
 31
0.0
  0
LINE
  5
A59
330
18
100
AcDbEntity
  8
L-ZISSEN
100
AcDbLine
 10
112.5256372823626
 20
517.9578177397959
 30
0.0
 11
112.5256372823626
 21
509.1289487397959
 31
0.0
  0
LINE
  5
A65
330
18
100
AcDbEntity
  8
L-ZISSEN
100
AcDbLine
 10
570.8829692823625
 20
121.9603807397959
 30
0.0
 11
570.8829692823625
 21
122.9603807397959
 31
0.0
  0
LINE
  5
A66
330
18
100
AcDbEntity
  8
L-ZISSEN
100
AcDbLine
 10
570.8829692823625
 20
122.9603807397959
 30
0.0
 11
705.1225140294443
 21
122.9603807397959
 31
0.0
  0
LINE
  5
A67
330
18
100
AcDbEntity
  8
L-ZISSEN
100
AcDbLine
 10
570.8829692823625
 20
122.9603807397959
 30
0.0
 11
552.6434245352809
 21
122.9603807397959
 31
0.0
  0
LINE
  5
A68
330
18
100
AcDbEntity
  8
L-ZISSEN
100
AcDbLine
 10
570.8829692823625
 20
122.9603807397959
 30
0.0
 11
570.8829692823625
 21
114.9603807397959
 31
0.0
  0
LINE
  5
A69
330
18
100
AcDbEntity
  8
L-ZISSEN
100
AcDbLine
 10
570.8829692823625
 20
114.9603807397959
 30
0.0
 11
586.8829692823624
 21
114.9603807397959
 31
0.0
  0
LINE
  5
A6A
330
18
100
AcDbEntity
  8
L-ZISSEN
100
AcDbLine
 10
586.8829692823624
 20
114.9603807397959
 30
0.0
 11
586.8829692823624
 21
122.9603807397959
 31
0.0
  0
LINE
  5
A6B
330
18
100
AcDbEntity
  8
L-ZISSEN
100
AcDbLine
 10
670.8829692823625
 20
121.9603807397959
 30
0.0
 11
670.8829692823623
 21
122.9603807397959
 31
0.0
  0
LINE
  5
A6C
330
18
100
AcDbEntity
  8
L-ZISSEN
100
AcDbLine
 10
670.8829692823625
 20
122.9603807397959
 30
0.0
 11
670.8829692823625
 21
114.9603807397959
 31
0.0
  0
LINE
  5
A6D
330
18
100
AcDbEntity
  8
L-ZISSEN
100
AcDbLine
 10
670.8829692823625
 20
114.9603807397959
 30
0.0
 11
686.8829692823624
 21
114.9603807397959
 31
0.0
  0
LINE
  5
A6E
330
18
100
AcDbEntity
  8
L-ZISSEN
100
AcDbLine
 10
686.8829692823624
 20
114.9603807397959
 30
0.0
 11
686.8829692823624
 21
122.9603807397959
 31
0.0
  0
LINE
  5
A6F
330
18
100
AcDbEntity
  8
L-ZISSEN
100
AcDbLine
 10
620.8829692823625
 20
121.9603807397959
 30
0.0
 11
620.8829692823625
 21
122.9603807397959
 31
0.0
  0
LINE
  5
A70
330
18
100
AcDbEntity
  8
L-ZISSEN
100
AcDbLine
 10
636.8829692823624
 20
121.9603807397959
 30
0.0
 11
636.8829692823624
 21
122.9603807397959
 31
0.0
  0
LINE
  5
A71
330
18
100
AcDbEntity
  8
L-ZISSEN
100
AcDbLine
 10
173.3659692823625
 20
121.9603807397959
 30
0.0
 11
173.3659692823625
 21
122.9603807397959
 31
0.0
  0
LINE
  5
A72
330
18
100
AcDbEntity
  8
L-ZISSEN
100
AcDbLine
 10
173.3659692823625
 20
122.9603807397959
 30
0.0
 11
203.3659592823625
 21
122.9603807397959
 31
0.0
  0
LINE
  5
A73
330
18
100
AcDbEntity
  8
L-ZISSEN
100
AcDbLine
 10
173.3659692823625
 20
122.9603807397959
 30
0.0
 11
162.1264245352809
 21
122.9603807397959
 31
0.0
  0
LINE
  5
A74
330
18
100
AcDbEntity
  8
L-ZISSEN
100
AcDbLine
 10
173.3659692823625
 20
122.9603807397959
 30
0.0
 11
173.3659692823625
 21
114.9603807397959
 31
0.0
  0
LINE
  5
A75
330
18
100
AcDbEntity
  8
L-ZISSEN
100
AcDbLine
 10
173.3659692823625
 20
114.9603807397959
 30
0.0
 11
189.3659692823625
 21
114.9603807397959
 31
0.0
  0
LINE
  5
A76
330
18
100
AcDbEntity
  8
L-ZISSEN
100
AcDbLine
 10
189.3659692823625
 20
114.9603807397959
 30
0.0
 11
189.3659692823625
 21
122.9603807397959
 31
0.0
  0
LINE
  5
A77
330
18
100
AcDbEntity
  8
L-ZISSEN
100
AcDbLine
 10
236.3659692823625
 20
121.9603807397959
 30
0.0
 11
236.3659692823625
 21
122.9603807397959
 31
0.0
  0
LINE
  5
A78
330
18
100
AcDbEntity
  8
L-ZISSEN
100
AcDbLine
 10
236.3659692823625
 20
122.9603807397959
 30
0.0
 11
236.3659692823625
 21
114.9603807397959
 31
0.0
  0
LINE
  5
A79
330
18
100
AcDbEntity
  8
L-ZISSEN
100
AcDbLine
 10
236.3659692823625
 20
114.9603807397959
 30
0.0
 11
252.3659692823625
 21
114.9603807397959
 31
0.0
  0
LINE
  5
A7A
330
18
100
AcDbEntity
  8
L-ZISSEN
100
AcDbLine
 10
252.3659692823625
 20
114.9603807397959
 30
0.0
 11
252.3659692823625
 21
122.9603807397959
 31
0.0
  0
LINE
  5
A7B
330
18
100
AcDbEntity
  8
L-ZISSEN
100
AcDbLine
 10
222.3659592823626
 20
122.9603807397959
 30
0.0
 11
263.6055140294442
 21
122.9603807397959
 31
0.0
  0
LINE
  5
A7C
330
18
100
AcDbEntity
  8
L-TYUSIN
100
AcDbLine
 10
687.8829692823625
 20
344.4603807397959
 30
0.0
 11
687.8829692823625
 21
345.9603807397959
 31
0.0
  0
LINE
  5
A7D
330
18
100
AcDbEntity
  8
L-TYUSIN
100
AcDbLine
 10
687.8829692823625
 20
345.9603807397959
 30
0.0
 11
712.6302015317787
 21
345.9603807397959
 31
0.0
  0
LINE
  5
A7E
330
18
100
AcDbEntity
  8
L-TYUSIN
100
AcDbLine
 10
687.8829692823625
 20
345.9603807397959
 30
0.0
 11
681.011660658693
 21
345.9603807397959
 31
0.0
  0
LINE
  5
A80
330
18
100
AcDbEntity
  8
L-TYUSIN
100
AcDbLine
 10
687.8829692823625
 20
345.9603807397959
 30
0.0
 11
687.8829692823625
 21
349.9603807397959
 31
0.0
  0
LINE
  5
A82
330
18
100
AcDbEntity
  8
L-HASEN
100
AcDbLine
 10
687.8829692823625
 20
349.9603807397959
 30
0.0
 11
707.8829692823624
 21
349.9603807397959
 31
0.0
  0
ARC
  5
A83
330
18
100
AcDbEntity
  8
L-HASEN
100
AcDbCircle
 10
687.8829692823625
 20
345.9603807397959
 30
0.0
 40
4.0
100
AcDbArc
 50
90.0
 51
270.0
  0
ARC
  5
A84
330
18
100
AcDbEntity
  8
L-HASEN
100
AcDbCircle
 10
707.8829692823624
 20
345.9603807397959
 30
0.0
 40
4.0
100
AcDbArc
 50
270.0
 51
90.0
  0
LINE
  5
A85
330
18
100
AcDbEntity
  8
L-TYUSIN
100
AcDbLine
 10
697.8829692823625
 20
354.4603807397959
 30
0.0
 11
697.8829692823625
 21
355.9603807397959
 31
0.0
  0
LINE
  5
A87
330
18
100
AcDbEntity
  8
L-HASEN
100
AcDbLine
 10
697.8829692823625
 20
355.9603807397959
 30
0.0
 11
682.8829692823624
 21
355.9603807397958
 31
0.0
  0
LINE
  5
A88
330
18
100
AcDbEntity
  8
L-HASEN
100
AcDbLine
 10
679.8829692823625
 20
351.4603807397959
 30
0.0
 11
679.8829692823625
 21
352.9603807397958
 31
0.0
  0
LINE
  5
A89
330
18
100
AcDbEntity
  8
L-HASEN
100
AcDbLine
 10
679.8829692823625
 20
351.4603807397959
 30
0.0
 11
679.8829692823625
 21
319.2836610446909
 31
0.0
  0
LINE
  5
A8A
330
18
100
AcDbEntity
  8
L-HASEN
100
AcDbLine
 10
715.8829692823625
 20
351.4603807397959
 30
0.0
 11
715.8829692823625
 21
352.9603807397959
 31
0.0
  0
LINE
  5
A8B
330
18
100
AcDbEntity
  8
L-HASEN
100
AcDbLine
 10
715.8829692823626
 20
352.9603807397959
 30
0.0
 11
715.8829692823625
 21
318.2641795370928
 31
0.0
  0
LINE
  5
A8C
330
18
100
AcDbEntity
  8
L-HASEN
100
AcDbLine
 10
697.8829692823625
 20
355.9603807397959
 30
0.0
 11
712.8829692823626
 21
355.960380739796
 31
0.0
  0
LINE
  5
A8E
330
18
100
AcDbEntity
  8
L-HASEN
100
AcDbLine
 10
682.8829692823624
 20
355.9603807397958
 30
0.0
 11
679.8829692823625
 21
352.9603807397958
 31
0.0
  0
LINE
  5
A8F
330
18
100
AcDbEntity
  8
L-HASEN
100
AcDbLine
 10
712.8829692823626
 20
355.960380739796
 30
0.0
 11
715.8829692823626
 21
352.9603807397959
 31
0.0
  0
ARC
  5
A95
330
18
100
AcDbEntity
  8
L-ZISSEN
100
AcDbCircle
 10
585.8829692823625
 20
345.9603807397959
 30
0.0
 40
4.0
100
AcDbArc
 50
90.0
 51
172.8192442185416
  0
ARC
  5
A96
330
18
100
AcDbEntity
  8
L-ZISSEN
100
AcDbCircle
 10
605.8829692823625
 20
345.9603807397959
 30
0.0
 40
4.0
100
AcDbArc
 50
270.0
 51
90.0
  0
LINE
  5
A97
330
18
100
AcDbEntity
  8
L-ZISSEN
100
AcDbLine
 10
585.8829692823625
 20
349.9603807397959
 30
0.0
 11
605.8829692823625
 21
349.960380739796
 31
0.0
  0
LINE
  5
A98
330
18
100
AcDbEntity
  8
L-ZISSEN
100
AcDbLine
 10
586.8829692823626
 20
341.9603807397959
 30
0.0
 11
605.8829692823624
 21
341.9603807397959
 31
0.0
  0
LINE
  5
A9A
330
18
100
AcDbEntity
  8
L-ZISSEN
100
AcDbLine
 10
613.8829692823625
 20
351.4603807397959
 30
0.0
 11
613.8829692823624
 21
352.9603807397959
 31
0.0
  0
LINE
  5
A9B
330
18
100
AcDbEntity
  8
L-TYUSIN
100
AcDbLine
 10
595.8829692823625
 20
354.4603807397959
 30
0.0
 11
595.8829692823625
 21
355.9603807397959
 31
0.0
  0
LINE
  5
A9D
330
18
100
AcDbEntity
  8
L-ZISSEN
100
AcDbLine
 10
595.8829692823625
 20
355.9603807397959
 30
0.0
 11
580.8829692823624
 21
355.9603807397959
 31
0.0
  0
LINE
  5
A9E
330
18
100
AcDbEntity
  8
L-ZISSEN
100
AcDbLine
 10
595.8829692823625
 20
355.9603807397959
 30
0.0
 11
610.8829692823625
 21
355.9603807397959
 31
0.0
  0
LINE
  5
AA0
330
18
100
AcDbEntity
  8
L-ZISSEN
100
AcDbLine
 10
613.8829692823625
 20
352.9603807397959
 30
0.0
 11
610.8829692823625
 21
355.9603807397959
 31
0.0
  0
LINE
  5
AA1
330
18
100
AcDbEntity
  8
L-TYUSIN
100
AcDbLine
 10
615.8521393160063
 20
345.9603807397959
 30
0.0
 11
579.370335531888
 21
345.9603807397959
 31
0.0
  0
LINE
  5
AA2
330
18
100
AcDbEntity
  8
L-ZISSEN
100
AcDbLine
 10
140.8659692823625
 20
354.4603807397959
 30
0.0
 11
140.8659692823625
 21
355.9603807397959
 31
0.0
  0
LINE
  5
AA3
330
18
100
AcDbEntity
  8
L-ZISSEN
100
AcDbLine
 10
140.8659692823625
 20
355.9603807397959
 30
0.0
 11
143.1659692823625
 21
355.9603807397959
 31
0.0
  0
LINE
  5
AA4
330
18
100
AcDbEntity
  8
L-ZISSEN
100
AcDbLine
 10
143.1659692823625
 20
354.4603807397959
 30
0.0
 11
143.1659692823625
 21
355.9603807397959
 31
0.0
  0
LINE
  5
AA5
330
18
100
AcDbEntity
  8
L-ZISSEN
100
AcDbLine
 10
140.8659692823625
 20
344.4603807397959
 30
0.0
 11
140.8659692823625
 21
345.9603807397959
 31
0.0
  0
LINE
  5
AA7
330
18
100
AcDbEntity
  8
L-TYUSIN
100
AcDbLine
 10
140.8659692823625
 20
345.9603807397959
 30
0.0
 11
152.5548138246408
 21
345.9603807397959
 31
0.0
  0
LINE
  5
AA8
330
18
100
AcDbEntity
  8
L-TYUSIN
100
AcDbLine
 10
140.8659692823625
 20
345.9603807397959
 30
0.0
 11
132.2544566671385
 21
345.9603807397959
 31
0.0
  0
LINE
  5
AC2
330
18
100
AcDbEntity
  8
L-ZISSEN
100
AcDbLine
 10
262.3659692823625
 20
318.4603807397959
 30
0.0
 11
250.3659692823625
 21
318.4603807397959
 31
0.006134
  0
LINE
  5
AC3
330
18
100
AcDbEntity
  8
L-ZISSEN
100
AcDbLine
 10
572.8829692823625
 20
358.6603807397959
 30
0.0
 11
572.8829692823625
 21
346.4603807397959
 31
0.0
  0
LINE
  5
AC4
330
18
100
AcDbEntity
  8
L-ZISSEN
100
AcDbLine
 10
580.8829692823625
 20
358.6603807397959
 30
0.0
 11
580.8829692823625
 21
346.4603807397959
 31
0.0
  0
LINE
  5
AC7
330
18
100
AcDbEntity
  8
L-ZISSEN
100
AcDbLine
 10
555.8829692823624
 20
318.460380739796
 30
0.0
 11
555.8829692823624
 21
306.4603807397959
 31
0.0
  0
LINE
  5
AC8
330
18
100
AcDbEntity
  8
L-ZISSEN
100
AcDbLine
 10
555.8829692823624
 20
318.460380739796
 30
0.0
 11
602.8829692823624
 21
318.460380739796
 31
0.0
  0
LINE
  5
AC9
330
18
100
AcDbEntity
  8
PV
 62
     7
100
AcDbLine
 10
313.9489692823625
 20
336.3353807397959
 30
0.0
 11
313.9489692823625
 21
331.5863807397959
 31
0.0
  0
LINE
  5
ACA
330
18
100
AcDbEntity
  8
PV
 62
     7
100
AcDbLine
 10
297.7829692823624
 20
336.3353807397959
 30
0.0
 11
297.7829692823624
 21
331.5863807397959
 31
0.0
  0
LINE
  5
ACB
330
18
100
AcDbEntity
  8
PV
 62
     7
100
AcDbLine
 10
298.8659692823625
 20
330.9603807397959
 30
0.0
 11
312.8659692823625
 21
330.9603807397959
 31
0.0
  0
LINE
  5
ACC
330
18
100
AcDbEntity
  8
PV
 62
     7
100
AcDbLine
 10
298.8659692823625
 20
330.9603807397959
 30
0.0
 11
297.7829692823624
 21
331.5863807397959
 31
0.0
  0
LINE
  5
ACD
330
18
100
AcDbEntity
  8
PV
 62
     7
100
AcDbLine
 10
312.8659692823625
 20
330.9603807397959
 30
0.0
 11
313.9489692823625
 21
331.5863807397959
 31
0.0
  0
LINE
  5
ACE
330
18
100
AcDbEntity
  8
PV
 62
     7
100
AcDbLine
 10
309.4799692823625
 20
338.3713807397959
 30
0.0
 11
310.8659692823625
 21
337.5713807397959
 31
0.0
  0
LINE
  5
ACF
330
18
100
AcDbEntity
  8
PV
 62
     7
100
AcDbLine
 10
298.8659692823625
 20
336.9603807397959
 30
0.0
 11
312.8659692823625
 21
336.9603807397959
 31
0.0
  0
LINE
  5
AD0
330
18
100
AcDbEntity
  8
PV
 62
     7
100
AcDbLine
 10
302.2519692823625
 20
338.3713807397959
 30
0.0
 11
300.8659692823625
 21
337.5713807397959
 31
0.0
  0
LINE
  5
AD1
330
18
100
AcDbEntity
  8
PV
 62
     7
100
AcDbLine
 10
300.8659692823625
 20
336.9603807397959
 30
0.0
 11
300.8659692823625
 21
337.5713807397959
 31
0.0
  0
LINE
  5
AD2
330
18
100
AcDbEntity
  8
PV
 62
     7
100
AcDbLine
 10
298.8659692823625
 20
336.9603807397959
 30
0.0
 11
297.7829692823624
 21
336.3353807397959
 31
0.0
  0
LINE
  5
AD3
330
18
100
AcDbEntity
  8
PV
 62
     7
100
AcDbLine
 10
302.2519692823625
 20
338.3713807397959
 30
0.0
 11
309.4799692823625
 21
338.3713807397959
 31
0.0
  0
LINE
  5
AD4
330
18
100
AcDbEntity
  8
PV
 62
     7
100
AcDbLine
 10
312.8659692823625
 20
336.9603807397959
 30
0.0
 11
313.9489692823625
 21
336.3353807397959
 31
0.0
  0
LINE
  5
AD5
330
18
100
AcDbEntity
  8
PV
 62
     7
100
AcDbLine
 10
310.8659692823625
 20
336.9603807397959
 30
0.0
 11
310.8659692823625
 21
337.5713807397959
 31
0.0
  0
LWPOLYLINE
  5
AD6
330
18
100
AcDbEntity
  8
L-ZISSEN
100
AcDbPolyline
 90
        6
 70
     1
 43
0.0
 10
636.3829692823624
 20
470.4624769711411
 10
643.3829692823625
 20
474.5039288554685
 10
643.3829692823625
 20
482.5868326241232
 10
636.3829692823626
 20
486.6282845084506
 10
629.3829692823625
 20
482.5868326241233
 10
629.3829692823623
 20
474.5039288554686
  0
ENDSEC
  0
SECTION
  2
OBJECTS
  0
DICTIONARY
  5
C
330
0
100
AcDbDictionary
  3
ACAD_GROUP
350
D
  3
ACAD_LAYOUT
350
ABB
  3
ACAD_MLINESTYLE
350
E
  3
ACAD_PLOTSETTINGS
350
ABC
  3
ACAD_PLOTSTYLENAME
350
AB9
  3
ACDBHEADERROUNDTRIPXREC
350
B45
  0
DICTIONARY
  5
AFE
330
18
100
AcDbDictionary
280
     1
  3
ACAD_LAYOUTSELFREF
360
B67
  0
DICTIONARY
  5
AFC
330
15
100
AcDbDictionary
280
     1
  3
ACAD_LAYOUTSELFREF
360
B66
  0
DICTIONARY
  5
D
102
{ACAD_REACTORS
330
C
102
}
330
0
100
AcDbDictionary
  0
DICTIONARY
  5
ABB
102
{ACAD_REACTORS
330
C
102
}
330
C
100
AcDbDictionary
  0
DICTIONARY
  5
E
102
{ACAD_REACTORS
330
C
102
}
330
0
100
AcDbDictionary
  3
STANDARD
350
1B
  0
DICTIONARY
  5
ABC
102
{ACAD_REACTORS
330
C
102
}
330
C
100
AcDbDictionary
  0
ACDBDICTIONARYWDFLT
  5
AB9
102
{ACAD_REACTORS
330
C
102
}
330
C
100
AcDbDictionary
281
     1
  3
Normal
350
ABA
100
AcDbDictionaryWithDefault
340
ABA
1001
ACAD
1000
TREAT_AS_HARD
1070
     0
1000
TREAT_AS_HARD
1070
     0
  0
DICTIONARY
  5
B45
102
{ACAD_REACTORS
330
C
102
}
330
C
100
AcDbDictionary
  3
CEPSNTYPE
350
B4F
  3
DIMSTYLEDATA
350
B53
  3
FINGERPRINTGUID
350
B50
  3
HYPERLINKBASE
350
B48
  3
INSUNITS
350
B4E
  3
LAYOUTDICT
350
B4A
  3
LWETCUNION
350
B4D
  3
PLOTSETDICT
350
B4B
  3
PLOTSTYLNAMDICT
350
B4C
  3
PSVPSCALE
350
B52
  3
PUCSBASE
350
B56
  3
PUCSORGBACK
350
B5C
  3
PUCSORGBOTTOM
350
B58
  3
PUCSORGFRONT
350
B5B
  3
PUCSORGLEFT
350
B59
  3
PUCSORGRIGHT
350
B5A
  3
PUCSORGTOP
350
B57
  3
PUCSORTHOREF
350
B54
  3
PUCSORTHOVIEW
350
B55
  3
STYLESHEET
350
B49
  3
TSTACKALIGN
350
B46
  3
TSTACKSIZE
350
B47
  3
UCSBASE
350
B5F
  3
UCSORGBACK
350
B65
  3
UCSORGBOTTOM
350
B61
  3
UCSORGFRONT
350
B64
  3
UCSORGLEFT
350
B62
  3
UCSORGRIGHT
350
B63
  3
UCSORGTOP
350
B60
  3
UCSORTHOREF
350
B5D
  3
UCSORTHOVIEW
350
B5E
  3
VERSIONGUID
350
B51
  0
XRECORD
  5
B67
102
{ACAD_REACTORS
330
AFE
102
}
330
AFE
100
AcDbXrecord
340
18
  0
XRECORD
  5
B66
102
{ACAD_REACTORS
330
AFC
102
}
330
AFC
100
AcDbXrecord
340
15
  0
MLINESTYLE
  5
1B
102
{ACAD_REACTORS
330
E
102
}
330
0
100
AcDbMlineStyle
  2
STANDARD
 70
     0
  3

 62
     0
 51
90.0
 52
90.0
 71
     2
 49
0.5
 62
   256
  6
BYLAYER
 49
-0.5
 62
   256
  6
BYLAYER
  0
ACDBPLACEHOLDER
  5
ABA
102
{ACAD_REACTORS
330
AB9
102
}
330
AB9
100
AcDbPlaceHolder
280
     0
  0
XRECORD
  5
B4F
102
{ACAD_REACTORS
330
B45
102
}
330
B45
100
AcDbXrecord
 90
        0
  0
XRECORD
  5
B53
102
{ACAD_REACTORS
330
B45
102
}
330
B45
100
AcDbXrecord
1000
DSTYLE
1002
{
1070
   341
340
23C
1070
   343
340
23C
1070
   344
340
23C
1002
}
  0
XRECORD
  5
B50
102
{ACAD_REACTORS
330
B45
102
}
330
B45
100
AcDbXrecord
  1
{74F50920-B3B9-11D5-BC7E-00004C799CC5}
  0
XRECORD
  5
B48
102
{ACAD_REACTORS
330
B45
102
}
330
B45
100
AcDbXrecord
  1

  0
XRECORD
  5
B4E
102
{ACAD_REACTORS
330
B45
102
}
330
B45
100
AcDbXrecord
 90
        0
  0
XRECORD
  5
B4A
102
{ACAD_REACTORS
330
B45
102
}
330
B45
100
AcDbXrecord
340
ABB
  0
XRECORD
  5
B4D
102
{ACAD_REACTORS
330
B45
102
}
330
B45
100
AcDbXrecord
 90
    14877
  0
XRECORD
  5
B4B
102
{ACAD_REACTORS
330
B45
102
}
330
B45
100
AcDbXrecord
340
ABC
  0
XRECORD
  5
B4C
102
{ACAD_REACTORS
330
B45
102
}
330
B45
100
AcDbXrecord
340
AB9
  0
XRECORD
  5
B52
102
{ACAD_REACTORS
330
B45
102
}
330
B45
100
AcDbXrecord
 40
0.0
  0
XRECORD
  5
B56
102
{ACAD_REACTORS
330
B45
102
}
330
B45
100
AcDbXrecord
340
0
  0
XRECORD
  5
B5C
102
{ACAD_REACTORS
330
B45
102
}
330
B45
100
AcDbXrecord
 10
0.0
 20
0.0
 30
0.0
  0
XRECORD
  5
B58
102
{ACAD_REACTORS
330
B45
102
}
330
B45
100
AcDbXrecord
 10
0.0
 20
0.0
 30
0.0
  0
XRECORD
  5
B5B
102
{ACAD_REACTORS
330
B45
102
}
330
B45
100
AcDbXrecord
 10
0.0
 20
0.0
 30
0.0
  0
XRECORD
  5
B59
102
{ACAD_REACTORS
330
B45
102
}
330
B45
100
AcDbXrecord
 10
0.0
 20
0.0
 30
0.0
  0
XRECORD
  5
B5A
102
{ACAD_REACTORS
330
B45
102
}
330
B45
100
AcDbXrecord
 10
0.0
 20
0.0
 30
0.0
  0
XRECORD
  5
B57
102
{ACAD_REACTORS
330
B45
102
}
330
B45
100
AcDbXrecord
 10
0.0
 20
0.0
 30
0.0
  0
XRECORD
  5
B54
102
{ACAD_REACTORS
330
B45
102
}
330
B45
100
AcDbXrecord
340
0
  0
XRECORD
  5
B55
102
{ACAD_REACTORS
330
B45
102
}
330
B45
100
AcDbXrecord
 70
     0
  0
XRECORD
  5
B49
102
{ACAD_REACTORS
330
B45
102
}
330
B45
100
AcDbXrecord
  1

  0
XRECORD
  5
B46
102
{ACAD_REACTORS
330
B45
102
}
330
B45
100
AcDbXrecord
 90
        1
  0
XRECORD
  5
B47
102
{ACAD_REACTORS
330
B45
102
}
330
B45
100
AcDbXrecord
 90
       70
  0
XRECORD
  5
B5F
102
{ACAD_REACTORS
330
B45
102
}
330
B45
100
AcDbXrecord
340
0
  0
XRECORD
  5
B65
102
{ACAD_REACTORS
330
B45
102
}
330
B45
100
AcDbXrecord
 10
0.0
 20
0.0
 30
0.0
  0
XRECORD
  5
B61
102
{ACAD_REACTORS
330
B45
102
}
330
B45
100
AcDbXrecord
 10
0.0
 20
0.0
 30
0.0
  0
XRECORD
  5
B64
102
{ACAD_REACTORS
330
B45
102
}
330
B45
100
AcDbXrecord
 10
0.0
 20
0.0
 30
0.0
  0
XRECORD
  5
B62
102
{ACAD_REACTORS
330
B45
102
}
330
B45
100
AcDbXrecord
 10
0.0
 20
0.0
 30
0.0
  0
XRECORD
  5
B63
102
{ACAD_REACTORS
330
B45
102
}
330
B45
100
AcDbXrecord
 10
0.0
 20
0.0
 30
0.0
  0
XRECORD
  5
B60
102
{ACAD_REACTORS
330
B45
102
}
330
B45
100
AcDbXrecord
 10
0.0
 20
0.0
 30
0.0
  0
XRECORD
  5
B5D
102
{ACAD_REACTORS
330
B45
102
}
330
B45
100
AcDbXrecord
340
0
  0
XRECORD
  5
B5E
102
{ACAD_REACTORS
330
B45
102
}
330
B45
100
AcDbXrecord
 70
     0
  0
XRECORD
  5
B51
102
{ACAD_REACTORS
330
B45
102
}
330
B45
100
AcDbXrecord
  1
{91F30852-B3BA-11D5-BC7E-00004C799CC5}
  0
ENDSEC
  0
EOF
