  0
SECTION
  2
HEADER
  9
$ACADVER
  1
AC1012
  9
$DWGCODEPAGE
  3
dos932
  9
$INSBASE
 10
0.0
 20
0.0
 30
0.0
  9
$EXTMIN
 10
138.4729999999999
 20
114.0009991932415
 30
0.0
  9
$EXTMAX
 10
707.1130000000001
 20
667.591519744162
 30
0.0
  9
$LIMMIN
 10
0.0
 20
0.0
  9
$LIMMAX
 10
12.0
 20
9.0
  9
$ORTHOMODE
 70
     1
  9
$REGENMODE
 70
     1
  9
$FILLMODE
 70
     1
  9
$QTEXTMODE
 70
     0
  9
$MIRRTEXT
 70
     1
  9
$DRAGMODE
 70
     2
  9
$LTSCALE
 40
10.0
  9
$OSMODE
 70
   167
  9
$ATTMODE
 70
     1
  9
$TEXTSIZE
 40
4.5
  9
$TRACEWID
 40
0.05
  9
$TEXTSTYLE
  7
STANDARD
  9
$CLAYER
  8
L-ZISSEN
  9
$CELTYPE
  6
BYLAYER
  9
$CECOLOR
 62
   256
  9
$CELTSCALE
 40
1.0
  9
$DELOBJ
 70
     1
  9
$DISPSILH
 70
     0
  9
$DIMSCALE
 40
1.0
  9
$DIMASZ
 40
4.5
  9
$DIMEXO
 40
1.0
  9
$DIMDLI
 40
0.38
  9
$DIMRND
 40
0.0
  9
$DIMDLE
 40
0.0
  9
$DIMEXE
 40
1.0
  9
$DIMTP
 40
0.0
  9
$DIMTM
 40
0.0
  9
$DIMTXT
 40
4.5
  9
$DIMCEN
 40
0.09
  9
$DIMTSZ
 40
0.0
  9
$DIMTOL
 70
     0
  9
$DIMLIM
 70
     0
  9
$DIMTIH
 70
     1
  9
$DIMTOH
 70
     1
  9
$DIMSE1
 70
     0
  9
$DIMSE2
 70
     0
  9
$DIMTAD
 70
     0
  9
$DIMZIN
 70
     0
  9
$DIMBLK
  1

  9
$DIMASO
 70
     1
  9
$DIMSHO
 70
     0
  9
$DIMPOST
  1

  9
$DIMAPOST
  1

  9
$DIMALT
 70
     0
  9
$DIMALTD
 70
     2
  9
$DIMALTF
 40
25.4
  9
$DIMLFAC
 40
1.0
  9
$DIMTOFL
 70
     0
  9
$DIMTVP
 40
0.0
  9
$DIMTIX
 70
     0
  9
$DIMSOXD
 70
     0
  9
$DIMSAH
 70
     1
  9
$DIMBLK1
  1
OPEN
  9
$DIMBLK2
  1
OPEN
  9
$DIMSTYLE
  2
STANDARD
  9
$DIMCLRD
 70
     0
  9
$DIMCLRE
 70
     0
  9
$DIMCLRT
 70
     0
  9
$DIMTFAC
 40
1.0
  9
$DIMGAP
 40
1.0
  9
$DIMJUST
 70
     0
  9
$DIMSD1
 70
     0
  9
$DIMSD2
 70
     0
  9
$DIMTOLJ
 70
     1
  9
$DIMTZIN
 70
     0
  9
$DIMALTZ
 70
     0
  9
$DIMALTTZ
 70
     0
  9
$DIMFIT
 70
     3
  9
$DIMUPT
 70
     0
  9
$DIMUNIT
 70
     2
  9
$DIMDEC
 70
     4
  9
$DIMTDEC
 70
     4
  9
$DIMALTU
 70
     2
  9
$DIMALTTD
 70
     2
  9
$DIMTXSTY
  7
STANDARD
  9
$DIMAUNIT
 70
     0
  9
$LUNITS
 70
     2
  9
$LUPREC
 70
     4
  9
$SKETCHINC
 40
0.1
  9
$FILLETRAD
 40
0.0
  9
$AUNITS
 70
     0
  9
$AUPREC
 70
     0
  9
$MENU
  1
acad
  9
$ELEVATION
 40
0.0
  9
$PELEVATION
 40
0.0
  9
$THICKNESS
 40
0.0
  9
$LIMCHECK
 70
     0
  9
$BLIPMODE
 70
     0
  9
$CHAMFERA
 40
0.0
  9
$CHAMFERB
 40
0.0
  9
$CHAMFERC
 40
0.0
  9
$CHAMFERD
 40
0.0
  9
$SKPOLY
 70
     0
  9
$TDCREATE
 40
2450856.681758217
  9
$TDUPDATE
 40
2452181.498209594
  9
$TDINDWG
 40
0.0717906366
  9
$TDUSRTIMER
 40
0.0717906366
  9
$USRTIMER
 70
     1
  9
$ANGBASE
 50
0.0
  9
$ANGDIR
 70
     0
  9
$PDMODE
 70
     0
  9
$PDSIZE
 40
0.0
  9
$PLINEWID
 40
0.0
  9
$COORDS
 70
     1
  9
$SPLFRAME
 70
     0
  9
$SPLINETYPE
 70
     6
  9
$SPLINESEGS
 70
     8
  9
$ATTDIA
 70
     0
  9
$ATTREQ
 70
     1
  9
$HANDLING
 70
-16383
  9
$HANDSEED
  5
28F
  9
$SURFTAB1
 70
     6
  9
$SURFTAB2
 70
     6
  9
$SURFTYPE
 70
     6
  9
$SURFU
 70
     6
  9
$SURFV
 70
     6
  9
$UCSNAME
  2

  9
$UCSORG
 10
0.0
 20
0.0
 30
0.0
  9
$UCSXDIR
 10
1.0
 20
0.0
 30
0.0
  9
$UCSYDIR
 10
0.0
 20
1.0
 30
0.0
  9
$PUCSNAME
  2

  9
$PUCSORG
 10
0.0
 20
0.0
 30
0.0
  9
$PUCSXDIR
 10
1.0
 20
0.0
 30
0.0
  9
$PUCSYDIR
 10
0.0
 20
1.0
 30
0.0
  9
$USERI1
 70
     0
  9
$USERI2
 70
     0
  9
$USERI3
 70
     0
  9
$USERI4
 70
     0
  9
$USERI5
 70
     0
  9
$USERR1
 40
0.0
  9
$USERR2
 40
0.0
  9
$USERR3
 40
0.0
  9
$USERR4
 40
0.0
  9
$USERR5
 40
0.0
  9
$WORLDVIEW
 70
     1
  9
$SHADEDGE
 70
     3
  9
$SHADEDIF
 70
    70
  9
$TILEMODE
 70
     1
  9
$MAXACTVP
 70
    16
  9
$PINSBASE
 10
0.0
 20
0.0
 30
0.0
  9
$PLIMCHECK
 70
     0
  9
$PEXTMIN
 10
1.000000000000000E+20
 20
1.000000000000000E+20
 30
1.000000000000000E+20
  9
$PEXTMAX
 10
-1.000000000000000E+20
 20
-1.000000000000000E+20
 30
-1.000000000000000E+20
  9
$PLIMMIN
 10
0.0
 20
0.0
  9
$PLIMMAX
 10
12.0
 20
9.0
  9
$UNITMODE
 70
     0
  9
$VISRETAIN
 70
     0
  9
$PLINEGEN
 70
     0
  9
$PSLTSCALE
 70
     0
  9
$TREEDEPTH
 70
  3020
  9
$PICKSTYLE
 70
     1
  9
$CMLSTYLE
  2
STANDARD
  9
$CMLJUST
 70
     0
  9
$CMLSCALE
 40
1.0
  9
$SAVEIMAGES
 70
     1
  0
ENDSEC
  0
SECTION
  2
CLASSES
  0
CLASS
  1
ACDBDICTIONARYWDFLT
  2
AcDbDictionaryWithDefault
  3
AutoCAD 2000
 90
    32768
280
     0
281
     0
  0
CLASS
  1
ACDBPLACEHOLDER
  2
AcDbPlaceHolder
  3
AutoCAD 2000
 90
    32768
280
     0
281
     0
  0
CLASS
  1
LAYOUT
  2
AcDbLayout
  3
AutoCAD 2000
 90
    32768
280
     0
281
     0
  0
CLASS
  1
LONG_TRANSACTION
  2
AcDbLongTransaction
  3
AutoCAD 2000
 90
    32768
280
     0
281
     0
  0
CLASS
  1
LWPOLYLINE
  2
AcDbPolyline
  3
AutoCAD 2000
 90
    32768
280
     0
281
     1
  0
CLASS
  1
HATCH
  2
AcDbHatch
  3
AutoCAD 2000
 90
    32768
280
     0
281
     1
  0
CLASS
  1
XRECORD
  2
AcDbXrecord
  3
AutoCAD 2000
 90
    32768
280
     0
281
     0
  0
CLASS
  1
LONG_TRANSACTION
  2
AcDbLongTransaction
  3
AutoCAD 2000
 90
    32768
280
     0
281
     0
  0
CLASS
  1
LWPOLYLINE
  2
AcDbPolyline
  3
AutoCAD 2000
 90
    32768
280
     0
281
     1
  0
CLASS
  1
HATCH
  2
AcDbHatch
  3
AutoCAD 2000
 90
    32768
280
     0
281
     1
  0
CLASS
  1
XRECORD
  2
AcDbXrecord
  3
AutoCAD 2000
 90
    32768
280
     0
281
     0
  0
CLASS
  1
LONG_TRANSACTION
  2
AcDbLongTransaction
  3
AutoCAD 2000
 90
    32768
280
     0
281
     0
  0
CLASS
  1
LWPOLYLINE
  2
AcDbPolyline
  3
AutoCAD 2000
 90
    32768
280
     0
281
     1
  0
CLASS
  1
HATCH
  2
AcDbHatch
  3
AutoCAD 2000
 90
    32768
280
     0
281
     1
  0
CLASS
  1
XRECORD
  2
AcDbXrecord
  3
AutoCAD 2000
 90
    32768
280
     0
281
     0
  0
CLASS
  1
LONG_TRANSACTION
  2
AcDbLongTransaction
  3
AutoCAD 2000
 90
    32768
280
     0
281
     0
  0
CLASS
  1
LWPOLYLINE
  2
AcDbPolyline
  3
AutoCAD 2000
 90
    32768
280
     0
281
     1
  0
CLASS
  1
HATCH
  2
AcDbHatch
  3
AutoCAD 2000
 90
    32768
280
     0
281
     1
  0
CLASS
  1
XRECORD
  2
AcDbXrecord
  3
AutoCAD 2000
 90
    32768
280
     0
281
     0
  0
ENDSEC
  0
SECTION
  2
TABLES
  0
TABLE
  2
VPORT
  5
12
330
0
100
AcDbSymbolTable
 70
     2
  0
VPORT
  5
285
330
12
100
AcDbSymbolTableRecord
100
AcDbViewportTableRecord
  2
*ACTIVE
 70
     0
 10
0.0
 20
0.0
 11
1.0
 21
1.0
 12
541.8034672939609
 22
390.7883880708073
 13
0.0
 23
0.0
 14
1.0
 24
1.0
 15
0.0
 25
0.0
 16
0.0
 26
0.0
 36
1.0
 17
0.0
 27
0.0
 37
0.0
 40
560.2441322989299
 41
1.530214424951267
 42
50.0
 43
0.0
 44
0.0
 50
0.0
 51
0.0
 71
     0
 72
   100
 73
     1
 74
     1
 75
     0
 76
     0
 77
     0
 78
     0
  0
ENDTAB
  0
TABLE
  2
LTYPE
  5
E
330
0
100
AcDbSymbolTable
 70
     3
  0
LTYPE
  5
F
330
E
100
AcDbSymbolTableRecord
100
AcDbLinetypeTableRecord
  2
BYBLOCK
 70
     0
  3

 72
    65
 73
     0
 40
0.0
  0
LTYPE
  5
6
330
E
100
AcDbSymbolTableRecord
100
AcDbLinetypeTableRecord
  2
BYLAYER
 70
     0
  3

 72
    65
 73
     0
 40
0.0
  0
LTYPE
  5
5
330
E
100
AcDbSymbolTableRecord
100
AcDbLinetypeTableRecord
  2
CONTINUOUS
 70
     0
  3
実線
 72
    65
 73
     0
 40
0.0
  0
LTYPE
  5
20
330
E
100
AcDbSymbolTableRecord
100
AcDbLinetypeTableRecord
  2
CENTER
 70
     0
  3
____ _ ____ _ ____ _ ____ _ ____ _ ____ _ ____
 72
    65
 73
     4
 40
2.0
 49
1.25
 74
     0
 49
-0.25
 74
     0
 49
0.25
 74
     0
 49
-0.25
 74
     0
  0
LTYPE
  5
9D
330
E
100
AcDbSymbolTableRecord
100
AcDbLinetypeTableRecord
  2
DASHED
 70
     0
  3
__ __ __ __ __ __ __ __ __ __ __ __ __ __ __
 72
    65
 73
     2
 40
0.75
 49
0.5
 74
     0
 49
-0.25
 74
     0
  0
ENDTAB
  0
TABLE
  2
LAYER
  5
B
330
0
100
AcDbSymbolTable
 70
     4
  0
LAYER
  5
4
330
B
100
AcDbSymbolTableRecord
100
AcDbLayerTableRecord
  2
0
 70
     0
 62
     7
  6
CONTINUOUS
  0
LAYER
  5
1F
330
B
100
AcDbSymbolTableRecord
100
AcDbLayerTableRecord
  2
PV
 70
     0
 62
     7
  6
CONTINUOUS
  0
LAYER
  5
1B
330
B
100
AcDbSymbolTableRecord
100
AcDbLayerTableRecord
  2
L-ZISSEN
 70
     0
 62
     7
  6
CONTINUOUS
  0
LAYER
  5
189
330
B
100
AcDbSymbolTableRecord
100
AcDbLayerTableRecord
  2
L-HASEN
 70
     0
 62
     5
  6
DASHED
  0
ENDTAB
  0
TABLE
  2
STYLE
  5
C
330
0
100
AcDbSymbolTable
 70
     1
  0
STYLE
  5
D
330
C
100
AcDbSymbolTableRecord
100
AcDbTextStyleTableRecord
  2
STANDARD
 70
     0
 40
0.0
 41
1.0
 50
0.0
 71
     0
 42
4.5
  3
txt
  4

  0
ENDTAB
  0
TABLE
  2
VIEW
  5
10
330
0
100
AcDbSymbolTable
 70
     0
  0
ENDTAB
  0
TABLE
  2
UCS
  5
11
330
0
100
AcDbSymbolTable
 70
     0
  0
ENDTAB
  0
TABLE
  2
APPID
  5
14
330
0
100
AcDbSymbolTable
 70
     1
  0
APPID
  5
15
330
14
100
AcDbSymbolTableRecord
100
AcDbRegAppTableRecord
  2
ACAD
 70
     0
  0
ENDTAB
  0
TABLE
  2
DIMSTYLE
  5
16
330
0
100
AcDbSymbolTable
 70
     1
  0
DIMSTYLE
105
1D
330
16
100
AcDbSymbolTableRecord
100
AcDbDimStyleTableRecord
  2
STANDARD
 70
     0
  3

  4

  5

  6

  7

 40
1.0
 41
0.18
 42
0.0625
 43
0.38
 44
0.18
 45
0.0
 46
0.0
 47
0.0
 48
0.0
140
0.18
141
0.09
142
0.0
143
25.4
144
1.0
145
0.0
146
1.0
147
0.09
 71
     0
 72
     0
 73
     1
 74
     1
 75
     0
 76
     0
 77
     0
 78
     0
170
     0
171
     2
172
     0
173
     0
174
     0
175
     0
176
     0
177
     0
178
     0
270
     2
271
     4
272
     4
273
     2
274
     2
340
D
275
     0
280
     0
281
     0
282
     0
283
     1
284
     0
285
     0
286
     0
287
     3
288
     0
  0
ENDTAB
  0
TABLE
  2
BLOCK_RECORD
  5
1
330
0
100
AcDbSymbolTable
 70
     1
  0
BLOCK_RECORD
  5
2
102
{ACAD_XDICTIONARY
360
207
102
}
330
1
100
AcDbSymbolTableRecord
100
AcDbBlockTableRecord
  2
*MODEL_SPACE
  0
BLOCK_RECORD
  5
8
102
{ACAD_XDICTIONARY
360
209
102
}
330
1
100
AcDbSymbolTableRecord
100
AcDbBlockTableRecord
  2
*PAPER_SPACE
  0
BLOCK_RECORD
  5
C2
330
1
100
AcDbSymbolTableRecord
100
AcDbBlockTableRecord
  2
_OPEN
  0
ENDTAB
  0
ENDSEC
  0
SECTION
  2
BLOCKS
  0
BLOCK
  5
3
330
2
100
AcDbEntity
  8
0
100
AcDbBlockBegin
  2
*MODEL_SPACE
 70
     0
 10
0.0
 20
0.0
 30
0.0
  3
*MODEL_SPACE
  1

  0
ENDBLK
  5
7
330
2
100
AcDbEntity
  8
0
100
AcDbBlockEnd
  0
BLOCK
  5
9
330
8
100
AcDbEntity
 67
     1
  8
0
100
AcDbBlockBegin
  2
*PAPER_SPACE
 70
     0
 10
0.0
 20
0.0
 30
0.0
  3
*PAPER_SPACE
  1

  0
ENDBLK
  5
A
330
8
100
AcDbEntity
 67
     1
  8
0
100
AcDbBlockEnd
  0
BLOCK
  5
C6
330
C2
100
AcDbEntity
  8
0
100
AcDbBlockBegin
  2
_OPEN
 70
     0
 10
0.0
 20
0.0
 30
0.0
  3
_OPEN
  1

  0
LINE
  5
C3
330
C2
100
AcDbEntity
  8
0
  6
BYBLOCK
 62
     0
100
AcDbLine
 10
-1.0
 20
0.166667
 30
0.0
 11
0.0
 21
0.0
 31
0.0
  0
LINE
  5
C4
330
C2
100
AcDbEntity
  8
0
  6
BYBLOCK
 62
     0
100
AcDbLine
 10
0.0
 20
0.0
 30
0.0
 11
-1.0
 21
-0.166667
 31
0.0
  0
LINE
  5
C5
330
C2
100
AcDbEntity
  8
0
  6
BYBLOCK
 62
     0
100
AcDbLine
 10
0.0
 20
0.0
 30
0.0
 11
-1.0
 21
0.0
 31
0.0
  0
ENDBLK
  5
C7
330
C2
100
AcDbEntity
  8
0
100
AcDbBlockEnd
  0
ENDSEC
  0
SECTION
  2
ENTITIES
  0
ARC
  5
1E
330
2
100
AcDbEntity
  8
PV
  6
CENTER
 62
     1
100
AcDbCircle
 10
217.1629999999999
 20
342.0009991932415
 30
0.0
 40
10.0
100
AcDbArc
 50
90.0
 51
180.0
  0
LINE
  5
21
330
2
100
AcDbEntity
  8
PV
 62
     7
100
AcDbLine
 10
162.369
 20
326.4769991932415
 30
0.0
 11
166.3742693761419
 21
402.9139991932415
 31
0.0
  0
LINE
  5
22
330
2
100
AcDbEntity
  8
PV
 62
     7
100
AcDbLine
 10
279.9579999999999
 20
326.4769991932415
 30
0.0
 11
275.9516645420437
 21
402.9139991932416
 31
0.0
  0
LINE
  5
23
330
2
100
AcDbEntity
  8
PV
  6
CENTER
 62
     1
100
AcDbLine
 10
221.1629999999999
 20
368.4069991932415
 30
0.0
 11
221.1629999999999
 21
115.8539991932416
 31
0.0
  0
LINE
  5
24
330
2
100
AcDbEntity
  8
PV
  6
CENTER
 62
     1
100
AcDbLine
 10
221.1629999999999
 20
413.0019991932415
 30
0.0
 11
221.1629999999999
 21
304.2749991932415
 31
0.0
  0
LINE
  5
25
330
2
100
AcDbEntity
  8
PV
 62
     7
100
AcDbLine
 10
151.4629999999999
 20
355.0009991932415
 30
0.0
 11
151.4629999999999
 21
296.0009991932415
 31
0.0
  0
LINE
  5
26
330
2
100
AcDbEntity
  8
PV
 62
     7
100
AcDbLine
 10
149.163
 20
293.7009991932415
 30
0.0
 11
149.163
 21
355.0009991932415
 31
0.0
  0
ARC
  5
27
330
2
100
AcDbEntity
  8
PV
 62
     7
100
AcDbCircle
 10
259.163
 20
345.0009991932415
 30
0.0
 40
2.0
100
AcDbArc
 50
0.0
 51
90.0
  0
ARC
  5
28
330
2
100
AcDbEntity
  8
PV
 62
     7
100
AcDbCircle
 10
243.163
 20
345.0009991932415
 30
0.0
 40
2.0
100
AcDbArc
 50
90.0
 51
180.0
  0
LINE
  5
29
330
2
100
AcDbEntity
  8
PV
 62
     7
100
AcDbLine
 10
274.163
 20
253.0009991932415
 30
0.0
 11
271.8850894941634
 21
122.5009991932415
 31
0.0
  0
LINE
  5
2A
330
2
100
AcDbEntity
  8
PV
 62
     7
100
AcDbLine
 10
265.163
 20
253.0009991932415
 30
0.0
 11
262.8850894941633
 21
122.5009991932415
 31
0.0
  0
LINE
  5
2B
330
2
100
AcDbEntity
  8
PV
 62
     7
100
AcDbLine
 10
177.163
 20
253.0009991932415
 30
0.0
 11
179.4409105058366
 21
122.5009991932415
 31
0.0
  0
LINE
  5
2C
330
2
100
AcDbEntity
  8
PV
 62
     7
100
AcDbLine
 10
168.163
 20
253.0009991932415
 30
0.0
 11
170.4409105058365
 21
122.5009991932415
 31
0.0
  0
LINE
  5
2D
330
2
100
AcDbEntity
  8
PV
 62
     7
100
AcDbLine
 10
271.8850894941636
 20
122.5009991932415
 30
0.0
 11
170.4409105058365
 21
122.5009991932415
 31
0.0
  0
LINE
  5
2E
330
2
100
AcDbEntity
  8
L-ZISSEN
100
AcDbLine
 10
181.663
 20
114.0009991932415
 30
0.0
 11
197.663
 21
114.0009991932415
 31
0.0
  0
LINE
  5
2F
330
2
100
AcDbEntity
  8
L-ZISSEN
100
AcDbLine
 10
181.663
 20
114.5009991932415
 30
0.0
 11
181.663
 21
114.0009991932415
 31
0.0
  0
LINE
  5
30
330
2
100
AcDbEntity
  8
PV
 62
     7
100
AcDbLine
 10
181.663
 20
114.5009991932415
 30
0.0
 11
181.663
 21
122.5009991932415
 31
0.0
  0
LINE
  5
31
330
2
100
AcDbEntity
  8
PV
 62
     7
100
AcDbLine
 10
229.163
 20
117.6309991932415
 30
0.0
 11
213.163
 21
117.6309991932415
 31
0.0
  0
LINE
  5
32
330
2
100
AcDbEntity
  8
L-ZISSEN
100
AcDbLine
 10
197.663
 20
114.5009991932415
 30
0.0
 11
197.663
 21
114.0009991932415
 31
0.0
  0
LINE
  5
33
330
2
100
AcDbEntity
  8
PV
 62
     7
100
AcDbLine
 10
197.663
 20
114.5009991932415
 30
0.0
 11
197.663
 21
122.5009991932415
 31
0.0
  0
LINE
  5
34
330
2
100
AcDbEntity
  8
PV
 62
     7
100
AcDbLine
 10
213.163
 20
117.6309991932415
 30
0.0
 11
213.163
 21
122.6309991932415
 31
0.0
  0
LINE
  5
35
330
2
100
AcDbEntity
  8
PV
 62
     7
100
AcDbLine
 10
229.163
 20
117.6309991932415
 30
0.0
 11
229.163
 21
122.6309991932415
 31
0.0
  0
LINE
  5
36
330
2
100
AcDbEntity
  8
L-ZISSEN
100
AcDbLine
 10
244.663
 20
114.0009991932415
 30
0.0
 11
260.663
 21
114.0009991932415
 31
0.0
  0
LINE
  5
37
330
2
100
AcDbEntity
  8
L-ZISSEN
100
AcDbLine
 10
244.663
 20
114.5009991932415
 30
0.0
 11
244.663
 21
114.0009991932415
 31
0.0
  0
LINE
  5
38
330
2
100
AcDbEntity
  8
PV
 62
     7
100
AcDbLine
 10
244.663
 20
114.5009991932415
 30
0.0
 11
244.663
 21
122.5009991932415
 31
0.0
  0
LINE
  5
39
330
2
100
AcDbEntity
  8
L-ZISSEN
100
AcDbLine
 10
260.663
 20
114.5009991932415
 30
0.0
 11
260.663
 21
114.0009991932415
 31
0.0
  0
LINE
  5
3A
330
2
100
AcDbEntity
  8
PV
 62
     7
100
AcDbLine
 10
260.663
 20
114.5009991932415
 30
0.0
 11
260.663
 21
122.5009991932415
 31
0.0
  0
LINE
  5
3B
330
2
100
AcDbEntity
  8
PV
 62
     7
100
AcDbLine
 10
278.663
 20
256.5009991932415
 30
0.0
 11
163.663
 21
256.5009991932415
 31
0.0
  0
LINE
  5
3C
330
2
100
AcDbEntity
  8
PV
 62
     7
100
AcDbLine
 10
278.663
 20
253.0009991932415
 30
0.0
 11
163.663
 21
253.0009991932415
 31
0.0
  0
LINE
  5
3D
330
2
100
AcDbEntity
  8
PV
 62
     7
100
AcDbLine
 10
231.6629999999999
 20
322.2009991932415
 30
0.0
 11
270.663
 21
322.2009991932415
 31
0.0
  0
LINE
  5
3E
330
2
100
AcDbEntity
  8
PV
 62
     7
100
AcDbLine
 10
277.663
 20
307.0009991932415
 30
0.0
 11
160.163
 21
307.0009991932415
 31
0.0
  0
LINE
  5
3F
330
2
100
AcDbEntity
  8
PV
 62
     7
100
AcDbLine
 10
282.163
 20
257.0009991932415
 30
0.0
 11
160.163
 21
257.0009991932415
 31
0.0
  0
LINE
  5
40
330
2
100
AcDbEntity
  8
PV
 62
     7
100
AcDbLine
 10
153.163
 20
193.3899991932415
 30
0.0
 11
153.163
 21
277.0119991932415
 31
0.0
  0
LINE
  5
41
330
2
100
AcDbEntity
  8
PV
 62
     7
100
AcDbLine
 10
157.163
 20
194.2329991932416
 30
0.0
 11
157.163
 21
277.0119991932415
 31
0.0
  0
LINE
  5
42
330
2
100
AcDbEntity
  8
PV
  6
CENTER
 62
     1
100
AcDbLine
 10
155.163
 20
296.0009991932415
 30
0.0
 11
155.163
 21
180.3609991932415
 31
0.0
  0
LINE
  5
43
330
2
100
AcDbEntity
  8
PV
 62
     7
100
AcDbLine
 10
150.639
 20
192.8579991932416
 30
0.0
 11
158.821
 21
194.5829991932416
 31
0.0
  0
LINE
  5
44
330
2
100
AcDbEntity
  8
PV
 62
     7
100
AcDbLine
 10
197.163
 20
325.0009991932415
 30
0.0
 11
165.163
 21
325.0009991932415
 31
0.0
  0
LINE
  5
45
330
2
100
AcDbEntity
  8
PV
 62
     7
100
AcDbLine
 10
201.663
 20
314.0009991932415
 30
0.0
 11
160.663
 21
314.0009991932415
 31
0.0
  0
LINE
  5
46
330
2
100
AcDbEntity
  8
PV
 62
     7
100
AcDbLine
 10
157.863
 20
281.0009991932415
 30
0.0
 11
157.863
 21
293.7009991932415
 31
0.0
  0
LINE
  5
47
330
2
100
AcDbEntity
  8
PV
 62
     7
100
AcDbLine
 10
160.163
 20
287.0009991932415
 30
0.0
 11
160.163
 21
281.0009991932415
 31
0.0
  0
LINE
  5
48
330
2
100
AcDbEntity
  8
PV
 62
     7
100
AcDbLine
 10
160.163
 20
307.0009991932415
 30
0.0
 11
160.163
 21
257.0009991932415
 31
0.0
  0
LINE
  5
49
330
2
100
AcDbEntity
  8
PV
 62
     7
100
AcDbLine
 10
160.163
 20
281.0009991932415
 30
0.0
 11
157.863
 21
281.0009991932415
 31
0.0
  0
LINE
  5
4A
330
2
100
AcDbEntity
  8
PV
 62
     7
100
AcDbLine
 10
163.663
 20
256.5009991932415
 30
0.0
 11
163.663
 21
253.0009991932415
 31
0.0
  0
LINE
  5
4B
330
2
100
AcDbEntity
  8
PV
 62
     7
100
AcDbLine
 10
157.863
 20
293.7009991932415
 30
0.0
 11
149.163
 21
293.7009991932415
 31
0.0
  0
LINE
  5
4C
330
2
100
AcDbEntity
  8
PV
 62
     7
100
AcDbLine
 10
160.163
 20
296.0009991932415
 30
0.0
 11
151.4629999999999
 21
296.0009991932415
 31
0.0
  0
LINE
  5
4D
330
2
100
AcDbEntity
  8
PV
  6
CENTER
 62
     1
100
AcDbLine
 10
181.163
 20
329.7359991932415
 30
0.0
 11
181.163
 21
303.2519991932415
 31
0.0
  0
LINE
  5
4E
330
2
100
AcDbEntity
  8
PV
 62
     7
100
AcDbLine
 10
160.663
 20
314.0009991932415
 30
0.0
 11
160.663
 21
307.0009991932415
 31
0.0
  0
LINE
  5
4F
330
2
100
AcDbEntity
  8
PV
 62
     7
100
AcDbLine
 10
162.26
 20
314.0009991932415
 30
0.0
 11
162.369
 21
326.4769991932415
 31
0.0
  0
LINE
  5
50
330
2
100
AcDbEntity
  8
PV
 62
     7
100
AcDbLine
 10
165.163
 20
314.0009991932415
 30
0.0
 11
165.163
 21
325.0009991932415
 31
0.0
  0
CIRCLE
  5
51
330
2
100
AcDbEntity
  8
PV
 62
     7
100
AcDbCircle
 10
221.1629999999999
 20
279.0009991932415
 30
0.0
 40
8.65
  0
LINE
  5
52
330
2
100
AcDbEntity
  8
PV
  6
CENTER
 62
     1
100
AcDbLine
 10
236.163
 20
279.0009991932415
 30
0.0
 11
206.163
 21
279.0009991932415
 31
0.0
  0
LINE
  5
53
330
2
100
AcDbEntity
  8
PV
 62
     7
100
AcDbLine
 10
222.663
 20
317.0009991932415
 30
0.0
 11
211.205
 21
317.0009991932415
 31
0.0
  0
LINE
  5
54
330
2
100
AcDbEntity
  8
PV
 62
     7
100
AcDbLine
 10
220.663
 20
324.0009991932415
 30
0.0
 11
210.663
 21
324.0009991932415
 31
0.0
  0
LINE
  5
55
330
2
100
AcDbEntity
  8
PV
  6
CENTER
 62
     1
100
AcDbLine
 10
207.1629999999999
 20
342.0009991932415
 30
0.0
 11
207.163
 21
305.0199991932415
 31
0.0
  0
LINE
  5
56
330
2
100
AcDbEntity
  8
PV
 62
     7
100
AcDbLine
 10
211.205
 20
318.4779991932416
 30
0.0
 11
211.205
 21
307.0009991932415
 31
0.0
  0
LINE
  5
57
330
2
100
AcDbEntity
  8
PV
 62
     7
100
AcDbLine
 10
203.122
 20
318.4779991932416
 30
0.0
 11
203.122
 21
307.0009991932415
 31
0.0
  0
LINE
  5
58
330
2
100
AcDbEntity
  8
PV
 62
     7
100
AcDbLine
 10
201.663
 20
314.0009991932415
 30
0.0
 11
201.663
 21
307.0009991932415
 31
0.0
  0
LINE
  5
59
330
2
100
AcDbEntity
  8
PV
 62
     7
100
AcDbLine
 10
197.163
 20
314.0009991932415
 30
0.0
 11
197.163
 21
325.0009991932415
 31
0.0
  0
LINE
  5
5A
330
2
100
AcDbEntity
  8
PV
 62
     7
100
AcDbLine
 10
210.663
 20
324.0009991932415
 30
0.0
 11
210.663
 21
318.4779991932416
 31
0.0
  0
LINE
  5
5B
330
2
100
AcDbEntity
  8
PV
 62
     7
100
AcDbLine
 10
211.205
 20
318.4779991932416
 30
0.0
 11
203.122
 21
318.4779991932416
 31
0.0
  0
LINE
  5
5C
330
2
100
AcDbEntity
  8
PV
 62
     7
100
AcDbLine
 10
224.663
 20
311.1339991932416
 30
0.0
 11
224.663
 21
307.0009991932415
 31
0.0
  0
LINE
  5
5D
330
2
100
AcDbEntity
  8
PV
 62
     7
100
AcDbLine
 10
231.663
 20
307.0009991932415
 30
0.0
 11
231.6629999999999
 21
322.2009991932415
 31
0.0
  0
LINE
  5
5E
330
2
100
AcDbEntity
  8
PV
 62
     7
100
AcDbLine
 10
220.663
 20
324.0009991932415
 30
0.0
 11
220.663
 21
317.0009991932415
 31
0.0
  0
LINE
  5
5F
330
2
100
AcDbEntity
  8
PV
 62
     7
100
AcDbLine
 10
223.163
 20
316.5009991932415
 30
0.0
 11
223.163
 21
312.0009991932415
 31
0.0
  0
LINE
  5
60
330
2
100
AcDbEntity
  8
PV
 62
     7
100
AcDbLine
 10
223.163
 20
312.0009991932415
 30
0.0
 11
224.663
 21
311.1339991932416
 31
0.0
  0
LINE
  5
61
330
2
100
AcDbEntity
  8
PV
 62
     7
100
AcDbLine
 10
223.163
 20
316.5009991932415
 30
0.0
 11
222.663
 21
317.0009991932415
 31
0.0
  0
LINE
  5
62
330
2
100
AcDbEntity
  8
PV
 62
     7
100
AcDbLine
 10
241.163
 20
322.2009991932415
 30
0.0
 11
241.163
 21
345.0009991932415
 31
0.0
  0
ARC
  5
63
330
2
100
AcDbEntity
  8
PV
 62
     7
100
AcDbCircle
 10
299.663
 20
330.0009991932415
 30
0.0
 40
1.5
100
AcDbArc
 50
90.0
 51
180.0
  0
LINE
  5
64
330
2
100
AcDbEntity
  8
PV
 62
     7
100
AcDbLine
 10
297.163
 20
323.5009991932415
 30
0.0
 11
331.163
 21
323.5009991932415
 31
0.0
  0
LINE
  5
65
330
2
100
AcDbEntity
  8
PV
 62
     7
100
AcDbLine
 10
309.163
 20
286.5009991932415
 30
0.0
 11
287.163
 21
286.5009991932415
 31
0.0
  0
LINE
  5
66
330
2
100
AcDbEntity
  8
PV
 62
     7
100
AcDbLine
 10
309.163
 20
250.5009991932415
 30
0.0
 11
287.163
 21
250.5009991932415
 31
0.0
  0
LINE
  5
67
330
2
100
AcDbEntity
  8
PV
 62
     7
100
AcDbLine
 10
287.163
 20
286.5009991932415
 30
0.0
 11
287.163
 21
250.5009991932415
 31
0.0
  0
LINE
  5
68
330
2
100
AcDbEntity
  8
PV
 62
     7
100
AcDbLine
 10
277.663
 20
257.0009991932415
 30
0.0
 11
277.663
 21
307.0009991932415
 31
0.0
  0
LINE
  5
69
330
2
100
AcDbEntity
  8
PV
 62
     7
100
AcDbLine
 10
278.663
 20
256.5009991932415
 30
0.0
 11
278.663
 21
253.0009991932415
 31
0.0
  0
LINE
  5
6A
330
2
100
AcDbEntity
  8
PV
 62
     7
100
AcDbLine
 10
287.163
 20
262.5009991932415
 30
0.0
 11
281.163
 21
262.5009991932415
 31
0.0
  0
LINE
  5
6B
330
2
100
AcDbEntity
  8
PV
 62
     7
100
AcDbLine
 10
287.163
 20
274.5009991932415
 30
0.0
 11
281.163
 21
274.5009991932415
 31
0.0
  0
LINE
  5
6C
330
2
100
AcDbEntity
  8
PV
 62
     7
100
AcDbLine
 10
281.163
 20
274.5009991932415
 30
0.0
 11
281.163
 21
262.5009991932415
 31
0.0
  0
LINE
  5
6D
330
2
100
AcDbEntity
  8
PV
 62
     7
100
AcDbLine
 10
281.163
 20
263.0009991932415
 30
0.0
 11
277.663
 21
263.0009991932415
 31
0.0
  0
LINE
  5
6E
330
2
100
AcDbEntity
  8
PV
 62
     7
100
AcDbLine
 10
281.163
 20
263.5009991932415
 30
0.0
 11
277.663
 21
263.5009991932415
 31
0.0
  0
LINE
  5
6F
330
2
100
AcDbEntity
  8
PV
 62
     7
100
AcDbLine
 10
282.163
 20
257.0009991932415
 30
0.0
 11
282.163
 21
262.4709991932415
 31
0.0
  0
LINE
  5
70
330
2
100
AcDbEntity
  8
PV
 62
     7
100
AcDbLine
 10
281.163
 20
273.5009991932415
 30
0.0
 11
277.663
 21
273.5009991932415
 31
0.0
  0
LINE
  5
71
330
2
100
AcDbEntity
  8
PV
 62
     7
100
AcDbLine
 10
270.663
 20
307.0009991932415
 30
0.0
 11
270.663
 21
322.2009991932415
 31
0.0
  0
LINE
  5
72
330
2
100
AcDbEntity
  8
PV
 62
     7
100
AcDbLine
 10
261.163
 20
322.2009991932415
 30
0.0
 11
261.163
 21
345.0009991932415
 31
0.0
  0
LINE
  5
73
330
2
100
AcDbEntity
  8
PV
 62
     7
100
AcDbLine
 10
280.133
 20
306.4139991932415
 30
0.0
 11
279.9579999999999
 21
326.4769991932415
 31
0.0
  0
LINE
  5
74
330
2
100
AcDbEntity
  8
PV
 62
     7
100
AcDbLine
 10
297.163
 20
298.5009991932415
 30
0.0
 11
297.163
 21
323.5009991932415
 31
0.0
  0
LINE
  5
75
330
2
100
AcDbEntity
  8
PV
 62
     7
100
AcDbLine
 10
297.163
 20
298.5009991932415
 30
0.0
 11
277.663
 21
298.5009991932415
 31
0.0
  0
LINE
  5
76
330
2
100
AcDbEntity
  8
PV
 62
     7
100
AcDbLine
 10
281.4629999999999
 20
306.4209991932415
 30
0.0
 11
277.663
 21
306.4209991932415
 31
0.0
  0
LINE
  5
77
330
2
100
AcDbEntity
  8
PV
 62
     7
100
AcDbLine
 10
281.4629999999999
 20
302.0009991932415
 30
0.0
 11
281.4629999999999
 21
306.4209991932415
 31
0.0
  0
LINE
  5
78
330
2
100
AcDbEntity
  8
PV
 62
     7
100
AcDbLine
 10
282.163
 20
302.0009991932415
 30
0.0
 11
277.663
 21
302.0009991932415
 31
0.0
  0
LINE
  5
79
330
2
100
AcDbEntity
  8
PV
 62
     7
100
AcDbLine
 10
282.163
 20
299.0009991932415
 30
0.0
 11
277.663
 21
299.0009991932415
 31
0.0
  0
LINE
  5
7A
330
2
100
AcDbEntity
  8
PV
 62
     7
100
AcDbLine
 10
282.163
 20
299.0009991932415
 30
0.0
 11
282.163
 21
302.0009991932415
 31
0.0
  0
LINE
  5
7B
330
2
100
AcDbEntity
  8
PV
 62
     7
100
AcDbLine
 10
298.163
 20
330.0009991932415
 30
0.0
 11
298.163
 21
323.5009991932415
 31
0.0
  0
LINE
  5
7C
330
2
100
AcDbEntity
  8
PV
 62
     7
100
AcDbLine
 10
331.163
 20
281.0009991932415
 30
0.0
 11
331.163
 21
323.5009991932415
 31
0.0
  0
LINE
  5
7D
330
2
100
AcDbEntity
  8
PV
 62
     7
100
AcDbLine
 10
309.163
 20
286.5009991932415
 30
0.0
 11
309.163
 21
250.5009991932415
 31
0.0
  0
ARC
  5
7E
330
2
100
AcDbEntity
  8
PV
 62
     7
100
AcDbCircle
 10
314.163
 20
281.0009991932415
 30
0.0
 40
17.0
100
AcDbArc
 50
270.0
 51
0.0
  0
LINE
  5
89
330
2
100
AcDbEntity
  8
PV
 62
     7
100
AcDbLine
 10
314.163
 20
264.0009991932415
 30
0.0
 11
309.163
 21
264.0009991932415
 31
0.0
  0
LINE
  5
8C
330
2
100
AcDbEntity
  8
PV
 62
     7
100
AcDbLine
 10
299.663
 20
331.5009991932415
 30
0.0
 11
328.663
 21
331.5009991932415
 31
0.0
  0
ARC
  5
8D
330
2
100
AcDbEntity
  8
PV
 62
     7
100
AcDbCircle
 10
328.663
 20
330.0009991932415
 30
0.0
 40
1.5
100
AcDbArc
 50
0.0
 51
90.0
  0
LINE
  5
8E
330
2
100
AcDbEntity
  8
PV
 62
     7
100
AcDbLine
 10
330.163
 20
330.0009991932415
 30
0.0
 11
330.163
 21
323.5009991932415
 31
0.0
  0
LINE
  5
8F
330
2
100
AcDbEntity
  8
PV
  6
CENTER
 62
     1
100
AcDbLine
 10
251.163
 20
352.0009991932415
 30
0.0
 11
217.1629999999999
 21
352.0009991932415
 31
0.0
  0
LINE
  5
90
330
2
100
AcDbEntity
  8
PV
 62
     7
100
AcDbLine
 10
247.163
 20
356.0419991932415
 30
0.0
 11
239.663
 21
356.0419991932415
 31
0.0
  0
LINE
  5
91
330
2
100
AcDbEntity
  8
PV
 62
     7
100
AcDbLine
 10
247.163
 20
347.9589991932416
 30
0.0
 11
239.663
 21
347.9589991932416
 31
0.0
  0
LINE
  5
92
330
2
100
AcDbEntity
  8
PV
 62
     7
100
AcDbLine
 10
166.3742693761419
 20
402.9139991932415
 30
0.0
 11
275.9516645420438
 21
402.9139991932416
 31
0.0
  0
LINE
  5
93
330
2
100
AcDbEntity
  8
PV
  6
CENTER
 62
     1
100
AcDbLine
 10
161.2179999999999
 20
345.0009991932415
 30
0.0
 11
138.4729999999999
 21
345.0009991932415
 31
0.0
  0
LINE
  5
94
330
2
100
AcDbEntity
  8
PV
 62
     7
100
AcDbLine
 10
149.163
 20
355.0009991932415
 30
0.0
 11
151.4629999999999
 21
355.0009991932415
 31
0.0
  0
LINE
  5
95
330
2
100
AcDbEntity
  8
PV
 62
     7
100
AcDbLine
 10
239.663
 20
347.9589991932416
 30
0.0
 11
239.663
 21
356.0419991932415
 31
0.0
  0
LINE
  5
97
330
2
100
AcDbEntity
  8
PV
 62
     7
100
AcDbLine
 10
259.163
 20
347.0009991932415
 30
0.0
 11
243.163
 21
347.0009991932415
 31
0.0
  0
LINE
  5
98
330
2
100
AcDbEntity
  8
PV
 62
     7
100
AcDbLine
 10
247.163
 20
347.0009991932415
 30
0.0
 11
247.163
 21
359.5009991932415
 31
0.0
  0
LINE
  5
99
330
2
100
AcDbEntity
  8
PV
 62
     7
100
AcDbLine
 10
255.163
 20
347.0009991932415
 30
0.0
 11
255.163
 21
359.5009991932415
 31
0.0
  0
LINE
  5
9A
330
2
100
AcDbEntity
  8
PV
 62
     7
100
AcDbLine
 10
255.163
 20
359.5009991932415
 30
0.0
 11
247.163
 21
359.5009991932415
 31
0.0
  0
LINE
  5
9B
330
2
100
AcDbEntity
  8
PV
  6
CENTER
 62
     1
100
AcDbLine
 10
656.1799999999999
 20
358.0299991932415
 30
0.0
 11
656.1799999999999
 21
331.9719991932415
 31
0.0
  0
LINE
  5
9C
330
2
100
AcDbEntity
  8
PV
  6
DASHED
 62
     5
100
AcDbLine
 10
674.1799999999999
 20
319.7919991932415
 30
0.0
 11
674.1799999999999
 21
352.0009991932415
 31
0.0
  0
LINE
  5
9E
330
2
100
AcDbEntity
  8
PV
  6
DASHED
 62
     5
100
AcDbLine
 10
638.1799999999999
 20
319.7919991932415
 30
0.0
 11
638.1799999999999
 21
352.0009991932415
 31
0.0
  0
LINE
  5
9F
330
2
100
AcDbEntity
  8
PV
 62
     7
100
AcDbLine
 10
572.1799999999999
 20
302.0009991932415
 30
0.0
 11
572.1799999999999
 21
352.0009991932415
 31
0.0
  0
LINE
  5
A0
330
2
100
AcDbEntity
  8
PV
  6
CENTER
 62
     1
100
AcDbLine
 10
554.1799999999999
 20
358.0299991932415
 30
0.0
 11
554.1799999999999
 21
331.9719991932415
 31
0.0
  0
LINE
  5
A1
330
2
100
AcDbEntity
  8
PV
 62
     7
100
AcDbLine
 10
584.3869999999999
 20
332.3039991932416
 30
0.0
 11
588.0913092877287
 21
403.0009991932415
 31
0.0
  0
LINE
  5
A2
330
2
100
AcDbEntity
  8
PV
 62
     7
100
AcDbLine
 10
701.6739999999999
 20
326.5629991932416
 30
0.0
 11
697.6686782242428
 21
403.0009991932415
 31
0.0
  0
ARC
  5
A3
330
2
100
AcDbEntity
  8
PV
 62
     7
100
AcDbCircle
 10
527.1799999999999
 20
345.0009991932415
 30
0.0
 40
2.0
100
AcDbArc
 50
90.0
 51
180.0
  0
ARC
  5
A4
330
2
100
AcDbEntity
  8
PV
 62
     7
100
AcDbCircle
 10
543.1799999999999
 20
345.0009991932415
 30
0.0
 40
2.0
100
AcDbArc
 50
0.0
 51
90.0
  0
CIRCLE
  5
A5
330
2
100
AcDbEntity
  8
PV
 62
     7
100
AcDbCircle
 10
574.1799999999999
 20
293.5009991932415
 30
0.0
 40
3.799999999999999
  0
LINE
  5
A6
330
2
100
AcDbEntity
  8
PV
 62
     7
100
AcDbLine
 10
670.1799999999999
 20
253.0009991932415
 30
0.0
 11
544.3819999999999
 21
253.0009991932415
 31
0.0
  0
LINE
  5
A8
330
2
100
AcDbEntity
  8
PV
 62
     7
100
AcDbLine
 10
577.6799999999999
 20
299.0009991932415
 30
0.0
 11
561.1799999999999
 21
299.0009991932415
 31
0.0
  0
LINE
  5
A9
330
2
100
AcDbEntity
  8
PV
 62
     7
100
AcDbLine
 10
577.6799999999999
 20
302.0009991932415
 30
0.0
 11
561.1799999999999
 21
302.0009991932415
 31
0.0
  0
LINE
  5
AB
330
2
100
AcDbEntity
  8
PV
 62
     7
100
AcDbLine
 10
577.6799999999999
 20
298.5009991932415
 30
0.0
 11
573.1799999999999
 21
298.5009991932415
 31
0.0
  0
LINE
  5
AE
330
2
100
AcDbEntity
  8
PV
 62
     7
100
AcDbLine
 10
663.4020894941634
 20
122.5009991932415
 30
0.0
 11
510.9579105058365
 21
122.5009991932415
 31
0.0
  0
LINE
  5
AF
330
2
100
AcDbEntity
  8
PV
  6
CENTER
 62
     1
100
AcDbLine
 10
612.366
 20
279.0009991932415
 30
0.0
 11
493.618
 21
279.0009991932415
 31
0.0
  0
LINE
  5
B0
330
2
100
AcDbEntity
  8
PV
 62
     7
100
AcDbLine
 10
517.6799999999999
 20
253.0009991932415
 30
0.0
 11
519.9579105058366
 21
122.5009991932415
 31
0.0
  0
LINE
  5
B1
330
2
100
AcDbEntity
  8
PV
 62
     7
100
AcDbLine
 10
508.68
 20
253.0009991932415
 30
0.0
 11
510.9579105058364
 21
122.5009991932415
 31
0.0
  0
LINE
  5
B2
330
2
100
AcDbEntity
  8
L-ZISSEN
100
AcDbLine
 10
529.1799999999999
 20
114.0009991932415
 30
0.0
 11
545.1799999999999
 21
114.0009991932415
 31
0.0
  0
LINE
  5
B3
330
2
100
AcDbEntity
  8
L-ZISSEN
100
AcDbLine
 10
529.1799999999999
 20
114.5009991932415
 30
0.0
 11
529.1799999999999
 21
114.0009991932415
 31
0.0
  0
LINE
  5
B4
330
2
100
AcDbEntity
  8
PV
 62
     7
100
AcDbLine
 10
529.1799999999999
 20
114.5009991932415
 30
0.0
 11
529.1799999999999
 21
122.5009991932415
 31
0.0
  0
LINE
  5
B5
330
2
100
AcDbEntity
  8
L-ZISSEN
100
AcDbLine
 10
545.1799999999999
 20
114.5009991932415
 30
0.0
 11
545.1799999999999
 21
114.0009991932415
 31
0.0
  0
LINE
  5
B6
330
2
100
AcDbEntity
  8
PV
 62
     7
100
AcDbLine
 10
545.1799999999999
 20
114.5009991932415
 30
0.0
 11
545.1799999999999
 21
122.5009991932415
 31
0.0
  0
LINE
  5
B7
330
2
100
AcDbEntity
  8
L-ZISSEN
100
AcDbLine
 10
467.324661
 20
314.3563381932415
 30
0.0
 11
437.324661
 21
314.3563381932415
 31
0.0
  0
TEXT
  5
B8
330
2
100
AcDbEntity
  8
L-ZISSEN
100
AcDbText
 10
439.0438512424302
 20
306.5798040117915
 30
0.0
 40
4.5
  1
Rc3/8
100
AcDbText
  0
TEXT
  5
B9
330
2
100
AcDbEntity
  8
L-ZISSEN
100
AcDbText
 10
437.7781745840593
 20
315.4294493985298
 30
0.0
 40
4.5
  1
AIR IN
100
AcDbText
  0
LINE
  5
BA
330
2
100
AcDbEntity
  8
PV
 62
     7
100
AcDbLine
 10
525.9780000000001
 20
253.0009991932415
 30
0.0
 11
504.18
 21
253.0009991932415
 31
0.0
  0
LINE
  5
BB
330
2
100
AcDbEntity
  8
PV
 62
     7
100
AcDbLine
 10
521.7369999999999
 20
256.5009991932415
 30
0.0
 11
504.18
 21
256.5009991932415
 31
0.0
  0
CIRCLE
  5
BC
330
2
100
AcDbEntity
  8
PV
 62
     7
100
AcDbCircle
 10
535.1799999999999
 20
268.5009991932415
 30
0.0
 40
18.0
  0
LINE
  5
BE
330
2
100
AcDbEntity
  8
PV
 62
     7
100
AcDbLine
 10
514.6799999999999
 20
322.2009991932415
 30
0.0
 11
555.6799999999999
 21
322.2009991932415
 31
0.0
  0
LINE
  5
BF
330
2
100
AcDbEntity
  8
PV
 62
     7
100
AcDbLine
 10
502.68
 20
257.0009991932415
 30
0.0
 11
521.3079999999999
 21
257.0009991932415
 31
0.0
  0
LINE
  5
C0
330
2
100
AcDbEntity
  8
PV
 62
     7
100
AcDbLine
 10
502.68
 20
307.0009991932415
 30
0.0
 11
561.1799999999999
 21
307.0009991932415
 31
0.0
  0
INSERT
  5
C1
330
2
100
AcDbEntity
  8
L-ZISSEN
100
AcDbBlockReference
  2
_OPEN
 10
502.68
 20
279.0009991932415
 30
0.0
 41
4.5
 42
4.5
 43
4.5
 50
314.9999999999999
  0
LINE
  5
C8
330
2
100
AcDbEntity
  8
PV
 62
     7
100
AcDbLine
 10
502.68
 20
307.0009991932415
 30
0.0
 11
502.68
 21
257.0009991932415
 31
0.0
  0
LINE
  5
C9
330
2
100
AcDbEntity
  8
PV
 62
     7
100
AcDbLine
 10
504.18
 20
256.5009991932415
 30
0.0
 11
504.18
 21
253.0009991932415
 31
0.0
  0
LINE
  5
CA
330
2
100
AcDbEntity
  8
L-ZISSEN
100
AcDbLine
 10
499.4980194846605
 20
282.1829797085809
 30
0.0
 11
467.324661
 21
314.3563381932415
 31
0.0
  0
LINE
  5
CB
330
2
100
AcDbEntity
  8
PV
 62
     7
100
AcDbLine
 10
514.6799999999999
 20
319.0009991932415
 30
0.0
 11
514.6799999999999
 21
322.2009991932415
 31
0.0
  0
LINE
  5
CD
330
2
100
AcDbEntity
  8
PV
 62
     7
100
AcDbLine
 10
570.1799999999999
 20
295.5009991932415
 30
0.0
 11
570.1799999999999
 21
266.5009991932415
 31
0.0
  0
LINE
  5
CE
330
2
100
AcDbEntity
  8
PV
 62
     7
100
AcDbLine
 10
561.1799999999999
 20
257.0009991932415
 30
0.0
 11
561.1799999999999
 21
307.0009991932415
 31
0.0
  0
LINE
  5
CF
330
2
100
AcDbEntity
  8
PV
 62
     7
100
AcDbLine
 10
542.9169999999999
 20
256.0939991932416
 30
0.0
 11
527.2599999999999
 21
281.1999991932415
 31
0.0
  0
ARC
  5
D0
330
2
100
AcDbEntity
  8
PV
 62
     7
100
AcDbCircle
 10
573.1799999999999
 20
266.5009991932415
 30
0.0
 40
3.0
100
AcDbArc
 50
180.0
 51
270.0
  0
LINE
  5
D2
330
2
100
AcDbEntity
  8
PV
 62
     7
100
AcDbLine
 10
554.1799999999999
 20
325.0009991932415
 30
0.0
 11
545.1799999999999
 21
325.0009991932415
 31
0.0
  0
LINE
  5
D3
330
2
100
AcDbEntity
  8
PV
 62
     7
100
AcDbLine
 10
522.1799999999999
 20
322.2009991932415
 30
0.0
 11
522.1799999999999
 21
325.0009991932415
 31
0.0
  0
LINE
  5
D4
330
2
100
AcDbEntity
  8
PV
 62
     7
100
AcDbLine
 10
525.1799999999999
 20
322.2009991932415
 30
0.0
 11
525.1799999999999
 21
345.0009991932415
 31
0.0
  0
LINE
  5
D5
330
2
100
AcDbEntity
  8
PV
 62
     7
100
AcDbLine
 10
525.1799999999999
 20
325.0009991932415
 30
0.0
 11
522.1799999999999
 21
325.0009991932415
 31
0.0
  0
LINE
  5
D6
330
2
100
AcDbEntity
  8
PV
 62
     7
100
AcDbLine
 10
545.1799999999999
 20
322.2009991932415
 30
0.0
 11
545.1799999999999
 21
345.0009991932415
 31
0.0
  0
LINE
  5
D7
330
2
100
AcDbEntity
  8
PV
 62
     7
100
AcDbLine
 10
555.6799999999999
 20
319.0009991932415
 30
0.0
 11
555.6799999999999
 21
322.2009991932415
 31
0.0
  0
ARC
  5
D9
330
2
100
AcDbEntity
  8
PV
 62
     7
100
AcDbCircle
 10
573.1799999999999
 20
295.5009991932415
 30
0.0
 40
3.0
100
AcDbArc
 50
90.0
 51
180.0
  0
LINE
  5
DA
330
2
100
AcDbEntity
  8
PV
 62
     7
100
AcDbLine
 10
554.1799999999999
 20
322.2009991932415
 30
0.0
 11
554.1799999999999
 21
325.0009991932415
 31
0.0
  0
LINE
  5
DB
330
2
100
AcDbEntity
  8
PV
 62
     7
100
AcDbLine
 10
656.6799999999999
 20
253.0009991932415
 30
0.0
 11
654.4020894941634
 21
122.5009991932415
 31
0.0
  0
LINE
  5
DC
330
2
100
AcDbEntity
  8
PV
 62
     7
100
AcDbLine
 10
665.6799999999999
 20
253.0009991932415
 30
0.0
 11
663.4020894941634
 21
122.5009991932415
 31
0.0
  0
LINE
  5
DD
330
2
100
AcDbEntity
  8
PV
 62
     7
100
AcDbLine
 10
582.706
 20
253.0009991932415
 30
0.0
 11
581.5665369649805
 21
122.5009991932415
 31
0.0
  0
LINE
  5
DE
330
2
100
AcDbEntity
  8
PV
 62
     7
100
AcDbLine
 10
591.654284842264
 20
253.0009991932415
 30
0.0
 11
592.7934586016768
 21
122.5009991932415
 31
0.0
  0
LINE
  5
DF
330
2
100
AcDbEntity
  8
L-ZISSEN
100
AcDbLine
 10
629.1799999999999
 20
114.0009991932415
 30
0.0
 11
645.1799999999998
 21
114.0009991932415
 31
0.0
  0
LINE
  5
E0
330
2
100
AcDbEntity
  8
PV
 62
     7
100
AcDbLine
 10
595.1799999999999
 20
117.5009991932415
 30
0.0
 11
579.1799999999999
 21
117.5009991932415
 31
0.0
  0
LINE
  5
E1
330
2
100
AcDbEntity
  8
PV
 62
     7
100
AcDbLine
 10
579.1799999999999
 20
117.5009991932415
 30
0.0
 11
579.1799999999999
 21
122.5009991932415
 31
0.0
  0
LINE
  5
E2
330
2
100
AcDbEntity
  8
PV
 62
     7
100
AcDbLine
 10
595.1799999999999
 20
117.5009991932415
 30
0.0
 11
595.1799999999999
 21
122.5009991932415
 31
0.0
  0
LINE
  5
E3
330
2
100
AcDbEntity
  8
L-ZISSEN
100
AcDbLine
 10
629.1799999999999
 20
114.5009991932415
 30
0.0
 11
629.1799999999999
 21
114.0009991932415
 31
0.0
  0
LINE
  5
E4
330
2
100
AcDbEntity
  8
PV
 62
     7
100
AcDbLine
 10
629.1799999999999
 20
114.5009991932415
 30
0.0
 11
629.1799999999999
 21
122.5009991932415
 31
0.0
  0
LINE
  5
E5
330
2
100
AcDbEntity
  8
L-ZISSEN
100
AcDbLine
 10
645.1799999999999
 20
114.5009991932415
 30
0.0
 11
645.1799999999999
 21
114.0009991932415
 31
0.0
  0
LINE
  5
E6
330
2
100
AcDbEntity
  8
PV
 62
     7
100
AcDbLine
 10
645.1799999999999
 20
114.5009991932415
 30
0.0
 11
645.1799999999999
 21
122.5009991932415
 31
0.0
  0
LINE
  5
E7
330
2
100
AcDbEntity
  8
PV
 62
     7
100
AcDbLine
 10
698.6799999999999
 20
229.0009991932415
 30
0.0
 11
674.6799999999999
 21
229.0009991932415
 31
0.0
  0
LINE
  5
E8
330
2
100
AcDbEntity
  8
PV
 62
     7
100
AcDbLine
 10
674.6799999999999
 20
244.0009991932415
 30
0.0
 11
698.6799999999999
 21
244.0009991932415
 31
0.0
  0
LINE
  5
E9
330
2
100
AcDbEntity
  8
PV
 62
     7
100
AcDbLine
 10
700.1799999999999
 20
249.0009991932415
 30
0.0
 11
673.1799999999999
 21
249.0009991932415
 31
0.0
  0
LINE
  5
EA
330
2
100
AcDbEntity
  8
PV
 62
     7
100
AcDbLine
 10
549.0273824241261
 20
257.0009991932415
 30
0.0
 11
700.6799999999999
 21
257.0009991932415
 31
0.0
  0
LINE
  5
EB
330
2
100
AcDbEntity
  8
PV
 62
     7
100
AcDbLine
 10
561.1799999999999
 20
263.0009991932415
 30
0.0
 11
689.6799999999999
 21
263.0009991932415
 31
0.0
  0
LINE
  5
EC
330
2
100
AcDbEntity
  8
PV
 62
     7
100
AcDbLine
 10
703.1799999999999
 20
306.5009991932415
 30
0.0
 11
611.6799999999999
 21
306.5009991932415
 31
0.0
  0
LINE
  5
ED
330
2
100
AcDbEntity
  8
PV
 62
     7
100
AcDbLine
 10
689.6799999999999
 20
299.0009991932415
 30
0.0
 11
611.6799999999999
 21
299.0009991932415
 31
0.0
  0
LINE
  5
EE
330
2
100
AcDbEntity
  8
PV
 62
     7
100
AcDbLine
 10
703.1799999999999
 20
302.0009991932415
 30
0.0
 11
611.6799999999999
 21
302.0009991932415
 31
0.0
  0
LINE
  5
EF
330
2
100
AcDbEntity
  8
PV
 62
     7
100
AcDbLine
 10
674.6799999999999
 20
244.0009991932415
 30
0.0
 11
674.6799999999999
 21
229.0009991932415
 31
0.0
  0
LINE
  5
F1
330
2
100
AcDbEntity
  8
PV
 62
     7
100
AcDbLine
 10
670.1799999999999
 20
256.5009991932415
 30
0.0
 11
548.5964078649987
 21
256.5009991932415
 31
0.0
  0
LINE
  5
F2
330
2
100
AcDbEntity
  8
PV
 62
     7
100
AcDbLine
 10
577.6799999999999
 20
281.0009991932415
 30
0.0
 11
577.6799999999999
 21
290.7979991932415
 31
0.0
  0
LINE
  5
F3
330
2
100
AcDbEntity
  8
PV
 62
     7
100
AcDbLine
 10
611.6799999999999
 20
281.0009991932415
 30
0.0
 11
611.6799999999999
 21
323.5009991932415
 31
0.0
  0
LINE
  5
F4
330
2
100
AcDbEntity
  8
PV
 62
     7
100
AcDbLine
 10
619.1799999999999
 20
266.5009991932415
 30
0.0
 11
619.1799999999999
 21
295.5009991932415
 31
0.0
  0
ARC
  5
F7
330
2
100
AcDbEntity
  8
PV
 62
     7
100
AcDbCircle
 10
594.6799999999999
 20
281.0009991932415
 30
0.0
 40
17.0
100
AcDbArc
 50
180.0
 51
0.0
  0
LINE
  5
F8
330
2
100
AcDbEntity
  8
PV
 62
     7
100
AcDbLine
 10
616.1799999999999
 20
263.5009991932415
 30
0.0
 11
573.1799999999999
 21
263.5009991932415
 31
0.0
  0
CIRCLE
  5
10E
330
2
100
AcDbEntity
  8
PV
 62
     7
100
AcDbCircle
 10
615.1799999999999
 20
268.5009991932415
 30
0.0
 40
3.799999999999999
  0
ARC
  5
10F
330
2
100
AcDbEntity
  8
PV
 62
     7
100
AcDbCircle
 10
616.1799999999999
 20
266.5009991932415
 30
0.0
 40
3.0
100
AcDbArc
 50
270.0
 51
0.0
  0
LINE
  5
110
330
2
100
AcDbEntity
  8
PV
 62
     7
100
AcDbLine
 10
580.1799999999999
 20
331.5009991932415
 30
0.0
 11
609.1799999999999
 21
331.5009991932415
 31
0.0
  0
LINE
  5
111
330
2
100
AcDbEntity
  8
PV
 62
     7
100
AcDbLine
 10
577.6799999999999
 20
323.5009991932415
 30
0.0
 11
611.6799999999999
 21
323.5009991932415
 31
0.0
  0
LINE
  5
112
330
2
100
AcDbEntity
  8
PV
 62
     7
100
AcDbLine
 10
577.6799999999999
 20
296.4549991932415
 30
0.0
 11
577.6799999999999
 21
323.5009991932415
 31
0.0
  0
ARC
  5
113
330
2
100
AcDbEntity
  8
PV
 62
     7
100
AcDbCircle
 10
574.1799999999999
 20
293.5009991932415
 30
0.0
 40
4.5
100
AcDbArc
 50
321.058
 51
38.94239999999999
  0
ARC
  5
114
330
2
100
AcDbEntity
  8
PV
 62
     7
100
AcDbCircle
 10
580.1799999999999
 20
330.0009991932415
 30
0.0
 40
1.5
100
AcDbArc
 50
90.0
 51
180.0
  0
LINE
  5
115
330
2
100
AcDbEntity
  8
PV
 62
     7
100
AcDbLine
 10
578.6799999999999
 20
330.0009991932415
 30
0.0
 11
578.6799999999999
 21
323.5009991932415
 31
0.0
  0
LINE
  5
116
330
2
100
AcDbEntity
  8
PV
 62
     7
100
AcDbLine
 10
616.1799999999999
 20
298.5009991932415
 30
0.0
 11
611.6799999999999
 21
298.5009991932415
 31
0.0
  0
ARC
  5
117
330
2
100
AcDbEntity
  8
PV
 62
     7
100
AcDbCircle
 10
616.1799999999999
 20
295.5009991932415
 30
0.0
 40
3.0
100
AcDbArc
 50
0.0
 51
90.0
  0
ARC
  5
118
330
2
100
AcDbEntity
  8
PV
 62
     7
100
AcDbCircle
 10
609.1799999999999
 20
330.0009991932415
 30
0.0
 40
1.5
100
AcDbArc
 50
0.0
 51
90.0
  0
LINE
  5
119
330
2
100
AcDbEntity
  8
PV
 62
     7
100
AcDbLine
 10
610.6799999999999
 20
330.0009991932415
 30
0.0
 11
610.6799999999999
 21
323.5009991932415
 31
0.0
  0
LINE
  5
11A
330
2
100
AcDbEntity
  8
PV
 62
     7
100
AcDbLine
 10
673.1799999999999
 20
257.0009991932415
 30
0.0
 11
673.1799999999999
 21
249.0009991932415
 31
0.0
  0
LINE
  5
11B
330
2
100
AcDbEntity
  8
PV
 62
     7
100
AcDbLine
 10
670.1799999999999
 20
256.5009991932415
 30
0.0
 11
670.1799999999999
 21
253.0009991932415
 31
0.0
  0
LINE
  5
11C
330
2
100
AcDbEntity
  8
PV
 62
     7
100
AcDbLine
 10
676.6799999999999
 20
244.0009991932415
 30
0.0
 11
676.6799999999999
 21
249.0009991932415
 31
0.0
  0
LINE
  5
11D
330
2
100
AcDbEntity
  8
PV
  6
CENTER
 62
     1
100
AcDbLine
 10
686.6799999999999
 20
260.2829355643209
 30
0.0
 11
686.6799999999999
 21
224.0009991932415
 31
0.0
  0
LINE
  5
11E
330
2
100
AcDbEntity
  8
PV
 62
     7
100
AcDbLine
 10
698.6799999999999
 20
244.0009991932415
 30
0.0
 11
698.6799999999999
 21
229.0009991932415
 31
0.0
  0
LINE
  5
11F
330
2
100
AcDbEntity
  8
PV
 62
     7
100
AcDbLine
 10
689.6799999999999
 20
263.0009991932415
 30
0.0
 11
689.6799999999999
 21
299.0009991932415
 31
0.0
  0
LINE
  5
120
330
2
100
AcDbEntity
  8
PV
 62
     7
100
AcDbLine
 10
702.6799999999999
 20
259.0009991932415
 30
0.0
 11
702.6799999999999
 21
300.0009991932415
 31
0.0
  0
LINE
  5
121
330
2
100
AcDbEntity
  8
PV
 62
     7
100
AcDbLine
 10
700.1799999999999
 20
257.0009991932415
 30
0.0
 11
700.1799999999999
 21
249.0009991932415
 31
0.0
  0
LINE
  5
122
330
2
100
AcDbEntity
  8
PV
 62
     7
100
AcDbLine
 10
696.1799999999999
 20
249.0009991932415
 30
0.0
 11
696.1799999999999
 21
244.0009991932415
 31
0.0
  0
ARC
  5
123
330
2
100
AcDbEntity
  8
PV
 62
     7
100
AcDbCircle
 10
700.6799999999999
 20
259.0009991932415
 30
0.0
 40
2.0
100
AcDbArc
 50
270.0
 51
0.0
  0
LINE
  5
124
330
2
100
AcDbEntity
  8
PV
 62
     7
100
AcDbLine
 10
701.8489999999999
 20
306.5009991932415
 30
0.0
 11
701.6739999999999
 21
326.5629991932416
 31
0.0
  0
LINE
  5
125
330
2
100
AcDbEntity
  8
PV
 62
     7
100
AcDbLine
 10
703.1799999999999
 20
302.0009991932415
 30
0.0
 11
703.1799999999999
 21
306.5009991932415
 31
0.0
  0
ARC
  5
126
330
2
100
AcDbEntity
  8
PV
 62
     7
100
AcDbCircle
 10
700.6799999999999
 20
300.0009991932415
 30
0.0
 40
2.0
100
AcDbArc
 50
0.0
 51
90.0
  0
LINE
  5
127
330
2
100
AcDbEntity
  8
PV
 62
     7
100
AcDbLine
 10
570.6799999999999
 20
492.0859991932416
 30
0.0
 11
583.7259999999999
 21
492.0859991932416
 31
0.0
  0
LINE
  5
128
330
2
100
AcDbEntity
  8
PV
  6
CENTER
 62
     1
100
AcDbLine
 10
558.352
 20
572.0859991932416
 30
0.0
 11
600.009
 21
572.0859991932416
 31
0.0
  0
LINE
  5
129
330
2
100
AcDbEntity
  8
PV
  6
CENTER
 62
     1
100
AcDbLine
 10
707.1130000000001
 20
572.0859991932416
 30
0.0
 11
493.14
 21
572.0859991932416
 31
0.0
  0
LINE
  5
12A
330
2
100
AcDbEntity
  8
PV
 62
     7
100
AcDbLine
 10
699.6799999999999
 20
633.0859991932416
 30
0.0
 11
505.6799999999999
 21
633.0859991932416
 31
0.0
  0
LINE
  5
12B
330
2
100
AcDbEntity
  8
PV
 62
     7
100
AcDbLine
 10
563.1799999999999
 20
511.0859991932415
 30
0.0
 11
699.6799999999999
 21
511.0859991932415
 31
0.0
  0
LINE
  5
12C
330
2
100
AcDbEntity
  8
PV
  6
CENTER
 62
     1
100
AcDbLine
 10
516.1799999999999
 20
586.0859991932415
 30
0.0
 11
535.1799999999999
 21
542.0859991932416
 31
0.0
  0
LINE
  5
12D
330
2
100
AcDbEntity
  8
PV
 62
     7
100
AcDbLine
 10
561.1799999999999
 20
513.5859991932416
 30
0.0
 11
561.1799999999999
 21
633.0859991932416
 31
0.0
  0
LINE
  5
12E
330
2
100
AcDbEntity
  8
PV
 62
     7
100
AcDbLine
 10
514.6799999999999
 20
562.5859991932416
 30
0.0
 11
514.6799999999999
 21
521.5859991932416
 31
0.0
  0
CIRCLE
  5
12F
330
2
100
AcDbEntity
  8
PV
 62
     7
100
AcDbCircle
 10
535.1799999999999
 20
542.0859991932416
 30
0.0
 40
10.15
  0
LINE
  5
130
330
2
100
AcDbEntity
  8
PV
 62
     7
100
AcDbLine
 10
555.6799999999999
 20
562.5859991932416
 30
0.0
 11
555.6799999999999
 21
521.5859991932416
 31
0.0
  0
LINE
  5
131
330
2
100
AcDbEntity
  8
PV
 62
     7
100
AcDbLine
 10
502.68
 20
630.0859991932416
 30
0.0
 11
502.68
 21
517.5859991932416
 31
0.0
  0
LINE
  5
132
330
2
100
AcDbEntity
  8
PV
 62
     7
100
AcDbLine
 10
545.1799999999999
 20
341.0009991932416
 30
0.0
 11
564.1799999999999
 21
341.0009991932415
 31
0.0
  0
LINE
  5
133
330
2
100
AcDbEntity
  8
PV
 62
     7
100
AcDbLine
 10
569.1799999999999
 20
355.0009991932415
 30
0.0
 11
539.1799999999999
 21
355.0009991932415
 31
0.0
  0
LINE
  5
134
330
2
100
AcDbEntity
  8
PV
 62
     7
100
AcDbLine
 10
544.1799999999999
 20
349.0009991932415
 30
0.0
 11
564.1799999999999
 21
349.0009991932415
 31
0.0
  0
LINE
  5
135
330
2
100
AcDbEntity
  8
PV
  6
CENTER
 62
     1
100
AcDbLine
 10
568.9619999999999
 20
345.0009991932415
 30
0.0
 11
539.1799999999999
 21
345.0009991932415
 31
0.0
  0
LINE
  5
136
330
2
100
AcDbEntity
  8
PV
 62
     7
100
AcDbLine
 10
538.8799999999999
 20
359.5009991932415
 30
0.0
 11
531.4799999999999
 21
359.5009991932415
 31
0.0
  0
LINE
  5
137
330
2
100
AcDbEntity
  8
PV
 62
     7
100
AcDbLine
 10
543.1799999999999
 20
347.0009991932415
 30
0.0
 11
527.1799999999999
 21
347.0009991932415
 31
0.0
  0
LINE
  5
13A
330
2
100
AcDbEntity
  8
PV
 62
     7
100
AcDbLine
 10
531.1799999999999
 20
359.2009991932415
 30
0.0
 11
531.4799999999999
 21
359.5009991932415
 31
0.0
  0
ARC
  5
13B
330
2
100
AcDbEntity
  8
PV
 62
     7
100
AcDbCircle
 10
544.1799999999999
 20
345.0009991932415
 30
0.0
 40
4.0
100
AcDbArc
 50
90.0
 51
150.0000000000002
  0
LINE
  5
13C
330
2
100
AcDbEntity
  8
PV
  6
CENTER
 62
     1
100
AcDbLine
 10
544.1799999999999
 20
351.5379991932416
 30
0.0
 11
544.1799999999999
 21
338.4629991932416
 31
0.0
  0
LINE
  5
13E
330
2
100
AcDbEntity
  8
PV
 62
     7
100
AcDbLine
 10
539.1799999999999
 20
347.0009991932415
 30
0.0
 11
539.1799999999999
 21
359.2009991932416
 31
0.0
  0
LINE
  5
13F
330
2
100
AcDbEntity
  8
PV
 62
     7
100
AcDbLine
 10
538.8799999999999
 20
359.5009991932415
 30
0.0
 11
539.1799999999999
 21
359.2009991932415
 31
0.0
  0
LINE
  5
142
330
2
100
AcDbEntity
  8
PV
  6
CENTER
 62
     1
100
AcDbLine
 10
554.1799999999999
 20
351.5379991932416
 30
0.0
 11
554.1799999999999
 21
338.4629991932416
 31
0.0
  0
LINE
  5
143
330
2
100
AcDbEntity
  8
PV
  6
CENTER
 62
     1
100
AcDbLine
 10
564.1799999999999
 20
351.5379991932416
 30
0.0
 11
564.1799999999999
 21
338.4629991932416
 31
0.0
  0
ARC
  5
144
330
2
100
AcDbEntity
  8
PV
 62
     7
100
AcDbCircle
 10
564.1799999999999
 20
345.0009991932415
 30
0.0
 40
4.0
100
AcDbArc
 50
270.0
 51
90.0
  0
LINE
  5
145
330
2
100
AcDbEntity
  8
PV
 62
     7
100
AcDbLine
 10
569.1799999999999
 20
355.0009991932415
 30
0.0
 11
572.1799999999999
 21
352.0009991932415
 31
0.0
  0
LINE
  5
146
330
2
100
AcDbEntity
  8
PV
 62
     7
100
AcDbLine
 10
559.1799999999999
 20
515.5859991932415
 30
0.0
 11
504.68
 21
515.5859991932415
 31
0.0
  0
LINE
  5
147
330
2
100
AcDbEntity
  8
PV
 62
     7
100
AcDbLine
 10
553.1799999999999
 20
484.0859991932416
 30
0.0
 11
517.1799999999999
 21
484.0859991932416
 31
0.0
  0
LINE
  5
148
330
2
100
AcDbEntity
  8
PV
 62
     7
100
AcDbLine
 10
553.1799999999999
 20
506.0859991932415
 30
0.0
 11
517.1799999999999
 21
506.0859991932415
 31
0.0
  0
LINE
  5
149
330
2
100
AcDbEntity
  8
PV
 62
     7
100
AcDbLine
 10
555.6799999999999
 20
521.5859991932416
 30
0.0
 11
514.6799999999999
 21
521.5859991932416
 31
0.0
  0
LINE
  5
14A
330
2
100
AcDbEntity
  8
PV
 62
     7
100
AcDbLine
 10
517.1799999999999
 20
484.0859991932416
 30
0.0
 11
517.1799999999999
 21
506.0859991932415
 31
0.0
  0
ARC
  5
14B
330
2
100
AcDbEntity
  8
PV
 62
     7
100
AcDbCircle
 10
504.68
 20
517.5859991932416
 30
0.0
 40
2.0
100
AcDbArc
 50
180.0
 51
270.0
  0
LINE
  5
14C
330
2
100
AcDbEntity
  8
PV
 62
     7
100
AcDbLine
 10
553.1799999999999
 20
484.0859991932416
 30
0.0
 11
553.1799999999999
 21
506.0859991932415
 31
0.0
  0
LINE
  5
14D
330
2
100
AcDbEntity
  8
PV
 62
     7
100
AcDbLine
 10
541.1799999999999
 20
512.0859991932416
 30
0.0
 11
529.1799999999999
 21
512.0859991932416
 31
0.0
  0
LINE
  5
14E
330
2
100
AcDbEntity
  8
PV
 62
     7
100
AcDbLine
 10
530.1799999999999
 20
512.0859991932416
 30
0.0
 11
530.1799999999999
 21
515.5859991932415
 31
0.0
  0
LINE
  5
14F
330
2
100
AcDbEntity
  8
PV
 62
     7
100
AcDbLine
 10
529.1799999999999
 20
506.0859991932415
 30
0.0
 11
529.1799999999999
 21
512.0859991932416
 31
0.0
  0
LINE
  5
150
330
2
100
AcDbEntity
  8
PV
 62
     7
100
AcDbLine
 10
540.1799999999999
 20
512.0859991932416
 30
0.0
 11
540.1799999999999
 21
515.5859991932415
 31
0.0
  0
LINE
  5
151
330
2
100
AcDbEntity
  8
PV
 62
     7
100
AcDbLine
 10
541.1799999999999
 20
506.0859991932415
 30
0.0
 11
541.1799999999999
 21
512.0859991932416
 31
0.0
  0
ARC
  5
152
330
2
100
AcDbEntity
  8
PV
 62
     7
100
AcDbCircle
 10
559.1799999999999
 20
513.5859991932416
 30
0.0
 40
2.0
100
AcDbArc
 50
0.0
 51
90.0
  0
LINE
  5
153
330
2
100
AcDbEntity
  8
PV
 62
     7
100
AcDbLine
 10
570.1799999999999
 20
492.5859991932416
 30
0.0
 11
570.1799999999999
 21
511.0859991932415
 31
0.0
  0
ARC
  5
154
330
2
100
AcDbEntity
  8
PV
 62
     7
100
AcDbCircle
 10
570.6799999999999
 20
492.5859991932416
 30
0.0
 40
0.5
100
AcDbArc
 50
180.0
 51
270.0
  0
ARC
  5
155
330
2
100
AcDbEntity
  8
PV
 62
     7
100
AcDbCircle
 10
563.1799999999999
 20
513.0859991932416
 30
0.0
 40
2.0
100
AcDbArc
 50
180.0
 51
270.0
  0
LINE
  5
156
330
2
100
AcDbEntity
  8
PV
 62
     7
100
AcDbLine
 10
561.1799999999999
 20
513.5859991932416
 30
0.0
 11
561.1799999999999
 21
513.0859991932416
 31
0.0
  0
CIRCLE
  5
157
330
2
100
AcDbEntity
  8
PV
 62
     7
100
AcDbCircle
 10
550.9299999999999
 20
526.3359991932416
 30
0.0
 40
4.0
  0
TEXT
  5
158
330
2
100
AcDbEntity
  8
L-ZISSEN
100
AcDbText
 10
418.8852807478443
 20
605.4831538885166
 30
0.0
 40
4.5
  1
MC9-01L3-*B04
100
AcDbText
  0
TEXT
  5
159
330
2
100
AcDbEntity
  8
L-ZISSEN
100
AcDbText
 10
418.8852807478443
 20
613.4831538885166
 30
0.0
 40
4.5
  1
MC9-01L3-*B03
100
AcDbText
  0
TEXT
  5
15A
330
2
100
AcDbEntity
  8
L-ZISSEN
100
AcDbText
 10
418.8852807478443
 20
621.4831538885166
 30
0.0
 40
4.5
  1
MC9-01L3-*B02
100
AcDbText
  0
TEXT
  5
15B
330
2
100
AcDbEntity
  8
L-ZISSEN
100
AcDbText
 10
419.1235987217037
 20
631.2429782138845
 30
0.0
 40
4.5
  1
MODEL NO.
100
AcDbText
  0
LINE
  5
15C
330
2
100
AcDbEntity
  8
L-ZISSEN
100
AcDbLine
 10
529.4106212104276
 20
623.1269566320943
 30
0.0
 11
499.2842660564239
 21
661.6475028059333
 31
0.0
  0
LINE
  5
15D
330
2
100
AcDbEntity
  8
PV
  6
CENTER
 62
     1
100
AcDbLine
 10
554.1799999999999
 20
647.9359991932416
 30
0.0
 11
554.1799999999999
 21
637.9359991932416
 31
0.0
  0
LINE
  5
15E
330
2
100
AcDbEntity
  8
PV
 62
     7
100
AcDbLine
 10
520.221
 20
586.0859991932415
 30
0.0
 11
518.201
 21
589.5859991932415
 31
0.0
  0
LINE
  5
15F
330
2
100
AcDbEntity
  8
PV
 62
     7
100
AcDbLine
 10
518.201
 20
582.5859991932416
 30
0.0
 11
520.221
 21
586.0859991932415
 31
0.0
  0
LINE
  5
160
330
2
100
AcDbEntity
  8
PV
 62
     7
100
AcDbLine
 10
514.6799999999999
 20
562.5859991932416
 30
0.0
 11
555.6799999999999
 21
562.5859991932416
 31
0.0
  0
CIRCLE
  5
161
330
2
100
AcDbEntity
  8
PV
 62
     7
100
AcDbCircle
 10
519.4299999999999
 20
557.8359991932416
 30
0.0
 40
4.0
  0
CIRCLE
  5
162
330
2
100
AcDbEntity
  8
PV
 62
     7
100
AcDbCircle
 10
520.4299999999999
 20
627.8359991932416
 30
0.0
 40
4.0
  0
ARC
  5
163
330
2
100
AcDbEntity
  8
PV
 62
     7
100
AcDbCircle
 10
520.1799999999999
 20
627.5859991932415
 30
0.0
 40
5.0
100
AcDbArc
 50
90.0
 51
180.0
  0
ARC
  5
164
330
2
100
AcDbEntity
  8
PV
 62
     7
100
AcDbCircle
 10
520.1799999999999
 20
596.5859991932416
 30
0.0
 40
5.0
100
AcDbArc
 50
180.0
 51
270.0
  0
CIRCLE
  5
165
330
2
100
AcDbEntity
  8
PV
 62
     7
100
AcDbCircle
 10
520.4299999999999
 20
596.3359991932415
 30
0.0
 40
4.0
  0
LINE
  5
166
330
2
100
AcDbEntity
  8
PV
  6
CENTER
 62
     1
100
AcDbLine
 10
513.1799999999999
 20
612.0859991932416
 30
0.0
 11
563.1799999999999
 21
612.0859991932416
 31
0.0
  0
LINE
  5
167
330
2
100
AcDbEntity
  8
PV
 62
     7
100
AcDbLine
 10
512.1389999999999
 20
586.0859991932415
 30
0.0
 11
514.1589999999999
 21
582.5859991932416
 31
0.0
  0
LINE
  5
168
330
2
100
AcDbEntity
  8
PV
 62
     7
100
AcDbLine
 10
514.1589999999999
 20
589.5859991932415
 30
0.0
 11
512.1389999999999
 21
586.0859991932415
 31
0.0
  0
LINE
  5
169
330
2
100
AcDbEntity
  8
PV
 62
     7
100
AcDbLine
 10
518.201
 20
589.5859991932415
 30
0.0
 11
514.1589999999999
 21
589.5859991932415
 31
0.0
  0
LINE
  5
16A
330
2
100
AcDbEntity
  8
PV
 62
     7
100
AcDbLine
 10
514.1589999999999
 20
582.5859991932416
 30
0.0
 11
518.201
 21
582.5859991932416
 31
0.0
  0
LINE
  5
16B
330
2
100
AcDbEntity
  8
PV
 62
     7
100
AcDbLine
 10
515.1799999999999
 20
627.5859991932415
 30
0.0
 11
515.1799999999999
 21
596.5859991932416
 31
0.0
  0
ARC
  5
16C
330
2
100
AcDbEntity
  8
PV
 62
     7
100
AcDbCircle
 10
505.6799999999999
 20
630.0859991932416
 30
0.0
 40
3.0
100
AcDbArc
 50
90.0
 51
180.0
  0
ARC
  5
16D
330
2
100
AcDbEntity
  8
PV
 62
     7
100
AcDbCircle
 10
556.1799999999999
 20
596.5859991932416
 30
0.0
 40
5.0
100
AcDbArc
 50
270.0
 51
0.0
  0
LINE
  5
16E
330
2
100
AcDbEntity
  8
PV
  6
CENTER
 62
     1
100
AcDbLine
 10
538.1799999999999
 20
637.0859991932416
 30
0.0
 11
538.1799999999999
 21
587.0859991932416
 31
0.0
  0
CIRCLE
  5
16F
330
2
100
AcDbEntity
  8
PV
 62
     7
100
AcDbCircle
 10
555.9299999999999
 20
596.3359991932415
 30
0.0
 40
4.0
  0
CIRCLE
  5
170
330
2
100
AcDbEntity
  8
PV
 62
     7
100
AcDbCircle
 10
538.1799999999999
 20
577.5859991932415
 30
0.0
 40
9.0
  0
LINE
  5
171
330
2
100
AcDbEntity
  8
PV
 62
     7
100
AcDbLine
 10
556.1799999999999
 20
591.5859991932416
 30
0.0
 11
520.1799999999999
 21
591.5859991932416
 31
0.0
  0
CIRCLE
  5
172
330
2
100
AcDbEntity
  8
PV
 62
     7
100
AcDbCircle
 10
538.1799999999999
 20
577.5859991932415
 30
0.0
 40
4.75
  0
LINE
  5
173
330
2
100
AcDbEntity
  8
PV
 62
     7
100
AcDbLine
 10
533.205
 20
570.0859991932416
 30
0.0
 11
543.1549999999999
 21
570.0859991932416
 31
0.0
  0
LINE
  5
174
330
2
100
AcDbEntity
  8
PV
 62
     7
100
AcDbLine
 10
533.205
 20
585.0859991932416
 30
0.0
 11
543.1549999999999
 21
585.0859991932416
 31
0.0
  0
LINE
  5
175
330
2
100
AcDbEntity
  8
PV
 62
     7
100
AcDbLine
 10
536.1799999999999
 20
644.0859991932415
 30
0.0
 11
572.1799999999999
 21
644.0859991932415
 31
0.0
  0
LINE
  5
176
330
2
100
AcDbEntity
  8
PV
 62
     7
100
AcDbLine
 10
536.1799999999999
 20
641.7859991932417
 30
0.0
 11
572.1799999999999
 21
641.7859991932417
 31
0.0
  0
CIRCLE
  5
177
330
2
100
AcDbEntity
  8
PV
 62
     7
100
AcDbCircle
 10
538.1799999999999
 20
612.0859991932416
 30
0.0
 40
16.0
  0
LINE
  5
178
330
2
100
AcDbEntity
  8
PV
 62
     7
100
AcDbLine
 10
556.1799999999999
 20
632.5859991932416
 30
0.0
 11
520.1799999999999
 21
632.5859991932416
 31
0.0
  0
CIRCLE
  5
179
330
2
100
AcDbEntity
  8
PV
 62
     7
100
AcDbCircle
 10
538.1799999999999
 20
612.0859991932416
 30
0.0
 40
9.599999999999999
  0
INSERT
  5
17A
330
2
100
AcDbEntity
  8
L-ZISSEN
100
AcDbBlockReference
  2
_OPEN
 10
532.182857800196
 20
619.5822839687374
 30
0.0
 41
4.5
 42
4.5
 43
4.5
 50
308.0284421712006
  0
CIRCLE
  5
17B
330
2
100
AcDbEntity
  8
PV
 62
     7
100
AcDbCircle
 10
538.1799999999999
 20
612.0859991932416
 30
0.0
 40
5.0
  0
LINE
  5
17C
330
2
100
AcDbEntity
  8
PV
 62
     7
100
AcDbLine
 10
536.1799999999999
 20
633.0859991932416
 30
0.0
 11
536.1799999999999
 21
644.0859991932415
 31
0.0
  0
ARC
  5
17D
330
2
100
AcDbEntity
  8
PV
 62
     7
100
AcDbCircle
 10
556.1799999999999
 20
627.5859991932415
 30
0.0
 40
5.0
100
AcDbArc
 50
0.0
 51
90.0
  0
CIRCLE
  5
17E
330
2
100
AcDbEntity
  8
PV
 62
     7
100
AcDbCircle
 10
555.9299999999999
 20
627.8359991932416
 30
0.0
 40
4.0
  0
LINE
  5
17F
330
2
100
AcDbEntity
  8
PV
 62
     7
100
AcDbLine
 10
572.1799999999999
 20
633.0859991932416
 30
0.0
 11
572.1799999999999
 21
644.0859991932415
 31
0.0
  0
TEXT
  5
180
330
2
100
AcDbEntity
  8
L-ZISSEN
100
AcDbText
 10
473.5032677665599
 20
653.9460807720331
 30
0.0
 40
4.5
  1
Rc1/2
100
AcDbText
  0
TEXT
  5
181
330
2
100
AcDbEntity
  8
L-ZISSEN
100
AcDbText
 10
469.8891115130304
 20
663.091519744162
 30
0.0
 40
4.5
  1
FOG OUT
100
AcDbText
  0
LINE
  5
182
330
2
100
AcDbEntity
  8
L-ZISSEN
100
AcDbLine
 10
499.2842660564239
 20
661.6475028059333
 30
0.0
 11
468.6843897235171
 21
661.6475028059339
 31
0.0
  0
LINE
  5
183
330
2
100
AcDbEntity
  8
PV
  6
CENTER
 62
     1
100
AcDbLine
 10
686.6799999999999
 20
546.0859991932416
 30
0.0
 11
686.6799999999999
 21
516.0859991932416
 31
0.0
  0
ARC
  5
184
330
2
100
AcDbEntity
  8
PV
 62
     7
100
AcDbCircle
 10
572.8799999999999
 20
549.0859991932416
 30
0.0
 40
17.19999999999999
100
AcDbArc
 50
304.3299999999999
 51
55.67029999999999
  0
LINE
  5
185
330
2
100
AcDbEntity
  8
PV
 62
     7
100
AcDbLine
 10
703.1799999999999
 20
626.5859991932416
 30
0.0
 11
703.1799999999999
 21
517.5859991932416
 31
0.0
  0
ARC
  5
186
330
2
100
AcDbEntity
  8
PV
 62
     7
100
AcDbCircle
 10
572.8799999999999
 20
549.0859991932416
 30
0.0
 40
20.2193
100
AcDbArc
 50
318.792
 51
41.2077
  0
LINE
  5
187
330
2
100
AcDbEntity
  8
PV
 62
     7
100
AcDbLine
 10
697.6679999999999
 20
621.8739991932415
 30
0.0
 11
697.6679999999999
 21
522.2969991932416
 31
0.0
  0
CIRCLE
  5
188
330
2
100
AcDbEntity
  8
L-HASEN
100
AcDbCircle
 10
686.6799999999999
 20
531.0859991932415
 30
0.0
 40
10.5
  0
LINE
  5
18A
330
2
100
AcDbEntity
  8
PV
  6
CENTER
 62
     1
100
AcDbLine
 10
671.6799999999999
 20
531.0859991932415
 30
0.0
 11
701.6799999999999
 21
531.0859991932415
 31
0.0
  0
LINE
  5
18B
330
2
100
AcDbEntity
  8
PV
 62
     7
100
AcDbLine
 10
588.3799999999999
 20
511.7859991932415
 30
0.0
 11
697.3799999999999
 21
511.7859991932415
 31
0.0
  0
LINE
  5
18C
330
2
100
AcDbEntity
  8
PV
 62
     7
100
AcDbLine
 10
692.668
 20
517.2969991932416
 30
0.0
 11
593.0919999999999
 21
517.2969991932416
 31
0.0
  0
LINE
  5
18D
330
2
100
AcDbEntity
  8
PV
 62
     7
100
AcDbLine
 10
588.0913092877286
 20
403.0009991932415
 30
0.0
 11
697.6686782242428
 21
403.0009991932415
 31
0.0
  0
LINE
  5
18E
330
2
100
AcDbEntity
  8
PV
  6
DASHED
 62
     5
100
AcDbLine
 10
646.1799999999999
 20
349.0009991932415
 30
0.0
 11
666.1799999999999
 21
349.0009991932415
 31
0.0
  0
LINE
  5
18F
330
2
100
AcDbEntity
  8
PV
  6
CENTER
 62
     1
100
AcDbLine
 10
670.962
 20
345.0009991932415
 30
0.0
 11
641.1799999999999
 21
345.0009991932415
 31
0.0
  0
LINE
  5
190
330
2
100
AcDbEntity
  8
PV
  6
DASHED
 62
     5
100
AcDbLine
 10
671.1799999999999
 20
355.0009991932415
 30
0.0
 11
641.1799999999999
 21
355.0009991932415
 31
0.0
  0
ARC
  5
191
330
2
100
AcDbEntity
  8
PV
  6
DASHED
 62
     5
100
AcDbCircle
 10
646.1799999999999
 20
345.0009991932415
 30
0.0
 40
4.0
100
AcDbArc
 50
90.0
 51
270.0
  0
LINE
  5
192
330
2
100
AcDbEntity
  8
PV
  6
DASHED
 62
     5
100
AcDbLine
 10
641.1799999999999
 20
355.0009991932415
 30
0.0
 11
638.1799999999999
 21
352.0009991932415
 31
0.0
  0
LINE
  5
193
330
2
100
AcDbEntity
  8
PV
  6
CENTER
 62
     1
100
AcDbLine
 10
646.1799999999999
 20
351.5379991932416
 30
0.0
 11
646.1799999999999
 21
338.4629991932416
 31
0.0
  0
LINE
  5
194
330
2
100
AcDbEntity
  8
PV
  6
CENTER
 62
     1
100
AcDbLine
 10
656.1799999999999
 20
351.5379991932416
 30
0.0
 11
656.1799999999999
 21
338.4629991932416
 31
0.0
  0
LINE
  5
195
330
2
100
AcDbEntity
  8
PV
  6
DASHED
 62
     5
100
AcDbLine
 10
671.1799999999999
 20
355.0009991932415
 30
0.0
 11
674.1799999999999
 21
352.0009991932415
 31
0.0
  0
ARC
  5
196
330
2
100
AcDbEntity
  8
PV
  6
DASHED
 62
     5
100
AcDbCircle
 10
666.1799999999999
 20
345.0009991932415
 30
0.0
 40
4.0
100
AcDbArc
 50
270.0
 51
90.0
  0
LINE
  5
197
330
2
100
AcDbEntity
  8
PV
  6
CENTER
 62
     1
100
AcDbLine
 10
666.1799999999999
 20
351.5379991932416
 30
0.0
 11
666.1799999999999
 21
338.4629991932416
 31
0.0
  0
LINE
  5
198
330
2
100
AcDbEntity
  8
L-ZISSEN
100
AcDbLine
 10
577.6799999999999
 20
479.0859991932416
 30
0.0
 11
577.6799999999999
 21
492.0859991932416
 31
0.0
  0
LINE
  5
199
330
2
100
AcDbEntity
  8
L-ZISSEN
100
AcDbLine
 10
611.6799999999999
 20
479.0859991932416
 30
0.0
 11
611.6799999999999
 21
492.0859991932416
 31
0.0
  0
CIRCLE
  5
19A
330
2
100
AcDbEntity
  8
PV
 62
     7
100
AcDbCircle
 10
594.6799999999999
 20
479.0859991932416
 30
0.0
 40
17.0
  0
ARC
  5
19B
330
2
100
AcDbEntity
  8
PV
 62
     7
100
AcDbCircle
 10
588.3799999999999
 20
517.5859991932416
 30
0.0
 40
5.799999999999999
100
AcDbArc
 50
180.0
 51
270.0
  0
ARC
  5
19C
330
2
100
AcDbEntity
  8
PV
 62
     7
100
AcDbCircle
 10
593.0919999999999
 20
522.2969991932416
 30
0.0
 40
5.0
100
AcDbArc
 50
180.0
 51
270.0
  0
LINE
  5
19D
330
2
100
AcDbEntity
  8
PV
 62
     7
100
AcDbLine
 10
582.58
 20
534.8819991932415
 30
0.0
 11
582.58
 21
517.5859991932416
 31
0.0
  0
LINE
  5
19E
330
2
100
AcDbEntity
  8
PV
 62
     7
100
AcDbLine
 10
588.0919999999999
 20
535.7649991932415
 30
0.0
 11
588.0919999999999
 21
522.2969991932416
 31
0.0
  0
LINE
  5
19F
330
2
100
AcDbEntity
  8
PV
 62
     7
100
AcDbLine
 10
605.634
 20
492.0859991932416
 30
0.0
 11
618.6799999999999
 21
492.0859991932416
 31
0.0
  0
LINE
  5
1A0
330
2
100
AcDbEntity
  8
PV
 62
     7
100
AcDbLine
 10
619.1799999999999
 20
492.5859991932416
 30
0.0
 11
619.1799999999999
 21
511.0859991932415
 31
0.0
  0
ARC
  5
1A1
330
2
100
AcDbEntity
  8
PV
 62
     7
100
AcDbCircle
 10
618.6799999999999
 20
492.5859991932416
 30
0.0
 40
0.5
100
AcDbArc
 50
270.0
 51
0.0
  0
ARC
  5
1A2
330
2
100
AcDbEntity
  8
PV
 62
     7
100
AcDbCircle
 10
697.3799999999999
 20
517.5859991932416
 30
0.0
 40
5.799999999999999
100
AcDbArc
 50
270.0
 51
0.0
  0
ARC
  5
1A3
330
2
100
AcDbEntity
  8
PV
 62
     7
100
AcDbCircle
 10
692.668
 20
522.2969991932416
 30
0.0
 40
5.0
100
AcDbArc
 50
270.0
 51
0.0
  0
ARC
  5
1A4
330
2
100
AcDbEntity
  8
PV
 62
     7
100
AcDbCircle
 10
699.6799999999999
 20
514.0859991932416
 30
0.0
 40
3.0
100
AcDbArc
 50
270.0
 51
0.0
  0
LINE
  5
1A5
330
2
100
AcDbEntity
  8
PV
 62
     7
100
AcDbLine
 10
702.6799999999999
 20
514.0859991932416
 30
0.0
 11
702.6799999999999
 21
515.2299991932416
 31
0.0
  0
LINE
  5
1A6
330
2
100
AcDbEntity
  8
PV
 62
     7
100
AcDbLine
 10
588.3799999999999
 20
632.3859991932416
 30
0.0
 11
697.3799999999999
 21
632.3859991932416
 31
0.0
  0
LINE
  5
1A7
330
2
100
AcDbEntity
  8
PV
 62
     7
100
AcDbLine
 10
692.668
 20
626.8739991932415
 30
0.0
 11
593.0919999999999
 21
626.8739991932415
 31
0.0
  0
LINE
  5
1A8
330
2
100
AcDbEntity
  8
PV
  6
CENTER
 62
     1
100
AcDbLine
 10
656.1799999999999
 20
647.9359991932416
 30
0.0
 11
656.1799999999999
 21
637.9359991932416
 31
0.0
  0
LINE
  5
1A9
330
2
100
AcDbEntity
  8
PV
 62
     7
100
AcDbLine
 10
582.58
 20
626.5859991932416
 30
0.0
 11
582.58
 21
563.2889991932415
 31
0.0
  0
LINE
  5
1AA
330
2
100
AcDbEntity
  8
PV
 62
     7
100
AcDbLine
 10
588.0919999999999
 20
621.8739991932415
 30
0.0
 11
588.0919999999999
 21
562.4059991932415
 31
0.0
  0
ARC
  5
1AB
330
2
100
AcDbEntity
  8
PV
 62
     7
100
AcDbCircle
 10
588.3799999999999
 20
626.5859991932416
 30
0.0
 40
5.799999999999999
100
AcDbArc
 50
90.0
 51
180.0
  0
ARC
  5
1AC
330
2
100
AcDbEntity
  8
PV
 62
     7
100
AcDbCircle
 10
593.0919999999999
 20
621.8739991932415
 30
0.0
 40
5.0
100
AcDbArc
 50
90.0
 51
180.0
  0
LINE
  5
1AD
330
2
100
AcDbEntity
  8
PV
 62
     7
100
AcDbLine
 10
620.6799999999999
 20
643.0859991932416
 30
0.0
 11
610.6799999999999
 21
643.0859991932416
 31
0.0
  0
LINE
  5
1AE
330
2
100
AcDbEntity
  8
PV
 62
     7
100
AcDbLine
 10
610.6799999999999
 20
643.0859991932416
 30
0.0
 11
610.6799999999999
 21
633.0859991932416
 31
0.0
  0
LINE
  5
1AF
330
2
100
AcDbEntity
  8
PV
 62
     7
100
AcDbLine
 10
620.6799999999999
 20
633.0859991932416
 30
0.0
 11
620.6799999999999
 21
643.0859991932416
 31
0.0
  0
LINE
  5
1B0
330
2
100
AcDbEntity
  8
PV
 62
     7
100
AcDbLine
 10
638.1799999999999
 20
641.7859991932417
 30
0.0
 11
674.1799999999999
 21
641.7859991932417
 31
0.0
  0
LINE
  5
1B1
330
2
100
AcDbEntity
  8
PV
 62
     7
100
AcDbLine
 10
638.1799999999999
 20
644.0859991932415
 30
0.0
 11
674.1799999999999
 21
644.0859991932415
 31
0.0
  0
LINE
  5
1B2
330
2
100
AcDbEntity
  8
PV
 62
     7
100
AcDbLine
 10
638.1799999999999
 20
633.0859991932416
 30
0.0
 11
638.1799999999999
 21
644.0859991932415
 31
0.0
  0
LINE
  5
1B3
330
2
100
AcDbEntity
  8
PV
 62
     7
100
AcDbLine
 10
674.1799999999999
 20
633.0859991932416
 30
0.0
 11
674.1799999999999
 21
644.0859991932415
 31
0.0
  0
ARC
  5
1B4
330
2
100
AcDbEntity
  8
PV
 62
     7
100
AcDbCircle
 10
697.3799999999999
 20
626.5859991932416
 30
0.0
 40
5.799999999999999
100
AcDbArc
 50
0.0
 51
90.0
  0
ARC
  5
1B5
330
2
100
AcDbEntity
  8
PV
 62
     7
100
AcDbCircle
 10
692.668
 20
621.8739991932415
 30
0.0
 40
5.0
100
AcDbArc
 50
0.0
 51
90.0
  0
ARC
  5
1B6
330
2
100
AcDbEntity
  8
PV
 62
     7
100
AcDbCircle
 10
699.6799999999999
 20
630.0859991932416
 30
0.0
 40
3.0
100
AcDbArc
 50
0.0
 51
90.0
  0
LINE
  5
1B7
330
2
100
AcDbEntity
  8
PV
 62
     7
100
AcDbLine
 10
702.6799999999999
 20
628.9409991932416
 30
0.0
 11
702.6799999999999
 21
630.0859991932416
 31
0.0
  0
LINE
  5
1C4
330
2
100
AcDbEntity
  8
PV
 62
     7
100
AcDbLine
 10
531.1799999999999
 20
347.0009991932415
 30
0.0
 11
531.1799999999999
 21
359.2009991932416
 31
0.0
  0
LINE
  5
1C5
330
2
100
AcDbEntity
  8
L-ZISSEN
100
AcDbLine
 10
514.6799999999999
 20
319.0009991932415
 30
0.0
 11
555.6799999999999
 21
319.0009991932415
 31
0.0
  0
LINE
  5
1C6
330
2
100
AcDbEntity
  8
L-ZISSEN
100
AcDbLine
 10
561.1799999999999
 20
307.0009991932415
 30
0.0
 11
561.1799999999999
 21
319.0009991932415
 31
0.0
  0
LINE
  5
1C7
330
2
100
AcDbEntity
  8
L-ZISSEN
100
AcDbLine
 10
561.1799999999999
 20
319.0009991932415
 30
0.0
 11
514.1799999999999
 21
319.0009991932415
 31
0.0
  0
LINE
  5
1C8
330
2
100
AcDbEntity
  8
L-ZISSEN
100
AcDbLine
 10
514.1799999999999
 20
319.0009991932415
 30
0.0
 11
514.1799999999999
 21
307.0009991932415
 31
0.0
  0
LINE
  5
1D6
330
2
100
AcDbEntity
  8
PV
 62
     7
100
AcDbLine
 10
601.6799999999999
 20
337.5009991932415
 30
0.0
 11
602.763
 21
336.8759991932415
 31
0.0
  0
LINE
  5
1D7
330
2
100
AcDbEntity
  8
PV
 62
     7
100
AcDbLine
 10
601.6799999999999
 20
331.5009991932415
 30
0.0
 11
602.763
 21
332.1269991932415
 31
0.0
  0
LINE
  5
1D8
330
2
100
AcDbEntity
  8
PV
 62
     7
100
AcDbLine
 10
601.6799999999999
 20
331.5009991932415
 30
0.0
 11
587.6799999999999
 21
331.5009991932415
 31
0.0
  0
LINE
  5
1D9
330
2
100
AcDbEntity
  8
PV
 62
     7
100
AcDbLine
 10
601.6799999999999
 20
337.5009991932415
 30
0.0
 11
587.6799999999999
 21
337.5009991932415
 31
0.0
  0
LINE
  5
1DA
330
2
100
AcDbEntity
  8
PV
 62
     7
100
AcDbLine
 10
586.5969999999999
 20
336.8759991932415
 30
0.0
 11
586.5969999999999
 21
332.1269991932415
 31
0.0
  0
LINE
  5
1DB
330
2
100
AcDbEntity
  8
PV
 62
     7
100
AcDbLine
 10
587.6799999999999
 20
337.5009991932415
 30
0.0
 11
586.5969999999999
 21
336.8759991932415
 31
0.0
  0
LINE
  5
1DC
330
2
100
AcDbEntity
  8
PV
 62
     7
100
AcDbLine
 10
587.6799999999999
 20
331.5009991932415
 30
0.0
 11
586.5969999999999
 21
332.1269991932415
 31
0.0
  0
LINE
  5
1DD
330
2
100
AcDbEntity
  8
PV
 62
     7
100
AcDbLine
 10
598.294
 20
338.9119991932415
 30
0.0
 11
591.066
 21
338.9119991932415
 31
0.0
  0
LINE
  5
1DE
330
2
100
AcDbEntity
  8
PV
 62
     7
100
AcDbLine
 10
591.066
 20
338.9119991932415
 30
0.0
 11
589.6799999999999
 21
338.1119991932415
 31
0.0
  0
LINE
  5
1DF
330
2
100
AcDbEntity
  8
PV
 62
     7
100
AcDbLine
 10
589.6799999999999
 20
337.5009991932415
 30
0.0
 11
589.6799999999999
 21
338.1119991932415
 31
0.0
  0
LINE
  5
1E0
330
2
100
AcDbEntity
  8
PV
 62
     7
100
AcDbLine
 10
598.294
 20
338.9119991932415
 30
0.0
 11
599.6799999999999
 21
338.1119991932415
 31
0.0
  0
LINE
  5
1E1
330
2
100
AcDbEntity
  8
PV
 62
     7
100
AcDbLine
 10
599.6799999999999
 20
337.5009991932415
 30
0.0
 11
599.6799999999999
 21
338.1119991932415
 31
0.0
  0
LINE
  5
1E2
330
2
100
AcDbEntity
  8
PV
 62
     7
100
AcDbLine
 10
602.763
 20
336.8759991932415
 30
0.0
 11
602.763
 21
332.1269991932415
 31
0.0
  0
POLYLINE
  5
211
330
2
100
AcDbEntity
  8
L-ZISSEN
100
AcDb2dPolyline
 66
     1
 10
0.0
 20
0.0
 30
0.0
 70
     1
  0
VERTEX
  5
288
330
211
100
AcDbEntity
  8
L-ZISSEN
100
AcDbVertex
100
AcDb2dVertex
 10
601.6799999999999
 20
483.1274510775689
 30
0.0
  0
VERTEX
  5
289
330
211
100
AcDbEntity
  8
L-ZISSEN
100
AcDbVertex
100
AcDb2dVertex
 10
594.6799999999999
 20
487.1689029618964
 30
0.0
  0
VERTEX
  5
28A
330
211
100
AcDbEntity
  8
L-ZISSEN
100
AcDbVertex
100
AcDb2dVertex
 10
587.6799999999999
 20
483.1274510775689
 30
0.0
  0
VERTEX
  5
28B
330
211
100
AcDbEntity
  8
L-ZISSEN
100
AcDbVertex
100
AcDb2dVertex
 10
587.6799999999999
 20
475.0445473089143
 30
0.0
  0
VERTEX
  5
28C
330
211
100
AcDbEntity
  8
L-ZISSEN
100
AcDbVertex
100
AcDb2dVertex
 10
594.6799999999999
 20
471.0030954245868
 30
0.0
  0
VERTEX
  5
28D
330
211
100
AcDbEntity
  8
L-ZISSEN
100
AcDbVertex
100
AcDb2dVertex
 10
601.6799999999999
 20
475.0445473089142
 30
0.0
  0
SEQEND
  5
28E
330
211
100
AcDbEntity
  8
L-ZISSEN
  0
LINE
  5
213
330
2
100
AcDbEntity
  8
PV
 62
     7
100
AcDbLine
 10
322.2460000000001
 20
336.8759991932415
 30
0.0
 11
322.2460000000001
 21
332.1269991932415
 31
0.0
  0
LINE
  5
214
330
2
100
AcDbEntity
  8
PV
 62
     7
100
AcDbLine
 10
306.08
 20
336.8759991932415
 30
0.0
 11
306.08
 21
332.1269991932415
 31
0.0
  0
LINE
  5
215
330
2
100
AcDbEntity
  8
PV
 62
     7
100
AcDbLine
 10
321.1629999999999
 20
331.5009991932415
 30
0.0
 11
322.2460000000001
 21
332.1269991932415
 31
0.0
  0
LINE
  5
216
330
2
100
AcDbEntity
  8
PV
 62
     7
100
AcDbLine
 10
321.1629999999999
 20
331.5009991932415
 30
0.0
 11
307.163
 21
331.5009991932415
 31
0.0
  0
LINE
  5
217
330
2
100
AcDbEntity
  8
PV
 62
     7
100
AcDbLine
 10
307.163
 20
331.5009991932415
 30
0.0
 11
306.08
 21
332.1269991932415
 31
0.0
  0
LINE
  5
218
330
2
100
AcDbEntity
  8
PV
 62
     7
100
AcDbLine
 10
321.1629999999999
 20
337.5009991932415
 30
0.0
 11
322.2460000000001
 21
336.8759991932415
 31
0.0
  0
LINE
  5
219
330
2
100
AcDbEntity
  8
PV
 62
     7
100
AcDbLine
 10
321.1629999999999
 20
337.5009991932415
 30
0.0
 11
307.163
 21
337.5009991932415
 31
0.0
  0
LINE
  5
21A
330
2
100
AcDbEntity
  8
PV
 62
     7
100
AcDbLine
 10
307.163
 20
337.5009991932415
 30
0.0
 11
306.08
 21
336.8759991932415
 31
0.0
  0
LINE
  5
21B
330
2
100
AcDbEntity
  8
PV
 62
     7
100
AcDbLine
 10
317.777
 20
338.9119991932415
 30
0.0
 11
310.549
 21
338.9119991932415
 31
0.0
  0
LINE
  5
21C
330
2
100
AcDbEntity
  8
PV
 62
     7
100
AcDbLine
 10
309.163
 20
337.5009991932415
 30
0.0
 11
309.163
 21
338.1119991932415
 31
0.0
  0
LINE
  5
21D
330
2
100
AcDbEntity
  8
PV
 62
     7
100
AcDbLine
 10
310.549
 20
338.9119991932415
 30
0.0
 11
309.163
 21
338.1119991932415
 31
0.0
  0
LINE
  5
21E
330
2
100
AcDbEntity
  8
PV
 62
     7
100
AcDbLine
 10
319.1629999999999
 20
337.5009991932415
 30
0.0
 11
319.1629999999999
 21
338.1119991932415
 31
0.0
  0
LINE
  5
21F
330
2
100
AcDbEntity
  8
PV
 62
     7
100
AcDbLine
 10
317.777
 20
338.9119991932415
 30
0.0
 11
319.1629999999999
 21
338.1119991932415
 31
0.0
  0
LINE
  5
252
330
2
100
AcDbEntity
  8
L-ZISSEN
100
AcDbLine
 10
231.6629999999999
 20
319.0009991932415
 30
0.0
 11
270.663
 21
319.0009991932415
 31
0.0
  0
ENDSEC
  0
SECTION
  2
OBJECTS
  0
DICTIONARY
  5
1A
330
0
100
AcDbDictionary
  3
ACAD_GROUP
350
18
  3
ACAD_LAYOUT
350
1BE
  3
ACAD_MLINESTYLE
350
19
  3
ACAD_PLOTSETTINGS
350
1BF
1001
ACAD
1000
TREAT_AS_HARD
1070
     0
  0
DICTIONARY
  5
207
330
2
100
AcDbDictionary
  3
ACAD_LAYOUTSELFREF
350
286
1001
ACAD
1000
TREAT_AS_HARD
1070
     1
  0
DICTIONARY
  5
209
330
8
100
AcDbDictionary
  3
ACAD_LAYOUTSELFREF
350
287
1001
ACAD
1000
TREAT_AS_HARD
1070
     1
  0
DICTIONARY
  5
18
102
{ACAD_REACTORS
330
1A
102
}
330
0
100
AcDbDictionary
1001
ACAD
1000
TREAT_AS_HARD
1070
     0
  0
DICTIONARY
  5
1BE
102
{ACAD_REACTORS
330
1A
102
}
330
1A
100
AcDbDictionary
1001
ACAD
1000
TREAT_AS_HARD
1070
     0
  0
DICTIONARY
  5
19
102
{ACAD_REACTORS
330
1A
102
}
330
0
100
AcDbDictionary
  3
STANDARD
350
1C
1001
ACAD
1000
TREAT_AS_HARD
1070
     0
  0
DICTIONARY
  5
1BF
102
{ACAD_REACTORS
330
1A
102
}
330
1A
100
AcDbDictionary
1001
ACAD
1000
TREAT_AS_HARD
1070
     0
  0
XRECORD
  5
286
102
{ACAD_REACTORS
330
207
102
}
330
207
100
AcDbXrecord
340
2
  0
XRECORD
  5
287
102
{ACAD_REACTORS
330
209
102
}
330
209
100
AcDbXrecord
340
8
  0
MLINESTYLE
  5
1C
102
{ACAD_REACTORS
330
19
102
}
330
0
100
AcDbMlineStyle
  2
STANDARD
 70
     0
  3

 62
     0
 51
90.0
 52
90.0
 71
     2
 49
0.5
 62
   256
  6
BYLAYER
 49
-0.5
 62
   256
  6
BYLAYER
  0
ENDSEC
  0
EOF
