  0
SECTION
  2
HEADER
  9
$ACADVER
  1
AC1006
  9
$INSBASE
 10
0.0
 20
0.0
 30
0.0
  9
$EXTMIN
 10
0.000000
 20
0.000000
  9
$EXTMAX
 10
10.000000
 20
10.000000
  9
$LIMMIN
 10
0.0
 20
0.0
  9
$LIMMAX
 10
12.0
 20
9.0
  9
$ORTHOMODE
 70
     0
  9
$REGENMODE
 70
     1
  9
$FILLMODE
 70
     1
  9
$QTEXTMODE
 70
     0
  9
$MIRRTEXT
 70
     1
  9
$DRAGMODE
 70
     2
  9
$LTSCALE
 40
10.000000
  9
$OSMODE
 70
     0
  9
$ATTMODE
 70
     1
  9
$TEXTSIZE
 40
0.2
  9
$TRACEWID
 40
0.05
  9
$TEXTSTYLE
  7
STANDARD
  9
$CLAYER
  8
0
  9
$CELTYPE
  6
BYLAYER
  9
$CECOLOR
 62
   256
  9
$DIMSCALE
 40
1.0
  9
$DIMASZ
 40
0.18
  9
$DIMEXO
 40
0.0625
  9
$DIMDLI
 40
0.38
  9
$DIMRND
 40
0.0
  9
$DIMDLE
 40
0.0
  9
$DIMEXE
 40
0.18
  9
$DIMTP
 40
0.0
  9
$DIMTM
 40
0.0
  9
$DIMTXT
 40
0.18
  9
$DIMCEN
 40
0.09
  9
$DIMTSZ
 40
0.0
  9
$DIMTOL
 70
     0
  9
$DIMLIM
 70
     0
  9
$DIMTIH
 70
     1
  9
$DIMTOH
 70
     1
  9
$DIMSE1
 70
     0
  9
$DIMSE2
 70
     0
  9
$DIMTAD
 70
     0
  9
$DIMZIN
 70
     0
  9
$DIMBLK
  1

  9
$DIMASO
 70
     1
  9
$DIMSHO
 70
     0
  9
$DIMPOST
  1

  9
$DIMAPOST
  1

  9
$DIMALT
 70
     0
  9
$DIMALTD
 70
     2
  9
$DIMALTF
 40
25.4
  9
$DIMLFAC
 40
1.0
  9
$DIMTOFL
 70
     0
  9
$DIMTVP
 40
0.0
  9
$DIMTIX
 70
     0
  9
$DIMSOXD
 70
     0
  9
$DIMSAH
 70
     0
  9
$DIMBLK1
  1

  9
$DIMBLK2
  1

  9
$LUNITS
 70
     2
  9
$LUPREC
 70
     4
  9
$AXISMODE
 70
     0
  9
$AXISUNIT
 10
0.0
 20
0.0
  9
$SKETCHINC
 40
0.1
  9
$FILLETRAD
 40
0.0
  9
$AUNITS
 70
     0
  9
$AUPREC
 70
     0
  9
$MENU
  1
acad
  9
$ELEVATION
 40
0.0
  9
$THICKNESS
 40
0.0
  9
$LIMCHECK
 70
     0
  9
$BLIPMODE
 70
     1
  9
$CHAMFERA
 40
0.0
  9
$CHAMFERB
 40
0.0
  9
$SKPOLY
 70
     0
  9
$TDCREATE
 40
2448751.5905787037
  9
$TDUPDATE
 40
2448751.5905787037
  9
$TDINDWG
 40
0.0000000000
  9
$TDUSRTIMER
 40
0.0000000000
  9
$USRTIMER
 70
     1
  9
$ANGBASE
 50
0.0
  9
$ANGDIR
 70
     0
  9
$PDMODE
 70
     0
  9
$PDSIZE
 40
0.0
  9
$PLINEWID
 40
0.0
  9
$COORDS
 70
     0
  9
$SPLFRAME
 70
     0
  9
$SPLINETYPE
 70
     6
  9
$SPLINESEGS
 70
     8
  9
$ATTDIA
 70
     0
  9
$ATTREQ
 70
     1
  9
$HANDLING
 70
     0
  9
$HANDSEED
  5
0
  9
$SURFTAB1
 70
     6
  9
$SURFTAB2
 70
     6
  9
$SURFTYPE
 70
     6
  9
$SURFU
 70
     6
  9
$SURFV
 70
     6
  9
$FLATLAND
 70
     0
  9
$UCSNAME
  2

  9
$UCSORG
 10
0.0
 20
0.0
 30
0.0
  9
$UCSXDIR
 10
1.0
 20
0.0
 30
0.0
  9
$UCSYDIR
 10
0.0
 20
1.0
 30
0.0
  9
$USERI1
 70
     0
  9
$USERI2
 70
     0
  9
$USERI3
 70
     0
  9
$USERI4
 70
     0
  9
$USERI5
 70
     0
  9
$USERR1
 40
0.0
  9
$USERR2
 40
0.0
  9
$USERR3
 40
0.0
  9
$USERR4
 40
0.0
  9
$USERR5
 40
0.0
  9
$WORLDVIEW
 70
     1
  0
ENDSEC
  0
SECTION
  2
TABLES
  0
TABLE
  2
VPORT
 70
     2
  0
VPORT
  2
*ACTIVE
 70
     0
 10
0.0
 20
0.0
 11
1.0
 21
1.0
 12
7.914286
 22
4.5
 13
0.0
 23
0.0
 14
1.0
 24
1.0
 15
0.0
 25
0.0
 16
0.0
 26
0.0
 36
1.0
 17
0.0
 27
0.0
 37
0.0
 40
9.0
 41
1.75873
 42
50.0
 43
0.0
 44
0.0
 50
0.0
 51
0.0
 71
     0
 72
   100
 73
     1
 74
     1
 75
     0
 76
     0
 77
     0
 78
     0
  0
ENDTAB
  0
TABLE
  2
LTYPE
 70
     9
  0
LTYPE
  2
CONTINUOUS
 70
    64
  3
実線
 72
    65
 73
     0
 40
0.0
  0
LTYPE
  2
DASHED
 70
    64
  3
__ __ __ __ __ __ __ __ __ __ __ __ __ __ __
 72
    65
 73
     2
 40
0.75
 49
0.5
 49
-0.25
  0
LTYPE
  2
HIDDEN
 70
    64
  3
_ _ _ _ _ _ _ _ _ _ _ _ _ _ _ _ _ _ _ _ _ _ _
 72
    65
 73
     2
 40
0.375
 49
0.25
 49
-0.125
  0
LTYPE
  2
CENTER
 70
    64
  3
____ _ ____ _ ____ _ ____ _ ____ _ ____ _ ____
 72
    65
 73
     4
 40
2.0
 49
1.25
 49
-0.25
 49
0.25
 49
-0.25
  0
LTYPE
  2
PHANTOM
 70
    64
  3
_____ _ _ _____ _ _ _____ _ _ _____ _ _ ____
 72
    65
 73
     6
 40
2.5
 49
1.25
 49
-0.25
 49
0.25
 49
-0.25
 49
0.25
 49
-0.25
  0
LTYPE
  2
DOT
 70
    64
  3
...............................................
 72
    65
 73
     2
 40
0.25
 49
0.0
 49
-0.25
  0
LTYPE
  2
DASHDOT
 70
    64
  3
__ . __ . __ . __ . __ . __ . __ . __ . __ . __
 72
    65
 73
     4
 40
1.0
 49
0.5
 49
-0.25
 49
0.0
 49
-0.25
  0
LTYPE
  2
DIVIDE
 70
    64
  3
__ . . __ . . __ . . __ . . __ . . __ . . __
 72
    65
 73
     6
 40
1.25
 49
0.5
 49
-0.25
 49
0.0
 49
-0.25
 49
0.0
 49
-0.25
  0
LTYPE
  2
BORDER
 70
    64
  3
__ __ . __ __ . __ __ . __ __ . __ __ . __ __
 72
    65
 73
     6
 40
1.75
 49
0.5
 49
-0.25
 49
0.5
 49
-0.25
 49
0.0
 49
-0.25
  0
ENDTAB
  0
TABLE
  2
LAYER
 70
     2
  0
LAYER
  2
0
 70
     0
 62
     7
  6
CONTINUOUS
  0
LAYER
  2
PV
 70
     0
 62
     7
  6
CONTINUOUS
  0
ENDTAB
  0
TABLE
  2
STYLE
 70
     3
  0
STYLE
  2
STANDARD
 70
     0
 40
0.0
 41
1.0
 50
0.0
 71
     0
 42
0.2
  3
txt
  4

  0
STYLE
  2
FONT1
 70
     0
 40
0.0
 41
1.0
 50
0.0
 71
     0
 42
0.2
  3
MONOTXT
  4

  0
STYLE
  2
FONT2
 70
     0
 40
0.0
 41
1.0
 50
0.0
 71
     0
 42
0.2
  3
MONOTXT
  4
BIGFONT
  0
ENDTAB
  0
TABLE
  2
VIEW
 70
     0
  0
ENDTAB
  0
TABLE
  2
UCS
 70
     0
  0
ENDTAB
  0
TABLE
  2
DWGMGR
 70
     0
  0
ENDTAB
  0
ENDSEC
  0
SECTION
  2
BLOCKS
  0
ENDSEC
  0
SECTION
  2
ENTITIES
  0
LINE
  8
PV
 62
     7
 10
8.951650E+002
 20
3.886260E+002
 30
0.000000E+000
 11
8.935100E+002
 21
3.886260E+002
 31
0.000000E+000
  0
LINE
  8
PV
 62
     7
 10
8.951650E+002
 20
3.946260E+002
 30
0.000000E+000
 11
8.935100E+002
 21
3.946260E+002
 31
0.000000E+000
  0
LINE
  8
PV
 62
     7
 10
8.935100E+002
 20
3.946260E+002
 30
0.000000E+000
 11
8.935100E+002
 21
3.886260E+002
 31
0.000000E+000
  0
LINE
  8
PV
 62
     7
 10
9.031650E+002
 20
3.886260E+002
 30
0.000000E+000
 11
8.981650E+002
 21
3.886260E+002
 31
0.000000E+000
  0
LINE
  8
PV
 62
     7
 10
9.031650E+002
 20
3.946260E+002
 30
0.000000E+000
 11
8.981650E+002
 21
3.946260E+002
 31
0.000000E+000
  0
LINE
  8
PV
 62
     7
 10
8.951650E+002
 20
3.966260E+002
 30
0.000000E+000
 11
8.951650E+002
 21
3.791260E+002
 31
0.000000E+000
  0
LINE
  8
PV
 62
     7
 10
8.981650E+002
 20
3.966260E+002
 30
0.000000E+000
 11
8.981650E+002
 21
3.791260E+002
 31
0.000000E+000
  0
LINE
  8
PV
 62
     7
 10
8.981650E+002
 20
3.791260E+002
 30
0.000000E+000
 11
8.951650E+002
 21
3.791260E+002
 31
0.000000E+000
  0
LINE
  8
PV
 62
     7
 10
9.099150E+002
 20
3.816260E+002
 30
0.000000E+000
 11
9.099150E+002
 21
3.736260E+002
 31
0.000000E+000
  0
LINE
  8
PV
 62
     7
 10
9.164150E+002
 20
3.816260E+002
 30
0.000000E+000
 11
9.164150E+002
 21
3.736260E+002
 31
0.000000E+000
  0
LINE
  8
PV
 62
     7
 10
9.099150E+002
 20
3.736260E+002
 30
0.000000E+000
 11
9.164150E+002
 21
3.736260E+002
 31
0.000000E+000
  0
LINE
  8
PV
  6
CENTER
 62
     1
 10
9.131650E+002
 20
4.151090E+002
 30
0.000000E+000
 11
9.131650E+002
 21
3.708510E+002
 31
0.000000E+000
  0
LINE
  8
PV
 62
     7
 10
9.131650E+002
 20
3.966260E+002
 30
0.000000E+000
 11
9.131650E+002
 21
3.741260E+002
 31
0.000000E+000
  0
LINE
  8
PV
  6
CENTER
 62
     1
 10
5.019820E+002
 20
1.094900E+003
 30
0.000000E+000
 11
5.019820E+002
 21
1.111520E+003
 31
0.000000E+000
  0
LINE
  8
PV
  6
CENTER
 62
     1
 10
3.999820E+002
 20
1.091270E+003
 30
0.000000E+000
 11
3.999820E+002
 21
1.111520E+003
 31
0.000000E+000
  0
LINE
  8
PV
  6
CENTER
 62
     1
 10
9.627250E+002
 20
6.246260E+002
 30
0.000000E+000
 11
9.382470E+002
 21
6.246260E+002
 31
0.000000E+000
  0
LINE
  8
PV
  6
CENTER
 62
     1
 10
9.627250E+002
 20
3.886260E+002
 30
0.000000E+000
 11
9.382470E+002
 21
3.886260E+002
 31
0.000000E+000
  0
LINE
  8
PV
 62
     7
 10
9.191650E+002
 20
6.166260E+002
 30
0.000000E+000
 11
9.191650E+002
 21
6.746260E+002
 31
0.000000E+000
  0
LINE
  8
PV
  6
CENTER
 62
     1
 10
4.189820E+002
 20
1.049520E+003
 30
0.000000E+000
 11
4.189820E+002
 21
1.093280E+003
 31
0.000000E+000
  0
LINE
  8
PV
  6
CENTER
 62
     1
 10
3.439820E+002
 20
1.071400E+003
 30
0.000000E+000
 11
4.408600E+002
 21
1.071400E+003
 31
0.000000E+000
  0
ARC
  8
PV
 62
     7
 10
4.509820E+002
 20
3.846260E+002
 30
0.000000E+000
 40
4.000000E+000
 50
1.800000E+002
 51
0.000000E+000
  0
LINE
  8
PV
 62
     7
 10
4.469820E+002
 20
3.846260E+002
 30
0.000000E+000
 11
4.469820E+002
 21
3.926260E+002
 31
0.000000E+000
  0
LINE
  8
PV
 62
     7
 10
4.549820E+002
 20
3.846260E+002
 30
0.000000E+000
 11
4.549820E+002
 21
3.926260E+002
 31
0.000000E+000
  0
LINE
  8
PV
 62
     7
 10
3.719820E+002
 20
6.391260E+002
 30
0.000000E+000
 11
4.007950E+002
 21
6.391260E+002
 31
0.000000E+000
  0
LINE
  8
PV
  6
CENTER
 62
     1
 10
4.625420E+002
 20
3.886260E+002
 30
0.000000E+000
 11
4.380640E+002
 21
3.886260E+002
 31
0.000000E+000
  0
LINE
  8
PV
 62
     7
 10
3.719820E+002
 20
3.741260E+002
 30
0.000000E+000
 11
4.007320E+002
 21
3.741260E+002
 31
0.000000E+000
  0
LINE
  8
PV
  6
CENTER
 62
     1
 10
4.509820E+002
 20
4.013200E+002
 30
0.000000E+000
 11
4.509820E+002
 21
3.742770E+002
 31
0.000000E+000
  0
LINE
  8
PV
 62
     7
 10
3.719820E+002
 20
1.058400E+003
 30
0.000000E+000
 11
3.719820E+002
 21
1.103400E+003
 31
0.000000E+000
  0
LINE
  8
PV
 62
     7
 10
3.719820E+002
 20
1.103400E+003
 30
0.000000E+000
 11
5.299820E+002
 21
1.103400E+003
 31
0.000000E+000
  0
LINE
  8
PV
 62
     7
 10
5.299820E+002
 20
1.103400E+003
 30
0.000000E+000
 11
5.299820E+002
 21
1.058400E+003
 31
0.000000E+000
  0
LINE
  8
PV
 62
     7
 10
5.299820E+002
 20
1.101400E+003
 30
0.000000E+000
 11
3.719820E+002
 21
1.101400E+003
 31
0.000000E+000
  0
CIRCLE
  8
PV
 62
     7
 10
3.789820E+002
 20
1.071400E+003
 30
0.000000E+000
 40
6.000000E+000
  0
LINE
  8
PV
 62
     7
 10
3.719820E+002
 20
6.391260E+002
 30
0.000000E+000
 11
3.719820E+002
 21
6.091260E+002
 31
0.000000E+000
  0
LINE
  8
PV
 62
     7
 10
5.299820E+002
 20
6.391260E+002
 30
0.000000E+000
 11
5.299820E+002
 21
6.091260E+002
 31
0.000000E+000
  0
LINE
  8
PV
 62
     7
 10
3.709820E+002
 20
1.060400E+003
 30
0.000000E+000
 11
3.709820E+002
 21
1.058400E+003
 31
0.000000E+000
  0
LINE
  8
PV
  6
CENTER
 62
     1
 10
4.201070E+002
 20
6.246260E+002
 30
0.000000E+000
 11
3.813310E+002
 21
6.246260E+002
 31
0.000000E+000
  0
ARC
  8
PV
 62
     7
 10
3.899820E+002
 20
6.246260E+002
 30
0.000000E+000
 40
4.000000E+000
 50
9.000000E+001
 51
2.700000E+002
  0
LINE
  8
PV
 62
     7
 10
3.899820E+002
 20
6.206260E+002
 30
0.000000E+000
 11
4.028160E+002
 21
6.206260E+002
 31
0.000000E+000
  0
LINE
  8
PV
 62
     7
 10
3.899820E+002
 20
6.286260E+002
 30
0.000000E+000
 11
4.028160E+002
 21
6.286260E+002
 31
0.000000E+000
  0
LINE
  8
PV
  6
CENTER
 62
     1
 10
3.999820E+002
 20
6.145010E+002
 30
0.000000E+000
 11
3.999820E+002
 21
6.347510E+002
 31
0.000000E+000
  0
LINE
  8
PV
  6
CENTER
 62
     1
 10
5.019820E+002
 20
6.181260E+002
 30
0.000000E+000
 11
5.019820E+002
 21
6.347510E+002
 31
0.000000E+000
  0
LINE
  8
PV
  6
CENTER
 62
     1
 10
4.818570E+002
 20
6.246260E+002
 30
0.000000E+000
 11
5.206330E+002
 21
6.246260E+002
 31
0.000000E+000
  0
LINE
  8
PV
 62
     7
 10
3.529820E+002
 20
5.281260E+002
 30
0.000000E+000
 11
3.529820E+002
 21
6.046260E+002
 31
0.000000E+000
  0
LINE
  8
PV
 62
     7
 10
3.529820E+002
 20
6.046260E+002
 30
0.000000E+000
 11
3.684820E+002
 21
6.046260E+002
 31
0.000000E+000
  0
CIRCLE
  8
PV
 62
     7
 10
4.189820E+002
 20
1.071400E+003
 30
0.000000E+000
 40
1.000000E+001
  0
CIRCLE
  8
PV
 62
     7
 10
4.189820E+002
 20
1.071400E+003
 30
0.000000E+000
 40
1.400000E+001
  0
LINE
  8
PV
  6
CENTER
 62
     1
 10
4.189820E+002
 20
6.632480E+002
 30
0.000000E+000
 11
4.189820E+002
 21
6.798630E+002
 31
0.000000E+000
  0
LINE
  8
PV
 62
     7
 10
4.028160E+002
 20
6.166260E+002
 30
0.000000E+000
 11
4.351480E+002
 21
6.166260E+002
 31
0.000000E+000
  0
LINE
  8
PV
 62
     7
 10
4.028160E+002
 20
6.166260E+002
 30
0.000000E+000
 11
4.028160E+002
 21
6.346430E+002
 31
0.000000E+000
  0
LINE
  8
PV
 62
     7
 10
4.351480E+002
 20
6.166260E+002
 30
0.000000E+000
 11
4.351480E+002
 21
6.346430E+002
 31
0.000000E+000
  0
LINE
  8
PV
 62
     7
 10
4.108990E+002
 20
6.166260E+002
 30
0.000000E+000
 11
4.108990E+002
 21
6.274310E+002
 31
0.000000E+000
  0
LINE
  8
PV
 62
     7
 10
4.270650E+002
 20
6.166260E+002
 30
0.000000E+000
 11
4.270650E+002
 21
6.274310E+002
 31
0.000000E+000
  0
LINE
  8
PV
 62
     7
 10
4.085040E+002
 20
6.091260E+002
 30
0.000000E+000
 11
4.085040E+002
 21
6.166260E+002
 31
0.000000E+000
  0
LINE
  8
PV
 62
     7
 10
4.294590E+002
 20
6.091260E+002
 30
0.000000E+000
 11
4.294590E+002
 21
6.166260E+002
 31
0.000000E+000
  0
LINE
  8
PV
 62
     7
 10
4.351480E+002
 20
6.546090E+002
 30
0.000000E+000
 11
4.351480E+002
 21
6.771260E+002
 31
0.000000E+000
  0
LINE
  8
PV
 62
     7
 10
4.270650E+002
 20
6.618210E+002
 30
0.000000E+000
 11
4.270650E+002
 21
6.771260E+002
 31
0.000000E+000
  0
LINE
  8
PV
 62
     7
 10
4.108990E+002
 20
6.618210E+002
 30
0.000000E+000
 11
4.108990E+002
 21
6.771260E+002
 31
0.000000E+000
  0
LINE
  8
PV
 62
     7
 10
4.028160E+002
 20
6.546090E+002
 30
0.000000E+000
 11
4.028160E+002
 21
6.771260E+002
 31
0.000000E+000
  0
LINE
  8
PV
 62
     7
 10
4.371680E+002
 20
6.391260E+002
 30
0.000000E+000
 11
5.299820E+002
 21
6.391260E+002
 31
0.000000E+000
  0
LINE
  8
PV
 62
     7
 10
4.004820E+002
 20
1.023400E+003
 30
0.000000E+000
 11
4.374820E+002
 21
1.023400E+003
 31
0.000000E+000
  0
LINE
  8
PV
 62
     7
 10
4.374820E+002
 20
1.023400E+003
 30
0.000000E+000
 11
4.374820E+002
 21
1.047400E+003
 31
0.000000E+000
  0
LINE
  8
PV
 62
     7
 10
4.004820E+002
 20
1.023400E+003
 30
0.000000E+000
 11
4.004820E+002
 21
1.047400E+003
 31
0.000000E+000
  0
LINE
  8
PV
 62
     7
 10
4.004820E+002
 20
1.047400E+003
 30
0.000000E+000
 11
4.374820E+002
 21
1.047400E+003
 31
0.000000E+000
  0
LINE
  8
PV
 62
     7
 10
4.004820E+002
 20
1.026400E+003
 30
0.000000E+000
 11
4.374820E+002
 21
1.026400E+003
 31
0.000000E+000
  0
LINE
  8
PV
 62
     7
 10
4.249820E+002
 20
1.047400E+003
 30
0.000000E+000
 11
4.249820E+002
 21
1.057400E+003
 31
0.000000E+000
  0
LINE
  8
PV
 62
     7
 10
4.129820E+002
 20
1.047400E+003
 30
0.000000E+000
 11
4.129820E+002
 21
1.057400E+003
 31
0.000000E+000
  0
LINE
  8
PV
 62
     7
 10
3.804820E+002
 20
1.065590E+003
 30
0.000000E+000
 11
3.804820E+002
 21
1.077210E+003
 31
0.000000E+000
  0
LINE
  8
PV
 62
     7
 10
3.774820E+002
 20
1.065590E+003
 30
0.000000E+000
 11
3.774820E+002
 21
1.077210E+003
 31
0.000000E+000
  0
LINE
  8
PV
 62
     7
 10
3.529820E+002
 20
5.281260E+002
 30
0.000000E+000
 11
3.684820E+002
 21
5.281260E+002
 31
0.000000E+000
  0
LINE
  8
PV
 62
     7
 10
3.529820E+002
 20
1.060400E+003
 30
0.000000E+000
 11
3.529820E+002
 21
1.089400E+003
 31
0.000000E+000
  0
LINE
  8
PV
 62
     7
 10
3.709820E+002
 20
1.060400E+003
 30
0.000000E+000
 11
3.529820E+002
 21
1.060400E+003
 31
0.000000E+000
  0
LINE
  8
PV
 62
     7
 10
3.719820E+002
 20
1.089400E+003
 30
0.000000E+000
 11
3.529820E+002
 21
1.089400E+003
 31
0.000000E+000
  0
LINE
  8
PV
 62
     7
 10
5.334820E+002
 20
1.058400E+003
 30
0.000000E+000
 11
4.276420E+002
 21
1.058400E+003
 31
0.000000E+000
  0
LINE
  8
PV
 62
     7
 10
4.108990E+002
 20
1.085400E+003
 30
0.000000E+000
 11
4.028160E+002
 21
1.071400E+003
 31
0.000000E+000
  0
LINE
  8
PV
 62
     7
 10
4.028160E+002
 20
1.071400E+003
 30
0.000000E+000
 11
4.108990E+002
 21
1.057400E+003
 31
0.000000E+000
  0
LINE
  8
PV
 62
     7
 10
4.108990E+002
 20
1.057400E+003
 30
0.000000E+000
 11
4.270650E+002
 21
1.057400E+003
 31
0.000000E+000
  0
LINE
  8
PV
 62
     7
 10
4.270650E+002
 20
1.057400E+003
 30
0.000000E+000
 11
4.351480E+002
 21
1.071400E+003
 31
0.000000E+000
  0
LINE
  8
PV
 62
     7
 10
4.351480E+002
 20
1.071400E+003
 30
0.000000E+000
 11
4.270650E+002
 21
1.085400E+003
 31
0.000000E+000
  0
LINE
  8
PV
 62
     7
 10
4.270650E+002
 20
1.085400E+003
 30
0.000000E+000
 11
4.108990E+002
 21
1.085400E+003
 31
0.000000E+000
  0
LINE
  8
PV
 62
     7
 10
4.103220E+002
 20
1.058400E+003
 30
0.000000E+000
 11
3.684820E+002
 21
1.058400E+003
 31
0.000000E+000
  0
CIRCLE
  8
PV
 62
     7
 10
4.889820E+002
 20
9.788980E+002
 30
0.000000E+000
 40
2.600000E+001
  0
ARC
  8
PV
 62
     7
 10
4.889820E+002
 20
9.733980E+002
 30
0.000000E+000
 40
3.000000E+001
 50
1.800000E+002
 51
0.000000E+000
  0
LINE
  8
PV
 62
     7
 10
5.189820E+002
 20
9.813980E+002
 30
0.000000E+000
 11
5.189820E+002
 21
9.733980E+002
 31
0.000000E+000
  0
LINE
  8
PV
 62
     7
 10
4.589820E+002
 20
9.813980E+002
 30
0.000000E+000
 11
4.589820E+002
 21
9.733980E+002
 31
0.000000E+000
  0
ARC
  8
PV
 62
     7
 10
4.889820E+002
 20
9.813980E+002
 30
0.000000E+000
 40
3.000000E+001
 50
0.000000E+000
 51
1.800000E+002
  0
LINE
  8
PV
 62
     7
 10
3.719820E+002
 20
4.041260E+002
 30
0.000000E+000
 11
3.719820E+002
 21
3.741260E+002
 31
0.000000E+000
  0
LINE
  8
PV
 62
     7
 10
5.299820E+002
 20
4.041260E+002
 30
0.000000E+000
 11
5.299820E+002
 21
3.741260E+002
 31
0.000000E+000
  0
LINE
  8
PV
 62
     7
 10
9.491650E+002
 20
6.391260E+002
 30
0.000000E+000
 11
9.511650E+002
 21
6.391260E+002
 31
0.000000E+000
  0
LINE
  8
PV
 62
     7
 10
9.491650E+002
 20
3.741260E+002
 30
0.000000E+000
 11
9.511650E+002
 21
3.741260E+002
 31
0.000000E+000
  0
LINE
  8
PV
 62
     7
 10
9.511650E+002
 20
6.391260E+002
 30
0.000000E+000
 11
9.511650E+002
 21
6.046260E+002
 31
0.000000E+000
  0
LINE
  8
PV
 62
     7
 10
9.491650E+002
 20
6.066260E+002
 30
0.000000E+000
 11
9.491650E+002
 21
6.391260E+002
 31
0.000000E+000
  0
LINE
  8
PV
 62
     7
 10
9.371650E+002
 20
6.066260E+002
 30
0.000000E+000
 11
9.491650E+002
 21
6.066260E+002
 31
0.000000E+000
  0
LINE
  8
PV
 62
     7
 10
9.491650E+002
 20
3.741260E+002
 30
0.000000E+000
 11
9.491650E+002
 21
4.066260E+002
 31
0.000000E+000
  0
LINE
  8
PV
 62
     7
 10
9.511650E+002
 20
4.086260E+002
 30
0.000000E+000
 11
9.511650E+002
 21
3.741260E+002
 31
0.000000E+000
  0
LINE
  8
PV
 62
     7
 10
9.371650E+002
 20
4.066260E+002
 30
0.000000E+000
 11
9.491650E+002
 21
4.066260E+002
 31
0.000000E+000
  0
LINE
  8
PV
 62
     7
 10
9.371650E+002
 20
6.046260E+002
 30
0.000000E+000
 11
9.511650E+002
 21
6.046260E+002
 31
0.000000E+000
  0
LINE
  8
PV
 62
     7
 10
9.371650E+002
 20
4.086260E+002
 30
0.000000E+000
 11
9.511650E+002
 21
4.086260E+002
 31
0.000000E+000
  0
LINE
  8
PV
 62
     7
 10
9.061650E+002
 20
6.091260E+002
 30
0.000000E+000
 11
9.061650E+002
 21
6.086260E+002
 31
0.000000E+000
  0
LINE
  8
PV
 62
     7
 10
8.981650E+002
 20
6.091260E+002
 30
0.000000E+000
 11
9.061650E+002
 21
6.091260E+002
 31
0.000000E+000
  0
LINE
  8
PV
 62
     7
 10
8.981650E+002
 20
6.091260E+002
 30
0.000000E+000
 11
8.981650E+002
 21
6.086260E+002
 31
0.000000E+000
  0
LINE
  8
PV
 62
     7
 10
8.171650E+002
 20
6.051950E+002
 30
0.000000E+000
 11
7.721650E+002
 21
6.036230E+002
 31
0.000000E+000
  0
LINE
  8
PV
 62
     7
 10
7.721650E+002
 20
6.036230E+002
 30
0.000000E+000
 11
7.721650E+002
 21
4.096290E+002
 31
0.000000E+000
  0
LINE
  8
PV
 62
     7
 10
8.171650E+002
 20
4.080580E+002
 30
0.000000E+000
 11
7.721650E+002
 21
4.096290E+002
 31
0.000000E+000
  0
LINE
  8
PV
 62
     7
 10
8.006650E+002
 20
6.291260E+002
 30
0.000000E+000
 11
8.526650E+002
 21
6.291260E+002
 31
0.000000E+000
  0
LINE
  8
PV
 62
     7
 10
8.526650E+002
 20
6.291260E+002
 30
0.000000E+000
 11
8.526650E+002
 21
6.101260E+002
 31
0.000000E+000
  0
LINE
  8
PV
 62
     7
 10
8.006650E+002
 20
6.291260E+002
 30
0.000000E+000
 11
8.006650E+002
 21
6.101260E+002
 31
0.000000E+000
  0
LINE
  8
PV
 62
     7
 10
8.006650E+002
 20
6.101260E+002
 30
0.000000E+000
 11
8.526650E+002
 21
6.101260E+002
 31
0.000000E+000
  0
LINE
  8
PV
 62
     7
 10
8.466650E+002
 20
6.101260E+002
 30
0.000000E+000
 11
8.466650E+002
 21
6.086260E+002
 31
0.000000E+000
  0
LINE
  8
PV
 62
     7
 10
8.066650E+002
 20
6.101260E+002
 30
0.000000E+000
 11
8.066650E+002
 21
6.048280E+002
 31
0.000000E+000
  0
LINE
  8
PV
 62
     7
 10
4.709820E+002
 20
6.101260E+002
 30
0.000000E+000
 11
4.709820E+002
 21
6.048280E+002
 31
0.000000E+000
  0
LINE
  8
PV
 62
     7
 10
5.109820E+002
 20
6.101260E+002
 30
0.000000E+000
 11
5.109820E+002
 21
6.048280E+002
 31
0.000000E+000
  0
LINE
  8
PV
 62
     7
 10
4.649820E+002
 20
6.101260E+002
 30
0.000000E+000
 11
5.169820E+002
 21
6.101260E+002
 31
0.000000E+000
  0
LINE
  8
PV
 62
     7
 10
4.649820E+002
 20
6.291260E+002
 30
0.000000E+000
 11
4.649820E+002
 21
6.101260E+002
 31
0.000000E+000
  0
LINE
  8
PV
 62
     7
 10
5.169820E+002
 20
6.291260E+002
 30
0.000000E+000
 11
5.169820E+002
 21
6.101260E+002
 31
0.000000E+000
  0
LINE
  8
PV
 62
     7
 10
4.649820E+002
 20
6.291260E+002
 30
0.000000E+000
 11
5.169820E+002
 21
6.291260E+002
 31
0.000000E+000
  0
LINE
  8
PV
 62
     7
 10
5.282160E+002
 20
6.036230E+002
 30
0.000000E+000
 11
3.739470E+002
 21
6.036230E+002
 31
0.000000E+000
  0
LINE
  8
PV
 62
     7
 10
5.282160E+002
 20
4.096290E+002
 30
0.000000E+000
 11
3.739470E+002
 21
4.096290E+002
 31
0.000000E+000
  0
LINE
  8
PV
 62
     7
 10
5.282160E+002
 20
6.036230E+002
 30
0.000000E+000
 11
5.282160E+002
 21
4.096290E+002
 31
0.000000E+000
  0
LINE
  8
PV
 62
     7
 10
3.739470E+002
 20
6.036230E+002
 30
0.000000E+000
 11
3.739470E+002
 21
4.096290E+002
 31
0.000000E+000
  0
LINE
  8
PV
 62
     7
 10
3.684820E+002
 20
1.058400E+003
 30
0.000000E+000
 11
3.684820E+002
 21
1.050400E+003
 31
0.000000E+000
  0
LINE
  8
PV
 62
     7
 10
3.695850E+002
 20
1.050400E+003
 30
0.000000E+000
 11
3.739850E+002
 21
9.243980E+002
 31
0.000000E+000
  0
LINE
  8
PV
 62
     7
 10
4.129820E+002
 20
1.050400E+003
 30
0.000000E+000
 11
3.684820E+002
 21
1.050400E+003
 31
0.000000E+000
  0
LINE
  8
PV
 62
     7
 10
5.334820E+002
 20
1.058400E+003
 30
0.000000E+000
 11
5.334820E+002
 21
1.050400E+003
 31
0.000000E+000
  0
LINE
  8
PV
 62
     7
 10
5.323790E+002
 20
1.050400E+003
 30
0.000000E+000
 11
5.279790E+002
 21
9.243980E+002
 31
0.000000E+000
  0
LINE
  8
PV
 62
     7
 10
5.334820E+002
 20
1.050400E+003
 30
0.000000E+000
 11
4.249820E+002
 21
1.050400E+003
 31
0.000000E+000
  0
LINE
  8
PV
 62
     7
 10
5.279790E+002
 20
9.243980E+002
 30
0.000000E+000
 11
3.739850E+002
 21
9.243980E+002
 31
0.000000E+000
  0
LINE
  8
PV
 62
     7
 10
3.684820E+002
 20
6.091260E+002
 30
0.000000E+000
 11
3.684820E+002
 21
4.041260E+002
 31
0.000000E+000
  0
LINE
  8
PV
 62
     7
 10
5.334820E+002
 20
6.091260E+002
 30
0.000000E+000
 11
5.334820E+002
 21
4.041260E+002
 31
0.000000E+000
  0
LINE
  8
PV
 62
     7
 10
3.684820E+002
 20
4.041260E+002
 30
0.000000E+000
 11
5.334820E+002
 21
4.041260E+002
 31
0.000000E+000
  0
LINE
  8
PV
 62
     7
 10
3.684820E+002
 20
6.091260E+002
 30
0.000000E+000
 11
4.709820E+002
 21
6.091260E+002
 31
0.000000E+000
  0
LINE
  8
PV
 62
     7
 10
5.109820E+002
 20
6.091260E+002
 30
0.000000E+000
 11
5.334820E+002
 21
6.091260E+002
 31
0.000000E+000
  0
LINE
  8
PV
 62
     7
 10
9.296420E+002
 20
6.086260E+002
 30
0.000000E+000
 11
9.296420E+002
 21
6.166260E+002
 31
0.000000E+000
  0
LINE
  8
PV
 62
     7
 10
9.086870E+002
 20
6.086260E+002
 30
0.000000E+000
 11
9.086870E+002
 21
6.166260E+002
 31
0.000000E+000
  0
LINE
  8
PV
 62
     7
 10
9.051650E+002
 20
6.166260E+002
 30
0.000000E+000
 11
9.331650E+002
 21
6.166260E+002
 31
0.000000E+000
  0
LINE
  8
PV
  6
CENTER
 62
     1
 10
9.191650E+002
 20
6.609980E+002
 30
0.000000E+000
 11
9.191650E+002
 21
6.798630E+002
 31
0.000000E+000
  0
LINE
  8
PV
 62
     7
 10
9.051650E+002
 20
6.771260E+002
 30
0.000000E+000
 11
9.051650E+002
 21
6.166260E+002
 31
0.000000E+000
  0
LINE
  8
PV
 62
     7
 10
9.331650E+002
 20
6.166260E+002
 30
0.000000E+000
 11
9.331650E+002
 21
6.771260E+002
 31
0.000000E+000
  0
LINE
  8
PV
 62
     7
 10
8.711650E+002
 20
6.631260E+002
 30
0.000000E+000
 11
8.711650E+002
 21
6.261260E+002
 31
0.000000E+000
  0
LINE
  8
PV
 62
     7
 10
8.711650E+002
 20
6.261260E+002
 30
0.000000E+000
 11
8.951650E+002
 21
6.261260E+002
 31
0.000000E+000
  0
LINE
  8
PV
 62
     7
 10
8.711650E+002
 20
6.631260E+002
 30
0.000000E+000
 11
8.951650E+002
 21
6.631260E+002
 31
0.000000E+000
  0
LINE
  8
PV
 62
     7
 10
8.951650E+002
 20
6.631260E+002
 30
0.000000E+000
 11
8.951650E+002
 21
6.261260E+002
 31
0.000000E+000
  0
LINE
  8
PV
 62
     7
 10
8.741650E+002
 20
6.631260E+002
 30
0.000000E+000
 11
8.741650E+002
 21
6.261260E+002
 31
0.000000E+000
  0
LINE
  8
PV
 62
     7
 10
8.951650E+002
 20
6.386260E+002
 30
0.000000E+000
 11
9.051650E+002
 21
6.386260E+002
 31
0.000000E+000
  0
LINE
  8
PV
 62
     7
 10
8.951650E+002
 20
6.506260E+002
 30
0.000000E+000
 11
9.051650E+002
 21
6.506260E+002
 31
0.000000E+000
  0
LINE
  8
PV
 62
     7
 10
9.406650E+002
 20
6.036260E+002
 30
0.000000E+000
 11
9.406650E+002
 21
4.086260E+002
 31
0.000000E+000
  0
LINE
  8
PV
 62
     7
 10
9.371650E+002
 20
6.036260E+002
 30
0.000000E+000
 11
9.406650E+002
 21
6.036260E+002
 31
0.000000E+000
  0
LINE
  8
PV
 62
     7
 10
4.240240E+002
 20
6.504270E+002
 30
0.000000E+000
 11
4.073930E+002
 21
6.312930E+002
 31
0.000000E+000
  0
CIRCLE
  8
PV
 62
     7
 10
4.189820E+002
 20
6.446260E+002
 30
0.000000E+000
 40
1.900000E+001
  0
ARC
  8
PV
 62
     7
 10
4.509820E+002
 20
3.926260E+002
 30
0.000000E+000
 40
4.000000E+000
 50
0.000000E+000
 51
1.800000E+002
  0
LINE
  8
PV
  6
CENTER
 62
     1
 10
4.039820E+002
 20
4.151090E+002
 30
0.000000E+000
 11
4.039820E+002
 21
3.708510E+002
 31
0.000000E+000
  0
LINE
  8
PV
 62
     7
 10
4.007320E+002
 20
3.736260E+002
 30
0.000000E+000
 11
4.072320E+002
 21
3.736260E+002
 31
0.000000E+000
  0
CIRCLE
  8
PV
 62
     7
 10
4.039820E+002
 20
3.916260E+002
 30
0.000000E+000
 40
1.250000E+001
  0
CIRCLE
  8
PV
 62
     7
 10
4.039820E+002
 20
3.916260E+002
 30
0.000000E+000
 40
3.000000E+000
  0
LINE
  8
PV
 62
     7
 10
4.072320E+002
 20
3.741260E+002
 30
0.000000E+000
 11
5.299820E+002
 21
3.741260E+002
 31
0.000000E+000
  0
LINE
  8
PV
 62
     7
 10
4.072320E+002
 20
3.795560E+002
 30
0.000000E+000
 11
4.072320E+002
 21
3.736260E+002
 31
0.000000E+000
  0
LINE
  8
PV
 62
     7
 10
4.007320E+002
 20
3.795560E+002
 30
0.000000E+000
 11
4.007320E+002
 21
3.736260E+002
 31
0.000000E+000
  0
LINE
  8
PV
 62
     7
 10
4.099820E+002
 20
4.041260E+002
 30
0.000000E+000
 11
4.099820E+002
 21
4.025920E+002
 31
0.000000E+000
  0
LINE
  8
PV
 62
     7
 10
3.979820E+002
 20
4.041260E+002
 30
0.000000E+000
 11
3.979820E+002
 21
4.025920E+002
 31
0.000000E+000
  0
LINE
  8
PV
  6
CENTER
 62
     1
 10
1.010010E+003
 20
1.059090E+003
 30
0.000000E+000
 11
1.010010E+003
 21
1.075720E+003
 31
0.000000E+000
  0
LINE
  8
PV
  6
CENTER
 62
     1
 10
9.281300E+002
 20
1.065590E+003
 30
0.000000E+000
 11
8.893540E+002
 21
1.065590E+003
 31
0.000000E+000
  0
ARC
  8
PV
 62
     7
 10
8.980050E+002
 20
1.065590E+003
 30
0.000000E+000
 40
4.000000E+000
 50
9.000000E+001
 51
2.700000E+002
  0
LINE
  8
PV
 62
     7
 10
8.980050E+002
 20
1.061590E+003
 30
0.000000E+000
 11
9.180050E+002
 21
1.061590E+003
 31
0.000000E+000
  0
LINE
  8
PV
  6
CENTER
 62
     1
 10
9.080050E+002
 20
1.055470E+003
 30
0.000000E+000
 11
9.080050E+002
 21
1.075720E+003
 31
0.000000E+000
  0
LINE
  8
PV
 62
     7
 10
8.980050E+002
 20
1.069590E+003
 30
0.000000E+000
 11
9.180050E+002
 21
1.069590E+003
 31
0.000000E+000
  0
ARC
  8
PV
 62
     7
 10
9.180050E+002
 20
1.065590E+003
 30
0.000000E+000
 40
4.000000E+000
 50
2.700000E+002
 51
9.000000E+001
  0
ARC
  8
PV
 62
     7
 10
1.020010E+003
 20
1.065590E+003
 30
0.000000E+000
 40
4.000000E+000
 50
2.700000E+002
 51
9.000000E+001
  0
LINE
  8
PV
 62
     7
 10
1.000010E+003
 20
1.069590E+003
 30
0.000000E+000
 11
1.020010E+003
 21
1.069590E+003
 31
0.000000E+000
  0
LINE
  8
PV
 62
     7
 10
1.000010E+003
 20
1.061590E+003
 30
0.000000E+000
 11
1.020010E+003
 21
1.061590E+003
 31
0.000000E+000
  0
ARC
  8
PV
 62
     7
 10
1.000010E+003
 20
1.065590E+003
 30
0.000000E+000
 40
4.000000E+000
 50
9.000000E+001
 51
2.700000E+002
  0
LINE
  8
PV
  6
CENTER
 62
     1
 10
1.030130E+003
 20
1.065590E+003
 30
0.000000E+000
 11
9.913540E+002
 21
1.065590E+003
 31
0.000000E+000
  0
LINE
  8
PV
  6
CENTER
 62
     1
 10
9.590050E+002
 20
8.176770E+002
 30
0.000000E+000
 11
9.590050E+002
 21
1.087540E+003
 31
0.000000E+000
  0
ARC
  8
PV
 62
     7
 10
1.030010E+003
 20
8.230940E+002
 30
0.000000E+000
 40
8.000000E+000
 50
2.700000E+002
 51
3.600000E+002
  0
ARC
  8
PV
 62
     7
 10
1.030010E+003
 20
1.072090E+003
 30
0.000000E+000
 40
8.000000E+000
 50
3.600000E+002
 51
9.000000E+001
  0
ARC
  8
PV
 62
     7
 10
9.590050E+002
 20
8.335940E+002
 30
0.000000E+000
 40
4.000000E+000
 50
0.000000E+000
 51
1.800000E+002
  0
LINE
  8
PV
 62
     7
 10
1.038010E+003
 20
8.475940E+002
 30
0.000000E+000
 11
1.038010E+003
 21
8.230940E+002
 31
0.000000E+000
  0
LINE
  8
PV
 62
     7
 10
8.800050E+002
 20
8.475940E+002
 30
0.000000E+000
 11
8.800050E+002
 21
8.230940E+002
 31
0.000000E+000
  0
LINE
  8
PV
 62
     7
 10
8.880050E+002
 20
1.080090E+003
 30
0.000000E+000
 11
1.030010E+003
 21
1.080090E+003
 31
0.000000E+000
  0
LINE
  8
PV
 62
     7
 10
8.610050E+002
 20
1.045590E+003
 30
0.000000E+000
 11
8.790050E+002
 21
1.045590E+003
 31
0.000000E+000
  0
LINE
  8
PV
 62
     7
 10
1.038010E+003
 20
1.072090E+003
 30
0.000000E+000
 11
1.038010E+003
 21
1.047590E+003
 31
0.000000E+000
  0
LINE
  8
PV
 62
     7
 10
8.800050E+002
 20
1.072090E+003
 30
0.000000E+000
 11
8.800050E+002
 21
1.047590E+003
 31
0.000000E+000
  0
LINE
  8
PV
  6
CENTER
 62
     1
 10
9.705650E+002
 20
8.295940E+002
 30
0.000000E+000
 11
9.460870E+002
 21
8.295940E+002
 31
0.000000E+000
  0
LINE
  8
PV
 62
     7
 10
9.630050E+002
 20
8.255940E+002
 30
0.000000E+000
 11
9.630050E+002
 21
8.335940E+002
 31
0.000000E+000
  0
LINE
  8
PV
 62
     7
 10
9.550050E+002
 20
8.255940E+002
 30
0.000000E+000
 11
9.550050E+002
 21
8.335940E+002
 31
0.000000E+000
  0
ARC
  8
PV
 62
     7
 10
9.590050E+002
 20
8.255940E+002
 30
0.000000E+000
 40
4.000000E+000
 50
1.800000E+002
 51
0.000000E+000
  0
LINE
  8
PV
 62
     7
 10
8.880050E+002
 20
8.150940E+002
 30
0.000000E+000
 11
1.030010E+003
 21
8.150940E+002
 31
0.000000E+000
  0
LINE
  8
PV
 62
     7
 10
8.610050E+002
 20
9.755940E+002
 30
0.000000E+000
 11
8.610050E+002
 21
1.045590E+003
 31
0.000000E+000
  0
LINE
  8
PV
 62
     7
 10
8.610050E+002
 20
9.755940E+002
 30
0.000000E+000
 11
8.790050E+002
 21
9.755940E+002
 31
0.000000E+000
  0
ARC
  8
PV
 62
     7
 10
8.880050E+002
 20
1.072090E+003
 30
0.000000E+000
 40
8.000000E+000
 50
9.000000E+001
 51
1.800000E+002
  0
LINE
  8
PV
  6
PHANTOM
 62
     7
 10
1.039010E+003
 20
8.475940E+002
 30
0.000000E+000
 11
1.039010E+003
 21
1.047590E+003
 31
0.000000E+000
  0
LINE
  8
PV
  6
PHANTOM
 62
     7
 10
8.790050E+002
 20
8.475940E+002
 30
0.000000E+000
 11
8.790050E+002
 21
1.047590E+003
 31
0.000000E+000
  0
LINE
  8
PV
  6
PHANTOM
 62
     7
 10
8.790050E+002
 20
1.047590E+003
 30
0.000000E+000
 11
1.039010E+003
 21
1.047590E+003
 31
0.000000E+000
  0
LINE
  8
PV
  6
PHANTOM
 62
     7
 10
8.790050E+002
 20
8.475940E+002
 30
0.000000E+000
 11
1.039010E+003
 21
8.475940E+002
 31
0.000000E+000
  0
ARC
  8
PV
 62
     7
 10
8.880050E+002
 20
8.230940E+002
 30
0.000000E+000
 40
8.000000E+000
 50
1.800000E+002
 51
2.700000E+002
  0
LINE
  8
PV
  6
CENTER
 62
     1
 10
8.480050E+002
 20
9.915940E+002
 30
0.000000E+000
 11
8.740050E+002
 21
9.915940E+002
 31
0.000000E+000
  0
LINE
  8
PV
 62
     7
 10
5.299820E+002
 20
1.089400E+003
 30
0.000000E+000
 11
6.639820E+002
 21
1.089400E+003
 31
0.000000E+000
  0
LINE
  8
PV
 62
     7
 10
6.499820E+002
 20
1.089400E+003
 30
0.000000E+000
 11
6.499820E+002
 21
1.091400E+003
 31
0.000000E+000
  0
LINE
  8
PV
 62
     7
 10
6.499820E+002
 20
1.091400E+003
 30
0.000000E+000
 11
5.299820E+002
 21
1.091400E+003
 31
0.000000E+000
  0
LINE
  8
PV
 62
     7
 10
6.639820E+002
 20
1.089400E+003
 30
0.000000E+000
 11
6.639820E+002
 21
9.693980E+002
 31
0.000000E+000
  0
LINE
  8
PV
 62
     7
 10
5.389820E+002
 20
9.693980E+002
 30
0.000000E+000
 11
5.389820E+002
 21
1.089400E+003
 31
0.000000E+000
  0
LINE
  8
PV
 62
     7
 10
5.389820E+002
 20
9.693980E+002
 30
0.000000E+000
 11
6.639820E+002
 21
9.693980E+002
 31
0.000000E+000
  0
LINE
  8
PV
 62
     7
 10
6.639820E+002
 20
9.693980E+002
 30
0.000000E+000
 11
6.639820E+002
 21
9.693980E+002
 31
0.000000E+000
  0
LINE
  8
PV
 62
     7
 10
6.464820E+002
 20
9.643980E+002
 30
0.000000E+000
 11
6.464820E+002
 21
9.693980E+002
 31
0.000000E+000
  0
LINE
  8
PV
 62
     7
 10
6.314820E+002
 20
9.643980E+002
 30
0.000000E+000
 11
6.314820E+002
 21
9.693980E+002
 31
0.000000E+000
  0
LINE
  8
PV
 62
     7
 10
6.314820E+002
 20
9.643980E+002
 30
0.000000E+000
 11
6.464820E+002
 21
9.643980E+002
 31
0.000000E+000
  0
LINE
  8
PV
 62
     7
 10
6.449820E+002
 20
9.613980E+002
 30
0.000000E+000
 11
6.449820E+002
 21
9.643980E+002
 31
0.000000E+000
  0
LINE
  8
PV
 62
     7
 10
6.329820E+002
 20
9.613980E+002
 30
0.000000E+000
 11
6.329820E+002
 21
9.643980E+002
 31
0.000000E+000
  0
LINE
  8
PV
 62
     7
 10
6.329820E+002
 20
9.613980E+002
 30
0.000000E+000
 11
6.449820E+002
 21
9.613980E+002
 31
0.000000E+000
  0
LINE
  8
PV
 62
     7
 10
6.639820E+002
 20
6.086260E+002
 30
0.000000E+000
 11
5.389820E+002
 21
6.086260E+002
 31
0.000000E+000
  0
LINE
  8
PV
 62
     7
 10
5.389820E+002
 20
6.086260E+002
 30
0.000000E+000
 11
5.389820E+002
 21
3.966260E+002
 31
0.000000E+000
  0
LINE
  8
PV
 62
     7
 10
5.389820E+002
 20
3.966260E+002
 30
0.000000E+000
 11
6.639820E+002
 21
3.966260E+002
 31
0.000000E+000
  0
LINE
  8
PV
 62
     7
 10
6.639820E+002
 20
3.966260E+002
 30
0.000000E+000
 11
6.639820E+002
 21
6.086260E+002
 31
0.000000E+000
  0
CIRCLE
  8
PV
 62
     7
 10
6.389820E+002
 20
5.966260E+002
 30
0.000000E+000
 40
7.000000E+000
  0
CIRCLE
  8
PV
 62
     7
 10
6.389820E+002
 20
5.966260E+002
 30
0.000000E+000
 40
6.000000E+000
  0
LINE
  8
PV
 62
     7
 10
5.899820E+002
 20
3.966260E+002
 30
0.000000E+000
 11
5.899820E+002
 21
3.676260E+002
 31
0.000000E+000
  0
LINE
  8
PV
 62
     7
 10
5.899820E+002
 20
3.676260E+002
 30
0.000000E+000
 11
5.629820E+002
 21
3.676260E+002
 31
0.000000E+000
  0
LINE
  8
PV
 62
     7
 10
5.629820E+002
 20
3.676260E+002
 30
0.000000E+000
 11
5.629820E+002
 21
3.966260E+002
 31
0.000000E+000
  0
LINE
  8
PV
 62
     7
 10
9.371650E+002
 20
6.086260E+002
 30
0.000000E+000
 11
8.171650E+002
 21
6.086260E+002
 31
0.000000E+000
  0
LINE
  8
PV
 62
     7
 10
8.171650E+002
 20
3.966260E+002
 30
0.000000E+000
 11
8.171650E+002
 21
6.086260E+002
 31
0.000000E+000
  0
LINE
  8
PV
 62
     7
 10
9.371650E+002
 20
3.966260E+002
 30
0.000000E+000
 11
9.371650E+002
 21
6.086260E+002
 31
0.000000E+000
  0
LINE
  8
PV
 62
     7
 10
8.171650E+002
 20
3.966260E+002
 30
0.000000E+000
 11
9.371650E+002
 21
3.966260E+002
 31
0.000000E+000
  0
LINE
  8
PV
 62
     7
 10
9.031650E+002
 20
3.966260E+002
 30
0.000000E+000
 11
9.031650E+002
 21
3.816260E+002
 31
0.000000E+000
  0
LINE
  8
PV
 62
     7
 10
9.031650E+002
 20
3.816260E+002
 30
0.000000E+000
 11
9.231650E+002
 21
3.816260E+002
 31
0.000000E+000
  0
LINE
  8
PV
 62
     7
 10
9.231650E+002
 20
3.816260E+002
 30
0.000000E+000
 11
9.231650E+002
 21
3.966260E+002
 31
0.000000E+000
  0
LINE
  8
PV
 62
     7
 10
8.536650E+002
 20
3.676260E+002
 30
0.000000E+000
 11
8.536650E+002
 21
3.966260E+002
 31
0.000000E+000
  0
LINE
  8
PV
 62
     7
 10
8.806650E+002
 20
3.676260E+002
 30
0.000000E+000
 11
8.536650E+002
 21
3.676260E+002
 31
0.000000E+000
  0
LINE
  8
PV
 62
     7
 10
8.806650E+002
 20
3.966260E+002
 30
0.000000E+000
 11
8.806650E+002
 21
3.676260E+002
 31
0.000000E+000
  0
LINE
  8
PV
 62
     7
 10
8.091650E+002
 20
6.026260E+002
 30
0.000000E+000
 11
8.091650E+002
 21
5.906260E+002
 31
0.000000E+000
  0
LINE
  8
PV
 62
     7
 10
8.091650E+002
 20
6.026260E+002
 30
0.000000E+000
 11
8.121650E+002
 21
6.026260E+002
 31
0.000000E+000
  0
LINE
  8
PV
 62
     7
 10
8.091650E+002
 20
5.906260E+002
 30
0.000000E+000
 11
8.121650E+002
 21
5.906260E+002
 31
0.000000E+000
  0
LINE
  8
PV
 62
     7
 10
8.121650E+002
 20
6.041260E+002
 30
0.000000E+000
 11
8.121650E+002
 21
5.891260E+002
 31
0.000000E+000
  0
LINE
  8
PV
 62
     7
 10
8.121650E+002
 20
6.041260E+002
 30
0.000000E+000
 11
8.171650E+002
 21
6.041260E+002
 31
0.000000E+000
  0
LINE
  8
PV
 62
     7
 10
8.121650E+002
 20
5.891260E+002
 30
0.000000E+000
 11
8.171650E+002
 21
5.891260E+002
 31
0.000000E+000
  0
LINE
  8
PV
  6
CENTER
 62
     1
 10
3.619820E+002
 20
5.506260E+002
 30
0.000000E+000
 11
3.439820E+002
 21
5.506260E+002
 31
0.000000E+000
  0
POLYLINE
  8
PV
 62
     7
 66
     1
 10
0.0
 20
0.0
 30
0.0
  0
VERTEX
  8
PV
 62
     7
 10
4.272460E+002
 20
6.809930E+002
 30
0.000000E+000
  0
VERTEX
  8
PV
 62
     7
 10
4.255450E+002
 20
6.834640E+002
 30
0.000000E+000
  0
VERTEX
  8
PV
 62
     7
 10
4.189820E+002
 20
6.771260E+002
 30
0.000000E+000
  0
VERTEX
  8
PV
 62
     7
 10
4.272460E+002
 20
6.809930E+002
 30
0.000000E+000
  0
SEQEND
  8
PV
 62
     7
  0
LINE
  8
PV
 62
     7
 10
4.263960E+002
 20
6.822290E+002
 30
0.000000E+000
 11
5.220250E+002
 21
7.480430E+002
 31
0.000000E+000
  0
LINE
  8
PV
 62
     7
 10
5.220250E+002
 20
7.480430E+002
 30
0.000000E+000
 11
6.606650E+002
 21
7.480430E+002
 31
0.000000E+000
  0
TEXT
  8
PV
 62
     7
 10
5.365452E+002
 20
7.565570E+002
 30
0.000000E+000
 40
1.500000E+001
  1
OUT Rc1/2
 41
9.629600E-001
  7
FONT1
  0
LINE
  8
PV
 62
     7
 10
2.108530E+002
 20
7.966840E+002
 30
0.000000E+000
 11
3.045280E+002
 21
7.966840E+002
 31
0.000000E+000
  0
TEXT
  8
PV
 62
     7
 10
2.405333E+002
 20
8.071060E+002
 30
0.000000E+000
 40
1.500000E+001
  1
IN
 41
8.333333E-001
  7
FONT1
  0
TEXT
  8
PV
 62
     7
 10
2.230940E+002
 20
7.715200E+002
 30
0.000000E+000
 40
1.500000E+001
  1
Rc3/8
  7
FONT1
  0
LINE
  8
PV
 62
     7
 10
4.028160E+002
 20
6.771260E+002
 30
0.000000E+000
 11
4.351480E+002
 21
6.771260E+002
 31
0.000000E+000
  0
POLYLINE
  8
PV
 62
     7
 66
     1
 10
0.0
 20
0.0
 30
0.0
  0
VERTEX
  8
PV
 62
     7
 10
3.526110E+002
 20
5.632930E+002
 30
0.000000E+000
  0
VERTEX
  8
PV
 62
     7
 10
3.485230E+002
 20
5.624880E+002
 30
0.000000E+000
  0
VERTEX
  8
PV
 62
     7
 10
3.529820E+002
 20
5.506260E+002
 30
0.000000E+000
  0
VERTEX
  8
PV
 62
     7
 10
3.526110E+002
 20
5.632930E+002
 30
0.000000E+000
  0
SEQEND
  8
PV
 62
     7
  0
LINE
  8
PV
 62
     7
 10
3.505670E+002
 20
5.628910E+002
 30
0.000000E+000
 11
3.045280E+002
 21
7.966840E+002
 31
0.000000E+000
  0
POLYLINE
  8
PV
 62
     7
 66
     1
 10
0.0
 20
0.0
 30
0.0
  0
VERTEX
  8
PV
 62
     7
 10
8.485190E+002
 20
9.894290E+002
 30
0.000000E+000
  0
VERTEX
  8
PV
 62
     7
 10
8.498960E+002
 20
9.854960E+002
 30
0.000000E+000
  0
VERTEX
  8
PV
 62
     7
 10
8.610050E+002
 20
9.915940E+002
 30
0.000000E+000
  0
VERTEX
  8
PV
 62
     7
 10
8.485190E+002
 20
9.894290E+002
 30
0.000000E+000
  0
SEQEND
  8
PV
 62
     7
  0
LINE
  8
PV
 62
     7
 10
8.492080E+002
 20
9.874620E+002
 30
0.000000E+000
 11
3.045280E+002
 21
7.966840E+002
 31
0.000000E+000
  0
LINE
  8
PV
 62
     7
 10
9.051650E+002
 20
6.771260E+002
 30
0.000000E+000
 11
9.331650E+002
 21
6.771260E+002
 31
0.000000E+000
  0
TEXT
  8
PV
 62
     7
 10
1.066272E+003
 20
1.145020E+003
 30
0.000000E+000
 40
1.250000E+001
  1
MODEL No.
 41
9.260000E-001
  7
FONT1
  0
TEXT
  8
PV
 62
     7
 10
1.066267E+003
 20
1.118400E+003
 30
0.000000E+000
 40
1.250000E+001
  1
MC7-01L3-*B30/34
 41
9.583360E-001
  7
FONT1
  0
ENDSEC
  0
EOF
