  0
SECTION
  2
HEADER
  9
$ACADVER
  1
AC1006
  9
$INSBASE
 10
0.0
 20
0.0
 30
0.0
  9
$EXTMIN
 10
0.0
 20
0.0
  9
$EXTMAX
 10
1574.999933
 20
923.5
  9
$LIMMIN
 10
0.0
 20
0.0
  9
$LIMMAX
 10
420.0
 20
297.0
  9
$ORTHOMODE
 70
     1
  9
$REGENMODE
 70
     1
  9
$FILLMODE
 70
     1
  9
$QTEXTMODE
 70
     0
  9
$MIRRTEXT
 70
     1
  9
$DRAGMODE
 70
     2
  9
$LTSCALE
 40
1.0
  9
$OSMODE
 70
     0
  9
$ATTMODE
 70
     1
  9
$TEXTSIZE
 40
0.2
  9
$TRACEWID
 40
0.05
  9
$TEXTSTYLE
  7
STANDARD
  9
$CLAYER
  8
L-ZISSEN
  9
$CELTYPE
  6
BYLAYER
  9
$CECOLOR
 62
   256
  9
$DIMSCALE
 40
1.0
  9
$DIMASZ
 40
1.5
  9
$DIMEXO
 40
1.0
  9
$DIMDLI
 40
0.38
  9
$DIMRND
 40
0.0
  9
$DIMDLE
 40
0.0
  9
$DIMEXE
 40
1.0
  9
$DIMTP
 40
0.0
  9
$DIMTM
 40
0.0
  9
$DIMTXT
 40
2.5
  9
$DIMCEN
 40
0.09
  9
$DIMTSZ
 40
0.0
  9
$DIMTOL
 70
     0
  9
$DIMLIM
 70
     0
  9
$DIMTIH
 70
     0
  9
$DIMTOH
 70
     0
  9
$DIMSE1
 70
     0
  9
$DIMSE2
 70
     0
  9
$DIMTAD
 70
     1
  9
$DIMZIN
 70
     0
  9
$DIMBLK
  1

  9
$DIMASO
 70
     1
  9
$DIMSHO
 70
     0
  9
$DIMPOST
  1

  9
$DIMAPOST
  1

  9
$DIMALT
 70
     0
  9
$DIMALTD
 70
     2
  9
$DIMALTF
 40
25.4
  9
$DIMLFAC
 40
1.0
  9
$DIMTOFL
 70
     1
  9
$DIMTVP
 40
0.0
  9
$DIMTIX
 70
     1
  9
$DIMSOXD
 70
     0
  9
$DIMSAH
 70
     0
  9
$DIMBLK1
  1

  9
$DIMBLK2
  1

  9
$LUNITS
 70
     2
  9
$LUPREC
 70
     4
  9
$AXISMODE
 70
     0
  9
$AXISUNIT
 10
0.0
 20
0.0
  9
$SKETCHINC
 40
0.1
  9
$FILLETRAD
 40
0.0
  9
$AUNITS
 70
     0
  9
$AUPREC
 70
     0
  9
$MENU
  1
acad
  9
$ELEVATION
 40
0.0
  9
$THICKNESS
 40
0.0
  9
$LIMCHECK
 70
     0
  9
$BLIPMODE
 70
     1
  9
$CHAMFERA
 40
0.0
  9
$CHAMFERB
 40
0.0
  9
$SKPOLY
 70
     0
  9
$TDCREATE
 40
2449643.4807225694
  9
$TDUPDATE
 40
2449643.4902792824
  9
$TDINDWG
 40
0.0052230324
  9
$TDUSRTIMER
 40
0.0052230324
  9
$USRTIMER
 70
     1
  9
$ANGBASE
 50
0.0
  9
$ANGDIR
 70
     0
  9
$PDMODE
 70
     0
  9
$PDSIZE
 40
0.0
  9
$PLINEWID
 40
0.0
  9
$COORDS
 70
     0
  9
$SPLFRAME
 70
     0
  9
$SPLINETYPE
 70
     6
  9
$SPLINESEGS
 70
     8
  9
$ATTDIA
 70
     0
  9
$ATTREQ
 70
     1
  9
$HANDLING
 70
     0
  9
$HANDSEED
  5
0
  9
$SURFTAB1
 70
     6
  9
$SURFTAB2
 70
     6
  9
$SURFTYPE
 70
     6
  9
$SURFU
 70
     6
  9
$SURFV
 70
     6
  9
$FLATLAND
 70
     0
  9
$UCSNAME
  2

  9
$UCSORG
 10
0.0
 20
0.0
 30
0.0
  9
$UCSXDIR
 10
1.0
 20
0.0
 30
0.0
  9
$UCSYDIR
 10
0.0
 20
1.0
 30
0.0
  9
$USERI1
 70
     0
  9
$USERI2
 70
     0
  9
$USERI3
 70
     0
  9
$USERI4
 70
     0
  9
$USERI5
 70
     0
  9
$USERR1
 40
0.0
  9
$USERR2
 40
0.0
  9
$USERR3
 40
0.0
  9
$USERR4
 40
0.0
  9
$USERR5
 40
0.0
  9
$WORLDVIEW
 70
     1
  0
ENDSEC
  0
SECTION
  2
TABLES
  0
TABLE
  2
VPORT
 70
     2
  0
VPORT
  2
*ACTIVE
 70
     0
 10
0.0
 20
0.0
 11
1.0
 21
1.0
 12
838.748558
 22
475.993756
 13
0.0
 23
0.0
 14
1.0
 24
1.0
 15
0.0
 25
0.0
 16
0.0
 26
0.0
 36
1.0
 17
0.0
 27
0.0
 37
0.0
 40
951.097993
 41
1.5487
 42
50.0
 43
0.0
 44
0.0
 50
0.0
 51
0.0
 71
     0
 72
   100
 73
     1
 74
     0
 75
     0
 76
     0
 77
     0
 78
     0
  0
ENDTAB
  0
TABLE
  2
LTYPE
 70
     2
  0
LTYPE
  2
CONTINUOUS
 70
    64
  3
Solid line
 72
    65
 73
     0
 40
0.0
  0
LTYPE
  2
CENTER
 70
    64
  3
_____ _ ____ _ ____ _ ____
 72
    65
 73
     4
 40
18.0
 49
15.0
 49
-1.0
 49
1.0
 49
-1.0
  0
ENDTAB
  0
TABLE
  2
LAYER
 70
     3
  0
LAYER
  2
0
 70
     0
 62
     7
  6
CONTINUOUS
  0
LAYER
  2
L-ZISSEN
 70
    64
 62
     7
  6
CONTINUOUS
  0
LAYER
  2
L-TYUSIN
 70
    64
 62
     7
  6
CONTINUOUS
  0
ENDTAB
  0
TABLE
  2
STYLE
 70
     1
  0
STYLE
  2
STANDARD
 70
    64
 40
0.0
 41
1.0
 50
0.0
 71
     0
 42
0.2
  3
txt
  4

  0
ENDTAB
  0
TABLE
  2
VIEW
 70
     0
  0
ENDTAB
  0
TABLE
  2
UCS
 70
     0
  0
ENDTAB
  0
TABLE
  2
DWGMGR
 70
     0
  0
ENDTAB
  0
ENDSEC
  0
SECTION
  2
BLOCKS
  0
ENDSEC
  0
SECTION
  2
ENTITIES
  0
LINE
  8
L-ZISSEN
  6
CONTINUOUS
 62
     7
 10
895.5
 20
372.0
 30
0.0
 11
892.0
 21
372.0
 31
0.0
  0
LINE
  8
L-ZISSEN
  6
CONTINUOUS
 62
     7
 10
889.7
 20
892.0
 30
0.0
 11
889.7
 21
910.0
 31
0.0
  0
LINE
  8
L-ZISSEN
  6
CONTINUOUS
 62
     7
 10
892.0
 20
890.0
 30
0.0
 11
892.0
 21
908.0
 31
0.0
  0
LINE
  8
L-ZISSEN
  6
CONTINUOUS
 62
     7
 10
694.3
 20
892.0
 30
0.0
 11
694.3
 21
910.0
 31
0.0
  0
LINE
  8
L-ZISSEN
  6
CONTINUOUS
 62
     7
 10
692.0
 20
890.0
 30
0.0
 11
692.0
 21
908.0
 31
0.0
  0
LINE
  8
L-ZISSEN
  6
CONTINUOUS
 62
     7
 10
1007.0
 20
908.0
 30
0.0
 11
1007.0
 21
910.0
 31
0.0
  0
LINE
  8
L-TYUSIN
  6
CENTER
 62
     1
 10
992.0
 20
903.416659
 30
0.0
 11
992.0
 21
917.240782
 31
0.0
  0
LINE
  8
L-ZISSEN
  6
CONTINUOUS
 62
     7
 10
652.0
 20
908.0
 30
0.0
 11
652.0
 21
910.0
 31
0.0
  0
LINE
  8
L-TYUSIN
  6
CENTER
 62
     1
 10
667.0
 20
903.416659
 30
0.0
 11
667.0
 21
917.240782
 31
0.0
  0
LINE
  8
L-ZISSEN
  6
CONTINUOUS
 62
     7
 10
652.0
 20
222.0
 30
0.0
 11
652.0
 21
281.5
 31
0.0
  0
LINE
  8
L-ZISSEN
  6
CONTINUOUS
 62
     7
 10
722.750022
 20
897.5
 30
0.0
 11
722.750022
 21
892.0
 31
0.0
  0
LINE
  8
L-ZISSEN
  6
CONTINUOUS
 62
     7
 10
711.250022
 20
897.5
 30
0.0
 11
711.250022
 21
892.0
 31
0.0
  0
LINE
  8
L-ZISSEN
  6
CONTINUOUS
 62
     7
 10
711.250022
 20
897.5
 30
0.0
 11
722.750022
 21
897.5
 31
0.0
  0
LINE
  8
L-ZISSEN
  6
CONTINUOUS
 62
     7
 10
861.250022
 20
897.5
 30
0.0
 11
872.750022
 21
897.5
 31
0.0
  0
LINE
  8
L-ZISSEN
  6
CONTINUOUS
 62
     7
 10
861.250022
 20
897.5
 30
0.0
 11
861.250022
 21
892.0
 31
0.0
  0
LINE
  8
L-ZISSEN
  6
CONTINUOUS
 62
     7
 10
872.750022
 20
897.5
 30
0.0
 11
872.750022
 21
892.0
 31
0.0
  0
LINE
  8
L-ZISSEN
 10
711.2
 20
261.5
 30
0.0
 11
731.8
 21
261.5
 31
0.0
  0
LINE
  8
L-ZISSEN
 10
711.2
 20
343.5
 30
0.0
 11
731.8
 21
343.5
 31
0.0
  0
LINE
  8
L-ZISSEN
  6
CONTINUOUS
 62
     7
 10
694.3
 20
892.0
 30
0.0
 11
889.7
 21
892.0
 31
0.0
  0
CIRCLE
  8
L-ZISSEN
  6
CONTINUOUS
 62
     7
 10
667.0
 20
234.5
 30
0.0
 40
3.5
  0
LINE
  8
L-ZISSEN
  6
CONTINUOUS
 62
     7
 10
692.0
 20
908.0
 30
0.0
 11
652.0
 21
908.0
 31
0.0
  0
LINE
  8
L-ZISSEN
  6
CONTINUOUS
 62
     7
 10
652.0
 20
910.0
 30
0.0
 11
694.3
 21
910.0
 31
0.0
  0
LINE
  8
L-ZISSEN
  6
CONTINUOUS
 62
     7
 10
1007.0
 20
908.0
 30
0.0
 11
892.0
 21
908.0
 31
0.0
  0
LINE
  8
L-ZISSEN
  6
CONTINUOUS
 62
     7
 10
892.0
 20
890.0
 30
0.0
 11
692.0
 21
890.0
 31
0.0
  0
LINE
  8
L-ZISSEN
  6
CONTINUOUS
 62
     7
 10
889.7
 20
910.0
 30
0.0
 11
1007.0
 21
910.0
 31
0.0
  0
LINE
  8
L-ZISSEN
  6
CONTINUOUS
 62
     7
 10
711.2
 20
261.5
 30
0.0
 11
711.2
 21
343.5
 31
0.0
  0
LINE
  8
L-ZISSEN
  6
CONTINUOUS
 62
     7
 10
731.8
 20
261.5
 30
0.0
 11
731.8
 21
343.5
 31
0.0
  0
LINE
  8
L-ZISSEN
  6
CONTINUOUS
 62
     7
 10
718.5
 20
325.5
 30
0.0
 11
724.5
 21
325.5
 31
0.0
  0
LINE
  8
L-ZISSEN
  6
CONTINUOUS
 62
     7
 10
718.5
 20
279.5
 30
0.0
 11
718.5
 21
325.5
 31
0.0
  0
LINE
  8
L-ZISSEN
  6
CONTINUOUS
 62
     7
 10
724.5
 20
279.5
 30
0.0
 11
718.5
 21
279.5
 31
0.0
  0
LINE
  8
L-ZISSEN
  6
CONTINUOUS
 62
     7
 10
724.5
 20
325.5
 30
0.0
 11
724.5
 21
279.5
 31
0.0
  0
CIRCLE
  8
L-ZISSEN
  6
CONTINUOUS
 62
     7
 10
721.5
 20
271.5
 30
0.0
 40
4.5
  0
LINE
  8
L-ZISSEN
  6
CONTINUOUS
 62
     7
 10
717.0
 20
332.9
 30
0.0
 11
717.040179
 21
332.9
 31
0.0
  0
CIRCLE
  8
L-ZISSEN
  6
CONTINUOUS
 62
     7
 10
721.5
 20
333.5
 30
0.0
 40
4.5
  0
LINE
  8
L-ZISSEN
  6
CONTINUOUS
 62
     7
 10
1007.0
 20
222.0
 30
0.0
 11
894.0
 21
222.0
 31
0.0
  0
LINE
  8
L-ZISSEN
  6
CONTINUOUS
 62
     7
 10
1007.0
 20
372.0
 30
0.0
 11
970.5
 21
372.0
 31
0.0
  0
LINE
  8
L-ZISSEN
  6
CONTINUOUS
 62
     7
 10
752.0
 20
222.0
 30
0.0
 11
706.0
 21
222.0
 31
0.0
  0
LINE
  8
L-ZISSEN
  6
CONTINUOUS
 62
     7
 10
692.0
 20
222.0
 30
0.0
 11
652.0
 21
222.0
 31
0.0
  0
LINE
  8
L-ZISSEN
  6
CONTINUOUS
 62
     7
 10
878.0
 20
222.0
 30
0.0
 11
832.0
 21
222.0
 31
0.0
  0
LINE
  8
L-TYUSIN
  6
CENTER
 62
     1
 10
660.087939
 20
234.5
 30
0.0
 11
673.912061
 21
234.5
 31
0.0
  0
LINE
  8
L-TYUSIN
  6
CENTER
 62
     1
 10
667.0
 20
227.587939
 30
0.0
 11
667.0
 21
241.412061
 31
0.0
  0
LINE
  8
L-ZISSEN
 10
898.0
 20
428.0
 30
0.0
 11
898.0
 21
426.111113
 31
0.0
  0
LINE
  8
L-ZISSEN
 10
953.0
 20
428.0
 30
0.0
 11
953.0
 21
426.111113
 31
0.0
  0
LINE
  8
L-ZISSEN
 10
895.5
 20
426.023812
 30
0.0
 11
895.5
 21
324.976188
 31
0.0
  0
LINE
  8
L-ZISSEN
 10
970.5
 20
425.5
 30
0.0
 11
970.5
 21
325.5
 31
0.0
  0
LINE
  8
L-ZISSEN
 10
970.5
 20
425.5
 30
0.0
 11
925.5
 21
427.071435
 31
0.0
  0
LINE
  8
L-ZISSEN
 10
925.5
 20
427.071435
 30
0.0
 11
925.3
 21
427.06445
 31
0.0
  0
LINE
  8
L-ZISSEN
 10
953.0
 20
428.0
 30
0.0
 11
938.681873
 21
428.5
 31
0.0
  0
LINE
  8
L-ZISSEN
 10
912.318127
 20
428.5
 30
0.0
 11
898.0
 21
428.0
 31
0.0
  0
LINE
  8
L-ZISSEN
 10
970.5
 20
325.5
 30
0.0
 11
925.5
 21
323.928565
 31
0.0
  0
LINE
  8
L-ZISSEN
 10
925.5
 20
323.928565
 30
0.0
 11
895.5
 21
324.976188
 31
0.0
  0
LINE
  8
L-ZISSEN
 10
951.5
 20
324.836505
 30
0.0
 11
951.5
 21
290.5
 31
0.0
  0
LINE
  8
L-ZISSEN
 10
899.5
 20
324.836505
 30
0.0
 11
899.5
 21
290.5
 31
0.0
  0
LINE
  8
L-ZISSEN
 10
899.5
 20
293.5
 30
0.0
 11
894.0
 21
293.5
 31
0.0
  0
LINE
  8
L-ZISSEN
 10
895.5
 20
358.5
 30
0.0
 11
894.0
 21
358.5
 31
0.0
  0
LINE
  8
L-ZISSEN
 10
970.500022
 20
880.0
 30
0.0
 11
970.500022
 21
760.5
 31
0.0
  0
LINE
  8
L-ZISSEN
 10
895.500022
 20
880.523812
 30
0.0
 11
895.500022
 21
759.976188
 31
0.0
  0
ARC
  8
L-ZISSEN
 10
946.500022
 20
811.5
 30
0.0
 40
6.5
 50
0.0
 51
90.0
  0
LINE
  8
L-ZISSEN
 10
946.500022
 20
818.0
 30
0.0
 11
925.500022
 21
818.0
 31
0.0
  0
ARC
  8
L-ZISSEN
 10
904.500022
 20
769.5
 30
0.0
 40
6.5
 50
180.0
 51
270.0
  0
LINE
  8
L-ZISSEN
 10
898.000022
 20
790.5
 30
0.0
 11
898.000022
 21
769.5
 31
0.0
  0
LINE
  8
L-ZISSEN
 10
904.500022
 20
763.0
 30
0.0
 11
925.500022
 21
763.0
 31
0.0
  0
LINE
  8
L-ZISSEN
 10
953.000022
 20
811.5
 30
0.0
 11
953.000022
 21
790.5
 31
0.0
  0
LINE
  8
L-ZISSEN
 10
970.500022
 20
760.5
 30
0.0
 11
941.863769
 21
759.5
 31
0.0
  0
LINE
  8
L-ZISSEN
 10
904.500022
 20
759.661902
 30
0.0
 11
895.500022
 21
759.976188
 31
0.0
  0
LINE
  8
L-ZISSEN
 10
904.500022
 20
759.661902
 30
0.0
 11
904.500022
 21
759.5
 31
0.0
  0
LINE
  8
L-ZISSEN
 10
970.500022
 20
880.0
 30
0.0
 11
925.500022
 21
881.571435
 31
0.0
  0
LINE
  8
L-ZISSEN
 10
925.500022
 20
881.571435
 30
0.0
 11
895.500022
 21
880.523812
 31
0.0
  0
LINE
  8
L-ZISSEN
 10
894.000022
 20
873.569842
 30
0.0
 11
895.500022
 21
873.622223
 31
0.0
  0
LINE
  8
L-ZISSEN
 10
894.000022
 20
776.430158
 30
0.0
 11
895.500022
 21
776.377777
 31
0.0
  0
LINE
  8
L-ZISSEN
 10
894.000022
 20
873.569842
 30
0.0
 11
894.000022
 21
776.430158
 31
0.0
  0
LINE
  8
L-ZISSEN
 10
904.500022
 20
759.5
 30
0.0
 11
941.863769
 21
759.5
 31
0.0
  0
LINE
  8
L-ZISSEN
 10
951.5
 20
290.5
 30
0.0
 11
899.5
 21
290.5
 31
0.0
  0
LINE
  8
L-ZISSEN
 10
953.0
 20
428.5
 30
0.0
 11
898.0
 21
428.5
 31
0.0
  0
LINE
  8
L-ZISSEN
 10
953.0
 20
438.5
 30
0.0
 11
909.1
 21
438.5
 31
0.0
  0
LINE
  8
L-ZISSEN
 10
948.0
 20
443.5
 30
0.0
 11
948.0
 21
438.5
 31
0.0
  0
LINE
  8
L-ZISSEN
 10
953.0
 20
438.5
 30
0.0
 11
953.0
 21
428.5
 31
0.0
  0
LINE
  8
L-ZISSEN
 10
903.0
 20
443.5
 30
0.0
 11
903.0
 21
439.8
 31
0.0
  0
LINE
  8
L-ZISSEN
 10
898.0
 20
438.5
 30
0.0
 11
898.0
 21
428.5
 31
0.0
  0
LINE
  8
L-ZISSEN
 10
911.0
 20
438.5
 30
0.0
 11
911.0
 21
433.5
 31
0.0
  0
LINE
  8
L-ZISSEN
 10
911.0
 20
433.5
 30
0.0
 11
898.0
 21
433.5
 31
0.0
  0
LINE
  8
L-ZISSEN
 10
953.0
 20
443.5
 30
0.0
 11
898.0
 21
443.5
 31
0.0
  0
LINE
  8
L-ZISSEN
 10
953.0
 20
464.5
 30
0.0
 11
898.0
 21
464.5
 31
0.0
  0
LINE
  8
L-ZISSEN
 10
953.0
 20
464.5
 30
0.0
 11
953.0
 21
449.5
 31
0.0
  0
LINE
  8
L-ZISSEN
 10
898.0
 20
464.5
 30
0.0
 11
898.0
 21
449.5
 31
0.0
  0
LINE
  8
L-ZISSEN
 10
953.0
 20
446.5
 30
0.0
 11
898.0
 21
446.5
 31
0.0
  0
LINE
  8
L-ZISSEN
 10
953.0
 20
449.5
 30
0.0
 11
898.0
 21
449.5
 31
0.0
  0
LINE
  8
L-ZISSEN
 10
950.5
 20
449.5
 30
0.0
 11
950.5
 21
448.5
 31
0.0
  0
LINE
  8
L-ZISSEN
 10
900.5
 20
449.5
 30
0.0
 11
900.5
 21
448.5
 31
0.0
  0
LINE
  8
L-ZISSEN
 10
953.0
 20
446.5
 30
0.0
 11
953.0
 21
443.5
 31
0.0
  0
LINE
  8
L-ZISSEN
 10
898.0
 20
446.5
 30
0.0
 11
898.0
 21
443.5
 31
0.0
  0
LINE
  8
L-ZISSEN
 10
951.5
 20
448.5
 30
0.0
 11
899.499992
 21
448.5
 31
0.0
  0
ARC
  8
L-ZISSEN
 10
951.5
 20
447.5
 30
0.0
 40
1.0
 50
270.0
 51
90.0
  0
ARC
  8
L-ZISSEN
 10
899.5
 20
447.5
 30
0.0
 40
1.0
 50
90.0
 51
270.0
  0
LINE
  8
L-ZISSEN
 10
902.133379
 20
776.0
 30
0.0
 11
898.000022
 21
776.0
 31
0.0
  0
LINE
  8
L-ZISSEN
 10
911.000022
 20
767.133357
 30
0.0
 11
911.000022
 21
763.0
 31
0.0
  0
LINE
  8
L-ZISSEN
 10
940.000022
 20
813.866643
 30
0.0
 11
940.000022
 21
818.0
 31
0.0
  0
LINE
  8
L-ZISSEN
 10
948.866665
 20
805.0
 30
0.0
 11
953.000022
 21
805.0
 31
0.0
  0
CIRCLE
  8
L-ZISSEN
 10
925.500022
 20
790.5
 30
0.0
 40
27.5
  0
CIRCLE
  8
L-ZISSEN
 10
925.500022
 20
790.5
 30
0.0
 40
25.0
  0
ARC
  8
L-ZISSEN
 10
904.500022
 20
769.5
 30
0.0
 40
4.6
 50
102.473704
 51
347.526296
  0
ARC
  8
L-ZISSEN
 10
946.500022
 20
811.5
 30
0.0
 40
4.6
 50
282.473704
 51
167.526296
  0
LINE
  8
L-ZISSEN
 10
899.9
 20
439.8
 30
0.0
 11
899.9
 21
433.5
 31
0.0
  0
LINE
  8
L-ZISSEN
 10
909.1
 20
439.8
 30
0.0
 11
899.9
 21
439.8
 31
0.0
  0
LINE
  8
L-ZISSEN
 10
909.1
 20
439.8
 30
0.0
 11
909.1
 21
433.5
 31
0.0
  0
LINE
  8
L-ZISSEN
 10
899.9
 20
438.5
 30
0.0
 11
898.0
 21
438.5
 31
0.0
  0
LINE
  8
L-ZISSEN
  6
CONTINUOUS
 62
     7
 10
904.700022
 20
745.7
 30
0.0
 11
925.300022
 21
745.7
 31
0.0
  0
LINE
  8
L-ZISSEN
  6
CONTINUOUS
 62
     7
 10
904.700022
 20
745.7
 30
0.0
 11
904.700022
 21
759.5
 31
0.0
  0
LINE
  8
L-ZISSEN
  6
CONTINUOUS
 62
     7
 10
925.300022
 20
745.7
 30
0.0
 11
925.300022
 21
759.5
 31
0.0
  0
CIRCLE
  8
L-ZISSEN
  6
CONTINUOUS
 62
     7
 10
915.0
 20
417.5
 30
0.0
 40
4.5
  0
CIRCLE
  8
L-ZISSEN
  6
CONTINUOUS
 62
     7
 10
915.0
 20
355.5
 30
0.0
 40
4.5
  0
LINE
  8
L-ZISSEN
  6
CONTINUOUS
 62
     7
 10
918.0
 20
409.5
 30
0.0
 11
918.0
 21
363.5
 31
0.0
  0
LINE
  8
L-ZISSEN
  6
CONTINUOUS
 62
     7
 10
918.0
 20
363.5
 30
0.0
 11
912.0
 21
363.5
 31
0.0
  0
LINE
  8
L-ZISSEN
  6
CONTINUOUS
 62
     7
 10
912.0
 20
363.5
 30
0.0
 11
912.0
 21
409.5
 31
0.0
  0
LINE
  8
L-ZISSEN
  6
CONTINUOUS
 62
     7
 10
912.0
 20
409.5
 30
0.0
 11
918.0
 21
409.5
 31
0.0
  0
LINE
  8
L-ZISSEN
  6
CONTINUOUS
 62
     7
 10
925.3
 20
345.5
 30
0.0
 11
925.3
 21
427.5
 31
0.0
  0
LINE
  8
L-ZISSEN
  6
CONTINUOUS
 62
     7
 10
904.7
 20
345.5
 30
0.0
 11
904.7
 21
427.5
 31
0.0
  0
LINE
  8
L-ZISSEN
 10
904.7
 20
427.5
 30
0.0
 11
925.3
 21
427.5
 31
0.0
  0
LINE
  8
L-ZISSEN
 10
904.7
 20
345.5
 30
0.0
 11
925.3
 21
345.5
 31
0.0
  0
LINE
  8
L-ZISSEN
 10
904.7
 20
426.345083
 30
0.0
 11
895.5
 21
426.023812
 31
0.0
  0
LINE
  8
L-ZISSEN
 10
950.5
 20
286.5
 30
0.0
 11
900.5
 21
286.5
 31
0.0
  0
LINE
  8
L-ZISSEN
 10
950.5
 20
290.5
 30
0.0
 11
950.5
 21
286.5
 31
0.0
  0
LINE
  8
L-ZISSEN
 10
900.5
 20
290.5
 30
0.0
 11
900.5
 21
286.5
 31
0.0
  0
LINE
  8
L-ZISSEN
 10
900.9
 20
280.2
 30
0.0
 11
900.9
 21
286.5
 31
0.0
  0
LINE
  8
L-ZISSEN
 10
900.9
 20
280.2
 30
0.0
 11
910.1
 21
280.2
 31
0.0
  0
LINE
  8
L-ZISSEN
 10
910.1
 20
280.2
 30
0.0
 11
910.1
 21
286.5
 31
0.0
  0
LINE
  8
L-ZISSEN
 10
950.1
 20
280.2
 30
0.0
 11
950.1
 21
286.5
 31
0.0
  0
LINE
  8
L-ZISSEN
 10
940.9
 20
280.2
 30
0.0
 11
950.1
 21
280.2
 31
0.0
  0
LINE
  8
L-ZISSEN
 10
940.9
 20
280.2
 30
0.0
 11
940.9
 21
286.5
 31
0.0
  0
LINE
  8
L-TYUSIN
  6
CENTER
 62
     1
 10
992.0
 20
227.587939
 30
0.0
 11
992.0
 21
241.412061
 31
0.0
  0
LINE
  8
L-TYUSIN
  6
CENTER
 62
     1
 10
985.087939
 20
234.5
 30
0.0
 11
998.912061
 21
234.5
 31
0.0
  0
CIRCLE
  8
L-ZISSEN
  6
CONTINUOUS
 62
     7
 10
992.0
 20
234.5
 30
0.0
 40
3.5
  0
CIRCLE
  8
L-ZISSEN
  6
CONTINUOUS
 62
     7
 10
992.0
 20
359.5
 30
0.0
 40
3.5
  0
LINE
  8
L-TYUSIN
  6
CENTER
 62
     1
 10
985.087939
 20
359.5
 30
0.0
 11
998.912061
 21
359.5
 31
0.0
  0
LINE
  8
L-TYUSIN
  6
CENTER
 62
     1
 10
992.0
 20
352.587939
 30
0.0
 11
992.0
 21
366.412061
 31
0.0
  0
LINE
  8
L-ZISSEN
  6
CONTINUOUS
 62
     7
 10
1007.0
 20
222.0
 30
0.0
 11
1007.0
 21
372.0
 31
0.0
  0
LINE
  8
L-ZISSEN
 10
334.269786
 20
597.5
 30
0.0
 11
334.269786
 21
580.5
 31
0.0
  0
LINE
  8
L-ZISSEN
 10
379.730258
 20
597.5
 30
0.0
 11
379.730258
 21
580.5
 31
0.0
  0
LINE
  8
L-ZISSEN
 10
564.644661
 20
435.355339
 30
0.0
 11
559.644661
 21
435.355339
 31
0.0
  0
LINE
  8
L-ZISSEN
 10
598.585786
 20
401.414214
 30
0.0
 11
564.644661
 21
435.355339
 31
0.0
  0
SOLID
  8
L-ZISSEN
 10
598.821489
 20
401.649916
 30
0.0
 11
598.350084
 21
401.178511
 31
0.0
 12
600.0
 22
400.0
 32
0.0
 13
600.0
 23
400.0
 33
0.0
  0
LINE
  8
L-ZISSEN
 10
836.748737
 20
634.248737
 30
0.0
 11
841.748737
 21
634.248737
 31
0.0
  0
LINE
  8
L-ZISSEN
 10
813.414214
 20
610.914214
 30
0.0
 11
836.748737
 21
634.248737
 31
0.0
  0
SOLID
  8
L-ZISSEN
 10
813.649916
 20
610.678511
 30
0.0
 11
813.178511
 21
611.149916
 31
0.0
 12
812.0
 22
609.5
 32
0.0
 13
812.0
 23
609.5
 33
0.0
  0
TEXT
  8
L-ZISSEN
 10
1147.03249
 20
225.765891
 30
0.0
 40
9.0
  1
MC5004
  0
TEXT
  8
L-ZISSEN
  6
CONTINUOUS
 62
     7
 10
286.523755
 20
881.082192
 30
0.0
 40
4.5
  1
MODEL No
  0
TEXT
  8
L-ZISSEN
  6
CONTINUOUS
 62
     7
 10
289.523755
 20
871.082192
 30
0.0
 40
4.5
  1
MC5-A2L2-*G75
  0
CIRCLE
  8
L-ZISSEN
 10
742.0
 20
447.5
 30
0.0
 40
8.0
  0
CIRCLE
  8
L-ZISSEN
 10
631.5
 20
402.49998
 30
0.0
 40
18.5
  0
LINE
  8
L-ZISSEN
  6
CONTINUOUS
 62
     7
 10
638.571068
 20
409.571048
 30
0.0
 11
620.720183
 21
391.720163
 31
0.0
  0
CIRCLE
  8
L-ZISSEN
 10
847.0
 20
400.0
 30
0.0
 40
18.5
  0
LINE
  8
L-ZISSEN
  6
CONTINUOUS
 62
     7
 10
854.071068
 20
407.071068
 30
0.0
 11
836.220183
 21
389.220183
 31
0.0
  0
LINE
  8
L-ZISSEN
  6
CONTINUOUS
 62
     7
 10
802.3
 20
464.5
 30
0.0
 11
802.3
 21
568.5
 31
0.0
  0
LINE
  8
L-TYUSIN
  6
CENTER
 62
     1
 10
812.0
 20
614.314532
 30
0.0
 11
812.0
 21
566.814365
 31
0.0
  0
LINE
  8
L-ZISSEN
  6
CONTINUOUS
 62
     7
 10
821.767446
 20
422.5
 30
0.0
 11
821.767446
 21
568.5
 31
0.0
  0
TEXT
  8
L-ZISSEN
  6
CONTINUOUS
 62
     7
 10
842.773098
 20
624.406382
 30
0.0
 40
4.5
  1
Rc1/2
  0
TEXT
  8
L-ZISSEN
  6
CONTINUOUS
 62
     7
 10
842.773098
 20
634.406382
 30
0.0
 40
4.5
  1
OUT PORT
  0
LINE
  8
L-ZISSEN
  6
CONTINUOUS
 62
     7
 10
834.730258
 20
597.5
 30
0.0
 11
789.269786
 21
597.5
 31
0.0
  0
LINE
  8
L-ZISSEN
  6
CONTINUOUS
 62
     7
 10
797.387727
 20
609.5
 30
0.0
 11
826.612317
 21
609.5
 31
0.0
  0
LINE
  8
L-ZISSEN
  6
CONTINUOUS
 62
     7
 10
797.387727
 20
568.5
 30
0.0
 11
826.612317
 21
568.5
 31
0.0
  0
LINE
  8
L-ZISSEN
  6
CONTINUOUS
 62
     7
 10
834.730258
 20
580.5
 30
0.0
 11
789.269786
 21
580.5
 31
0.0
  0
LINE
  8
L-ZISSEN
 10
805.6
 20
458.5
 30
0.0
 11
805.6
 21
464.5
 31
0.0
  0
LINE
  8
L-ZISSEN
 10
801.5
 20
464.5
 30
0.0
 11
801.5
 21
466.0
 31
0.0
  0
LINE
  8
L-ZISSEN
 10
801.5
 20
422.5
 30
0.0
 11
802.757148
 21
458.5
 31
0.0
  0
LINE
  8
L-ZISSEN
  6
CONTINUOUS
 62
     7
 10
682.5
 20
466.0
 30
0.0
 11
801.5
 21
466.0
 31
0.0
  0
LINE
  8
L-ZISSEN
  6
CONTINUOUS
 62
     7
 10
678.4
 20
464.5
 30
0.0
 11
805.6
 21
464.5
 31
0.0
  0
LINE
  8
L-ZISSEN
  6
CONTINUOUS
 62
     7
 10
678.4
 20
458.5
 30
0.0
 11
805.6
 21
458.5
 31
0.0
  0
LINE
  8
L-ZISSEN
 10
682.5
 20
422.5
 30
0.0
 11
681.242852
 21
458.5
 31
0.0
  0
LINE
  8
L-ZISSEN
 10
678.4
 20
458.5
 30
0.0
 11
678.4
 21
464.5
 31
0.0
  0
LINE
  8
L-ZISSEN
 10
682.5
 20
464.5
 30
0.0
 11
682.5
 21
466.0
 31
0.0
  0
LINE
  8
L-ZISSEN
 10
683.025878
 20
466.0
 30
0.0
 11
683.39418
 21
487.1
 31
0.0
  0
LINE
  8
L-ZISSEN
 10
800.974122
 20
466.0
 30
0.0
 11
800.60582
 21
487.1
 31
0.0
  0
LINE
  8
L-ZISSEN
 10
683.393771
 20
487.096668
 30
0.0
 11
691.424085
 21
563.5
 31
0.0
  0
LINE
  8
L-ZISSEN
 10
800.606229
 20
487.096668
 30
0.0
 11
792.575915
 21
563.5
 31
0.0
  0
LINE
  8
L-ZISSEN
  6
CONTINUOUS
 62
     7
 10
691.424085
 20
563.5
 30
0.0
 11
792.575915
 21
563.5
 31
0.0
  0
POLYLINE
  8
L-ZISSEN
 66
     1
 10
0.0
 20
0.0
 30
0.0
  0
VERTEX
  8
L-ZISSEN
 10
805.6
 20
863.07926
 30
0.0
  0
VERTEX
  8
L-ZISSEN
 10
805.6
 20
883.6
 30
0.0
  0
VERTEX
  8
L-ZISSEN
 10
678.4
 20
883.6
 30
0.0
  0
SEQEND
  8
L-ZISSEN
  0
POLYLINE
  8
L-ZISSEN
 66
     1
 10
0.0
 20
0.0
 30
0.0
  0
VERTEX
  8
L-ZISSEN
 10
678.4
 20
883.6
 30
0.0
  0
VERTEX
  8
L-ZISSEN
 10
678.4
 20
756.4
 30
0.0
  0
VERTEX
  8
L-ZISSEN
 10
805.6
 20
756.4
 30
0.0
  0
VERTEX
  8
L-ZISSEN
 10
805.6
 20
822.92074
 30
0.0
  0
SEQEND
  8
L-ZISSEN
  0
LINE
  8
L-ZISSEN
  6
CONTINUOUS
 62
     7
 10
802.000022
 20
760.0
 30
0.0
 11
682.000022
 21
760.0
 31
0.0
  0
LINE
  8
L-ZISSEN
  6
CONTINUOUS
 62
     7
 10
805.6
 20
880.0
 30
0.0
 11
895.500022
 21
880.0
 31
0.0
  0
LINE
  8
L-ZISSEN
  6
CONTINUOUS
 62
     7
 10
682.000022
 20
880.0
 30
0.0
 11
802.000022
 21
880.0
 31
0.0
  0
CIRCLE
  8
L-ZISSEN
 10
350.0
 20
442.5
 30
0.0
 40
9.3155
  0
LINE
  8
L-TYUSIN
  6
CENTER
 62
     1
 10
357.0
 20
614.192797
 30
0.0
 11
357.0
 21
560.316038
 31
0.0
  0
LINE
  8
L-ZISSEN
  6
CONTINUOUS
 62
     7
 10
418.00006
 20
466.0
 30
0.0
 11
439.5
 21
466.0
 31
0.0
  0
LINE
  8
L-ZISSEN
  6
CONTINUOUS
 62
     7
 10
418.00006
 20
464.5
 30
0.0
 11
443.6
 21
464.5
 31
0.0
  0
LINE
  8
L-ZISSEN
 10
439.5
 20
464.5
 30
0.0
 11
439.5
 21
466.0
 31
0.0
  0
LINE
  8
L-ZISSEN
 10
438.606229
 20
487.096668
 30
0.0
 11
430.575915
 21
563.5
 31
0.0
  0
LINE
  8
L-ZISSEN
 10
438.974122
 20
466.0
 30
0.0
 11
438.60582
 21
487.1
 31
0.0
  0
LINE
  8
L-ZISSEN
 10
321.025878
 20
466.0
 30
0.0
 11
321.39418
 21
487.1
 31
0.0
  0
LINE
  8
L-ZISSEN
  6
CONTINUOUS
 62
     7
 10
320.5
 20
466.0
 30
0.0
 11
382.0
 21
466.0
 31
0.0
  0
LINE
  8
L-ZISSEN
 10
320.5
 20
464.5
 30
0.0
 11
320.5
 21
466.0
 31
0.0
  0
LINE
  8
L-ZISSEN
 10
321.393771
 20
487.096668
 30
0.0
 11
329.424085
 21
563.5
 31
0.0
  0
LINE
  8
L-ZISSEN
  6
CONTINUOUS
 62
     7
 10
329.424085
 20
563.5
 30
0.0
 11
430.575915
 21
563.5
 31
0.0
  0
LINE
  8
L-ZISSEN
  6
CONTINUOUS
 62
     7
 10
452.5
 20
395.5
 30
0.0
 11
431.89281
 21
395.5
 31
0.0
  0
LINE
  8
L-ZISSEN
  6
CONTINUOUS
 62
     7
 10
452.5
 20
409.5
 30
0.0
 11
431.89281
 21
409.5
 31
0.0
  0
LINE
  8
L-ZISSEN
  6
CONTINUOUS
 62
     7
 10
476.5
 20
384.0
 30
0.0
 11
476.5
 21
421.0
 31
0.0
  0
LINE
  8
L-ZISSEN
  6
CONTINUOUS
 62
     7
 10
476.5
 20
421.0
 30
0.0
 11
452.5
 21
421.0
 31
0.0
  0
LINE
  8
L-ZISSEN
  6
CONTINUOUS
 62
     7
 10
476.5
 20
384.0
 30
0.0
 11
452.5
 21
384.0
 31
0.0
  0
LINE
  8
L-ZISSEN
  6
CONTINUOUS
 62
     7
 10
452.5
 20
384.0
 30
0.0
 11
452.5
 21
421.0
 31
0.0
  0
LINE
  8
L-ZISSEN
  6
CONTINUOUS
 62
     7
 10
624.5
 20
747.5
 30
0.0
 11
624.5
 21
768.5
 31
0.0
  0
LINE
  8
L-ZISSEN
  6
CONTINUOUS
 62
     7
 10
638.5
 20
747.5
 30
0.0
 11
638.5
 21
768.5
 31
0.0
  0
LINE
  8
L-ZISSEN
  6
CONTINUOUS
 62
     7
 10
613.0
 20
723.5
 30
0.0
 11
650.0
 21
723.5
 31
0.0
  0
LINE
  8
L-ZISSEN
  6
CONTINUOUS
 62
     7
 10
650.0
 20
723.5
 30
0.0
 11
650.0
 21
747.5
 31
0.0
  0
LINE
  8
L-ZISSEN
  6
CONTINUOUS
 62
     7
 10
613.0
 20
723.5
 30
0.0
 11
613.0
 21
747.5
 31
0.0
  0
LINE
  8
L-ZISSEN
  6
CONTINUOUS
 62
     7
 10
613.0
 20
747.5
 30
0.0
 11
650.0
 21
747.5
 31
0.0
  0
LINE
  8
L-ZISSEN
  6
CONTINUOUS
 62
     7
 10
828.500022
 20
739.0
 30
0.0
 11
865.500022
 21
739.0
 31
0.0
  0
LINE
  8
L-ZISSEN
  6
CONTINUOUS
 62
     7
 10
828.500022
 20
715.0
 30
0.0
 11
828.500022
 21
739.0
 31
0.0
  0
LINE
  8
L-ZISSEN
  6
CONTINUOUS
 62
     7
 10
865.500022
 20
715.0
 30
0.0
 11
865.500022
 21
739.0
 31
0.0
  0
LINE
  8
L-ZISSEN
  6
CONTINUOUS
 62
     7
 10
828.500022
 20
715.0
 30
0.0
 11
865.500022
 21
715.0
 31
0.0
  0
LINE
  8
L-ZISSEN
  6
CONTINUOUS
 62
     7
 10
347.3
 20
564.5
 30
0.0
 11
347.3
 21
568.5
 31
0.0
  0
LINE
  8
L-ZISSEN
  6
CONTINUOUS
 62
     7
 10
366.767446
 20
564.5
 30
0.0
 11
366.767446
 21
568.5
 31
0.0
  0
LINE
  8
L-ZISSEN
  6
CONTINUOUS
 62
     7
 10
379.730258
 20
597.5
 30
0.0
 11
334.269786
 21
597.5
 31
0.0
  0
LINE
  8
L-ZISSEN
  6
CONTINUOUS
 62
     7
 10
343.5
 20
609.5
 30
0.0
 11
370.5
 21
609.5
 31
0.0
  0
LINE
  8
L-ZISSEN
  6
CONTINUOUS
 62
     7
 10
343.5
 20
609.5
 30
0.0
 11
343.5
 21
597.5
 31
0.0
  0
LINE
  8
L-ZISSEN
  6
CONTINUOUS
 62
     7
 10
370.5
 20
609.5
 30
0.0
 11
370.5
 21
597.5
 31
0.0
  0
LINE
  8
L-ZISSEN
  6
CONTINUOUS
 62
     7
 10
370.5
 20
568.5
 30
0.0
 11
370.5
 21
580.5
 31
0.0
  0
LINE
  8
L-ZISSEN
  6
CONTINUOUS
 62
     7
 10
343.5
 20
568.5
 30
0.0
 11
343.5
 21
580.5
 31
0.0
  0
LINE
  8
L-ZISSEN
  6
CONTINUOUS
 62
     7
 10
343.5
 20
568.5
 30
0.0
 11
370.5
 21
568.5
 31
0.0
  0
LINE
  8
L-ZISSEN
  6
CONTINUOUS
 62
     7
 10
379.730258
 20
580.5
 30
0.0
 11
334.269786
 21
580.5
 31
0.0
  0
LINE
  8
L-TYUSIN
  6
CENTER
 62
     1
 10
350.0
 20
427.651541
 30
0.0
 11
350.0
 21
457.348459
 31
0.0
  0
LINE
  8
L-TYUSIN
  6
CENTER
 62
     1
 10
335.151541
 20
442.5
 30
0.0
 11
364.848459
 21
442.5
 31
0.0
  0
LINE
  8
L-ZISSEN
  6
CONTINUOUS
 62
     7
 10
854.000022
 20
739.0
 30
0.0
 11
854.000022
 21
759.60719
 31
0.0
  0
LINE
  8
L-ZISSEN
  6
CONTINUOUS
 62
     7
 10
840.000022
 20
739.0
 30
0.0
 11
840.000022
 21
759.60719
 31
0.0
  0
LINE
  8
L-ZISSEN
 10
439.5
 20
422.5
 30
0.0
 11
440.757148
 21
458.5
 31
0.0
  0
LINE
  8
L-ZISSEN
 10
320.5
 20
422.5
 30
0.0
 11
319.242852
 21
458.5
 31
0.0
  0
LINE
  8
L-ZISSEN
 10
366.0
 20
422.5
 30
0.0
 11
367.257148
 21
458.5
 31
0.0
  0
LINE
  8
L-ZISSEN
 10
334.0
 20
422.5
 30
0.0
 11
332.742852
 21
458.5
 31
0.0
  0
LINE
  8
L-ZISSEN
  6
CONTINUOUS
 62
     7
 10
316.4
 20
458.5
 30
0.0
 11
377.983423
 21
458.5
 31
0.0
  0
LINE
  8
L-ZISSEN
  6
CONTINUOUS
 62
     7
 10
316.4
 20
464.5
 30
0.0
 11
382.0
 21
464.5
 31
0.0
  0
LINE
  8
L-ZISSEN
 10
443.6
 20
458.5
 30
0.0
 11
443.6
 21
464.5
 31
0.0
  0
LINE
  8
L-ZISSEN
 10
316.4
 20
458.5
 30
0.0
 11
316.4
 21
464.5
 31
0.0
  0
LINE
  8
L-ZISSEN
  6
CONTINUOUS
 62
     7
 10
422.016667
 20
458.5
 30
0.0
 11
443.6
 21
458.5
 31
0.0
  0
LINE
  8
L-TYUSIN
  6
CENTER
 62
     1
 10
609.065758
 20
800.0
 30
0.0
 11
590.5
 21
800.0
 31
0.0
  0
LINE
  8
L-ZISSEN
 10
792.586083
 20
870.586083
 30
0.0
 11
802.000022
 21
880.0
 31
0.0
  0
LINE
  8
L-ZISSEN
 10
792.586083
 20
769.413917
 30
0.0
 11
802.000022
 21
760.0
 31
0.0
  0
LINE
  8
L-ZISSEN
 10
691.413917
 20
769.413917
 30
0.0
 11
682.000022
 21
760.0
 31
0.0
  0
LINE
  8
L-ZISSEN
 10
682.000022
 20
880.0
 30
0.0
 11
691.413917
 21
870.586083
 31
0.0
  0
LINE
  8
L-ZISSEN
  6
CONTINUOUS
 62
     7
 10
792.586083
 20
834.993749
 30
0.0
 11
792.586083
 21
769.413917
 31
0.0
  0
LINE
  8
L-ZISSEN
  6
CONTINUOUS
 62
     7
 10
792.586083
 20
870.586083
 30
0.0
 11
691.413917
 21
870.586083
 31
0.0
  0
LINE
  8
L-ZISSEN
  6
CONTINUOUS
 62
     7
 10
792.586083
 20
870.586083
 30
0.0
 11
792.586083
 21
851.006251
 31
0.0
  0
LINE
  8
L-ZISSEN
  6
CONTINUOUS
 62
     7
 10
691.413917
 20
769.413917
 30
0.0
 11
691.413917
 21
870.586083
 31
0.0
  0
LINE
  8
L-ZISSEN
  6
CONTINUOUS
 62
     7
 10
691.413917
 20
769.413917
 30
0.0
 11
792.586083
 21
769.413917
 31
0.0
  0
LINE
  8
L-ZISSEN
 10
892.000022
 20
784.0
 30
0.0
 11
894.000022
 21
784.0
 31
0.0
  0
LINE
  8
L-ZISSEN
 10
892.000022
 20
874.0
 30
0.0
 11
894.000022
 21
874.0
 31
0.0
  0
LINE
  8
L-ZISSEN
  6
CONTINUOUS
 62
     7
 10
894.000022
 20
874.0
 30
0.0
 11
894.000022
 21
784.0
 31
0.0
  0
LINE
  8
L-ZISSEN
  6
CONTINUOUS
 62
     7
 10
900.1
 20
239.0
 30
0.0
 11
900.1
 21
232.0
 31
0.0
  0
LINE
  8
L-ZISSEN
  6
CONTINUOUS
 62
     7
 10
900.1
 20
239.0
 30
0.0
 11
896.5
 21
239.0
 31
0.0
  0
LINE
  8
L-ZISSEN
  6
CONTINUOUS
 62
     7
 10
900.1
 20
232.0
 30
0.0
 11
896.5
 21
232.0
 31
0.0
  0
LINE
  8
L-ZISSEN
  6
CONTINUOUS
 62
     7
 10
900.1
 20
266.0
 30
0.0
 11
896.5
 21
266.0
 31
0.0
  0
LINE
  8
L-ZISSEN
  6
CONTINUOUS
 62
     7
 10
900.1
 20
273.0
 30
0.0
 11
896.5
 21
273.0
 31
0.0
  0
LINE
  8
L-ZISSEN
  6
CONTINUOUS
 62
     7
 10
900.1
 20
273.0
 30
0.0
 11
900.1
 21
266.0
 31
0.0
  0
LINE
  8
L-ZISSEN
  6
CONTINUOUS
 62
     7
 10
896.5
 20
222.5
 30
0.0
 11
894.0
 21
222.5
 31
0.0
  0
LINE
  8
L-ZISSEN
  6
CONTINUOUS
 62
     7
 10
896.5
 20
282.5
 30
0.0
 11
894.0
 21
282.5
 31
0.0
  0
LINE
  8
L-ZISSEN
  6
CONTINUOUS
 62
     7
 10
896.5
 20
282.5
 30
0.0
 11
896.5
 21
222.5
 31
0.0
  0
LINE
  8
L-ZISSEN
 10
677.0
 20
378.0
 30
0.0
 11
653.0
 21
378.0
 31
0.0
  0
LINE
  8
L-ZISSEN
 10
677.0
 20
422.0
 30
0.0
 11
653.0
 21
422.0
 31
0.0
  0
LINE
  8
L-ZISSEN
  6
CONTINUOUS
 62
     7
 10
894.0
 20
344.5
 30
0.0
 11
892.0
 21
344.5
 31
0.0
  0
LINE
  8
L-ZISSEN
  6
CONTINUOUS
 62
     7
 10
894.0
 20
220.5
 30
0.0
 11
892.0
 21
220.5
 31
0.0
  0
LINE
  8
L-ZISSEN
  6
CONTINUOUS
 62
     7
 10
894.0
 20
358.5
 30
0.0
 11
894.0
 21
220.5
 31
0.0
  0
LINE
  8
L-ZISSEN
  6
CONTINUOUS
 62
     7
 10
682.0
 20
243.250305
 30
0.0
 11
682.0
 21
225.749695
 31
0.0
  0
LINE
  8
L-ZISSEN
 10
692.0
 20
225.749695
 30
0.0
 11
682.0
 21
225.749695
 31
0.0
  0
LINE
  8
L-ZISSEN
 10
692.0
 20
243.250305
 30
0.0
 11
682.0
 21
243.250305
 31
0.0
  0
LINE
  8
L-ZISSEN
 10
692.0
 20
350.749695
 30
0.0
 11
682.0
 21
350.749695
 31
0.0
  0
LINE
  8
L-ZISSEN
 10
692.0
 20
368.250305
 30
0.0
 11
682.0
 21
368.250305
 31
0.0
  0
LINE
  8
L-ZISSEN
 10
368.5
 20
368.250305
 30
0.0
 11
330.0
 21
368.250305
 31
0.0
  0
LINE
  8
L-ZISSEN
 10
376.609622
 20
350.749695
 30
0.0
 11
330.0
 21
350.749695
 31
0.0
  0
ARC
  8
L-ZISSEN
 10
330.0
 20
359.5
 30
0.0
 40
8.750305
 50
90.0
 51
270.0
  0
ARC
  8
L-ZISSEN
 10
430.0
 20
359.5
 30
0.0
 40
8.750305
 50
276.562
 51
80.129458
  0
ARC
  8
L-ZISSEN
 10
430.0
 20
234.5
 30
0.0
 40
8.750305
 50
270.0
 51
90.0
  0
ARC
  8
L-ZISSEN
 10
330.0
 20
234.5
 30
0.0
 40
8.750305
 50
90.0
 51
270.0
  0
LINE
  8
L-ZISSEN
 10
430.0
 20
225.749695
 30
0.0
 11
330.0
 21
225.749695
 31
0.0
  0
LINE
  8
L-ZISSEN
 10
430.0
 20
243.250305
 30
0.0
 11
330.0
 21
243.250305
 31
0.0
  0
LINE
  8
L-ZISSEN
  6
CONTINUOUS
 62
     7
 10
682.0
 20
368.250305
 30
0.0
 11
682.0
 21
350.749695
 31
0.0
  0
LINE
  8
L-TYUSIN
  6
CENTER
 62
     1
 10
660.087939
 20
359.5
 30
0.0
 11
673.912061
 21
359.5
 31
0.0
  0
LINE
  8
L-TYUSIN
  6
CENTER
 62
     1
 10
667.0
 20
352.587939
 30
0.0
 11
667.0
 21
366.412061
 31
0.0
  0
LINE
  8
L-ZISSEN
  6
CONTINUOUS
 62
     7
 10
794.886751
 20
239.5
 30
0.0
 11
789.113249
 21
239.5
 31
0.0
  0
LINE
  8
L-ZISSEN
  6
CONTINUOUS
 62
     7
 10
797.773503
 20
234.5
 30
0.0
 11
794.886751
 21
239.5
 31
0.0
  0
LINE
  8
L-ZISSEN
  6
CONTINUOUS
 62
     7
 10
794.886751
 20
229.5
 30
0.0
 11
797.773503
 21
234.5
 31
0.0
  0
LINE
  8
L-ZISSEN
  6
CONTINUOUS
 62
     7
 10
789.113249
 20
229.5
 30
0.0
 11
794.886751
 21
229.5
 31
0.0
  0
LINE
  8
L-ZISSEN
  6
CONTINUOUS
 62
     7
 10
786.226497
 20
234.5
 30
0.0
 11
789.113249
 21
229.5
 31
0.0
  0
LINE
  8
L-ZISSEN
  6
CONTINUOUS
 62
     7
 10
789.113249
 20
239.5
 30
0.0
 11
786.226497
 21
234.5
 31
0.0
  0
LINE
  8
L-ZISSEN
  6
CONTINUOUS
 62
     7
 10
812.000022
 20
857.612295
 30
0.0
 11
801.667569
 21
853.332453
 31
0.0
  0
LINE
  8
L-ZISSEN
  6
CONTINUOUS
 62
     7
 10
822.332475
 20
853.332453
 30
0.0
 11
812.000022
 21
857.612295
 31
0.0
  0
LINE
  8
L-ZISSEN
  6
CONTINUOUS
 62
     7
 10
826.612317
 20
843.0
 30
0.0
 11
822.332475
 21
853.332453
 31
0.0
  0
LINE
  8
L-ZISSEN
  6
CONTINUOUS
 62
     7
 10
822.332475
 20
832.667547
 30
0.0
 11
826.612317
 21
843.0
 31
0.0
  0
LINE
  8
L-ZISSEN
  6
CONTINUOUS
 62
     7
 10
812.000022
 20
828.387705
 30
0.0
 11
822.332475
 21
832.667547
 31
0.0
  0
LINE
  8
L-ZISSEN
  6
CONTINUOUS
 62
     7
 10
801.667569
 20
832.667547
 30
0.0
 11
812.000022
 21
828.387705
 31
0.0
  0
LINE
  8
L-ZISSEN
  6
CONTINUOUS
 62
     7
 10
797.387727
 20
843.0
 30
0.0
 11
801.667569
 21
832.667547
 31
0.0
  0
LINE
  8
L-ZISSEN
  6
CONTINUOUS
 62
     7
 10
801.667569
 20
853.332453
 30
0.0
 11
797.387727
 21
843.0
 31
0.0
  0
LINE
  8
L-ZISSEN
  6
CONTINUOUS
 62
     7
 10
644.547727
 20
831.5
 30
0.0
 11
618.452273
 21
831.5
 31
0.0
  0
LINE
  8
L-ZISSEN
  6
CONTINUOUS
 62
     7
 10
663.0
 20
813.047727
 30
0.0
 11
644.547727
 21
831.5
 31
0.0
  0
LINE
  8
L-ZISSEN
  6
CONTINUOUS
 62
     7
 10
663.0
 20
786.952273
 30
0.0
 11
663.0
 21
813.047727
 31
0.0
  0
LINE
  8
L-ZISSEN
  6
CONTINUOUS
 62
     7
 10
644.547727
 20
768.5
 30
0.0
 11
663.0
 21
786.952273
 31
0.0
  0
LINE
  8
L-ZISSEN
  6
CONTINUOUS
 62
     7
 10
618.452273
 20
768.5
 30
0.0
 11
644.547727
 21
768.5
 31
0.0
  0
LINE
  8
L-ZISSEN
  6
CONTINUOUS
 62
     7
 10
600.0
 20
786.952273
 30
0.0
 11
618.452273
 21
768.5
 31
0.0
  0
LINE
  8
L-ZISSEN
  6
CONTINUOUS
 62
     7
 10
600.0
 20
813.047727
 30
0.0
 11
600.0
 21
786.952273
 31
0.0
  0
LINE
  8
L-ZISSEN
  6
CONTINUOUS
 62
     7
 10
618.452273
 20
831.5
 30
0.0
 11
600.0
 21
813.047727
 31
0.0
  0
LINE
  8
L-ZISSEN
  6
CENTER
 62
     1
 10
792.0
 20
216.389975
 30
0.0
 11
792.0
 21
252.610025
 31
0.0
  0
LINE
  8
L-ZISSEN
  6
CENTER
 62
     1
 10
773.889975
 20
234.5
 30
0.0
 11
810.110025
 21
234.5
 31
0.0
  0
LINE
  8
L-ZISSEN
  6
CONTINUOUS
 62
     7
 10
431.5
 20
445.5
 30
0.0
 11
431.5
 21
450.97868
 31
0.0
  0
LINE
  8
L-ZISSEN
  6
CONTINUOUS
 62
     7
 10
368.5
 20
445.5
 30
0.0
 11
368.5
 21
450.97868
 31
0.0
  0
LINE
  8
L-ZISSEN
  6
CONTINUOUS
 62
     7
 10
431.5
 20
445.5
 30
0.0
 11
368.5
 21
445.5
 31
0.0
  0
LINE
  8
L-ZISSEN
  6
CONTINUOUS
 62
     7
 10
420.36232
 20
504.0
 30
0.0
 11
420.99983
 21
467.5
 31
0.0
  0
LINE
  8
L-ZISSEN
  6
CONTINUOUS
 62
     7
 10
379.63749
 20
504.0
 30
0.0
 11
379.0
 21
467.49999
 31
0.0
  0
LINE
  8
L-ZISSEN
  6
CONTINUOUS
 62
     7
 10
378.00014
 20
458.47868
 30
0.0
 11
377.74665
 21
451.22
 31
0.0
  0
LINE
  8
L-ZISSEN
  6
CONTINUOUS
 62
     7
 10
421.99995
 20
458.47868
 30
0.0
 11
422.25344
 21
451.21999
 31
0.0
  0
LINE
  8
L-ZISSEN
  6
CONTINUOUS
 62
     7
 10
431.89281
 20
377.5
 30
0.0
 11
368.5
 21
377.5
 31
0.0
  0
LINE
  8
L-ZISSEN
  6
CONTINUOUS
 62
     7
 10
431.5
 20
363.7
 30
0.0
 11
368.5
 21
363.7
 31
0.0
  0
LINE
  8
L-ZISSEN
  6
CONTINUOUS
 62
     7
 10
418.0
 20
422.5
 30
0.0
 11
418.0
 21
410.00003
 31
0.0
  0
LINE
  8
L-ZISSEN
  6
CONTINUOUS
 62
     7
 10
422.0
 20
408.00002
 30
0.0
 11
418.0
 21
410.00002
 31
0.0
  0
LINE
  8
L-ZISSEN
  6
CONTINUOUS
 62
     7
 10
422.0
 20
408.00003
 30
0.0
 11
422.0
 21
392.0
 31
0.0
  0
LINE
  8
L-ZISSEN
  6
CONTINUOUS
 62
     7
 10
421.99999
 20
392.0
 30
0.0
 11
417.99999
 21
390.0
 31
0.0
  0
LINE
  8
L-ZISSEN
  6
CONTINUOUS
 62
     7
 10
418.0
 20
390.0
 30
0.0
 11
418.0
 21
377.5
 31
0.0
  0
LINE
  8
L-ZISSEN
  6
CONTINUOUS
 62
     7
 10
382.0
 20
390.0
 30
0.0
 11
382.0
 21
377.5
 31
0.0
  0
LINE
  8
L-ZISSEN
  6
CONTINUOUS
 62
     7
 10
382.0
 20
390.0
 30
0.0
 11
378.0
 21
392.0
 31
0.0
  0
LINE
  8
L-ZISSEN
  6
CONTINUOUS
 62
     7
 10
378.0
 20
407.99998
 30
0.0
 11
378.0
 21
392.0
 31
0.0
  0
LINE
  8
L-ZISSEN
  6
CONTINUOUS
 62
     7
 10
382.00001
 20
409.99998
 30
0.0
 11
378.0
 21
407.99998
 31
0.0
  0
LINE
  8
L-ZISSEN
  6
CONTINUOUS
 62
     7
 10
382.0
 20
422.5
 30
0.0
 11
382.0
 21
409.99998
 31
0.0
  0
LINE
  8
L-ZISSEN
  6
CONTINUOUS
 62
     7
 10
431.89281
 20
422.5
 30
0.0
 11
368.5
 21
422.5
 31
0.0
  0
LINE
  8
L-ZISSEN
  6
CONTINUOUS
 62
     7
 10
431.5
 20
436.47868
 30
0.0
 11
368.5
 21
436.47868
 31
0.0
  0
LINE
  8
L-ZISSEN
  6
CONTINUOUS
 62
     7
 10
431.5
 20
363.7
 30
0.0
 11
431.5
 21
445.5
 31
0.0
  0
LINE
  8
L-ZISSEN
  6
CONTINUOUS
 62
     7
 10
368.5
 20
363.7
 30
0.0
 11
368.5
 21
445.5
 31
0.0
  0
LINE
  8
L-ZISSEN
  6
CONTINUOUS
 62
     7
 10
431.5
 20
450.97868
 30
0.0
 11
368.5
 21
450.97868
 31
0.0
  0
LINE
  8
L-ZISSEN
  6
CONTINUOUS
 62
     7
 10
378.00014
 20
458.47868
 30
0.0
 11
421.99996
 21
458.47868
 31
0.0
  0
LINE
  8
L-ZISSEN
  6
CONTINUOUS
 62
     7
 10
382.0
 20
467.5
 30
0.0
 11
382.0
 21
458.47868
 31
0.0
  0
LINE
  8
L-ZISSEN
  6
CONTINUOUS
 62
     7
 10
418.00006
 20
467.5
 30
0.0
 11
418.00006
 21
458.47867
 31
0.0
  0
LINE
  8
L-ZISSEN
  6
CONTINUOUS
 62
     7
 10
420.99983
 20
467.5
 30
0.0
 11
379.00001
 21
467.5
 31
0.0
  0
LINE
  8
L-ZISSEN
  6
CONTINUOUS
 62
     7
 10
420.36232
 20
504.0
 30
0.0
 11
379.6375
 21
504.0
 31
0.0
  0
LINE
  8
L-ZISSEN
  6
CONTINUOUS
 62
     7
 10
663.0
 20
377.5
 30
0.0
 11
663.0
 21
355.5
 31
0.0
  0
LINE
  8
L-ZISSEN
  6
CONTINUOUS
 62
     7
 10
663.0
 20
422.5
 30
0.0
 11
663.0
 21
422.0
 31
0.0
  0
LINE
  8
L-ZISSEN
  6
CONTINUOUS
 62
     7
 10
600.0
 20
422.5
 30
0.0
 11
600.0
 21
445.5
 31
0.0
  0
LINE
  8
L-ZISSEN
  6
CONTINUOUS
 62
     7
 10
600.0
 20
377.5
 30
0.0
 11
600.0
 21
422.5
 31
0.0
  0
LINE
  8
L-ZISSEN
  6
CONTINUOUS
 62
     7
 10
663.0
 20
445.5
 30
0.0
 11
663.0
 21
422.5
 31
0.0
  0
LINE
  8
L-ZISSEN
  6
CONTINUOUS
 62
     7
 10
600.0
 20
445.5
 30
0.0
 11
600.0
 21
450.97868
 31
0.0
  0
LINE
  8
L-ZISSEN
  6
CONTINUOUS
 62
     7
 10
600.0
 20
445.5
 30
0.0
 11
663.0
 21
445.5
 31
0.0
  0
LINE
  8
L-ZISSEN
  6
CONTINUOUS
 62
     7
 10
600.0
 20
363.7
 30
0.0
 11
663.0
 21
363.7
 31
0.0
  0
LINE
  8
L-ZISSEN
  6
CONTINUOUS
 62
     7
 10
600.0
 20
422.5
 30
0.0
 11
663.0
 21
422.5
 31
0.0
  0
LINE
  8
L-ZISSEN
  6
CONTINUOUS
 62
     7
 10
663.0
 20
435.97867
 30
0.0
 11
600.0
 21
435.97869
 31
0.0
  0
LINE
  8
L-ZISSEN
  6
CONTINUOUS
 62
     7
 10
663.0
 20
450.97868
 30
0.0
 11
663.0
 21
445.5
 31
0.0
  0
LINE
  8
L-ZISSEN
  6
CONTINUOUS
 62
     7
 10
600.0
 20
355.5
 30
0.0
 11
600.0
 21
377.5
 31
0.0
  0
LINE
  8
L-ZISSEN
  6
CONTINUOUS
 62
     7
 10
663.0
 20
450.97868
 30
0.0
 11
600.0
 21
450.97868
 31
0.0
  0
LINE
  8
L-ZISSEN
  6
CONTINUOUS
 62
     7
 10
653.49987
 20
458.47868
 30
0.0
 11
653.76178
 21
450.97868
 31
0.0
  0
LINE
  8
L-ZISSEN
  6
CONTINUOUS
 62
     7
 10
609.50007
 20
458.47868
 30
0.0
 11
609.23816
 21
450.97869
 31
0.0
  0
LINE
  8
L-ZISSEN
  6
CONTINUOUS
 62
     7
 10
653.49986
 20
458.47868
 30
0.0
 11
609.50007
 21
458.47868
 31
0.0
  0
LINE
  8
L-ZISSEN
  6
CONTINUOUS
 62
     7
 10
649.5
 20
467.5
 30
0.0
 11
649.5
 21
458.47868
 31
0.0
  0
LINE
  8
L-ZISSEN
  6
CONTINUOUS
 62
     7
 10
613.50009
 20
467.5
 30
0.0
 11
613.5001
 21
458.47868
 31
0.0
  0
LINE
  8
L-ZISSEN
  6
CONTINUOUS
 62
     7
 10
610.50002
 20
467.5
 30
0.0
 11
652.49984
 21
467.5
 31
0.0
  0
LINE
  8
L-ZISSEN
  6
CONTINUOUS
 62
     7
 10
651.86231
 20
504.0
 30
0.0
 11
652.49982
 21
467.5
 31
0.0
  0
LINE
  8
L-ZISSEN
  6
CONTINUOUS
 62
     7
 10
611.13751
 20
504.0
 30
0.0
 11
610.50002
 21
467.5
 31
0.0
  0
LINE
  8
L-ZISSEN
  6
CONTINUOUS
 62
     7
 10
611.13751
 20
504.0
 30
0.0
 11
651.86233
 21
504.0
 31
0.0
  0
LINE
  8
L-TYUSIN
  6
CENTER
 62
     1
 10
812.000022
 20
812.655973
 30
0.0
 11
812.000022
 21
870.594707
 31
0.0
  0
LINE
  8
L-TYUSIN
  6
CENTER
 62
     1
 10
839.594729
 20
843.0
 30
0.0
 11
784.405315
 21
843.0
 31
0.0
  0
LINE
  8
L-ZISSEN
  6
CONTINUOUS
 62
     7
 10
310.0
 20
367.5
 30
0.0
 11
320.0
 21
367.5
 31
0.0
  0
LINE
  8
L-ZISSEN
  6
CONTINUOUS
 62
     7
 10
310.0
 20
351.5
 30
0.0
 11
320.0
 21
351.5
 31
0.0
  0
LINE
  8
L-ZISSEN
  6
CONTINUOUS
 62
     7
 10
310.0
 20
372.0
 30
0.0
 11
290.0
 21
372.0
 31
0.0
  0
LINE
  8
L-ZISSEN
  6
CONTINUOUS
 62
     7
 10
310.0
 20
222.0
 30
0.0
 11
290.0
 21
222.0
 31
0.0
  0
LINE
  8
L-ZISSEN
  6
CONTINUOUS
 62
     7
 10
310.0
 20
372.0
 30
0.0
 11
310.0
 21
222.0
 31
0.0
  0
LINE
  8
L-ZISSEN
  6
CONTINUOUS
 62
     7
 10
310.0
 20
226.5
 30
0.0
 11
320.0
 21
226.5
 31
0.0
  0
LINE
  8
L-ZISSEN
  6
CONTINUOUS
 62
     7
 10
310.0
 20
242.5
 30
0.0
 11
320.0
 21
242.5
 31
0.0
  0
LINE
  8
L-ZISSEN
  6
CONTINUOUS
 62
     7
 10
431.89281
 20
422.5
 30
0.0
 11
440.0
 21
422.5
 31
0.0
  0
LINE
  8
L-ZISSEN
  6
CONTINUOUS
 62
     7
 10
320.0
 20
422.5
 30
0.0
 11
368.5
 21
422.5
 31
0.0
  0
LINE
  8
L-TYUSIN
  6
CENTER
 62
     1
 10
413.030038
 20
400.0
 30
0.0
 11
386.969962
 21
400.0
 31
0.0
  0
LINE
  8
L-ZISSEN
  6
CONTINUOUS
 62
     7
 10
320.0
 20
216.5
 30
0.0
 11
440.0
 21
216.5
 31
0.0
  0
LINE
  8
L-ZISSEN
  6
CONTINUOUS
 62
     7
 10
692.0
 20
372.0
 30
0.0
 11
663.178391
 21
372.0
 31
0.0
  0
LINE
  8
L-ZISSEN
  6
CONTINUOUS
 62
     7
 10
818.350853
 20
416.5
 30
0.0
 11
805.649147
 21
416.5
 31
0.0
  0
LINE
  8
L-ZISSEN
  6
CONTINUOUS
 62
     7
 10
824.701706
 20
405.5
 30
0.0
 11
818.350853
 21
416.5
 31
0.0
  0
LINE
  8
L-ZISSEN
  6
CONTINUOUS
 62
     7
 10
818.350853
 20
394.5
 30
0.0
 11
824.701706
 21
405.5
 31
0.0
  0
LINE
  8
L-ZISSEN
  6
CONTINUOUS
 62
     7
 10
805.649147
 20
394.5
 30
0.0
 11
818.350853
 21
394.5
 31
0.0
  0
LINE
  8
L-ZISSEN
  6
CONTINUOUS
 62
     7
 10
799.298294
 20
405.5
 30
0.0
 11
805.649147
 21
394.5
 31
0.0
  0
LINE
  8
L-ZISSEN
  6
CONTINUOUS
 62
     7
 10
805.649147
 20
416.5
 30
0.0
 11
799.298294
 21
405.5
 31
0.0
  0
CIRCLE
  8
L-ZISSEN
  6
CONTINUOUS
 62
     7
 10
667.0
 20
359.5
 30
0.0
 40
3.5
  0
TEXT
  8
L-ZISSEN
  6
CONTINUOUS
 62
     7
 10
537.416317
 20
426.906382
 30
0.0
 40
4.5
  1
Rc3/8
  0
TEXT
  8
L-ZISSEN
  6
CONTINUOUS
 62
     7
 10
529.416317
 20
436.906382
 30
0.0
 40
4.5
  1
IN PORT
  0
CIRCLE
  8
L-ZISSEN
  6
CONTINUOUS
 62
     7
 10
812.000022
 20
843.0
 30
0.0
 40
9.3155
  0
LINE
  8
L-ZISSEN
  6
CONTINUOUS
 62
     7
 10
802.000022
 20
861.588101
 30
0.0
 11
802.000022
 21
880.0
 31
0.0
  0
LINE
  8
L-ZISSEN
  6
CONTINUOUS
 62
     7
 10
892.0
 20
376.5
 30
0.0
 11
692.0
 21
376.5
 31
0.0
  0
LINE
  8
L-ZISSEN
  6
CONTINUOUS
 62
     7
 10
892.0
 20
377.5
 30
0.0
 11
677.0
 21
377.5
 31
0.0
  0
LINE
  8
L-ZISSEN
  6
CONTINUOUS
 62
     7
 10
290.0
 20
372.0
 30
0.0
 11
290.0
 21
222.0
 31
0.0
  0
LINE
  8
L-ZISSEN
  6
CONTINUOUS
 62
     7
 10
292.3
 20
222.0
 30
0.0
 11
292.3
 21
372.0
 31
0.0
  0
LINE
  8
L-ZISSEN
  6
CONTINUOUS
 62
     7
 10
320.0
 20
422.5
 30
0.0
 11
320.0
 21
216.5
 31
0.0
  0
LINE
  8
L-ZISSEN
  6
CONTINUOUS
 62
     7
 10
677.000022
 20
774.999989
 30
0.0
 11
651.047716
 21
774.999989
 31
0.0
  0
LINE
  8
L-ZISSEN
  6
CONTINUOUS
 62
     7
 10
677.000022
 20
825.000011
 30
0.0
 11
651.047716
 21
825.000011
 31
0.0
  0
CIRCLE
  8
L-ZISSEN
  6
CONTINUOUS
 62
     7
 10
631.5
 20
800.0
 30
0.0
 40
13.0
  0
CIRCLE
  8
L-ZISSEN
  6
CONTINUOUS
 62
     7
 10
631.5
 20
800.0
 30
0.0
 40
20.0
  0
LINE
  8
L-ZISSEN
  6
CONTINUOUS
 62
     7
 10
725.000022
 20
890.0
 30
0.0
 11
725.000022
 21
883.6
 31
0.0
  0
LINE
  8
L-ZISSEN
  6
CONTINUOUS
 62
     7
 10
709.000022
 20
890.0
 30
0.0
 11
709.000022
 21
883.6
 31
0.0
  0
LINE
  8
L-ZISSEN
  6
CONTINUOUS
 62
     7
 10
875.000022
 20
890.0
 30
0.0
 11
875.000022
 21
880.0
 31
0.0
  0
LINE
  8
L-ZISSEN
  6
CONTINUOUS
 62
     7
 10
859.000022
 20
890.0
 30
0.0
 11
859.000022
 21
880.0
 31
0.0
  0
LINE
  8
L-ZISSEN
  6
CONTINUOUS
 62
     7
 10
824.701728
 20
754.0
 30
0.0
 11
824.701728
 21
760.0
 31
0.0
  0
LINE
  8
L-ZISSEN
  6
CONTINUOUS
 62
     7
 10
824.701728
 20
754.0
 30
0.0
 11
799.298316
 21
754.0
 31
0.0
  0
CIRCLE
  8
L-ZISSEN
  6
CONTINUOUS
 62
     7
 10
882.000022
 20
770.0
 30
0.0
 40
6.5
  0
CIRCLE
  8
L-ZISSEN
  6
CONTINUOUS
 62
     7
 10
882.000022
 20
870.0
 30
0.0
 40
6.5
  0
LINE
  8
L-ZISSEN
  6
CONTINUOUS
 62
     7
 10
892.000022
 20
760.0
 30
0.0
 11
805.6
 21
760.0
 31
0.0
  0
LINE
  8
L-ZISSEN
  6
CONTINUOUS
 62
     7
 10
682.000022
 20
880.0
 30
0.0
 11
682.000022
 21
760.0
 31
0.0
  0
LINE
  8
L-ZISSEN
  6
CONTINUOUS
 62
     7
 10
802.000022
 20
760.0
 30
0.0
 11
802.000022
 21
824.411899
 31
0.0
  0
LINE
  8
L-ZISSEN
  6
CONTINUOUS
 62
     7
 10
678.000022
 20
867.0
 30
0.0
 11
678.000022
 21
880.0
 31
0.0
  0
LINE
  8
L-ZISSEN
  6
CONTINUOUS
 62
     7
 10
677.000022
 20
867.0
 30
0.0
 11
678.000022
 21
867.0
 31
0.0
  0
LINE
  8
L-ZISSEN
  6
CONTINUOUS
 62
     7
 10
677.000022
 20
775.0
 30
0.0
 11
677.000022
 21
867.0
 31
0.0
  0
LINE
  8
L-ZISSEN
  6
CONTINUOUS
 62
     7
 10
677.000022
 20
775.0
 30
0.0
 11
678.000022
 21
775.0
 31
0.0
  0
LINE
  8
L-ZISSEN
  6
CONTINUOUS
 62
     7
 10
678.000022
 20
880.0
 30
0.0
 11
678.4
 21
880.0
 31
0.0
  0
LINE
  8
L-ZISSEN
  6
CONTINUOUS
 62
     7
 10
678.000022
 20
760.0
 30
0.0
 11
678.000022
 21
775.0
 31
0.0
  0
LINE
  8
L-ZISSEN
  6
CONTINUOUS
 62
     7
 10
892.000022
 20
880.0
 30
0.0
 11
892.000022
 21
760.0
 31
0.0
  0
LINE
  8
L-TYUSIN
  6
CENTER
 62
     1
 10
609.065758
 20
400.0
 30
0.0
 11
590.5
 21
400.0
 31
0.0
  0
CIRCLE
  8
L-ZISSEN
  6
CONTINUOUS
 62
     7
 10
812.0
 20
405.5
 30
0.0
 40
6.0
  0
LINE
  8
L-ZISSEN
  6
CONTINUOUS
 62
     7
 10
692.0
 20
377.5
 30
0.0
 11
692.0
 21
216.5
 31
0.0
  0
LINE
  8
L-ZISSEN
  6
CONTINUOUS
 62
     7
 10
752.0
 20
216.5
 30
0.0
 11
752.0
 21
226.5
 31
0.0
  0
LINE
  8
L-ZISSEN
  6
CONTINUOUS
 62
     7
 10
832.0
 20
216.5
 30
0.0
 11
752.0
 21
216.5
 31
0.0
  0
LINE
  8
L-ZISSEN
  6
CONTINUOUS
 62
     7
 10
832.0
 20
216.5
 30
0.0
 11
832.0
 21
226.5
 31
0.0
  0
LINE
  8
L-ZISSEN
  6
CONTINUOUS
 62
     7
 10
706.0
 20
226.5
 30
0.0
 11
780.510875
 21
226.5
 31
0.0
  0
LINE
  8
L-ZISSEN
  6
CONTINUOUS
 62
     7
 10
706.0
 20
216.5
 30
0.0
 11
706.0
 21
226.5
 31
0.0
  0
LINE
  8
L-ZISSEN
  6
CONTINUOUS
 62
     7
 10
692.0
 20
216.5
 30
0.0
 11
706.0
 21
216.5
 31
0.0
  0
LINE
  8
L-ZISSEN
  6
CONTINUOUS
 62
     7
 10
878.0
 20
226.5
 30
0.0
 11
803.489125
 21
226.5
 31
0.0
  0
LINE
  8
L-ZISSEN
  6
CONTINUOUS
 62
     7
 10
878.0
 20
216.5
 30
0.0
 11
878.0
 21
226.5
 31
0.0
  0
CIRCLE
  8
L-ZISSEN
  6
CONTINUOUS
 62
     7
 10
792.0
 20
234.5
 30
0.0
 40
14.0
  0
LINE
  8
L-ZISSEN
  6
CONTINUOUS
 62
     7
 10
892.0
 20
216.5
 30
0.0
 11
878.0
 21
216.5
 31
0.0
  0
LINE
  8
L-ZISSEN
  6
CONTINUOUS
 62
     7
 10
892.0
 20
422.5
 30
0.0
 11
892.0
 21
216.5
 31
0.0
  0
LINE
  8
L-ZISSEN
  6
CONTINUOUS
 62
     7
 10
692.0
 20
376.5
 30
0.0
 11
692.0
 21
377.5
 31
0.0
  0
LINE
  8
L-ZISSEN
  6
CONTINUOUS
 62
     7
 10
892.0
 20
377.5
 30
0.0
 11
892.0
 21
376.5
 31
0.0
  0
LINE
  8
L-ZISSEN
  6
CONTINUOUS
 62
     7
 10
677.0
 20
422.5
 30
0.0
 11
892.0
 21
422.5
 31
0.0
  0
LINE
  8
L-ZISSEN
  6
CONTINUOUS
 62
     7
 10
677.0
 20
422.5
 30
0.0
 11
677.0
 21
377.5
 31
0.0
  0
LINE
  8
L-ZISSEN
  6
CONTINUOUS
 62
     7
 10
673.0
 20
422.0
 30
0.0
 11
673.0
 21
378.0
 31
0.0
  0
CIRCLE
  8
L-ZISSEN
  6
CONTINUOUS
 62
     7
 10
663.0
 20
383.63492
 30
0.0
 40
3.5
  0
CIRCLE
  8
L-ZISSEN
  6
CONTINUOUS
 62
     7
 10
663.0
 20
415.364125
 30
0.0
 40
3.5
  0
LINE
  8
L-ZISSEN
  6
CONTINUOUS
 62
     7
 10
440.0
 20
377.5
 30
0.0
 11
431.89281
 21
377.5
 31
0.0
  0
LINE
  8
L-ZISSEN
  6
CONTINUOUS
 62
     7
 10
440.0
 20
376.5
 30
0.0
 11
431.5
 21
376.5
 31
0.0
  0
LINE
  8
L-ZISSEN
  6
CONTINUOUS
 62
     7
 10
440.0
 20
409.5
 30
0.0
 11
440.0
 21
422.5
 31
0.0
  0
LINE
  8
L-ZISSEN
  6
CONTINUOUS
 62
     7
 10
368.5
 20
377.5
 30
0.0
 11
320.0
 21
377.5
 31
0.0
  0
LINE
  8
L-ZISSEN
  6
CONTINUOUS
 62
     7
 10
368.5
 20
376.5
 30
0.0
 11
320.0
 21
376.5
 31
0.0
  0
LINE
  8
L-ZISSEN
  6
CONTINUOUS
 62
     7
 10
621.685045
 20
276.0
 30
0.0
 11
641.314955
 21
276.0
 31
0.0
  0
LINE
  8
L-ZISSEN
  6
CONTINUOUS
 62
     7
 10
641.314955
 20
254.0
 30
0.0
 11
621.685045
 21
254.0
 31
0.0
  0
LINE
  8
L-ZISSEN
  6
CONTINUOUS
 62
     7
 10
641.314955
 20
275.574773
 30
0.0
 11
641.314955
 21
254.0
 31
0.0
  0
LINE
  8
L-ZISSEN
  6
CONTINUOUS
 62
     7
 10
621.685045
 20
275.574773
 30
0.0
 11
621.685045
 21
254.0
 31
0.0
  0
LINE
  8
L-ZISSEN
  6
CONTINUOUS
 62
     7
 10
391.5
 20
254.0
 30
0.0
 11
408.5
 21
254.0
 31
0.0
  0
LINE
  8
L-ZISSEN
  6
CONTINUOUS
 62
     7
 10
391.5
 20
254.0
 30
0.0
 11
391.5
 21
276.5
 31
0.0
  0
LINE
  8
L-ZISSEN
  6
CONTINUOUS
 62
     7
 10
408.5
 20
254.0
 30
0.0
 11
408.5
 21
276.5
 31
0.0
  0
LINE
  8
L-ZISSEN
  6
CONTINUOUS
 62
     7
 10
638.0
 20
363.7
 30
0.0
 11
638.0
 21
338.0
 31
0.0
  0
LINE
  8
L-ZISSEN
  6
CONTINUOUS
 62
     7
 10
625.0
 20
363.7
 30
0.0
 11
625.0
 21
338.0
 31
0.0
  0
LINE
  8
L-ZISSEN
  6
CONTINUOUS
 62
     7
 10
625.0
 20
338.0
 30
0.0
 11
638.0
 21
338.0
 31
0.0
  0
LINE
  8
L-ZISSEN
  6
CONTINUOUS
 62
     7
 10
620.5
 20
281.5
 30
0.0
 11
621.685045
 21
275.574773
 31
0.0
  0
CIRCLE
  8
L-ZISSEN
  6
CONTINUOUS
 62
     7
 10
631.5
 20
314.5
 30
0.0
 40
11.0
  0
LINE
  8
L-ZISSEN
  6
CONTINUOUS
 62
     7
 10
642.5
 20
281.5
 30
0.0
 11
641.314955
 21
275.574773
 31
0.0
  0
LINE
  8
L-ZISSEN
  6
CONTINUOUS
 62
     7
 10
609.707692
 20
281.5
 30
0.0
 11
608.0
 21
355.5
 31
0.0
  0
LINE
  8
L-ZISSEN
  6
CONTINUOUS
 62
     7
 10
653.292308
 20
281.5
 30
0.0
 11
655.0
 21
355.5
 31
0.0
  0
LINE
  8
L-ZISSEN
  6
CONTINUOUS
 62
     7
 10
653.292308
 20
281.5
 30
0.0
 11
609.707692
 21
281.5
 31
0.0
  0
LINE
  8
L-ZISSEN
  6
CONTINUOUS
 62
     7
 10
638.0
 20
355.5
 30
0.0
 11
663.0
 21
355.5
 31
0.0
  0
LINE
  8
L-ZISSEN
  6
CONTINUOUS
 62
     7
 10
600.0
 20
355.5
 30
0.0
 11
625.0
 21
355.5
 31
0.0
  0
LINE
  8
L-ZISSEN
  6
CONTINUOUS
 62
     7
 10
430.99997
 20
347.250015
 30
0.0
 11
434.5
 21
345.5
 31
0.0
  0
LINE
  8
L-ZISSEN
  6
CONTINUOUS
 62
     7
 10
427.0
 20
344.5
 30
0.0
 11
430.5
 21
338.5
 31
0.0
  0
LINE
  8
L-ZISSEN
  6
CONTINUOUS
 62
     7
 10
434.5
 20
338.5
 30
0.0
 11
434.5
 21
345.5
 31
0.0
  0
LINE
  8
L-ZISSEN
  6
CONTINUOUS
 62
     7
 10
434.5
 20
338.5
 30
0.0
 11
430.5
 21
338.5
 31
0.0
  0
LINE
  8
L-ZISSEN
  6
CONTINUOUS
 62
     7
 10
433.0
 20
330.5
 30
0.0
 11
433.0
 21
294.5
 31
0.0
  0
LINE
  8
L-ZISSEN
  6
CONTINUOUS
 62
     7
 10
428.0
 20
290.5
 30
0.0
 11
433.0
 21
294.5
 31
0.0
  0
ARC
  8
L-ZISSEN
  6
CONTINUOUS
 62
     7
 10
423.0
 20
336.618034
 30
0.0
 40
1.0
 50
180.0
 51
243.434949
  0
LINE
  8
L-ZISSEN
  6
CONTINUOUS
 62
     7
 10
433.0
 20
330.5
 30
0.0
 11
422.552786
 21
335.723607
 31
0.0
  0
LINE
  8
L-ZISSEN
  6
CONTINUOUS
 62
     7
 10
427.0
 20
344.5
 30
0.0
 11
430.99997
 21
351.357091
 31
0.0
  0
LINE
  8
L-ZISSEN
  6
CONTINUOUS
 62
     7
 10
422.0
 20
355.5
 30
0.0
 11
422.0
 21
290.5
 31
0.0
  0
LINE
  8
L-ZISSEN
  6
CONTINUOUS
 62
     7
 10
427.0
 20
333.5
 30
0.0
 11
427.0
 21
344.5
 31
0.0
  0
LINE
  8
L-ZISSEN
  6
CONTINUOUS
 62
     7
 10
378.207692
 20
281.5
 30
0.0
 11
421.792308
 21
281.5
 31
0.0
  0
LINE
  8
L-ZISSEN
  6
CONTINUOUS
 62
     7
 10
390.0
 20
276.5
 30
0.0
 11
410.0
 21
276.5
 31
0.0
  0
LINE
  8
L-ZISSEN
  6
CONTINUOUS
 62
     7
 10
389.0
 20
281.5
 30
0.0
 11
390.0
 21
276.5
 31
0.0
  0
LINE
  8
L-ZISSEN
  6
CONTINUOUS
 62
     7
 10
411.0
 20
281.5
 30
0.0
 11
410.0
 21
276.5
 31
0.0
  0
LINE
  8
L-ZISSEN
  6
CONTINUOUS
 62
     7
 10
422.0
 20
290.5
 30
0.0
 11
428.0
 21
290.5
 31
0.0
  0
LINE
  8
L-ZISSEN
  6
CONTINUOUS
 62
     7
 10
378.207692
 20
281.5
 30
0.0
 11
376.5
 21
355.5
 31
0.0
  0
LINE
  8
L-ZISSEN
  6
CONTINUOUS
 62
     7
 10
431.00003
 20
355.5
 30
0.0
 11
368.99997
 21
355.5
 31
0.0
  0
LINE
  8
L-ZISSEN
  6
CONTINUOUS
 62
     7
 10
421.792308
 20
281.5
 30
0.0
 11
422.0
 21
290.5
 31
0.0
  0
LINE
  8
L-ZISSEN
  6
CONTINUOUS
 62
     7
 10
430.99997
 20
347.250015
 30
0.0
 11
430.99997
 21
363.7
 31
0.0
  0
LINE
  8
L-ZISSEN
  6
CONTINUOUS
 62
     7
 10
368.99997
 20
355.5
 30
0.0
 11
368.99997
 21
363.7
 31
0.0
  0
LINE
  8
L-ZISSEN
  6
CONTINUOUS
 62
     7
 10
663.0
 20
378.0
 30
0.0
 11
663.0
 21
377.5
 31
0.0
  0
LINE
  8
L-ZISSEN
  6
CONTINUOUS
 62
     7
 10
653.0
 20
422.0
 30
0.0
 11
653.0
 21
378.0
 31
0.0
  0
LINE
  8
L-ZISSEN
  6
CONTINUOUS
 62
     7
 10
600.0
 20
377.5
 30
0.0
 11
663.0
 21
377.5
 31
0.0
  0
LINE
  8
L-TYUSIN
  6
CENTER
 62
     1
 10
280.903371
 20
234.5
 30
0.0
 11
302.29887
 21
234.5
 31
0.0
  0
LINE
  8
L-TYUSIN
  6
CENTER
 62
     1
 10
280.903371
 20
359.5
 30
0.0
 11
302.29887
 21
359.5
 31
0.0
  0
LINE
  8
L-ZISSEN
  6
CONTINUOUS
 62
     7
 10
440.0
 20
216.5
 30
0.0
 11
440.0
 21
395.5
 31
0.0
  0
LINE
  8
L-ZISSEN
 10
440.0
 20
259.5
 30
0.0
 11
442.0
 21
259.5
 31
0.0
  0
LINE
  8
L-ZISSEN
 10
440.0
 20
344.5
 30
0.0
 11
442.0
 21
344.5
 31
0.0
  0
LINE
  8
L-ZISSEN
  6
CONTINUOUS
 62
     7
 10
442.0
 20
259.5
 30
0.0
 11
442.0
 21
344.5
 31
0.0
  0
LINE
  8
L-ZISSEN
 10
442.0
 20
343.5
 30
0.0
 11
455.8
 21
343.5
 31
0.0
  0
LINE
  8
L-ZISSEN
 10
442.0
 20
261.5
 30
0.0
 11
455.8
 21
261.5
 31
0.0
  0
LINE
  8
L-ZISSEN
  6
CONTINUOUS
 62
     7
 10
455.8
 20
261.5
 30
0.0
 11
455.8
 21
343.5
 31
0.0
  0
LINE
  8
L-ZISSEN
  6
CONTINUOUS
 62
     7
 10
799.298316
 20
754.0
 30
0.0
 11
799.298316
 21
756.4
 31
0.0
  0
LINE
  8
L-ZISSEN
  6
CONTINUOUS
 62
     7
 10
711.200022
 20
744.2
 30
0.0
 11
731.800022
 21
744.2
 31
0.0
  0
LINE
  8
L-ZISSEN
  6
CONTINUOUS
 62
     7
 10
711.200022
 20
744.2
 30
0.0
 11
711.200022
 21
756.4
 31
0.0
  0
LINE
  8
L-ZISSEN
  6
CONTINUOUS
 62
     7
 10
731.800022
 20
744.2
 30
0.0
 11
731.800022
 21
756.4
 31
0.0
  0
LINE
  8
L-ZISSEN
 10
799.298316
 20
754.0
 30
0.0
 11
799.298316
 21
756.4
 31
0.0
  0
LINE
  8
L-ZISSEN
 10
795.927318
 20
859.072704
 30
0.0
 11
789.269786
 21
843.0
 31
0.0
  0
LINE
  8
L-ZISSEN
 10
789.269786
 20
843.0
 30
0.0
 11
795.927318
 21
826.927296
 31
0.0
  0
LINE
  8
L-ZISSEN
 10
795.927318
 20
826.927296
 30
0.0
 11
812.000022
 21
820.269764
 31
0.0
  0
LINE
  8
L-ZISSEN
 10
812.000022
 20
820.269764
 30
0.0
 11
828.072726
 21
826.927296
 31
0.0
  0
LINE
  8
L-ZISSEN
 10
828.072726
 20
826.927296
 30
0.0
 11
834.730258
 21
843.0
 31
0.0
  0
LINE
  8
L-ZISSEN
 10
834.730258
 20
843.0
 30
0.0
 11
828.072726
 21
859.072704
 31
0.0
  0
LINE
  8
L-ZISSEN
 10
828.072726
 20
859.072704
 30
0.0
 11
812.000022
 21
865.730236
 31
0.0
  0
LINE
  8
L-ZISSEN
 10
812.000022
 20
865.730236
 30
0.0
 11
795.927318
 21
859.072704
 31
0.0
  0
LINE
  8
L-ZISSEN
  6
CONTINUOUS
 62
     7
 10
726.411565
 20
887.0
 30
0.0
 11
757.588479
 21
887.0
 31
0.0
  0
LINE
  8
L-ZISSEN
  6
CONTINUOUS
 62
     7
 10
726.411565
 20
887.0
 30
0.0
 11
726.411565
 21
883.6
 31
0.0
  0
LINE
  8
L-ZISSEN
  6
CONTINUOUS
 62
     7
 10
757.588479
 20
887.0
 30
0.0
 11
757.588479
 21
883.6
 31
0.0
  0
CIRCLE
  8
L-ZISSEN
 10
400.0
 20
400.0
 30
0.0
 40
7.475
  0
LINE
  8
L-ZISSEN
 10
789.269786
 20
597.5
 30
0.0
 11
789.269786
 21
580.5
 31
0.0
  0
LINE
  8
L-ZISSEN
 10
834.730258
 20
597.5
 30
0.0
 11
834.730258
 21
580.5
 31
0.0
  0
LINE
  8
L-ZISSEN
 10
826.612317
 20
609.5
 30
0.0
 11
826.612317
 21
597.5
 31
0.0
  0
LINE
  8
L-ZISSEN
 10
797.387727
 20
609.5
 30
0.0
 11
797.387727
 21
597.5
 31
0.0
  0
LINE
  8
L-ZISSEN
 10
826.612317
 20
580.5
 30
0.0
 11
826.612317
 21
568.5
 31
0.0
  0
LINE
  8
L-ZISSEN
 10
797.387727
 20
580.5
 30
0.0
 11
797.387727
 21
568.5
 31
0.0
  0
LINE
  8
L-ZISSEN
  6
CONTINUOUS
 62
     7
 10
461.0
 20
381.5
 30
0.0
 11
461.0
 21
384.0
 31
0.0
  0
LINE
  8
L-ZISSEN
  6
CONTINUOUS
 62
     7
 10
485.0
 20
381.5
 30
0.0
 11
461.0
 21
381.5
 31
0.0
  0
LINE
  8
L-ZISSEN
  6
CONTINUOUS
 62
     7
 10
485.0
 20
418.5
 30
0.0
 11
476.5
 21
418.5
 31
0.0
  0
LINE
  8
L-ZISSEN
  6
CONTINUOUS
 62
     7
 10
485.0
 20
381.5
 30
0.0
 11
485.0
 21
418.5
 31
0.0
  0
LINE
  8
L-ZISSEN
  6
CONTINUOUS
 62
     7
 10
452.39281
 20
393.0
 30
0.0
 11
440.0
 21
393.0
 31
0.0
  0
LINE
  8
L-ZISSEN
  6
CONTINUOUS
 62
     7
 10
446.0
 20
416.5
 30
0.0
 11
440.0
 21
416.5
 31
0.0
  0
LINE
  8
L-ZISSEN
  6
CONTINUOUS
 62
     7
 10
446.0
 20
409.5
 30
0.0
 11
446.0
 21
416.5
 31
0.0
  0
LINE
  8
L-ZISSEN
 10
446.021006
 20
454.507157
 30
0.0
 11
440.624296
 21
454.695614
 31
0.0
  0
LINE
  8
L-ZISSEN
 10
445.518453
 20
440.115929
 30
0.0
 11
440.121743
 21
440.304386
 31
0.0
  0
LINE
  8
L-ZISSEN
 10
449.576934
 20
453.182249
 30
0.0
 11
445.979127
 21
453.307888
 31
0.0
  0
LINE
  8
L-ZISSEN
 10
449.15814
 20
441.18956
 30
0.0
 11
445.560333
 21
441.315198
 31
0.0
  0
LINE
  8
L-ZISSEN
 10
446.021006
 20
454.507157
 30
0.0
 11
445.518453
 21
440.115929
 31
0.0
  0
LINE
  8
L-ZISSEN
 10
449.576934
 20
453.182249
 30
0.0
 11
449.15814
 21
441.18956
 31
0.0
  0
LINE
  8
L-ZISSEN
  6
CONTINUOUS
 62
     7
 10
802.3
 20
422.5
 30
0.0
 11
802.3
 21
445.409003
 31
0.0
  0
TEXT
  8
L-ZISSEN
  6
CONTINUOUS
 62
     7
 10
289.523755
 20
861.082192
 30
0.0
 40
4.5
  1
MC5-A2L2-*L75
  0
TEXT
  8
L-ZISSEN
  6
CONTINUOUS
 62
     7
 10
289.523755
 20
851.082192
 30
0.0
 40
4.5
  1
MC5-A2L2-*T75
  0
TEXT
  8
L-ZISSEN
  6
CONTINUOUS
 62
     7
 10
289.523755
 20
841.082192
 30
0.0
 40
4.5
  1
MC5-A2L4-*G85
  0
TEXT
  8
L-ZISSEN
  6
CONTINUOUS
 62
     7
 10
289.523755
 20
831.082192
 30
0.0
 40
4.5
  1
MC5-A2L4-*L85
  0
TEXT
  8
L-ZISSEN
  6
CONTINUOUS
 62
     7
 10
289.523755
 20
821.082192
 30
0.0
 40
4.5
  1
MC5-A2L4-*T85
  0
LINE
  8
L-ZISSEN
 10
1424.512967
 20
669.600409
 30
0.0
 11
1385.012967
 21
669.600409
 31
0.0
  0
LINE
  8
L-ZISSEN
 10
1424.512967
 20
756.600409
 30
0.0
 11
1385.012967
 21
756.600409
 31
0.0
  0
LINE
  8
L-ZISSEN
 10
1385.012967
 20
756.600409
 30
0.0
 11
1385.012967
 21
669.600409
 31
0.0
  0
LINE
  8
L-ZISSEN
 10
1424.512967
 20
756.600409
 30
0.0
 11
1424.512967
 21
669.600409
 31
0.0
  0
TEXT
  8
L-ZISSEN
  6
CONTINUOUS
 62
     7
 10
1305.0
 20
819.523973
 30
0.0
 40
4.5
  1
OIL DRIP FEED MONITORING SENSOR AND AMPLIFIER
  0
TEXT
  8
L-ZISSEN
  6
CONTINUOUS
 62
     7
 10
1088.0
 20
819.523973
 30
0.0
 40
4.5
  1
INJECTION PUMP OPERATING MONITOR
  0
TEXT
  8
L-ZISSEN
  6
CONTINUOUS
 62
     7
 10
1331.357674
 20
727.509316
 30
0.0
 40
4.5
  1
P,P
  0
LINE
  8
L-ZISSEN
  6
CONTINUOUS
 62
     7
 10
1449.762967
 20
590.104583
 30
0.0
 11
1449.762967
 21
554.104583
 31
0.0
  0
LINE
  8
L-ZISSEN
  6
CONTINUOUS
 62
     7
 10
1439.262967
 20
557.604583
 30
0.0
 11
1449.762967
 21
557.604583
 31
0.0
  0
LINE
  8
L-ZISSEN
  6
CONTINUOUS
 62
     7
 10
1428.762967
 20
590.104583
 30
0.0
 11
1449.762967
 21
590.104583
 31
0.0
  0
LINE
  8
L-ZISSEN
  6
CONTINUOUS
 62
     7
 10
1428.762967
 20
590.104583
 30
0.0
 11
1428.762967
 21
554.104583
 31
0.0
  0
LINE
  8
L-ZISSEN
  6
CONTINUOUS
 62
     7
 10
1439.262967
 20
576.560227
 30
0.0
 11
1439.262967
 21
557.604583
 31
0.0
  0
LINE
  8
L-ZISSEN
  6
CONTINUOUS
 62
     7
 10
1448.262967
 20
561.18174
 30
0.0
 11
1448.262967
 21
557.604583
 31
0.0
  0
LINE
  8
L-ZISSEN
  6
CONTINUOUS
 62
     7
 10
1448.262967
 20
561.18174
 30
0.0
 11
1444.762967
 21
561.18174
 31
0.0
  0
LINE
  8
L-ZISSEN
  6
CONTINUOUS
 62
     7
 10
1441.262967
 20
561.18174
 30
0.0
 11
1444.762967
 21
561.18174
 31
0.0
  0
LINE
  8
L-ZISSEN
  6
CONTINUOUS
 62
     7
 10
1441.262967
 20
561.18174
 30
0.0
 11
1441.262967
 21
557.604583
 31
0.0
  0
LINE
  8
L-ZISSEN
  6
CONTINUOUS
 62
     7
 10
1449.762967
 20
576.560227
 30
0.0
 11
1439.262967
 21
576.560227
 31
0.0
  0
LINE
  8
L-ZISSEN
  6
CONTINUOUS
 62
     7
 10
1449.762967
 20
758.100409
 30
0.0
 11
1449.762967
 21
693.100409
 31
0.0
  0
LINE
  8
L-ZISSEN
  6
CONTINUOUS
 62
     7
 10
1428.762967
 20
763.100409
 30
0.0
 11
1428.762967
 21
698.100409
 31
0.0
  0
LINE
  8
L-ZISSEN
  6
CONTINUOUS
 62
     7
 10
1428.762967
 20
758.100409
 30
0.0
 11
1449.762967
 21
758.100409
 31
0.0
  0
LINE
  8
L-ZISSEN
  6
CONTINUOUS
 62
     7
 10
1428.762967
 20
698.100409
 30
0.0
 11
1449.762967
 21
698.100409
 31
0.0
  0
LINE
  8
L-ZISSEN
  6
CONTINUOUS
 62
     7
 10
1428.762967
 20
763.100409
 30
0.0
 11
1439.262967
 21
763.100409
 31
0.0
  0
LINE
  8
L-ZISSEN
  6
CONTINUOUS
 62
     7
 10
1439.262967
 20
693.100409
 30
0.0
 11
1449.762967
 21
693.100409
 31
0.0
  0
LINE
  8
L-ZISSEN
  6
CONTINUOUS
 62
     7
 10
1439.262967
 20
763.100409
 30
0.0
 11
1439.262967
 21
758.100409
 31
0.0
  0
LINE
  8
L-ZISSEN
  6
CONTINUOUS
 62
     7
 10
1439.262967
 20
698.100409
 30
0.0
 11
1439.262967
 21
693.100409
 31
0.0
  0
ARC
  8
L-ZISSEN
  6
CONTINUOUS
 62
     7
 10
1444.762967
 20
697.100409
 30
0.0
 40
3.5
 50
163.39845
 51
16.60155
  0
ARC
  8
L-ZISSEN
  6
CONTINUOUS
 62
     7
 10
1433.762967
 20
759.100409
 30
0.0
 40
3.5
 50
343.39845
 51
196.60155
  0
CIRCLE
  8
L-ZISSEN
  6
CONTINUOUS
 62
     7
 10
831.095595
 20
789.25
 30
0.0
 40
3.5
  0
LINE
  8
L-ZISSEN
  6
CONTINUOUS
 62
     7
 10
827.000022
 20
825.0
 30
0.0
 11
867.000022
 21
825.0
 31
0.0
  0
LINE
  8
L-ZISSEN
  6
CONTINUOUS
 62
     7
 10
827.000022
 20
785.0
 30
0.0
 11
827.000022
 21
825.0
 31
0.0
  0
LINE
  8
L-ZISSEN
  6
CONTINUOUS
 62
     7
 10
867.000022
 20
785.0
 30
0.0
 11
827.000022
 21
785.0
 31
0.0
  0
LINE
  8
L-ZISSEN
  6
CONTINUOUS
 62
     7
 10
867.000022
 20
825.0
 30
0.0
 11
867.000022
 21
785.0
 31
0.0
  0
CIRCLE
  8
L-ZISSEN
  6
CONTINUOUS
 62
     7
 10
847.000022
 20
805.0
 30
0.0
 40
12.6
  0
CIRCLE
  8
L-ZISSEN
  6
CONTINUOUS
 62
     7
 10
862.750022
 20
820.904427
 30
0.0
 40
3.5
  0
LINE
  8
L-ZISSEN
  6
CONTINUOUS
 62
     7
 10
1240.167445
 20
760.731863
 30
0.0
 11
1240.167445
 21
775.781863
 31
0.0
  0
LINE
  8
L-ZISSEN
  6
CONTINUOUS
 62
     7
 10
1241.167445
 20
745.831863
 30
0.0
 11
1241.167445
 21
760.731863
 31
0.0
  0
LINE
  8
L-ZISSEN
  6
CONTINUOUS
 62
     7
 10
1228.167445
 20
745.831863
 30
0.0
 11
1241.167445
 21
745.831863
 31
0.0
  0
LINE
  8
L-ZISSEN
  6
CONTINUOUS
 62
     7
 10
1228.167445
 20
760.731863
 30
0.0
 11
1241.167445
 21
760.731863
 31
0.0
  0
LINE
  8
L-ZISSEN
  6
CONTINUOUS
 62
     7
 10
1240.167445
 20
730.781863
 30
0.0
 11
1240.167445
 21
745.831863
 31
0.0
  0
LINE
  8
L-ZISSEN
  6
CONTINUOUS
 62
     7
 10
1229.167445
 20
760.731863
 30
0.0
 11
1229.167445
 21
745.831863
 31
0.0
  0
LINE
  8
L-ZISSEN
  6
CONTINUOUS
 62
     7
 10
1229.167445
 20
756.281863
 30
0.0
 11
1231.567445
 21
756.281863
 31
0.0
  0
LINE
  8
L-ZISSEN
  6
CONTINUOUS
 62
     7
 10
1231.567445
 20
756.281863
 30
0.0
 11
1231.567445
 21
750.281863
 31
0.0
  0
LINE
  8
L-ZISSEN
  6
CONTINUOUS
 62
     7
 10
1229.167445
 20
750.281863
 30
0.0
 11
1231.567445
 21
750.281863
 31
0.0
  0
LINE
  8
L-ZISSEN
  6
CONTINUOUS
 62
     7
 10
1228.167445
 20
730.781863
 30
0.0
 11
1240.167445
 21
730.781863
 31
0.0
  0
LINE
  8
L-ZISSEN
  6
CONTINUOUS
 62
     7
 10
1228.167445
 20
775.781863
 30
0.0
 11
1240.167445
 21
775.781863
 31
0.0
  0
LINE
  8
L-ZISSEN
  6
CONTINUOUS
 62
     7
 10
1228.167445
 20
780.781863
 30
0.0
 11
1236.667445
 21
780.781863
 31
0.0
  0
LINE
  8
L-ZISSEN
  6
CONTINUOUS
 62
     7
 10
1236.667445
 20
780.781863
 30
0.0
 11
1236.667445
 21
775.781863
 31
0.0
  0
LINE
  8
L-ZISSEN
  6
CONTINUOUS
 62
     7
 10
1228.167445
 20
518.117591
 30
0.0
 11
1229.167445
 21
518.117591
 31
0.0
  0
LINE
  8
L-ZISSEN
  6
CONTINUOUS
 62
     7
 10
1229.167445
 20
518.117591
 30
0.0
 11
1229.167445
 21
525.617591
 31
0.0
  0
LINE
  8
L-ZISSEN
  6
CONTINUOUS
 62
     7
 10
1241.167445
 20
525.617591
 30
0.0
 11
1229.167445
 21
525.617591
 31
0.0
  0
LINE
  8
L-ZISSEN
  6
CONTINUOUS
 62
     7
 10
1229.167445
 20
519.117591
 30
0.0
 11
1231.567445
 21
519.117591
 31
0.0
  0
LINE
  8
L-ZISSEN
  6
CONTINUOUS
 62
     7
 10
1231.567445
 20
519.117591
 30
0.0
 11
1231.567445
 21
525.117591
 31
0.0
  0
LINE
  8
L-ZISSEN
  6
CONTINUOUS
 62
     7
 10
1229.167445
 20
525.117591
 30
0.0
 11
1231.567445
 21
525.117591
 31
0.0
  0
LINE
  8
L-ZISSEN
  6
CONTINUOUS
 62
     7
 10
1229.167445
 20
540.117591
 30
0.0
 11
1231.567445
 21
540.117591
 31
0.0
  0
LINE
  8
L-ZISSEN
  6
CONTINUOUS
 62
     7
 10
1231.567445
 20
546.117591
 30
0.0
 11
1231.567445
 21
540.117591
 31
0.0
  0
LINE
  8
L-ZISSEN
  6
CONTINUOUS
 62
     7
 10
1229.167445
 20
546.117591
 30
0.0
 11
1231.567445
 21
546.117591
 31
0.0
  0
LINE
  8
L-ZISSEN
  6
CONTINUOUS
 62
     7
 10
1241.167445
 20
539.617591
 30
0.0
 11
1229.167445
 21
539.617591
 31
0.0
  0
LINE
  8
L-ZISSEN
  6
CONTINUOUS
 62
     7
 10
1241.167445
 20
525.617591
 30
0.0
 11
1241.167445
 21
539.617591
 31
0.0
  0
LINE
  8
L-ZISSEN
  6
CONTINUOUS
 62
     7
 10
1229.167445
 20
547.117591
 30
0.0
 11
1229.167445
 21
539.617591
 31
0.0
  0
LINE
  8
L-ZISSEN
  6
CONTINUOUS
 62
     7
 10
1228.167445
 20
547.117591
 30
0.0
 11
1229.167445
 21
547.117591
 31
0.0
  0
LINE
  8
L-ZISSEN
  6
CONTINUOUS
 62
     7
 10
1240.167445
 20
538.617591
 30
0.0
 11
1228.167445
 21
538.617591
 31
0.0
  0
LINE
  8
L-ZISSEN
  6
CONTINUOUS
 62
     7
 10
1240.167445
 20
526.617591
 30
0.0
 11
1240.167445
 21
538.617591
 31
0.0
  0
LINE
  8
L-ZISSEN
  6
CONTINUOUS
 62
     7
 10
1228.167445
 20
526.617591
 30
0.0
 11
1240.167445
 21
526.617591
 31
0.0
  0
LINE
  8
L-ZISSEN
  6
CONTINUOUS
 62
     7
 10
1228.167445
 20
748.281863
 30
0.0
 11
1228.167445
 21
730.781863
 31
0.0
  0
TEXT
  8
L-ZISSEN
  6
CONTINUOUS
 62
     7
 10
1095.0
 20
799.523973
 30
0.0
 40
4.5
  1
MC5-A2L4-*L85
  0
LINE
  8
L-TYUSIN
  6
CENTER
 62
     1
 10
1277.0
 20
841.523973
 30
0.0
 11
1277.0
 21
313.523973
 31
0.0
  0
LINE
  8
L-ZISSEN
 10
1386.012967
 20
755.600409
 30
0.0
 11
1423.512967
 21
755.600409
 31
0.0
  0
LINE
  8
L-ZISSEN
 10
1386.012967
 20
670.600409
 30
0.0
 11
1423.512967
 21
670.600409
 31
0.0
  0
LINE
  8
L-ZISSEN
 10
1423.512967
 20
755.600409
 30
0.0
 11
1423.512967
 21
670.600409
 31
0.0
  0
LINE
  8
L-ZISSEN
 10
1386.012967
 20
755.600409
 30
0.0
 11
1386.012967
 21
670.600409
 31
0.0
  0
LINE
  8
L-ZISSEN
  6
CONTINUOUS
 62
     7
 10
1413.012967
 20
600.311587
 30
0.0
 11
1413.012967
 21
596.804583
 31
0.0
  0
LINE
  8
L-ZISSEN
  6
CONTINUOUS
 62
     7
 10
1420.012967
 20
600.311587
 30
0.0
 11
1413.012967
 21
600.311587
 31
0.0
  0
LINE
  8
L-ZISSEN
  6
CONTINUOUS
 62
     7
 10
1420.012967
 20
600.311587
 30
0.0
 11
1420.012967
 21
596.804583
 31
0.0
  0
LINE
  8
L-ZISSEN
  6
CONTINUOUS
 62
     7
 10
1422.477773
 20
596.804583
 30
0.0
 11
1409.512967
 21
596.804583
 31
0.0
  0
LINE
  8
L-ZISSEN
  6
CONTINUOUS
 62
     7
 10
1420.334301
 20
621.304583
 30
0.0
 11
1389.191632
 21
621.304583
 31
0.0
  0
LINE
  8
L-ZISSEN
  6
CONTINUOUS
 62
     7
 10
1424.762967
 20
567.104583
 30
0.0
 11
1384.762967
 21
567.104583
 31
0.0
  0
LINE
  8
L-ZISSEN
 10
1386.122948
 20
571.304583
 30
0.0
 11
1386.680708
 21
592.604583
 31
0.0
  0
LINE
  8
L-ZISSEN
 10
1386.680708
 20
592.604583
 30
0.0
 11
1389.191632
 21
621.304583
 31
0.0
  0
LINE
  8
L-ZISSEN
 10
1423.402986
 20
571.304583
 30
0.0
 11
1422.845226
 21
592.604583
 31
0.0
  0
LINE
  8
L-ZISSEN
 10
1422.845226
 20
592.604583
 30
0.0
 11
1420.334301
 21
621.304583
 31
0.0
  0
LINE
  8
L-ZISSEN
 10
1420.334301
 20
752.789196
 30
0.0
 11
1400.012967
 21
752.789196
 31
0.0
  0
LINE
  8
L-ZISSEN
 10
1409.512967
 20
673.411622
 30
0.0
 11
1389.191632
 21
673.411622
 31
0.0
  0
LINE
  8
L-ZISSEN
 10
1389.191632
 20
673.411622
 30
0.0
 11
1389.191632
 21
741.600409
 31
0.0
  0
LINE
  8
L-ZISSEN
 10
1420.334301
 20
684.600409
 30
0.0
 11
1420.334301
 21
752.789196
 31
0.0
  0
ARC
  8
L-ZISSEN
 10
1393.012967
 20
748.600409
 30
0.0
 40
7.0
 50
270.0
 51
0.0
  0
ARC
  8
L-ZISSEN
 10
1416.512967
 20
677.600409
 30
0.0
 40
7.0
 50
90.0
 51
180.0
  0
LINE
  8
L-ZISSEN
 10
1409.512967
 20
677.600409
 30
0.0
 11
1409.512967
 21
670.600409
 31
0.0
  0
LINE
  8
L-ZISSEN
 10
1416.512967
 20
684.600409
 30
0.0
 11
1423.512967
 21
684.600409
 31
0.0
  0
LINE
  8
L-ZISSEN
 10
1393.012967
 20
741.600409
 30
0.0
 11
1386.012967
 21
741.600409
 31
0.0
  0
LINE
  8
L-ZISSEN
 10
1400.012967
 20
748.600409
 30
0.0
 11
1400.012967
 21
755.600409
 31
0.0
  0
CIRCLE
  8
L-ZISSEN
 10
1393.012967
 20
748.600409
 30
0.0
 40
3.5
  0
CIRCLE
  8
L-ZISSEN
 10
1416.512967
 20
677.600409
 30
0.0
 40
3.5
  0
LINE
  8
L-ZISSEN
 10
1409.512967
 20
621.304583
 30
0.0
 11
1409.512967
 21
596.804583
 31
0.0
  0
LINE
  8
L-ZISSEN
  6
CONTINUOUS
 62
     7
 10
1424.512967
 20
571.304583
 30
0.0
 11
1385.012967
 21
571.304583
 31
0.0
  0
LINE
  8
L-ZISSEN
 10
1424.512967
 20
571.304583
 30
0.0
 11
1424.512967
 21
567.104583
 31
0.0
  0
LINE
  8
L-ZISSEN
 10
1385.012967
 20
571.304583
 30
0.0
 11
1385.012967
 21
567.104583
 31
0.0
  0
LINE
  8
L-ZISSEN
 10
1424.762967
 20
567.104583
 30
0.0
 11
1424.762967
 21
554.104583
 31
0.0
  0
LINE
  8
L-ZISSEN
 10
1384.762967
 20
567.104583
 30
0.0
 11
1384.762967
 21
554.104583
 31
0.0
  0
LINE
  8
L-TYUSIN
  6
CENTER
 62
     1
 10
1072.0
 20
841.523973
 30
0.0
 11
1072.0
 21
313.523973
 31
0.0
  0
SOLID
  8
L-ZISSEN
 10
1368.113051
 20
749.921898
 30
0.0
 11
1368.584455
 21
749.450493
 31
0.0
 12
1369.762967
 22
751.100409
 32
0.0
 13
1369.762967
 23
751.100409
 33
0.0
  0
LINE
  8
L-ZISSEN
 10
1368.348753
 20
749.686195
 30
0.0
 11
1348.549763
 21
729.887206
 31
0.0
  0
LINE
  8
L-ZISSEN
 10
1348.549763
 20
729.887206
 30
0.0
 11
1343.549763
 21
729.887206
 31
0.0
  0
LINE
  8
L-ZISSEN
 10
1122.454241
 20
750.06866
 30
0.0
 11
1117.454241
 21
750.06866
 31
0.0
  0
LINE
  8
L-ZISSEN
 10
1142.253231
 20
769.867649
 30
0.0
 11
1122.454241
 21
750.06866
 31
0.0
  0
SOLID
  8
L-ZISSEN
 10
1142.017529
 20
770.103352
 30
0.0
 11
1142.488934
 21
769.631947
 31
0.0
 12
1143.667445
 22
771.281863
 32
0.0
 13
1143.667445
 23
771.281863
 33
0.0
  0
TEXT
  8
L-ZISSEN
  6
CONTINUOUS
 62
     7
 10
1105.262152
 20
747.69077
 30
0.0
 40
4.5
  1
P,P
  0
LINE
  8
L-ZISSEN
 10
1152.454241
 20
573.404387
 30
0.0
 11
1147.454241
 21
573.404387
 31
0.0
  0
LINE
  8
L-ZISSEN
 10
1172.253231
 20
593.203377
 30
0.0
 11
1152.454241
 21
573.404387
 31
0.0
  0
SOLID
  8
L-ZISSEN
 10
1172.017529
 20
593.439079
 30
0.0
 11
1172.488934
 21
592.967675
 31
0.0
 12
1173.667445
 22
594.617591
 32
0.0
 13
1173.667445
 23
594.617591
 33
0.0
  0
TEXT
  8
L-ZISSEN
  6
CONTINUOUS
 62
     7
 10
1135.262152
 20
571.026498
 30
0.0
 40
4.5
  1
P,P
  0
LINE
  8
L-ZISSEN
 10
1378.549763
 20
424.89138
 30
0.0
 11
1373.549763
 21
424.89138
 31
0.0
  0
LINE
  8
L-ZISSEN
 10
1398.348753
 20
444.69037
 30
0.0
 11
1378.549763
 21
424.89138
 31
0.0
  0
SOLID
  8
L-ZISSEN
 10
1398.113051
 20
444.926072
 30
0.0
 11
1398.584455
 21
444.454668
 31
0.0
 12
1399.762967
 22
446.104583
 32
0.0
 13
1399.762967
 23
446.104583
 33
0.0
  0
TEXT
  8
L-ZISSEN
  6
CONTINUOUS
 62
     7
 10
1361.357674
 20
422.513491
 30
0.0
 40
4.5
  1
P,P
  0
ARC
  8
L-ZISSEN
 10
847.0
 20
448.25
 30
0.0
 40
12.75
 50
0.0
 51
180.0
  0
LINE
  8
L-ZISSEN
 10
834.25
 20
447.9
 30
0.0
 11
834.25
 21
435.5
 31
0.0
  0
LINE
  8
L-ZISSEN
 10
859.75
 20
447.9
 30
0.0
 11
859.75
 21
435.5
 31
0.0
  0
LINE
  8
L-ZISSEN
  6
CONTINUOUS
 62
     7
 10
867.0
 20
435.5
 30
0.0
 11
867.0
 21
422.5
 31
0.0
  0
LINE
  8
L-ZISSEN
  6
CONTINUOUS
 62
     7
 10
867.0
 20
435.5
 30
0.0
 11
827.0
 21
435.5
 31
0.0
  0
LINE
  8
L-ZISSEN
  6
CONTINUOUS
 62
     7
 10
827.0
 20
435.5
 30
0.0
 11
827.0
 21
422.5
 31
0.0
  0
TEXT
  8
L-ZISSEN
  6
CONTINUOUS
 62
     7
 10
1095.0
 20
809.523973
 30
0.0
 40
4.5
  1
MC5-A2L2-*L75
  0
TEXT
  8
L-ZISSEN
  6
CONTINUOUS
 62
     7
 10
1326.0
 20
809.523973
 30
0.0
 40
4.5
  1
MC5-A2L2-*G75
  0
TEXT
  8
L-ZISSEN
  6
CONTINUOUS
 62
     7
 10
1326.0
 20
799.523973
 30
0.0
 40
4.5
  1
MC5-A2L4-*G85
  0
TEXT
  8
L-ZISSEN
  6
CONTINUOUS
 62
     7
 10
870.594707
 20
290.908907
 30
0.0
 40
4.5
  1
P,P
  0
SOLID
  8
L-ZISSEN
 10
843.178511
 20
312.850084
 30
0.0
 11
843.649916
 21
313.321489
 31
0.0
 12
842.0
 22
314.5
 32
0.0
 13
842.0
 23
314.5
 33
0.0
  0
LINE
  8
L-ZISSEN
 10
843.414214
 20
313.085786
 30
0.0
 11
863.213203
 21
293.286797
 31
0.0
  0
LINE
  8
L-ZISSEN
 10
863.213203
 20
293.286797
 30
0.0
 11
868.213203
 21
293.286797
 31
0.0
  0
SOLID
  8
L-ZISSEN
 10
813.649938
 20
844.178511
 30
0.0
 11
813.178533
 21
844.649916
 31
0.0
 12
812.000022
 22
843.0
 32
0.0
 13
812.000022
 23
843.0
 33
0.0
  0
LINE
  8
L-ZISSEN
 10
813.414236
 20
844.414214
 30
0.0
 11
889.781768
 21
920.781746
 31
0.0
  0
LINE
  8
L-ZISSEN
 10
889.781768
 20
920.781746
 30
0.0
 11
894.781768
 21
920.781746
 31
0.0
  0
TEXT
  8
L-ZISSEN
 10
899.0
 20
919.0
 30
0.0
 40
4.5
  1
P,P
  0
LINE
  8
L-TYUSIN
  6
CENTER
 62
     1
 10
400.0
 20
385.151541
 30
0.0
 11
400.0
 21
414.848459
 31
0.0
  0
ENDSEC
  0
EOF
