  0
SECTION
  2
HEADER
  9
$ACADVER
  1
AC1012
  9
$DWGCODEPAGE
  3
dos932
  9
$INSBASE
 10
0.0
 20
0.0
 30
0.0
  9
$EXTMIN
 10
40.06814228031203
 20
-51.74448631756388
 30
-0.0000000000000058
  9
$EXTMAX
 10
615.2731532194984
 20
294.8185696060152
 30
0.0000000000000104
  9
$LIMMIN
 10
0.0
 20
0.0
  9
$LIMMAX
 10
12.0
 20
9.0
  9
$ORTHOMODE
 70
     1
  9
$REGENMODE
 70
     1
  9
$FILLMODE
 70
     1
  9
$QTEXTMODE
 70
     0
  9
$MIRRTEXT
 70
     1
  9
$DRAGMODE
 70
     2
  9
$LTSCALE
 40
1.0
  9
$OSMODE
 70
    39
  9
$ATTMODE
 70
     1
  9
$TEXTSIZE
 40
4.5
  9
$TRACEWID
 40
0.05
  9
$TEXTSTYLE
  7
STANDARD
  9
$CLAYER
  8
L-ZISSEN
  9
$CELTYPE
  6
BYLAYER
  9
$CECOLOR
 62
   256
  9
$CELTSCALE
 40
1.0
  9
$DELOBJ
 70
     1
  9
$DISPSILH
 70
     0
  9
$DIMSCALE
 40
0.0
  9
$DIMASZ
 40
2.0
  9
$DIMEXO
 40
1.0
  9
$DIMDLI
 40
8.0
  9
$DIMRND
 40
0.0
  9
$DIMDLE
 40
0.0
  9
$DIMEXE
 40
1.0
  9
$DIMTP
 40
0.0
  9
$DIMTM
 40
0.0
  9
$DIMTXT
 40
4.5
  9
$DIMCEN
 40
1.5
  9
$DIMTSZ
 40
0.0
  9
$DIMTOL
 70
     0
  9
$DIMLIM
 70
     0
  9
$DIMTIH
 70
     0
  9
$DIMTOH
 70
     0
  9
$DIMSE1
 70
     0
  9
$DIMSE2
 70
     0
  9
$DIMTAD
 70
     1
  9
$DIMZIN
 70
     8
  9
$DIMBLK
  1

  9
$DIMASO
 70
     1
  9
$DIMSHO
 70
     0
  9
$DIMPOST
  1

  9
$DIMAPOST
  1

  9
$DIMALT
 70
     0
  9
$DIMALTD
 70
     2
  9
$DIMALTF
 40
25.4
  9
$DIMLFAC
 40
1.0
  9
$DIMTOFL
 70
     1
  9
$DIMTVP
 40
0.0
  9
$DIMTIX
 70
     1
  9
$DIMSOXD
 70
     0
  9
$DIMSAH
 70
     0
  9
$DIMBLK1
  1

  9
$DIMBLK2
  1

  9
$DIMSTYLE
  2
STANDARD
  9
$DIMCLRD
 70
     0
  9
$DIMCLRE
 70
     0
  9
$DIMCLRT
 70
     0
  9
$DIMTFAC
 40
1.0
  9
$DIMGAP
 40
1.399999999999999
  9
$DIMJUST
 70
     0
  9
$DIMSD1
 70
     0
  9
$DIMSD2
 70
     0
  9
$DIMTOLJ
 70
     1
  9
$DIMTZIN
 70
     8
  9
$DIMALTZ
 70
     0
  9
$DIMALTTZ
 70
     0
  9
$DIMFIT
 70
     3
  9
$DIMUPT
 70
     0
  9
$DIMUNIT
 70
     2
  9
$DIMDEC
 70
     2
  9
$DIMTDEC
 70
     2
  9
$DIMALTU
 70
     2
  9
$DIMALTTD
 70
     2
  9
$DIMTXSTY
  7
KANJI
  9
$DIMAUNIT
 70
     0
  9
$LUNITS
 70
     2
  9
$LUPREC
 70
     4
  9
$SKETCHINC
 40
0.1
  9
$FILLETRAD
 40
0.0
  9
$AUNITS
 70
     0
  9
$AUPREC
 70
     2
  9
$MENU
  1
acad
  9
$ELEVATION
 40
0.0
  9
$PELEVATION
 40
0.0
  9
$THICKNESS
 40
0.0
  9
$LIMCHECK
 70
     0
  9
$BLIPMODE
 70
     0
  9
$CHAMFERA
 40
7.0
  9
$CHAMFERB
 40
7.0
  9
$CHAMFERC
 40
0.0
  9
$CHAMFERD
 40
0.0
  9
$SKPOLY
 70
     0
  9
$TDCREATE
 40
2450178.569598264
  9
$TDUPDATE
 40
2455065.599191434
  9
$TDINDWG
 40
0.7640829398
  9
$TDUSRTIMER
 40
0.7640829398
  9
$USRTIMER
 70
     1
  9
$ANGBASE
 50
0.0
  9
$ANGDIR
 70
     0
  9
$PDMODE
 70
     0
  9
$PDSIZE
 40
0.0
  9
$PLINEWID
 40
0.0
  9
$COORDS
 70
     2
  9
$SPLFRAME
 70
     0
  9
$SPLINETYPE
 70
     6
  9
$SPLINESEGS
 70
     8
  9
$ATTDIA
 70
     0
  9
$ATTREQ
 70
     1
  9
$HANDLING
 70
-16383
  9
$HANDSEED
  5
7FB
  9
$SURFTAB1
 70
     6
  9
$SURFTAB2
 70
     6
  9
$SURFTYPE
 70
     6
  9
$SURFU
 70
     6
  9
$SURFV
 70
     6
  9
$UCSNAME
  2

  9
$UCSORG
 10
0.0
 20
0.0
 30
0.0
  9
$UCSXDIR
 10
1.0
 20
0.0
 30
0.0
  9
$UCSYDIR
 10
0.0
 20
1.0
 30
0.0
  9
$PUCSNAME
  2

  9
$PUCSORG
 10
0.0
 20
0.0
 30
0.0
  9
$PUCSXDIR
 10
1.0
 20
0.0
 30
0.0
  9
$PUCSYDIR
 10
0.0
 20
1.0
 30
0.0
  9
$USERI1
 70
     0
  9
$USERI2
 70
     0
  9
$USERI3
 70
     0
  9
$USERI4
 70
     0
  9
$USERI5
 70
     0
  9
$USERR1
 40
0.0
  9
$USERR2
 40
0.0
  9
$USERR3
 40
0.0
  9
$USERR4
 40
0.0
  9
$USERR5
 40
0.0
  9
$WORLDVIEW
 70
     1
  9
$SHADEDGE
 70
     3
  9
$SHADEDIF
 70
    70
  9
$TILEMODE
 70
     1
  9
$MAXACTVP
 70
    16
  9
$PINSBASE
 10
0.0
 20
0.0
 30
0.0
  9
$PLIMCHECK
 70
     0
  9
$PEXTMIN
 10
1.000000000000000E+20
 20
1.000000000000000E+20
 30
1.000000000000000E+20
  9
$PEXTMAX
 10
-1.000000000000000E+20
 20
-1.000000000000000E+20
 30
-1.000000000000000E+20
  9
$PLIMMIN
 10
0.0
 20
0.0
  9
$PLIMMAX
 10
12.0
 20
9.0
  9
$UNITMODE
 70
     0
  9
$VISRETAIN
 70
     0
  9
$PLINEGEN
 70
     0
  9
$PSLTSCALE
 70
     0
  9
$TREEDEPTH
 70
  3020
  9
$PICKSTYLE
 70
     1
  9
$CMLSTYLE
  2
STANDARD
  9
$CMLJUST
 70
     0
  9
$CMLSCALE
 40
1.0
  9
$SAVEIMAGES
 70
     1
  0
ENDSEC
  0
SECTION
  2
CLASSES
  0
CLASS
  1
ACDBDICTIONARYWDFLT
  2
AcDbDictionaryWithDefault
  3
AutoCAD 2000
 90
    32768
280
     0
281
     0
  0
CLASS
  1
ACDBPLACEHOLDER
  2
AcDbPlaceHolder
  3
AutoCAD 2000
 90
    32768
280
     0
281
     0
  0
CLASS
  1
LAYOUT
  2
AcDbLayout
  3
AutoCAD 2000
 90
    32768
280
     0
281
     0
  0
CLASS
  1
LONG_TRANSACTION
  2
AcDbLongTransaction
  3
AutoCAD 2000
 90
    32768
280
     0
281
     0
  0
CLASS
  1
LWPOLYLINE
  2
AcDbPolyline
  3
AutoCAD 2000
 90
    32768
280
     0
281
     1
  0
CLASS
  1
HATCH
  2
AcDbHatch
  3
AutoCAD 2000
 90
    32768
280
     0
281
     1
  0
CLASS
  1
XRECORD
  2
AcDbXrecord
  3
AutoCAD 2000
 90
    32768
280
     0
281
     0
  0
CLASS
  1
LONG_TRANSACTION
  2
AcDbLongTransaction
  3
AutoCAD 2000
 90
    32768
280
     0
281
     0
  0
CLASS
  1
LWPOLYLINE
  2
AcDbPolyline
  3
AutoCAD 2000
 90
    32768
280
     0
281
     1
  0
CLASS
  1
HATCH
  2
AcDbHatch
  3
AutoCAD 2000
 90
    32768
280
     0
281
     1
  0
CLASS
  1
XRECORD
  2
AcDbXrecord
  3
AutoCAD 2000
 90
    32768
280
     0
281
     0
  0
CLASS
  1
LONG_TRANSACTION
  2
AcDbLongTransaction
  3
AutoCAD 2000
 90
    32768
280
     0
281
     0
  0
CLASS
  1
LWPOLYLINE
  2
AcDbPolyline
  3
AutoCAD 2000
 90
    32768
280
     0
281
     1
  0
CLASS
  1
HATCH
  2
AcDbHatch
  3
AutoCAD 2000
 90
    32768
280
     0
281
     1
  0
CLASS
  1
XRECORD
  2
AcDbXrecord
  3
AutoCAD 2000
 90
    32768
280
     0
281
     0
  0
CLASS
  1
LONG_TRANSACTION
  2
AcDbLongTransaction
  3
AutoCAD 2000
 90
    32768
280
     0
281
     0
  0
CLASS
  1
LWPOLYLINE
  2
AcDbPolyline
  3
AutoCAD 2000
 90
    32768
280
     0
281
     1
  0
CLASS
  1
HATCH
  2
AcDbHatch
  3
AutoCAD 2000
 90
    32768
280
     0
281
     1
  0
CLASS
  1
XRECORD
  2
AcDbXrecord
  3
AutoCAD 2000
 90
    32768
280
     0
281
     0
  0
CLASS
  1
LONG_TRANSACTION
  2
AcDbLongTransaction
  3
AutoCAD 2000
 90
    32768
280
     0
281
     0
  0
CLASS
  1
LWPOLYLINE
  2
AcDbPolyline
  3
AutoCAD 2000
 90
    32768
280
     0
281
     1
  0
CLASS
  1
HATCH
  2
AcDbHatch
  3
AutoCAD 2000
 90
    32768
280
     0
281
     1
  0
CLASS
  1
XRECORD
  2
AcDbXrecord
  3
AutoCAD 2000
 90
    32768
280
     0
281
     0
  0
CLASS
  1
LONG_TRANSACTION
  2
AcDbLongTransaction
  3
AutoCAD 2000
 90
    32768
280
     0
281
     0
  0
CLASS
  1
LWPOLYLINE
  2
AcDbPolyline
  3
AutoCAD 2000
 90
    32768
280
     0
281
     1
  0
CLASS
  1
HATCH
  2
AcDbHatch
  3
AutoCAD 2000
 90
    32768
280
     0
281
     1
  0
CLASS
  1
XRECORD
  2
AcDbXrecord
  3
AutoCAD 2000
 90
    32768
280
     0
281
     0
  0
CLASS
  1
LONG_TRANSACTION
  2
AcDbLongTransaction
  3
AutoCAD 2000
 90
    32768
280
     0
281
     0
  0
CLASS
  1
LWPOLYLINE
  2
AcDbPolyline
  3
AutoCAD 2000
 90
    32768
280
     0
281
     1
  0
CLASS
  1
HATCH
  2
AcDbHatch
  3
AutoCAD 2000
 90
    32768
280
     0
281
     1
  0
CLASS
  1
XRECORD
  2
AcDbXrecord
  3
AutoCAD 2000
 90
    32768
280
     0
281
     0
  0
CLASS
  1
LONG_TRANSACTION
  2
AcDbLongTransaction
  3
AutoCAD 2000
 90
    32768
280
     0
281
     0
  0
CLASS
  1
LWPOLYLINE
  2
AcDbPolyline
  3
AutoCAD 2000
 90
    32768
280
     0
281
     1
  0
CLASS
  1
HATCH
  2
AcDbHatch
  3
AutoCAD 2000
 90
    32768
280
     0
281
     1
  0
CLASS
  1
XRECORD
  2
AcDbXrecord
  3
AutoCAD 2000
 90
    32768
280
     0
281
     0
  0
CLASS
  1
LONG_TRANSACTION
  2
AcDbLongTransaction
  3
AutoCAD 2000
 90
    32768
280
     0
281
     0
  0
CLASS
  1
LWPOLYLINE
  2
AcDbPolyline
  3
AutoCAD 2000
 90
    32768
280
     0
281
     1
  0
CLASS
  1
HATCH
  2
AcDbHatch
  3
AutoCAD 2000
 90
    32768
280
     0
281
     1
  0
CLASS
  1
XRECORD
  2
AcDbXrecord
  3
AutoCAD 2000
 90
    32768
280
     0
281
     0
  0
CLASS
  1
LONG_TRANSACTION
  2
AcDbLongTransaction
  3
AutoCAD 2000
 90
    32768
280
     0
281
     0
  0
CLASS
  1
LWPOLYLINE
  2
AcDbPolyline
  3
AutoCAD 2000
 90
    32768
280
     0
281
     1
  0
CLASS
  1
HATCH
  2
AcDbHatch
  3
AutoCAD 2000
 90
    32768
280
     0
281
     1
  0
CLASS
  1
XRECORD
  2
AcDbXrecord
  3
AutoCAD 2000
 90
    32768
280
     0
281
     0
  0
CLASS
  1
LONG_TRANSACTION
  2
AcDbLongTransaction
  3
AutoCAD 2000
 90
    32768
280
     0
281
     0
  0
CLASS
  1
LWPOLYLINE
  2
AcDbPolyline
  3
AutoCAD 2000
 90
    32768
280
     0
281
     1
  0
CLASS
  1
HATCH
  2
AcDbHatch
  3
AutoCAD 2000
 90
    32768
280
     0
281
     1
  0
CLASS
  1
XRECORD
  2
AcDbXrecord
  3
AutoCAD 2000
 90
    32768
280
     0
281
     0
  0
CLASS
  1
LONG_TRANSACTION
  2
AcDbLongTransaction
  3
AutoCAD 2000
 90
    32768
280
     0
281
     0
  0
CLASS
  1
LWPOLYLINE
  2
AcDbPolyline
  3
AutoCAD 2000
 90
    32768
280
     0
281
     1
  0
CLASS
  1
HATCH
  2
AcDbHatch
  3
AutoCAD 2000
 90
    32768
280
     0
281
     1
  0
CLASS
  1
XRECORD
  2
AcDbXrecord
  3
AutoCAD 2000
 90
    32768
280
     0
281
     0
  0
CLASS
  1
LONG_TRANSACTION
  2
AcDbLongTransaction
  3
AutoCAD 2000
 90
    32768
280
     0
281
     0
  0
CLASS
  1
LWPOLYLINE
  2
AcDbPolyline
  3
AutoCAD 2000
 90
    32768
280
     0
281
     1
  0
CLASS
  1
HATCH
  2
AcDbHatch
  3
AutoCAD 2000
 90
    32768
280
     0
281
     1
  0
CLASS
  1
XRECORD
  2
AcDbXrecord
  3
AutoCAD 2000
 90
    32768
280
     0
281
     0
  0
CLASS
  1
LONG_TRANSACTION
  2
AcDbLongTransaction
  3
AutoCAD 2000
 90
    32768
280
     0
281
     0
  0
CLASS
  1
LWPOLYLINE
  2
AcDbPolyline
  3
AutoCAD 2000
 90
    32768
280
     0
281
     1
  0
CLASS
  1
HATCH
  2
AcDbHatch
  3
AutoCAD 2000
 90
    32768
280
     0
281
     1
  0
CLASS
  1
XRECORD
  2
AcDbXrecord
  3
AutoCAD 2000
 90
    32768
280
     0
281
     0
  0
CLASS
  1
LONG_TRANSACTION
  2
AcDbLongTransaction
  3
AutoCAD 2000
 90
    32768
280
     0
281
     0
  0
CLASS
  1
LWPOLYLINE
  2
AcDbPolyline
  3
AutoCAD 2000
 90
    32768
280
     0
281
     1
  0
CLASS
  1
HATCH
  2
AcDbHatch
  3
AutoCAD 2000
 90
    32768
280
     0
281
     1
  0
CLASS
  1
XRECORD
  2
AcDbXrecord
  3
AutoCAD 2000
 90
    32768
280
     0
281
     0
  0
CLASS
  1
LONG_TRANSACTION
  2
AcDbLongTransaction
  3
AutoCAD 2000
 90
    32768
280
     0
281
     0
  0
CLASS
  1
LWPOLYLINE
  2
AcDbPolyline
  3
AutoCAD 2000
 90
    32768
280
     0
281
     1
  0
CLASS
  1
HATCH
  2
AcDbHatch
  3
AutoCAD 2000
 90
    32768
280
     0
281
     1
  0
CLASS
  1
XRECORD
  2
AcDbXrecord
  3
AutoCAD 2000
 90
    32768
280
     0
281
     0
  0
CLASS
  1
LONG_TRANSACTION
  2
AcDbLongTransaction
  3
AutoCAD 2000
 90
    32768
280
     0
281
     0
  0
CLASS
  1
LWPOLYLINE
  2
AcDbPolyline
  3
AutoCAD 2000
 90
    32768
280
     0
281
     1
  0
CLASS
  1
HATCH
  2
AcDbHatch
  3
AutoCAD 2000
 90
    32768
280
     0
281
     1
  0
CLASS
  1
XRECORD
  2
AcDbXrecord
  3
AutoCAD 2000
 90
    32768
280
     0
281
     0
  0
CLASS
  1
LONG_TRANSACTION
  2
AcDbLongTransaction
  3
AutoCAD 2000
 90
    32768
280
     0
281
     0
  0
CLASS
  1
LWPOLYLINE
  2
AcDbPolyline
  3
AutoCAD 2000
 90
    32768
280
     0
281
     1
  0
CLASS
  1
HATCH
  2
AcDbHatch
  3
AutoCAD 2000
 90
    32768
280
     0
281
     1
  0
CLASS
  1
XRECORD
  2
AcDbXrecord
  3
AutoCAD 2000
 90
    32768
280
     0
281
     0
  0
CLASS
  1
LONG_TRANSACTION
  2
AcDbLongTransaction
  3
AutoCAD 2000
 90
    32768
280
     0
281
     0
  0
CLASS
  1
LWPOLYLINE
  2
AcDbPolyline
  3
AutoCAD 2000
 90
    32768
280
     0
281
     1
  0
CLASS
  1
HATCH
  2
AcDbHatch
  3
AutoCAD 2000
 90
    32768
280
     0
281
     1
  0
CLASS
  1
XRECORD
  2
AcDbXrecord
  3
AutoCAD 2000
 90
    32768
280
     0
281
     0
  0
CLASS
  1
LONG_TRANSACTION
  2
AcDbLongTransaction
  3
AutoCAD 2000
 90
    32768
280
     0
281
     0
  0
CLASS
  1
LWPOLYLINE
  2
AcDbPolyline
  3
AutoCAD 2000
 90
    32768
280
     0
281
     1
  0
CLASS
  1
HATCH
  2
AcDbHatch
  3
AutoCAD 2000
 90
    32768
280
     0
281
     1
  0
CLASS
  1
XRECORD
  2
AcDbXrecord
  3
AutoCAD 2000
 90
    32768
280
     0
281
     0
  0
ENDSEC
  0
SECTION
  2
TABLES
  0
TABLE
  2
VPORT
  5
1F
330
0
100
AcDbSymbolTable
 70
     3
  0
VPORT
  5
7EA
330
1F
100
AcDbSymbolTableRecord
100
AcDbViewportTableRecord
  2
*ACTIVE
 70
     0
 10
0.0
 20
0.0
 11
1.0
 21
1.0
 12
327.6706477499051
 22
121.5370416442256
 13
0.0
 23
0.0
 14
1.0
 24
1.0
 15
0.0
 25
0.0
 16
0.0
 26
0.0
 36
1.0
 17
0.0
 27
0.0
 37
0.0
 40
359.2118873497657
 41
1.60759493670886
 42
50.0
 43
0.0
 44
0.0
 50
0.0
 51
0.0
 71
     0
 72
   100
 73
     1
 74
     0
 75
     0
 76
     0
 77
     0
 78
     0
  0
ENDTAB
  0
TABLE
  2
LTYPE
  5
1A
330
0
100
AcDbSymbolTable
 70
     2
  0
LTYPE
  5
1B
330
1A
100
AcDbSymbolTableRecord
100
AcDbLinetypeTableRecord
  2
BYBLOCK
 70
     0
  3

 72
    65
 73
     0
 40
0.0
  0
LTYPE
  5
1C
330
1A
100
AcDbSymbolTableRecord
100
AcDbLinetypeTableRecord
  2
BYLAYER
 70
     0
  3

 72
    65
 73
     0
 40
0.0
  0
LTYPE
  5
A
330
1A
100
AcDbSymbolTableRecord
100
AcDbLinetypeTableRecord
  2
CONTINUOUS
 70
     0
  3
Solid line
 72
    65
 73
     0
 40
0.0
  0
LTYPE
  5
35
330
1A
100
AcDbSymbolTableRecord
100
AcDbLinetypeTableRecord
  2
CENTER
 70
     0
  3
----- - ----- - ----- - ----- - -----
 72
    65
 73
     4
 40
35.0
 49
30.0
 74
     0
 49
-1.5
 74
     0
 49
2.0
 74
     0
 49
-1.5
 74
     0
  0
ENDTAB
  0
TABLE
  2
LAYER
  5
14
102
{ACAD_XDICTIONARY
360
15
102
}
330
0
100
AcDbSymbolTable
 70
     4
  0
LAYER
  5
6
330
14
100
AcDbSymbolTableRecord
100
AcDbLayerTableRecord
  2
0
 70
     0
 62
     7
  6
CONTINUOUS
  0
LAYER
  5
2E
330
14
100
AcDbSymbolTableRecord
100
AcDbLayerTableRecord
  2
L-ZISSEN
 70
     0
 62
     7
  6
CONTINUOUS
  0
LAYER
  5
34
330
14
100
AcDbSymbolTableRecord
100
AcDbLayerTableRecord
  2
L-TYUSIN
 70
     0
 62
     1
  6
CENTER
  0
LAYER
  5
6D3
330
14
100
AcDbSymbolTableRecord
100
AcDbLayerTableRecord
  2
DEFPOINTS
 70
     0
 62
     7
  6
CONTINUOUS
  0
ENDTAB
  0
TABLE
  2
STYLE
  5
17
330
0
100
AcDbSymbolTable
 70
     2
  0
STYLE
  5
18
330
17
100
AcDbSymbolTableRecord
100
AcDbTextStyleTableRecord
  2
STANDARD
 70
     0
 40
0.0
 41
1.0
 50
0.0
 71
     0
 42
4.5
  3
txt.shx
  4

  0
STYLE
  5
2A
330
17
100
AcDbSymbolTableRecord
100
AcDbTextStyleTableRecord
  2
KANJI
 70
     0
 40
0.0
 41
0.8
 50
0.0
 71
     0
 42
1.5
  3
C:\Program Files\AutoCAD LT\ROMANS
  4
BIGFONT
  0
ENDTAB
  0
TABLE
  2
VIEW
  5
1D
330
0
100
AcDbSymbolTable
 70
     0
  0
ENDTAB
  0
TABLE
  2
UCS
  5
1E
330
0
100
AcDbSymbolTable
 70
     0
  0
ENDTAB
  0
TABLE
  2
APPID
  5
21
330
0
100
AcDbSymbolTable
 70
     1
  0
APPID
  5
22
330
21
100
AcDbSymbolTableRecord
100
AcDbRegAppTableRecord
  2
ACAD
 70
     0
  0
ENDTAB
  0
TABLE
  2
DIMSTYLE
  5
23
330
0
100
AcDbSymbolTable
 70
     1
  0
DIMSTYLE
105
2C
330
23
100
AcDbSymbolTableRecord
100
AcDbDimStyleTableRecord
  2
STANDARD
 70
     0
  3

  4

  5

  6

  7

 40
1.0
 41
0.18
 42
0.0625
 43
0.38
 44
0.18
 45
0.0
 46
0.0
 47
0.0
 48
0.0
140
0.18
141
0.09
142
0.0
143
25.4
144
1.0
145
0.0
146
1.0
147
0.09
 71
     0
 72
     0
 73
     1
 74
     1
 75
     0
 76
     0
 77
     0
 78
     0
170
     0
171
     2
172
     0
173
     0
174
     0
175
     0
176
     0
177
     0
178
     0
270
     2
271
     4
272
     4
273
     2
274
     2
340
18
275
     0
280
     0
281
     0
282
     0
283
     1
284
     0
285
     0
286
     0
287
     3
288
     0
  0
ENDTAB
  0
TABLE
  2
BLOCK_RECORD
  5
1
330
0
100
AcDbSymbolTable
 70
     2
  0
BLOCK_RECORD
  5
2
102
{ACAD_XDICTIONARY
360
3
102
}
330
1
100
AcDbSymbolTableRecord
100
AcDbBlockTableRecord
  2
*MODEL_SPACE
  0
BLOCK_RECORD
  5
E
102
{ACAD_XDICTIONARY
360
F
102
}
330
1
100
AcDbSymbolTableRecord
100
AcDbBlockTableRecord
  2
*PAPER_SPACE
  0
ENDTAB
  0
ENDSEC
  0
SECTION
  2
BLOCKS
  0
BLOCK
  5
5
330
2
100
AcDbEntity
  8
0
100
AcDbBlockBegin
  2
*MODEL_SPACE
 70
     0
 10
0.0
 20
0.0
 30
0.0
  3
*MODEL_SPACE
  1

  0
ENDBLK
  5
B
330
2
100
AcDbEntity
  8
0
100
AcDbBlockEnd
  0
BLOCK
  5
11
330
E
100
AcDbEntity
 67
     1
  8
0
100
AcDbBlockBegin
  2
*PAPER_SPACE
 70
     0
 10
0.0
 20
0.0
 30
0.0
  3
*PAPER_SPACE
  1

  0
ENDBLK
  5
12
330
E
100
AcDbEntity
 67
     1
  8
0
100
AcDbBlockEnd
  0
ENDSEC
  0
SECTION
  2
ENTITIES
  0
CIRCLE
  5
32
330
2
100
AcDbEntity
  8
L-ZISSEN
100
AcDbCircle
 10
100.0
 20
102.4999999999999
 30
0.0
 40
9.272893136968036
  0
LINE
  5
33
330
2
100
AcDbEntity
  8
L-TYUSIN
100
AcDbLine
 10
100.0
 20
146.8027044013415
 30
0.0
 11
100.0
 21
-51.72862756788345
 31
0.0
  0
LINE
  5
3D
330
2
100
AcDbEntity
  8
L-ZISSEN
100
AcDbLine
 10
65.0
 20
66.30270440134063
 30
0.0
 11
135.0
 21
66.30270440134063
 31
0.0
  0
LINE
  5
49
330
2
100
AcDbEntity
  8
L-ZISSEN
100
AcDbLine
 10
65.0
 20
66.30270440134063
 30
0.0
 11
65.0
 21
89.80270440134066
 31
0.0
  0
LINE
  5
6F
330
2
100
AcDbEntity
  8
L-ZISSEN
100
AcDbLine
 10
135.0
 20
66.30270440134063
 30
0.0
 11
135.0
 21
89.80270440134066
 31
0.0
  0
LINE
  5
71
330
2
100
AcDbEntity
  8
L-TYUSIN
100
AcDbLine
 10
140.0
 20
252.3027044013406
 30
0.0
 11
60.0
 21
252.3027044013406
 31
0.0
  0
LINE
  5
72
330
2
100
AcDbEntity
  8
L-ZISSEN
100
AcDbLine
 10
78.49999999999996
 20
214.8027044013406
 30
0.0
 11
121.5
 21
214.8027044013406
 31
0.0
  0
CIRCLE
  5
74
330
2
100
AcDbEntity
  8
L-ZISSEN
100
AcDbCircle
 10
100.0
 20
244.0527044013406
 30
0.0
 40
10.25
  0
CIRCLE
  5
75
330
2
100
AcDbEntity
  8
L-ZISSEN
100
AcDbCircle
 10
100.0
 20
244.0527044013406
 30
0.0
 40
7.0
  0
LINE
  5
76
330
2
100
AcDbEntity
  8
L-ZISSEN
100
AcDbLine
 10
90.00000000000001
 20
130.8027044013409
 30
0.0
 11
110.0
 21
130.8027044013409
 31
0.0
  0
LINE
  5
77
330
2
100
AcDbEntity
  8
L-ZISSEN
100
AcDbLine
 10
107.0
 20
145.8027044013404
 30
0.0
 11
93.00000000000002
 21
145.8027044013404
 31
0.0
  0
LINE
  5
78
330
2
100
AcDbEntity
  8
L-ZISSEN
100
AcDbLine
 10
110.25
 20
127.3027044013404
 30
0.0
 11
89.75000000000001
 21
127.3027044013399
 31
0.0
  0
LINE
  5
79
330
2
100
AcDbEntity
  8
L-ZISSEN
100
AcDbLine
 10
110.0
 20
127.3027044013404
 30
0.0
 11
90.00000000000001
 21
127.3027044013404
 31
0.0
  0
LINE
  5
7A
330
2
100
AcDbEntity
  8
L-ZISSEN
100
AcDbLine
 10
110.25
 20
127.3027044013404
 30
0.0
 11
89.75000000000001
 21
127.3027044013399
 31
0.0
  0
LINE
  5
7C
330
2
100
AcDbEntity
  8
L-TYUSIN
100
AcDbLine
 10
79.76004368244957
 20
102.3027044013406
 30
0.0
 11
120.2399563175504
 21
102.3027044013406
 31
0.0
  0
LINE
  5
80
330
2
100
AcDbEntity
  8
L-ZISSEN
100
AcDbLine
 10
79.73205080756817
 20
136.3027044013413
 30
0.0
 11
86.26794919243026
 21
136.3027044013409
 31
0.0
  0
LINE
  5
81
330
2
100
AcDbEntity
  8
L-ZISSEN
100
AcDbLine
 10
87.99999999999933
 20
124.3027044013413
 30
0.0
 11
77.99999999999933
 21
124.3027044013409
 31
0.0
  0
LINE
  5
82
330
2
100
AcDbEntity
  8
L-ZISSEN
100
AcDbLine
 10
80.49999999999956
 20
122.3027044013399
 30
0.0
 11
80.49999999999956
 21
124.3027044013409
 31
0.0
  0
LINE
  5
83
330
2
100
AcDbEntity
  8
L-ZISSEN
100
AcDbLine
 10
77.99999999999933
 20
133.3027044013409
 30
0.0
 11
79.73205080756795
 21
136.3027044013409
 31
0.0
  0
LINE
  5
84
330
2
100
AcDbEntity
  8
L-ZISSEN
100
AcDbLine
 10
77.99999999999933
 20
124.3027044013409
 30
0.0
 11
77.99999999999933
 21
133.3027044013409
 31
0.0
  0
LINE
  5
85
330
2
100
AcDbEntity
  8
L-ZISSEN
100
AcDbLine
 10
90.00000000000001
 20
127.3027044013404
 30
0.0
 11
90.00000000000001
 21
130.8027044013404
 31
0.0
  0
LINE
  5
86
330
2
100
AcDbEntity
  8
L-ZISSEN
100
AcDbLine
 10
93.00000000000002
 20
130.8027044013404
 30
0.0
 11
93.00000000000002
 21
145.8027044013404
 31
0.0
  0
LINE
  5
87
330
2
100
AcDbEntity
  8
L-ZISSEN
100
AcDbLine
 10
94.8038475772935
 20
130.8027044013404
 30
0.0
 11
94.8038475772935
 21
127.3027044013404
 31
0.0
  0
LINE
  5
88
330
2
100
AcDbEntity
  8
L-ZISSEN
100
AcDbLine
 10
89.75000000000001
 20
127.3027044013404
 30
0.0
 11
89.75000000000001
 21
122.3027044013409
 31
0.0
  0
LINE
  5
89
330
2
100
AcDbEntity
  8
L-ZISSEN
100
AcDbLine
 10
87.9999999999991
 20
133.3027044013404
 30
0.0
 11
87.99999999999933
 21
124.3027044013413
 31
0.0
  0
LINE
  5
8A
330
2
100
AcDbEntity
  8
L-ZISSEN
100
AcDbLine
 10
87.99999999999933
 20
133.3027044013409
 30
0.0
 11
86.26794919243073
 21
136.3027044013409
 31
0.0
  0
LINE
  5
8B
330
2
100
AcDbEntity
  8
L-ZISSEN
100
AcDbLine
 10
85.49999999999933
 20
124.3027044013413
 30
0.0
 11
85.49999999999933
 21
122.3027044013404
 31
0.0
  0
LINE
  5
AD
330
2
100
AcDbEntity
  8
L-ZISSEN
100
AcDbLine
 10
110.0000000000002
 20
129.8027044013404
 30
0.0
 11
126.0000000000002
 21
129.8027044013404
 31
0.0
  0
LINE
  5
AF
330
2
100
AcDbEntity
  8
L-ZISSEN
100
AcDbLine
 10
105.1961524227067
 20
130.8027044013404
 30
0.0
 11
105.1961524227067
 21
127.3027044013404
 31
0.0
  0
LINE
  5
B0
330
2
100
AcDbEntity
  8
L-ZISSEN
100
AcDbLine
 10
107.0
 20
130.8027044013404
 30
0.0
 11
107.0
 21
145.8027044013404
 31
0.0
  0
LINE
  5
B1
330
2
100
AcDbEntity
  8
L-ZISSEN
100
AcDbLine
 10
110.0
 20
127.3027044013404
 30
0.0
 11
110.0
 21
130.8027044013404
 31
0.0
  0
LINE
  5
B2
330
2
100
AcDbEntity
  8
L-ZISSEN
100
AcDbLine
 10
110.25
 20
122.3027044013404
 30
0.0
 11
110.25
 21
127.3027044013404
 31
0.0
  0
LINE
  5
B3
330
2
100
AcDbEntity
  8
L-ZISSEN
100
AcDbLine
 10
110.0000000000002
 20
129.8027044013404
 30
0.0
 11
110.0
 21
122.3027044013404
 31
0.0
  0
LINE
  5
B5
330
2
100
AcDbEntity
  8
L-ZISSEN
100
AcDbLine
 10
126.0000000000002
 20
129.8027044013404
 30
0.0
 11
126.0
 21
122.3027044013399
 31
0.0
  0
CIRCLE
  5
B9
330
2
100
AcDbEntity
  8
L-ZISSEN
100
AcDbCircle
 10
118.0000000000002
 20
259.3027044013406
 30
0.0
 40
8.0
  0
LINE
  5
BC
330
2
100
AcDbEntity
  8
L-TYUSIN
100
AcDbLine
 10
100.0
 20
209.8027044013406
 30
0.0
 11
100.0
 21
294.8027044013406
 31
0.0
  0
LINE
  5
BF
330
2
100
AcDbEntity
  8
L-ZISSEN
100
AcDbLine
 10
121.5
 20
214.8027044013406
 30
0.0
 11
121.4999999999999
 21
223.1340593862516
 31
0.0
  0
LINE
  5
C7
330
2
100
AcDbEntity
  8
L-ZISSEN
100
AcDbLine
 10
135.0
 20
226.1269373319314
 30
0.0
 11
135.0
 21
278.4784714707498
 31
0.0
  0
CIRCLE
  5
C9
330
2
100
AcDbEntity
  8
L-ZISSEN
100
AcDbCircle
 10
130.0
 20
228.8027044013406
 30
0.0
 40
2.0
  0
CIRCLE
  5
CA
330
2
100
AcDbEntity
  8
L-ZISSEN
100
AcDbCircle
 10
130.0
 20
275.8027044013406
 30
0.0
 40
2.0
  0
LINE
  5
CB
330
2
100
AcDbEntity
  8
L-TYUSIN
100
AcDbLine
 10
299.9999999999998
 20
-43.19729598645472
 30
0.0
 11
300.0
 21
146.5586633470929
 31
0.0
  0
LINE
  5
CC
330
2
100
AcDbEntity
  8
L-ZISSEN
100
AcDbLine
 10
265.9999999999994
 20
117.2507400024041
 30
0.0
 11
265.9999999999997
 21
87.89580728277588
 31
0.0
  0
LINE
  5
CD
330
2
100
AcDbEntity
  8
L-ZISSEN
100
AcDbLine
 10
267.521651832892
 20
120.2940436681851
 30
0.0
 11
267.521651832892
 21
87.89580728277588
 31
0.0
  0
LINE
  5
CE
330
2
100
AcDbEntity
  8
L-ZISSEN
100
AcDbLine
 10
262.4999999999999
 20
82.60270440134082
 30
0.0
 11
262.4999999999996
 21
122.302704401342
 31
0.0
  0
LINE
  5
D0
330
2
100
AcDbEntity
  8
L-ZISSEN
100
AcDbLine
 10
279.3396640482849
 20
116.302704401342
 30
0.0
 11
279.3396640482849
 21
87.89580728277588
 31
0.0
  0
LINE
  5
D1
330
2
100
AcDbEntity
  8
L-ZISSEN
100
AcDbLine
 10
282.0000000000002
 20
116.302704401342
 30
0.0
 11
282.0000000000002
 21
87.89580728277588
 31
0.0
  0
LINE
  5
D2
330
2
100
AcDbEntity
  8
L-ZISSEN
100
AcDbLine
 10
318.0000000000002
 20
122.3027044013423
 30
0.0
 11
318.0000000000002
 21
87.89580728277588
 31
0.0
  0
LINE
  5
D3
330
2
100
AcDbEntity
  8
L-ZISSEN
100
AcDbLine
 10
321.2145726083225
 20
87.89580728277588
 30
0.0
 11
321.2145726083225
 21
120.2940436681856
 31
0.0
  0
LINE
  5
D4
330
2
100
AcDbEntity
  8
L-ZISSEN
100
AcDbLine
 10
334.0000000000003
 20
117.250740002404
 30
0.0
 11
334.0000000000001
 21
87.89580728277588
 31
0.0
  0
LINE
  5
D5
330
2
100
AcDbEntity
  8
L-ZISSEN
100
AcDbLine
 10
337.4999999999999
 20
82.60270440134082
 30
0.0
 11
337.5000000000002
 21
122.3027044013424
 31
0.0
  0
LINE
  5
D6
330
2
100
AcDbEntity
  8
L-ZISSEN
100
AcDbLine
 10
332.4783481671078
 20
120.2940436681851
 30
0.0
 11
332.4783481671078
 21
87.89580728277588
 31
0.0
  0
LINE
  5
E5
330
2
100
AcDbEntity
  8
L-ZISSEN
100
AcDbLine
 10
262.4999999999999
 20
66.30270440134058
 30
0.0
 11
337.4999999999999
 21
66.30270440134205
 31
0.0
  0
LINE
  5
E8
330
2
100
AcDbEntity
  8
L-ZISSEN
100
AcDbLine
 10
334.0000000000001
 20
87.89580728277588
 30
0.0
 11
300.0184990460896
 21
87.89580728277588
 31
0.0
  0
LINE
  5
F2
330
2
100
AcDbEntity
  8
L-ZISSEN
100
AcDbLine
 10
265.9999999999997
 20
87.89580728277588
 30
0.0
 11
300.0184990460896
 21
87.89580728277588
 31
0.0
  0
LINE
  5
F3
330
2
100
AcDbEntity
  8
L-ZISSEN
100
AcDbLine
 10
262.5000000000001
 20
79.30270440134155
 30
0.0
 11
264.9999999999999
 21
79.30270440134108
 31
0.0
  0
LINE
  5
F4
330
2
100
AcDbEntity
  8
L-ZISSEN
100
AcDbLine
 10
262.4999999999999
 20
82.60270440134082
 30
0.0
 11
264.9999999999999
 21
82.60270440134036
 31
0.0
  0
LINE
  5
F5
330
2
100
AcDbEntity
  8
L-ZISSEN
100
AcDbLine
 10
262.4999999999999
 20
66.30270440134063
 30
0.0
 11
262.4999999999999
 21
79.30270440134155
 31
0.0
  0
LINE
  5
F6
330
2
100
AcDbEntity
  8
L-ZISSEN
100
AcDbLine
 10
269.1199999999999
 20
66.30270440134063
 30
0.0
 11
269.1199999999999
 21
87.89580728277588
 31
0.0
  0
LINE
  5
F7
330
2
100
AcDbEntity
  8
L-ZISSEN
100
AcDbLine
 10
264.9999999999999
 20
82.60270440134036
 30
0.0
 11
264.9999999999999
 21
79.30270440134063
 31
0.0
  0
LINE
  5
F8
330
2
100
AcDbEntity
  8
L-ZISSEN
100
AcDbLine
 10
272.3994139651866
 20
66.30270440134063
 30
0.0
 11
272.3994139651866
 21
87.89580728277588
 31
0.0
  0
LINE
  5
12D
330
2
100
AcDbEntity
  8
L-ZISSEN
100
AcDbLine
 10
337.4999999999999
 20
82.60270440134082
 30
0.0
 11
334.9999999999999
 21
82.60270440134036
 31
0.0
  0
LINE
  5
12E
330
2
100
AcDbEntity
  8
L-ZISSEN
100
AcDbLine
 10
337.4999999999997
 20
79.30270440134155
 30
0.0
 11
334.9999999999999
 21
79.30270440134108
 31
0.0
  0
LINE
  5
13D
330
2
100
AcDbEntity
  8
L-ZISSEN
100
AcDbLine
 10
334.9999999999999
 20
82.60270440134036
 30
0.0
 11
334.9999999999999
 21
79.30270440134063
 31
0.0
  0
LINE
  5
13E
330
2
100
AcDbEntity
  8
L-ZISSEN
100
AcDbLine
 10
330.8799999999997
 20
66.30270440134063
 30
0.0
 11
330.8799999999997
 21
87.89580728277588
 31
0.0
  0
LINE
  5
13F
330
2
100
AcDbEntity
  8
L-ZISSEN
100
AcDbLine
 10
327.600586034813
 20
66.30270440134063
 30
0.0
 11
327.600586034813
 21
87.89580728277588
 31
0.0
  0
LINE
  5
140
330
2
100
AcDbEntity
  8
L-ZISSEN
100
AcDbLine
 10
337.4999999999999
 20
66.30270440134063
 30
0.0
 11
337.4999999999999
 21
79.30270440134155
 31
0.0
  0
LINE
  5
141
330
2
100
AcDbEntity
  8
L-TYUSIN
100
AcDbLine
 10
339.3141480524976
 20
99.80270440134018
 30
0.0
 11
261.2681604380425
 21
99.80270440134018
 31
0.0
  0
LINE
  5
142
330
2
100
AcDbEntity
  8
L-ZISSEN
100
AcDbLine
 10
299.5000000000004
 20
129.8027044013415
 30
0.0
 11
315.5000000000005
 21
129.8027044013415
 31
0.0
  0
LINE
  5
143
330
2
100
AcDbEntity
  8
L-ZISSEN
100
AcDbLine
 10
304.2320508075693
 20
136.3027044013424
 30
0.0
 11
310.7679491924314
 21
136.302704401342
 31
0.0
  0
LINE
  5
144
330
2
100
AcDbEntity
  8
L-ZISSEN
100
AcDbLine
 10
262.4999999999996
 20
122.3027044013419
 30
0.0
 11
337.5000000000002
 21
122.3027044013424
 31
0.0
  0
LINE
  5
146
330
2
100
AcDbEntity
  8
L-ZISSEN
100
AcDbLine
 10
267.5216518328919
 20
120.294043668185
 30
0.0
 11
293.6060992951082
 21
120.294043668186
 31
0.0
  0
LINE
  5
147
330
2
100
AcDbEntity
  8
L-ZISSEN
100
AcDbLine
 10
296.8206719034302
 20
116.302704401342
 30
0.0
 11
279.3396640482849
 21
116.302704401342
 31
0.0
  0
LINE
  5
14A
330
2
100
AcDbEntity
  8
L-ZISSEN
100
AcDbLine
 10
262.4999999999997
 20
117.3027044013415
 30
0.0
 11
265.9999999999994
 21
117.302704401342
 31
0.0
  0
LINE
  5
14C
330
2
100
AcDbEntity
  8
L-ZISSEN
100
AcDbLine
 10
265.9999999999994
 20
117.2507400024042
 30
0.0
 11
267.521651832892
 21
120.2940436681851
 31
0.0
  0
LINE
  5
151
330
2
100
AcDbEntity
  8
L-ZISSEN
100
AcDbLine
 10
279.3396640482849
 20
112.302704401342
 30
0.0
 11
279.3396640482849
 21
102.0269915322069
 31
0.0
  0
LINE
  5
152
330
2
100
AcDbEntity
  8
L-ZISSEN
100
AcDbLine
 10
299.5000000000004
 20
127.3027044013415
 30
0.0
 11
284.0
 21
127.302704401341
 31
0.0
  0
LINE
  5
153
330
2
100
AcDbEntity
  8
L-ZISSEN
100
AcDbLine
 10
304.25
 20
130.8027044013415
 30
0.0
 11
284.25
 21
130.8027044013415
 31
0.0
  0
LINE
  5
154
330
2
100
AcDbEntity
  8
L-ZISSEN
100
AcDbLine
 10
299.5000000000004
 20
127.302704401341
 30
0.0
 11
284.25
 21
127.3027044013415
 31
0.0
  0
LINE
  5
155
330
2
100
AcDbEntity
  8
L-ZISSEN
100
AcDbLine
 10
301.25
 20
145.8027044013415
 30
0.0
 11
287.25
 21
145.8027044013415
 31
0.0
  0
LINE
  5
156
330
2
100
AcDbEntity
  8
L-ZISSEN
100
AcDbLine
 10
293.6060992951082
 20
122.302704401342
 30
0.0
 11
293.6060992951082
 21
116.302704401342
 31
0.0
  0
LINE
  5
157
330
2
100
AcDbEntity
  8
L-ZISSEN
100
AcDbLine
 10
284.0
 20
127.3027044013415
 30
0.0
 11
284.0
 21
122.302704401342
 31
0.0
  0
LINE
  5
158
330
2
100
AcDbEntity
  8
L-ZISSEN
100
AcDbLine
 10
284.25
 20
127.3027044013415
 30
0.0
 11
284.25
 21
130.8027044013415
 31
0.0
  0
LINE
  5
159
330
2
100
AcDbEntity
  8
L-ZISSEN
100
AcDbLine
 10
287.25
 20
130.8027044013415
 30
0.0
 11
287.25
 21
145.8027044013415
 31
0.0
  0
LINE
  5
15A
330
2
100
AcDbEntity
  8
L-ZISSEN
100
AcDbLine
 10
289.0538475772935
 20
130.8027044013415
 30
0.0
 11
289.0538475772935
 21
127.3027044013415
 31
0.0
  0
LINE
  5
15B
330
2
100
AcDbEntity
  8
L-ZISSEN
100
AcDbLine
 10
294.25
 20
130.8027044013415
 30
0.0
 11
301.25
 21
130.8027044013415
 31
0.0
  0
LINE
  5
15C
330
2
100
AcDbEntity
  8
L-ZISSEN
100
AcDbLine
 10
296.8206719034304
 20
122.302704401342
 30
0.0
 11
296.8206719034304
 21
116.302704401342
 31
0.0
  0
LINE
  5
15D
330
2
100
AcDbEntity
  8
L-ZISSEN
100
AcDbLine
 10
299.5000000000004
 20
129.8027044013415
 30
0.0
 11
299.5000000000002
 21
122.3027044013415
 31
0.0
  0
LINE
  5
15E
330
2
100
AcDbEntity
  8
L-ZISSEN
100
AcDbLine
 10
301.25
 20
130.8027044013415
 30
0.0
 11
301.25
 21
145.8027044013415
 31
0.0
  0
LINE
  5
15F
330
2
100
AcDbEntity
  8
L-ZISSEN
100
AcDbLine
 10
299.4461524227068
 20
130.8027044013415
 30
0.0
 11
299.4461524227068
 21
127.3027044013415
 31
0.0
  0
LINE
  5
160
330
2
100
AcDbEntity
  8
L-ZISSEN
100
AcDbLine
 10
304.25
 20
129.8027044013415
 30
0.0
 11
304.25
 21
130.8027044013415
 31
0.0
  0
LINE
  5
161
330
2
100
AcDbEntity
  8
L-ZISSEN
100
AcDbLine
 10
302.5000000000005
 20
133.3027044013419
 30
0.0
 11
304.2320508075691
 21
136.302704401342
 31
0.0
  0
LINE
  5
162
330
2
100
AcDbEntity
  8
L-ZISSEN
100
AcDbLine
 10
302.5000000000005
 20
130.8027044013415
 30
0.0
 11
302.5000000000005
 21
133.3027044013419
 31
0.0
  0
LINE
  5
165
330
2
100
AcDbEntity
  8
L-ZISSEN
100
AcDbLine
 10
337.5000000000001
 20
117.3027044013415
 30
0.0
 11
334.0000000000003
 21
117.302704401342
 31
0.0
  0
LINE
  5
166
330
2
100
AcDbEntity
  8
L-ZISSEN
100
AcDbLine
 10
312.5000000000005
 20
133.3027044013419
 30
0.0
 11
310.7679491924319
 21
136.302704401342
 31
0.0
  0
LINE
  5
167
330
2
100
AcDbEntity
  8
L-ZISSEN
100
AcDbLine
 10
315.5000000000005
 20
129.8027044013415
 30
0.0
 11
315.5000000000002
 21
122.3027044013411
 31
0.0
  0
LINE
  5
168
330
2
100
AcDbEntity
  8
L-ZISSEN
100
AcDbLine
 10
312.5000000000003
 20
133.3027044013415
 30
0.0
 11
312.5000000000005
 21
129.8027044013415
 31
0.0
  0
LINE
  5
169
330
2
100
AcDbEntity
  8
L-ZISSEN
100
AcDbLine
 10
332.4783481671079
 20
120.294043668185
 30
0.0
 11
321.2145726083225
 21
120.2940436681856
 31
0.0
  0
LINE
  5
16F
330
2
100
AcDbEntity
  8
L-ZISSEN
100
AcDbLine
 10
334.0000000000003
 20
117.2507400024042
 30
0.0
 11
332.4783481671078
 21
120.2940436681851
 31
0.0
  0
LINE
  5
177
330
2
100
AcDbEntity
  8
L-ZISSEN
100
AcDbLine
 10
121.5
 20
115.3027044013406
 30
0.0
 11
121.4999999999999
 21
66.30270440134063
 31
0.0
  0
LINE
  5
179
330
2
100
AcDbEntity
  8
L-ZISSEN
100
AcDbLine
 10
78.5
 20
66.30270440134063
 30
0.0
 11
78.5
 21
115.3027044013406
 31
0.0
  0
LINE
  5
17C
330
2
100
AcDbEntity
  8
L-ZISSEN
100
AcDbLine
 10
131.0
 20
122.3027044013406
 30
0.0
 11
69.0
 21
122.3027044013406
 31
0.0
  0
LINE
  5
17D
330
2
100
AcDbEntity
  8
L-ZISSEN
100
AcDbLine
 10
114.5
 20
122.3027044013406
 30
0.0
 11
121.5
 21
115.3027044013406
 31
0.0
  0
LINE
  5
17E
330
2
100
AcDbEntity
  8
L-ZISSEN
100
AcDbLine
 10
85.5
 20
122.3027044013406
 30
0.0
 11
78.5
 21
115.3027044013406
 31
0.0
  0
LINE
  5
17F
330
2
100
AcDbEntity
  8
L-ZISSEN
100
AcDbLine
 10
65.0
 20
89.80270440134065
 30
0.0
 11
78.5
 21
89.80270440134065
 31
0.0
  0
LINE
  5
181
330
2
100
AcDbEntity
  8
L-ZISSEN
100
AcDbLine
 10
121.5
 20
78.80270440134063
 30
0.0
 11
78.5
 21
78.80270440134061
 31
0.0
  0
LINE
  5
183
330
2
100
AcDbEntity
  8
L-ZISSEN
100
AcDbLine
 10
78.5
 20
82.30270440134061
 30
0.0
 11
121.5
 21
82.30270440134065
 31
0.0
  0
LINE
  5
184
330
2
100
AcDbEntity
  8
L-ZISSEN
100
AcDbLine
 10
121.5
 20
89.80270440134065
 30
0.0
 11
135.0
 21
89.80270440134063
 31
0.0
  0
LINE
  5
186
330
2
100
AcDbEntity
  8
L-ZISSEN
100
AcDbLine
 10
131.0
 20
89.80270440134065
 30
0.0
 11
131.0
 21
122.3027044013406
 31
0.0
  0
LINE
  5
187
330
2
100
AcDbEntity
  8
L-ZISSEN
100
AcDbLine
 10
69.0
 20
89.80270440134065
 30
0.0
 11
69.0
 21
122.3027044013406
 31
0.0
  0
LINE
  5
189
330
2
100
AcDbEntity
  8
L-ZISSEN
100
AcDbLine
 10
131.0
 20
115.3027044013406
 30
0.0
 11
121.5
 21
115.3027044013406
 31
0.0
  0
LINE
  5
18A
330
2
100
AcDbEntity
  8
L-ZISSEN
100
AcDbLine
 10
78.50000000000001
 20
115.3027044013406
 30
0.0
 11
69.0
 21
115.3027044013406
 31
0.0
  0
LINE
  5
18F
330
2
100
AcDbEntity
  8
L-ZISSEN
100
AcDbLine
 10
131.0
 20
235.5527044013406
 30
0.0
 11
131.0
 21
269.0527044013406
 31
0.0
  0
LINE
  5
191
330
2
100
AcDbEntity
  8
L-ZISSEN
100
AcDbLine
 10
117.75
 20
285.0027044013407
 30
0.0
 11
117.7499999999999
 21
271.9901586813595
 31
0.0
  0
LINE
  5
1A2
330
2
100
AcDbEntity
  8
L-ZISSEN
100
AcDbLine
 10
135.0
 20
278.4784714707498
 30
0.0
 11
121.5
 21
281.4713494164296
 31
0.0
  0
LINE
  5
1A8
330
2
100
AcDbEntity
  8
L-ZISSEN
100
AcDbLine
 10
117.75
 20
219.6027044013406
 30
0.0
 11
121.5
 21
218.3027044013406
 31
0.0
  0
LINE
  5
1B3
330
2
100
AcDbEntity
  8
L-ZISSEN
100
AcDbLine
 10
78.49999999999996
 20
289.8027044013406
 30
0.0
 11
121.5
 21
289.8027044013406
 31
0.0
  0
LINE
  5
1B6
330
2
100
AcDbEntity
  8
L-ZISSEN
100
AcDbLine
 10
117.75
 20
285.0027044013406
 30
0.0
 11
121.5
 21
286.3027044013406
 31
0.0
  0
LINE
  5
1B7
330
2
100
AcDbEntity
  8
L-ZISSEN
100
AcDbLine
 10
121.5
 20
289.8027044013406
 30
0.0
 11
121.5
 21
281.4713494164296
 31
0.0
  0
LINE
  5
1B9
330
2
100
AcDbEntity
  8
L-ZISSEN
100
AcDbLine
 10
114.5
 20
214.8027044013406
 30
0.0
 11
114.5
 21
245.8947424677321
 31
0.0
  0
LINE
  5
1BC
330
2
100
AcDbEntity
  8
L-ZISSEN
100
AcDbLine
 10
117.7499999999999
 20
246.6152501213216
 30
0.0
 11
117.75
 21
219.6027044013406
 31
0.0
  0
LINE
  5
1BD
330
2
100
AcDbEntity
  8
L-ZISSEN
100
AcDbLine
 10
114.5
 20
272.7106663349491
 30
0.0
 11
114.5
 21
289.8027044013406
 31
0.0
  0
LINE
  5
1D3
330
2
100
AcDbEntity
  8
L-ZISSEN
100
AcDbLine
 10
130.9999999999999
 20
235.5527044013406
 30
0.0
 11
117.7499999999999
 21
232.6152501213215
 31
0.0
  0
LINE
  5
1D4
330
2
100
AcDbEntity
  8
L-ZISSEN
100
AcDbLine
 10
131.0
 20
269.0527044013406
 30
0.0
 11
114.5
 21
272.7106663349491
 31
0.0
  0
LINE
  5
1D8
330
2
100
AcDbEntity
  8
L-ZISSEN
100
AcDbLine
 10
131.0
 20
249.5527044013406
 30
0.0
 11
114.5
 21
245.8947424677321
 31
0.0
  0
LINE
  5
1DF
330
2
100
AcDbEntity
  8
L-ZISSEN
100
AcDbLine
 10
85.49999999999998
 20
214.8027044013406
 30
0.0
 11
85.49999999999993
 21
245.8947424677321
 31
0.0
  0
LINE
  5
1E0
330
2
100
AcDbEntity
  8
L-ZISSEN
100
AcDbLine
 10
82.25000000000001
 20
246.6152501213216
 30
0.0
 11
82.24999999999997
 21
219.6027044013406
 31
0.0
  0
LINE
  5
1E1
330
2
100
AcDbEntity
  8
L-ZISSEN
100
AcDbLine
 10
65.0
 20
226.3027044013406
 30
0.0
 11
78.49999999999997
 21
223.3098264556608
 31
0.0
  0
LINE
  5
1E2
330
2
100
AcDbEntity
  8
L-ZISSEN
100
AcDbLine
 10
82.24999999999999
 20
219.6027044013406
 30
0.0
 11
78.49999999999998
 21
218.3027044013406
 31
0.0
  0
LINE
  5
1E3
330
2
100
AcDbEntity
  8
L-ZISSEN
100
AcDbLine
 10
78.49999999999997
 20
214.8027044013406
 30
0.0
 11
78.5
 21
223.3098264556609
 31
0.0
  0
LINE
  5
1E4
330
2
100
AcDbEntity
  8
L-ZISSEN
100
AcDbLine
 10
69.0
 20
249.5527044013406
 30
0.0
 11
85.49999999999995
 21
245.8947424677321
 31
0.0
  0
LINE
  5
1E5
330
2
100
AcDbEntity
  8
L-ZISSEN
100
AcDbLine
 10
69.00000000000003
 20
235.5527044013406
 30
0.0
 11
82.24999999999999
 21
232.6152501213215
 31
0.0
  0
CIRCLE
  5
1E6
330
2
100
AcDbEntity
  8
L-ZISSEN
100
AcDbCircle
 10
70.0
 20
228.8027044013406
 30
0.0
 40
2.0
  0
LINE
  5
1E7
330
2
100
AcDbEntity
  8
L-ZISSEN
100
AcDbLine
 10
85.49999999999995
 20
272.7106663349491
 30
0.0
 11
85.49999999999997
 21
289.8027044013406
 31
0.0
  0
LINE
  5
1E8
330
2
100
AcDbEntity
  8
L-ZISSEN
100
AcDbLine
 10
65.0
 20
278.3027044013406
 30
0.0
 11
78.5
 21
281.2955823470203
 31
0.0
  0
LINE
  5
1E9
330
2
100
AcDbEntity
  8
L-ZISSEN
100
AcDbLine
 10
82.24999999999999
 20
285.0027044013407
 30
0.0
 11
82.25000000000001
 21
271.9901586813595
 31
0.0
  0
LINE
  5
1EA
330
2
100
AcDbEntity
  8
L-ZISSEN
100
AcDbLine
 10
69.0
 20
269.0527044013406
 30
0.0
 11
85.49999999999995
 21
272.7106663349491
 31
0.0
  0
CIRCLE
  5
1EB
330
2
100
AcDbEntity
  8
L-ZISSEN
100
AcDbCircle
 10
70.0
 20
275.8027044013406
 30
0.0
 40
2.0
  0
LINE
  5
1EC
330
2
100
AcDbEntity
  8
L-ZISSEN
100
AcDbLine
 10
82.24999999999999
 20
285.0027044013406
 30
0.0
 11
78.49999999999998
 21
286.3027044013406
 31
0.0
  0
LINE
  5
1ED
330
2
100
AcDbEntity
  8
L-ZISSEN
100
AcDbLine
 10
78.49999999999997
 20
289.8027044013406
 30
0.0
 11
78.5
 21
281.2955823470204
 31
0.0
  0
LINE
  5
1EE
330
2
100
AcDbEntity
  8
L-ZISSEN
100
AcDbLine
 10
69.0
 20
235.5527044013406
 30
0.0
 11
69.0
 21
269.0527044013406
 31
0.0
  0
LINE
  5
1EF
330
2
100
AcDbEntity
  8
L-ZISSEN
100
AcDbLine
 10
65.0
 20
226.3027044013405
 30
0.0
 11
65.0
 21
278.3027044013406
 31
0.0
  0
LINE
  5
1FA
330
2
100
AcDbEntity
  8
L-ZISSEN
100
AcDbLine
 10
135.0
 20
226.1269373319314
 30
0.0
 11
121.4999999999999
 21
223.1340593862516
 31
0.0
  0
CIRCLE
  5
200
330
2
100
AcDbEntity
  8
L-ZISSEN
100
AcDbCircle
 10
83.0
 20
259.3027044013406
 30
0.0
 40
3.267949192431018
  0
CIRCLE
  5
201
330
2
100
AcDbEntity
  8
L-ZISSEN
100
AcDbCircle
 10
83.0
 20
259.3027044013406
 30
0.0
 40
5.0
  0
SOLID
  5
210
330
2
100
AcDbEntity
  8
L-ZISSEN
100
AcDbTrace
 10
261.5852887309098
 20
101.6122387075391
 30
0.0
 11
261.0478565920934
 21
101.2177629280397
 31
0.0
 12
262.4999999999998
 22
99.80270440134018
 32
0.0
 13
262.4999999999998
 23
99.80270440134018
 33
0.0
  0
LINE
  5
211
330
2
100
AcDbEntity
  8
L-ZISSEN
100
AcDbLine
 10
261.3165726615016
 20
101.4150008177894
 30
0.0
 11
243.7034469799554
 21
125.411048986547
 31
0.0
  0
LINE
  5
212
330
2
100
AcDbEntity
  8
L-ZISSEN
100
AcDbLine
 10
243.7034469799554
 20
125.411048986547
 30
0.0
 11
224.2652352348485
 21
125.411048986547
 31
0.0
  0
TEXT
  5
213
330
2
100
AcDbEntity
  8
L-ZISSEN
100
AcDbText
 10
225.7051033576907
 20
126.1306519907026
 30
0.0
 40
4.5
  1
IN
100
AcDbText
  0
TEXT
  5
214
330
2
100
AcDbEntity
  8
L-ZISSEN
100
AcDbText
 10
221.9614486122797
 20
117.6232079462508
 30
0.0
 40
4.5
  1
Rc3/4
100
AcDbText
  0
TEXT
  5
215
330
2
100
AcDbEntity
  8
L-ZISSEN
100
AcDbText
 10
222.912237674044
 20
274.2677224619844
 30
0.0
 40
4.5
  1
MODEL NO. L64-600-*0**
100
AcDbText
  0
LINE
  5
451
330
2
100
AcDbEntity
  8
L-ZISSEN
100
AcDbLine
 10
109.2499999999968
 20
-30.35324513871046
 30
0.0
 11
90.75000000000533
 21
-30.35324513871046
 31
0.0
  0
LINE
  5
452
330
2
100
AcDbEntity
  8
L-ZISSEN
100
AcDbLine
 10
91.06249999999931
 20
-38.19729598645608
 30
0.0
 11
108.9375000000006
 21
-38.19729598645517
 31
0.0
  0
LINE
  5
45C
330
2
100
AcDbEntity
  8
L-ZISSEN
100
AcDbLine
 10
69.99999999999772
 20
-20.10097964264832
 30
0.0
 11
70.0
 21
66.30270440134063
 31
0.0
  0
LINE
  5
45D
330
2
100
AcDbEntity
  8
L-ZISSEN
100
AcDbLine
 10
74.71999999999752
 20
55.96396548970824
 30
0.0
 11
74.71999999999979
 21
-12.03603451029084
 31
0.0
  0
LINE
  5
45E
330
2
100
AcDbEntity
  8
L-ZISSEN
100
AcDbLine
 10
83.15000000000054
 20
55.96396548970824
 30
0.0
 11
83.15000000000054
 21
-12.03603451029084
 31
0.0
  0
LINE
  5
45F
330
2
100
AcDbEntity
  8
L-ZISSEN
100
AcDbLine
 10
91.06249999999931
 20
-38.19729598645608
 30
0.0
 11
91.06249999999931
 21
-30.35324513871046
 31
0.0
  0
ARC
  5
460
330
2
100
AcDbEntity
  8
L-ZISSEN
100
AcDbCircle
 10
100.0000000000035
 20
68.75541548282353
 30
0.0
 40
99.53938471878538
100
AcDbArc
 50
256.0937629349451
 51
264.6679223051358
  0
ARC
  5
461
330
2
100
AcDbEntity
  8
L-ZISSEN
100
AcDbCircle
 10
78.0000000000091
 20
-20.10097964264832
 30
0.0
 40
8.000000000000113
100
AcDbArc
 50
180.0
 51
256.0937629347634
  0
LINE
  5
462
330
2
100
AcDbEntity
  8
L-ZISSEN
100
AcDbLine
 10
83.15000000000054
 20
-12.03603451029084
 30
0.0
 11
78.93499999999903
 21
-14.03603451029175
 31
0.0
  0
LINE
  5
463
330
2
100
AcDbEntity
  8
L-ZISSEN
100
AcDbLine
 10
78.93499999999903
 20
-14.03603451029175
 30
0.0
 11
74.71999999999979
 21
-12.03603451029084
 31
0.0
  0
LINE
  5
466
330
2
100
AcDbEntity
  8
L-ZISSEN
100
AcDbLine
 10
98.37264313074797
 20
65.14007392689973
 30
0.0
 11
52.97575394187163
 21
32.7072327885844
 31
0.0
  0
TEXT
  5
467
330
2
100
AcDbEntity
  8
L-ZISSEN
100
AcDbText
 10
40.10536487396831
 20
30.46055856063367
 30
0.0
 40
4.5
  1
P.P
100
AcDbText
  0
LINE
  5
468
330
2
100
AcDbEntity
  8
L-ZISSEN
100
AcDbLine
 10
52.97575394187163
 20
32.7072327885844
 30
0.0
 11
50.97575394187163
 21
32.7072327885844
 31
0.0
  0
LINE
  5
469
330
2
100
AcDbEntity
  8
L-ZISSEN
100
AcDbLine
 10
74.71999999999752
 20
55.96396548970824
 30
0.0
 11
83.15000000000054
 21
55.96396548970824
 31
0.0
  0
SOLID
  5
46A
330
2
100
AcDbEntity
  8
L-ZISSEN
100
AcDbTrace
 10
98.17887138500783
 20
65.41130007177526
 30
0.0
 11
98.56641487648813
 21
64.86884778202465
 31
0.0
 12
100.0
 22
66.30270440134063
 32
0.0
 13
100.0
 23
66.30270440134063
 33
0.0
  0
LINE
  5
476
330
2
100
AcDbEntity
  8
L-ZISSEN
100
AcDbLine
 10
329.9999999999976
 20
-20.10097964264787
 30
0.0
 11
329.9999999999999
 21
66.30270440134245
 31
0.0
  0
LINE
  5
477
330
2
100
AcDbEntity
  8
L-ZISSEN
100
AcDbLine
 10
316.8499999999994
 20
55.96396548971006
 30
0.0
 11
316.8499999999994
 21
-12.03603451028993
 31
0.0
  0
LINE
  5
478
330
2
100
AcDbEntity
  8
L-ZISSEN
100
AcDbLine
 10
325.2800000000001
 20
55.96396548971006
 30
0.0
 11
325.2800000000001
 21
-12.03603451028948
 31
0.0
  0
LINE
  5
479
330
2
100
AcDbEntity
  8
L-ZISSEN
100
AcDbLine
 10
269.9999999999999
 20
-20.1009796426465
 30
0.0
 11
269.9999999999999
 21
66.30270440134109
 31
0.0
  0
LINE
  5
47A
330
2
100
AcDbEntity
  8
L-ZISSEN
100
AcDbLine
 10
274.7199999999997
 20
55.96396548971006
 30
0.0
 11
274.7199999999997
 21
-12.03603451028948
 31
0.0
  0
LINE
  5
47B
330
2
100
AcDbEntity
  8
L-ZISSEN
100
AcDbLine
 10
283.1500000000005
 20
55.96396548971006
 30
0.0
 11
283.1500000000005
 21
-12.03603451028993
 31
0.0
  0
LINE
  5
47C
330
2
100
AcDbEntity
  8
L-ZISSEN
100
AcDbLine
 10
116.8499999999971
 20
55.96396548970824
 30
0.0
 11
116.8499999999971
 21
-12.03603451029084
 31
0.0
  0
LINE
  5
47D
330
2
100
AcDbEntity
  8
L-ZISSEN
100
AcDbLine
 10
125.2800000000002
 20
55.96396548970824
 30
0.0
 11
125.2799999999979
 21
-12.03603451029084
 31
0.0
  0
LINE
  5
47E
330
2
100
AcDbEntity
  8
L-ZISSEN
100
AcDbLine
 10
129.9999999999977
 20
-20.10097964264832
 30
0.0
 11
130.0
 21
66.30270440134063
 31
0.0
  0
LINE
  5
47F
330
2
100
AcDbEntity
  8
L-ZISSEN
100
AcDbLine
 10
108.9375000000006
 20
-38.19729598645517
 30
0.0
 11
108.9375000000006
 21
-30.35324513871046
 31
0.0
  0
ARC
  5
480
330
2
100
AcDbEntity
  8
L-ZISSEN
100
AcDbCircle
 10
122.0000000000077
 20
-20.10097964264832
 30
0.0
 40
8.000000000000113
100
AcDbArc
 50
283.9062370650548
 51
0.0
  0
ARC
  5
481
330
2
100
AcDbEntity
  8
L-ZISSEN
100
AcDbCircle
 10
100.0000000000035
 20
68.75541548282353
 30
0.0
 40
99.53938471878515
100
AcDbArc
 50
275.3320776948641
 51
283.9062370650445
  0
LINE
  5
482
330
2
100
AcDbEntity
  8
L-ZISSEN
100
AcDbLine
 10
116.8499999999971
 20
-12.03603451029084
 30
0.0
 11
121.0650000000009
 21
-14.03603451029175
 31
0.0
  0
LINE
  5
483
330
2
100
AcDbEntity
  8
L-ZISSEN
100
AcDbLine
 10
121.0650000000009
 20
-14.03603451029175
 30
0.0
 11
125.2799999999979
 21
-12.03603451029084
 31
0.0
  0
LINE
  5
484
330
2
100
AcDbEntity
  8
L-ZISSEN
100
AcDbLine
 10
309.0000000000022
 20
-38.19729598645517
 30
0.0
 11
309.0000000000022
 21
-30.35324513870955
 31
0.0
  0
LINE
  5
485
330
2
100
AcDbEntity
  8
L-ZISSEN
100
AcDbLine
 10
291.0000000000004
 20
-38.19729598645517
 30
0.0
 11
291.0000000000004
 21
-30.35324513870909
 31
0.0
  0
LINE
  5
486
330
2
100
AcDbEntity
  8
L-ZISSEN
100
AcDbLine
 10
309.0000000000022
 20
-38.19729598645471
 30
0.0
 11
291.0000000000004
 21
-38.19729598645471
 31
0.0
  0
ARC
  5
487
330
2
100
AcDbEntity
  8
L-ZISSEN
100
AcDbCircle
 10
300.0000000000013
 20
68.75541548282399
 30
0.0
 40
99.53938471878538
100
AcDbArc
 50
256.0937629349554
 51
264.6679223051358
  0
ARC
  5
488
330
2
100
AcDbEntity
  8
L-ZISSEN
100
AcDbCircle
 10
278.0000000000008
 20
-20.1009796426465
 30
0.0
 40
8.000000000000113
100
AcDbArc
 50
180.0
 51
256.0937629349451
  0
LINE
  5
489
330
2
100
AcDbEntity
  8
L-ZISSEN
100
AcDbLine
 10
278.934999999999
 20
-14.03603451028993
 30
0.0
 11
274.7199999999997
 21
-12.03603451028948
 31
0.0
  0
LINE
  5
48A
330
2
100
AcDbEntity
  8
L-ZISSEN
100
AcDbLine
 10
283.1500000000005
 20
-12.03603451028993
 30
0.0
 11
278.934999999999
 21
-14.03603451028993
 31
0.0
  0
ARC
  5
48B
330
2
100
AcDbEntity
  8
L-ZISSEN
100
AcDbCircle
 10
300.0000000000013
 20
68.75541548282399
 30
0.0
 40
99.53938471878553
100
AcDbArc
 50
275.3320776948641
 51
283.9062370650548
  0
LINE
  5
48C
330
2
100
AcDbEntity
  8
L-ZISSEN
100
AcDbLine
 10
309.2500000000055
 20
-30.35324513870955
 30
0.0
 11
290.7499999999935
 21
-30.35324513870909
 31
0.0
  0
ARC
  5
48D
330
2
100
AcDbEntity
  8
L-ZISSEN
100
AcDbCircle
 10
321.9999999999994
 20
-20.10097964264787
 30
0.0
 40
8.000000000000113
100
AcDbArc
 50
283.906237065246
 51
0.0
  0
LINE
  5
48E
330
2
100
AcDbEntity
  8
L-ZISSEN
100
AcDbLine
 10
321.0650000000009
 20
-14.03603451028993
 30
0.0
 11
325.2800000000001
 21
-12.03603451028948
 31
0.0
  0
LINE
  5
48F
330
2
100
AcDbEntity
  8
L-ZISSEN
100
AcDbLine
 10
316.8499999999994
 20
-12.03603451028993
 30
0.0
 11
321.0650000000009
 21
-14.03603451028993
 31
0.0
  0
TEXT
  5
490
330
2
100
AcDbEntity
  8
L-ZISSEN
100
AcDbText
 10
240.1053648739682
 20
30.46055856063435
 30
0.0
 40
4.5
  1
P.P
100
AcDbText
  0
LINE
  5
496
330
2
100
AcDbEntity
  8
L-ZISSEN
100
AcDbLine
 10
135.0
 20
45.30270440134063
 30
0.0
 11
138.9999999999986
 21
44.63776659555787
 31
0.0
  0
LINE
  5
497
330
2
100
AcDbEntity
  8
L-ZISSEN
100
AcDbLine
 10
133.3140953245515
 20
38.41321849932956
 30
0.0
 11
133.3140953245515
 21
66.30270440133973
 31
0.0
  0
LINE
  5
498
330
2
100
AcDbEntity
  8
L-ZISSEN
100
AcDbLine
 10
130.0
 20
66.30270440134063
 30
0.0
 11
130.0
 21
24.97870994714139
 31
0.0
  0
LINE
  5
499
330
2
100
AcDbEntity
  8
L-ZISSEN
100
AcDbLine
 10
138.9999999999986
 20
40.35359761295967
 30
0.0
 11
133.5000000000013
 21
38.41321849932956
 31
0.0
  0
LINE
  5
49A
330
2
100
AcDbEntity
  8
L-ZISSEN
100
AcDbLine
 10
130.0638373500237
 20
33.17973788670406
 30
0.0
 11
131.8275114937955
 21
40.65971363414791
 31
0.0
  0
LINE
  5
49B
330
2
100
AcDbEntity
  8
L-ZISSEN
100
AcDbLine
 10
131.5504211807797
 20
32.82922211588084
 30
0.0
 11
133.3140953245515
 21
40.3091978633247
 31
0.0
  0
LINE
  5
49C
330
2
100
AcDbEntity
  8
L-ZISSEN
100
AcDbLine
 10
133.5000000000013
 20
38.41321849932956
 30
0.0
 11
133.3140953245515
 21
38.41321849932956
 31
0.0
  0
LINE
  5
49D
330
2
100
AcDbEntity
  8
L-ZISSEN
100
AcDbLine
 10
131.5504211807797
 20
32.82922211588084
 30
0.0
 11
130.0
 21
32.82922211588084
 31
0.0
  0
LINE
  5
49E
330
2
100
AcDbEntity
  8
L-ZISSEN
100
AcDbLine
 10
133.3140953245515
 20
40.3091978633247
 30
0.0
 11
133.3140953245515
 21
42.49568210425969
 31
0.0
  0
LINE
  5
49F
330
2
100
AcDbEntity
  8
L-ZISSEN
100
AcDbLine
 10
131.8275114937955
 20
42.49568210425877
 30
0.0
 11
131.8275114937955
 21
40.65971363414791
 31
0.0
  0
LINE
  5
4A0
330
2
100
AcDbEntity
  8
L-ZISSEN
100
AcDbLine
 10
133.3140953245515
 20
42.49568210425969
 30
0.0
 11
130.0
 21
42.49568210425969
 31
0.0
  0
LINE
  5
4A1
330
2
100
AcDbEntity
  8
L-ZISSEN
100
AcDbLine
 10
138.9999999999986
 20
44.63776659555787
 30
0.0
 11
138.9999999999986
 21
40.35359761295967
 31
0.0
  0
LINE
  5
4A2
330
2
100
AcDbEntity
  8
L-ZISSEN
100
AcDbLine
 10
125.2800000000002
 20
55.96396548970824
 30
0.0
 11
116.8499999999971
 21
55.96396548970824
 31
0.0
  0
LINE
  5
4A3
330
2
100
AcDbEntity
  8
L-ZISSEN
100
AcDbLine
 10
135.0
 20
66.30270440133973
 30
0.0
 11
135.0
 21
45.30270440134063
 31
0.0
  0
LINE
  5
4AE
330
2
100
AcDbEntity
  8
L-ZISSEN
100
AcDbLine
 10
298.3726431307479
 20
65.14007392690041
 30
0.0
 11
252.9757539418715
 21
32.70723278858508
 31
0.0
  0
LINE
  5
4AF
330
2
100
AcDbEntity
  8
L-ZISSEN
100
AcDbLine
 10
299.9999999999999
 20
31.30270440134109
 30
0.0
 11
285.9374999999976
 21
35.05270440134109
 31
0.0
  0
LINE
  5
4B0
330
2
100
AcDbEntity
  8
L-ZISSEN
100
AcDbLine
 10
299.9999999999999
 20
40.05270440134109
 30
0.0
 11
286.8749999999976
 21
41.92770440134109
 31
0.0
  0
LINE
  5
4B1
330
2
100
AcDbEntity
  8
L-ZISSEN
100
AcDbLine
 10
288.0855668651656
 20
36.36067889029664
 30
0.0
 11
299.9999999999999
 21
33.8663209158658
 31
0.0
  0
LINE
  5
4B2
330
2
100
AcDbEntity
  8
L-ZISSEN
100
AcDbLine
 10
299.9999999999999
 20
39.221532144114
 30
0.0
 11
288.0855668651656
 21
40.92359402051852
 31
0.0
  0
LINE
  5
4B3
330
2
100
AcDbEntity
  8
L-ZISSEN
100
AcDbLine
 10
287.1874999999999
 20
26.30270440134109
 30
0.0
 11
312.8124999999999
 21
26.30270440134109
 31
0.0
  0
LINE
  5
4B4
330
2
100
AcDbEntity
  8
L-ZISSEN
100
AcDbLine
 10
285.9374999999976
 20
66.30270440134109
 30
0.0
 11
285.9374999999976
 21
27.55270440134109
 31
0.0
  0
LINE
  5
4B5
330
2
100
AcDbEntity
  8
L-ZISSEN
100
AcDbLine
 10
285.9374999999976
 20
66.30270440134109
 30
0.0
 11
285.9374999999976
 21
42.51342903420845
 31
0.0
  0
LINE
  5
4B6
330
2
100
AcDbEntity
  8
L-ZISSEN
100
AcDbLine
 10
286.8749999999976
 20
66.30270440134109
 30
0.0
 11
286.8749999999976
 21
41.92770440134109
 31
0.0
  0
LINE
  5
4B7
330
2
100
AcDbEntity
  8
L-ZISSEN
100
AcDbLine
 10
252.9757539418715
 20
32.70723278858508
 30
0.0
 11
250.9757539418715
 21
32.70723278858508
 31
0.0
  0
ARC
  5
4B8
330
2
100
AcDbEntity
  8
L-ZISSEN
100
AcDbCircle
 10
287.1874999999999
 20
27.55270440134109
 30
0.0
 40
1.250000000000568
100
AcDbArc
 50
180.0
 51
270.0
  0
LINE
  5
4B9
330
2
100
AcDbEntity
  8
L-ZISSEN
100
AcDbLine
 10
288.0855668651656
 20
40.92359402051852
 30
0.0
 11
288.0855668651656
 21
36.36067889029664
 31
0.0
  0
LINE
  5
4BA
330
2
100
AcDbEntity
  8
L-ZISSEN
100
AcDbLine
 10
285.9374999999976
 20
35.05270440134109
 30
0.0
 11
288.0855668651656
 21
36.36067889029664
 31
0.0
  0
LINE
  5
4BB
330
2
100
AcDbEntity
  8
L-ZISSEN
100
AcDbLine
 10
288.0855668651656
 20
41.75476627774606
 30
0.0
 11
286.8749999999976
 21
41.92770440134109
 31
0.0
  0
LINE
  5
4BC
330
2
100
AcDbEntity
  8
L-ZISSEN
100
AcDbLine
 10
288.0855668651656
 20
40.92359402051852
 30
0.0
 11
286.8749999999976
 21
41.92770440134109
 31
0.0
  0
LINE
  5
4BD
330
2
100
AcDbEntity
  8
L-ZISSEN
100
AcDbLine
 10
274.7199999999997
 20
55.96396548971006
 30
0.0
 11
283.1500000000005
 21
55.96396548971006
 31
0.0
  0
LINE
  5
4BE
330
2
100
AcDbEntity
  8
L-ZISSEN
100
AcDbLine
 10
314.0624999999976
 20
66.30270440134109
 30
0.0
 11
314.0624999999976
 21
27.55270440134109
 31
0.0
  0
LINE
  5
4BF
330
2
100
AcDbEntity
  8
L-ZISSEN
100
AcDbLine
 10
313.1249999999976
 20
66.30270440134109
 30
0.0
 11
313.1249999999976
 21
41.92770440134109
 31
0.0
  0
LINE
  5
4C0
330
2
100
AcDbEntity
  8
L-ZISSEN
100
AcDbLine
 10
314.0624999999976
 20
66.30270440134109
 30
0.0
 11
314.0624999999976
 21
42.51342903420845
 31
0.0
  0
LINE
  5
4C1
330
2
100
AcDbEntity
  8
L-ZISSEN
100
AcDbLine
 10
299.9999999999999
 20
31.30270440134109
 30
0.0
 11
314.0624999999976
 21
35.05270440134109
 31
0.0
  0
LINE
  5
4C2
330
2
100
AcDbEntity
  8
L-ZISSEN
100
AcDbLine
 10
311.9144331348342
 20
36.36067889029664
 30
0.0
 11
299.9999999999999
 21
33.8663209158658
 31
0.0
  0
LINE
  5
4C3
330
2
100
AcDbEntity
  8
L-ZISSEN
100
AcDbLine
 10
299.9999999999999
 20
39.221532144114
 30
0.0
 11
311.9144331348342
 21
40.92359402051852
 31
0.0
  0
LINE
  5
4C4
330
2
100
AcDbEntity
  8
L-ZISSEN
100
AcDbLine
 10
299.9999999999999
 20
40.05270440134109
 30
0.0
 11
313.1249999999976
 21
41.92770440134109
 31
0.0
  0
LINE
  5
4C5
330
2
100
AcDbEntity
  8
L-ZISSEN
100
AcDbLine
 10
309.3749999999976
 20
33.80270440134109
 30
0.0
 11
309.3749999999976
 21
26.30270440134109
 31
0.0
  0
LINE
  5
4C6
330
2
100
AcDbEntity
  8
L-ZISSEN
100
AcDbLine
 10
299.9999999999999
 20
31.30270440134109
 30
0.0
 11
299.9999999999999
 21
33.8663209158658
 31
0.0
  0
LINE
  5
4C7
330
2
100
AcDbEntity
  8
L-ZISSEN
100
AcDbLine
 10
290.6249999999999
 20
33.802704401342
 30
0.0
 11
290.6249999999976
 21
26.30270440134109
 31
0.0
  0
ARC
  5
4C8
330
2
100
AcDbEntity
  8
L-ZISSEN
100
AcDbCircle
 10
299.9999999999999
 20
30.05270440134109
 30
0.0
 40
1.250000000000568
100
AcDbArc
 50
180.0
 51
0.0
  0
LINE
  5
4C9
330
2
100
AcDbEntity
  8
L-ZISSEN
100
AcDbLine
 10
298.7499999999976
 20
31.63603773467548
 30
0.0
 11
298.7499999999999
 21
30.05270440134109
 31
0.0
  0
LINE
  5
4CA
330
2
100
AcDbEntity
  8
L-ZISSEN
100
AcDbLine
 10
301.2499999999999
 20
31.63603773467503
 30
0.0
 11
301.2499999999999
 21
30.05270440134109
 31
0.0
  0
CIRCLE
  5
4CB
330
2
100
AcDbEntity
  8
L-ZISSEN
100
AcDbCircle
 10
299.9999999999999
 20
36.30624970016788
 30
0.0
 40
1.25
  0
LINE
  5
4CC
330
2
100
AcDbEntity
  8
L-TYUSIN
100
AcDbLine
 10
297.8132064374448
 20
36.30624970016788
 30
0.0
 11
302.0079864123567
 21
36.30624970016788
 31
0.0
  0
LINE
  5
4CD
330
2
100
AcDbEntity
  8
L-ZISSEN
100
AcDbLine
 10
299.9999999999999
 20
40.05270440134109
 30
0.0
 11
299.9999999999999
 21
39.221532144114
 31
0.0
  0
ARC
  5
4CE
330
2
100
AcDbEntity
  8
L-ZISSEN
100
AcDbCircle
 10
312.8124999999999
 20
27.55270440134109
 30
0.0
 40
1.249999999999715
100
AcDbArc
 50
270.0
 51
0.0
  0
LINE
  5
4CF
330
2
100
AcDbEntity
  8
L-ZISSEN
100
AcDbLine
 10
311.9144331348342
 20
40.92359402051852
 30
0.0
 11
311.9144331348342
 21
36.36067889029664
 31
0.0
  0
LINE
  5
4D0
330
2
100
AcDbEntity
  8
L-ZISSEN
100
AcDbLine
 10
314.0624999999976
 20
35.05270440134109
 30
0.0
 11
311.9144331348342
 21
36.36067889029664
 31
0.0
  0
LINE
  5
4D1
330
2
100
AcDbEntity
  8
L-ZISSEN
100
AcDbLine
 10
311.9144331348342
 20
40.92359402051852
 30
0.0
 11
313.1249999999976
 21
41.92770440134109
 31
0.0
  0
LINE
  5
4D2
330
2
100
AcDbEntity
  8
L-ZISSEN
100
AcDbLine
 10
311.9144331348342
 20
41.75476627774606
 30
0.0
 11
313.1249999999976
 21
41.92770440134109
 31
0.0
  0
LINE
  5
4D3
330
2
100
AcDbEntity
  8
L-ZISSEN
100
AcDbLine
 10
308.1249999999999
 20
61.302704401342
 30
0.0
 11
311.2499999999999
 21
59.427704401342
 31
0.0
  0
LINE
  5
4D4
330
2
100
AcDbEntity
  8
L-ZISSEN
100
AcDbLine
 10
308.1249999999999
 20
57.552704401342
 30
0.0
 11
311.2499999999999
 21
59.427704401342
 31
0.0
  0
LINE
  5
4D5
330
2
100
AcDbEntity
  8
L-ZISSEN
100
AcDbLine
 10
308.1249999999999
 20
58.802704401342
 30
0.0
 11
308.1249999999999
 21
57.552704401342
 31
0.0
  0
LINE
  5
4D6
330
2
100
AcDbEntity
  8
L-ZISSEN
100
AcDbLine
 10
291.8749999999999
 20
57.55270440134109
 30
0.0
 11
288.7499999999999
 21
59.42770440134109
 31
0.0
  0
LINE
  5
4D7
330
2
100
AcDbEntity
  8
L-ZISSEN
100
AcDbLine
 10
291.8749999999999
 20
58.80270440134109
 30
0.0
 11
291.8749999999999
 21
57.55270440134109
 31
0.0
  0
LINE
  5
4D8
330
2
100
AcDbEntity
  8
L-ZISSEN
100
AcDbLine
 10
301.2500000000022
 20
62.55270440134245
 30
0.0
 11
301.2500000000022
 21
52.55270440134245
 31
0.0
  0
LINE
  5
4D9
330
2
100
AcDbEntity
  8
L-ZISSEN
100
AcDbLine
 10
301.2500000000022
 20
62.55270440134245
 30
0.0
 11
301.2500000000022
 21
52.55270440134245
 31
0.0
  0
LINE
  5
4DA
330
2
100
AcDbEntity
  8
L-ZISSEN
100
AcDbLine
 10
298.7500000000022
 20
62.55270440134245
 30
0.0
 11
298.7500000000022
 21
52.55270440134245
 31
0.0
  0
LINE
  5
4DB
330
2
100
AcDbEntity
  8
L-ZISSEN
100
AcDbLine
 10
298.7500000000022
 20
62.55270440134245
 30
0.0
 11
298.7500000000022
 21
52.55270440134245
 31
0.0
  0
LINE
  5
4DC
330
2
100
AcDbEntity
  8
L-ZISSEN
100
AcDbLine
 10
296.2500000000022
 20
52.55270440134245
 30
0.0
 11
300.0000000000022
 21
46.30270440134245
 31
0.0
  0
LINE
  5
4DD
330
2
100
AcDbEntity
  8
L-ZISSEN
100
AcDbLine
 10
298.7500000000022
 20
52.55270440134245
 30
0.0
 11
296.2500000000022
 21
52.55270440134245
 31
0.0
  0
LINE
  5
4DE
330
2
100
AcDbEntity
  8
L-ZISSEN
100
AcDbLine
 10
303.7500000000022
 20
52.55270440134245
 30
0.0
 11
300.0000000000022
 21
46.30270440134245
 31
0.0
  0
LINE
  5
4DF
330
2
100
AcDbEntity
  8
L-ZISSEN
100
AcDbLine
 10
301.2500000000022
 20
52.55270440134245
 30
0.0
 11
303.7500000000022
 21
52.55270440134245
 31
0.0
  0
SOLID
  5
4E0
330
2
100
AcDbEntity
  8
L-ZISSEN
100
AcDbTrace
 10
298.1788713850077
 20
65.41130007177594
 30
0.0
 11
298.566414876488
 21
64.86884778202534
 31
0.0
 12
299.9999999999999
 22
66.30270440134132
 32
0.0
 13
299.9999999999999
 23
66.30270440134132
 33
0.0
  0
LINE
  5
4E1
330
2
100
AcDbEntity
  8
L-ZISSEN
100
AcDbLine
 10
301.2500000000022
 20
62.55270440134245
 30
0.0
 11
298.7500000000022
 21
62.55270440134245
 31
0.0
  0
LINE
  5
4E2
330
2
100
AcDbEntity
  8
L-ZISSEN
100
AcDbLine
 10
296.8749999999999
 20
58.80270440134109
 30
0.0
 11
291.8749999999999
 21
58.80270440134109
 31
0.0
  0
LINE
  5
4E3
330
2
100
AcDbEntity
  8
L-ZISSEN
100
AcDbLine
 10
296.8749999999999
 20
58.80270440134109
 30
0.0
 11
291.8749999999999
 21
58.80270440134109
 31
0.0
  0
LINE
  5
4E4
330
2
100
AcDbEntity
  8
L-ZISSEN
100
AcDbLine
 10
296.8749999999999
 20
60.05270440134109
 30
0.0
 11
291.8749999999999
 21
60.05270440134109
 31
0.0
  0
LINE
  5
4E5
330
2
100
AcDbEntity
  8
L-ZISSEN
100
AcDbLine
 10
296.8749999999999
 20
60.05270440134109
 30
0.0
 11
291.8749999999999
 21
60.05270440134109
 31
0.0
  0
LINE
  5
4E6
330
2
100
AcDbEntity
  8
L-ZISSEN
100
AcDbLine
 10
291.8749999999999
 20
61.30270440134109
 30
0.0
 11
288.7499999999999
 21
59.42770440134109
 31
0.0
  0
LINE
  5
4E7
330
2
100
AcDbEntity
  8
L-ZISSEN
100
AcDbLine
 10
291.8749999999999
 20
60.05270440134109
 30
0.0
 11
291.8749999999999
 21
61.30270440134109
 31
0.0
  0
LINE
  5
4E8
330
2
100
AcDbEntity
  8
L-ZISSEN
100
AcDbLine
 10
296.8749999999999
 20
60.05270440134109
 30
0.0
 11
296.8749999999999
 21
58.80270440134109
 31
0.0
  0
LINE
  5
4E9
330
2
100
AcDbEntity
  8
L-ZISSEN
100
AcDbLine
 10
303.1249999999999
 20
58.802704401342
 30
0.0
 11
308.1249999999999
 21
58.802704401342
 31
0.0
  0
LINE
  5
4EA
330
2
100
AcDbEntity
  8
L-ZISSEN
100
AcDbLine
 10
303.1249999999999
 20
58.802704401342
 30
0.0
 11
308.1249999999999
 21
58.802704401342
 31
0.0
  0
LINE
  5
4EB
330
2
100
AcDbEntity
  8
L-ZISSEN
100
AcDbLine
 10
303.1249999999999
 20
60.052704401342
 30
0.0
 11
308.1249999999999
 21
60.052704401342
 31
0.0
  0
LINE
  5
4EC
330
2
100
AcDbEntity
  8
L-ZISSEN
100
AcDbLine
 10
303.1249999999999
 20
60.052704401342
 30
0.0
 11
308.1249999999999
 21
60.052704401342
 31
0.0
  0
LINE
  5
4ED
330
2
100
AcDbEntity
  8
L-ZISSEN
100
AcDbLine
 10
303.1249999999999
 20
60.052704401342
 30
0.0
 11
303.1249999999999
 21
58.802704401342
 31
0.0
  0
LINE
  5
4EE
330
2
100
AcDbEntity
  8
L-ZISSEN
100
AcDbLine
 10
308.1249999999999
 20
60.052704401342
 30
0.0
 11
308.1249999999999
 21
61.302704401342
 31
0.0
  0
LINE
  5
4EF
330
2
100
AcDbEntity
  8
L-ZISSEN
100
AcDbLine
 10
325.2800000000001
 20
55.96396548971006
 30
0.0
 11
316.8499999999994
 21
55.96396548971006
 31
0.0
  0
LINE
  5
56A
330
2
100
AcDbEntity
  8
L-TYUSIN
100
AcDbLine
 10
380.1101026616807
 20
-34.47364475221644
 30
0.0
 11
380.1101026616807
 21
285.5263491535571
 31
0.0
  0
LINE
  5
56B
330
2
100
AcDbEntity
  8
L-ZISSEN
100
AcDbLine
 10
614.3659697231619
 20
137.1833386136239
 30
0.0
 11
612.650108721185
 21
57.93774528268466
 31
0.0
  0
ARC
  5
56C
330
2
100
AcDbEntity
  8
L-ZISSEN
100
AcDbCircle
 10
543.7775143490912
 20
62.90812512944092
 30
0.0
 40
2.312215931624567
100
AcDbArc
 50
100.2640683722043
 51
180.7783719766075
  0
LINE
  5
56D
330
2
100
AcDbEntity
  8
L-ZISSEN
100
AcDbLine
 10
552.8655117813136
 20
133.1833386136239
 30
0.0
 11
552.8655117813155
 21
56.18333861362396
 31
0.0
  0
LINE
  5
56E
330
2
100
AcDbEntity
  8
L-ZISSEN
 48
0.3
100
AcDbLine
 10
557.9632949768306
 20
56.18333861362396
 30
0.0
 11
557.9632949768306
 21
133.1833386136239
 31
0.0
  0
LINE
  5
56F
330
2
100
AcDbEntity
  8
L-ZISSEN
100
AcDbLine
 10
543.3655117813136
 20
133.1833386136239
 30
0.0
 11
543.3655117813154
 21
56.18333861362396
 31
0.0
  0
CIRCLE
  5
570
330
2
100
AcDbEntity
  8
L-ZISSEN
100
AcDbCircle
 10
435.1101026616807
 20
61.4333386136235
 30
0.0
 40
3.75
  0
LINE
  5
571
330
2
100
AcDbEntity
  8
L-ZISSEN
100
AcDbLine
 10
405.8542356001994
 20
137.1833386136239
 30
0.0
 11
407.5700966021763
 21
57.93774528268466
 31
0.0
  0
LINE
  5
572
330
2
100
AcDbEntity
  8
L-ZISSEN
100
AcDbLine
 10
426.3601026616806
 20
133.1833386136239
 30
0.0
 11
426.3601026616824
 21
56.18333861362396
 31
0.0
  0
LINE
  5
573
330
2
100
AcDbEntity
  8
L-ZISSEN
100
AcDbLine
 10
443.8601026616806
 20
133.1833386136239
 30
0.0
 11
443.8601026616825
 21
56.18333861362396
 31
0.0
  0
LINE
  5
574
330
2
100
AcDbEntity
  8
L-ZISSEN
100
AcDbLine
 10
464.3659697231619
 20
137.1833386136239
 30
0.0
 11
462.6501087211854
 21
57.93774528268466
 31
0.0
  0
LINE
  5
576
330
2
100
AcDbEntity
  8
L-ZISSEN
100
AcDbLine
 10
425.6749353934615
 20
47.18333861362305
 30
0.0
 11
416.7180753298644
 21
48.23224297955118
 31
0.0
  0
ARC
  5
579
330
2
100
AcDbEntity
  8
L-ZISSEN
100
AcDbCircle
 10
417.5667570104215
 20
58.19616486829989
 30
0.0
 40
10.0
100
AcDbArc
 50
181.0000000000278
 51
265.1315559371153
  0
LINE
  5
57A
330
2
100
AcDbEntity
  8
L-ZISSEN
100
AcDbLine
 10
425.6749353934619
 20
44.18333861362305
 30
0.0
 11
444.5452699298998
 21
44.18333861362305
 31
0.0
  0
LINE
  5
57B
330
2
100
AcDbEntity
  8
L-ZISSEN
100
AcDbLine
 10
425.6749353934615
 20
47.18333861362305
 30
0.0
 11
444.5452699298998
 21
47.18333861362305
 31
0.0
  0
LINE
  5
57C
330
2
100
AcDbEntity
  8
L-ZISSEN
100
AcDbLine
 10
426.3601026616806
 20
56.18333861362396
 30
0.0
 11
443.8601026616806
 21
56.18333861362351
 31
0.0
  0
LINE
  5
57D
330
2
100
AcDbEntity
  8
L-ZISSEN
100
AcDbLine
 10
442.6101026616809
 20
42.18333861362305
 30
0.0
 11
427.6101026616808
 21
42.18333861362305
 31
0.0
  0
LINE
  5
57E
330
2
100
AcDbEntity
  8
L-ZISSEN
100
AcDbLine
 10
427.6101026616808
 20
42.18333861362305
 30
0.0
 11
427.6101026616808
 21
44.18333861362305
 31
0.0
  0
LINE
  5
57F
330
2
100
AcDbEntity
  8
L-ZISSEN
100
AcDbLine
 10
425.6749353934615
 20
47.18333861362305
 30
0.0
 11
425.6749353934618
 21
44.18333861362305
 31
0.0
  0
LINE
  5
580
330
2
100
AcDbEntity
  8
L-ZISSEN
100
AcDbLine
 10
435.1101026616809
 20
42.18333861362305
 30
0.0
 11
435.1101026616809
 21
44.18333861362305
 31
0.0
  0
LINE
  5
581
330
2
100
AcDbEntity
  8
L-ZISSEN
100
AcDbLine
 10
442.6101026616809
 20
42.18333861362305
 30
0.0
 11
442.610102661681
 21
44.18333861362305
 31
0.0
  0
LINE
  5
582
330
2
100
AcDbEntity
  8
L-TYUSIN
100
AcDbLine
 10
441.3601026616807
 20
61.4333386136235
 30
0.0
 11
428.8601026616807
 21
61.4333386136235
 31
0.0
  0
POLYLINE
  5
583
330
2
100
AcDbEntity
  8
L-ZISSEN
100
AcDb2dPolyline
 66
     1
 10
0.0
 20
0.0
 30
0.0
 70
     1
  0
VERTEX
  5
7ED
330
583
100
AcDbEntity
  8
L-ZISSEN
100
AcDbVertex
100
AcDb2dVertex
 10
433.8601026616807
 20
62.15502645011054
 30
0.0
  0
VERTEX
  5
7EE
330
583
100
AcDbEntity
  8
L-ZISSEN
100
AcDbVertex
100
AcDb2dVertex
 10
435.1101026616807
 20
62.87671428659757
 30
0.0
  0
VERTEX
  5
7EF
330
583
100
AcDbEntity
  8
L-ZISSEN
100
AcDbVertex
100
AcDb2dVertex
 10
436.3601026616806
 20
62.15502645011054
 30
0.0
  0
VERTEX
  5
7F0
330
583
100
AcDbEntity
  8
L-ZISSEN
100
AcDbVertex
100
AcDb2dVertex
 10
436.3601026616806
 20
60.71165077713647
 30
0.0
  0
VERTEX
  5
7F1
330
583
100
AcDbEntity
  8
L-ZISSEN
100
AcDbVertex
100
AcDb2dVertex
 10
435.1101026616807
 20
59.98996294064943
 30
0.0
  0
VERTEX
  5
7F2
330
583
100
AcDbEntity
  8
L-ZISSEN
100
AcDbVertex
100
AcDb2dVertex
 10
433.8601026616807
 20
60.71165077713647
 30
0.0
  0
SEQEND
  5
7F3
330
583
100
AcDbEntity
  8
L-ZISSEN
  0
ARC
  5
584
330
2
100
AcDbEntity
  8
L-ZISSEN
100
AcDbCircle
 10
452.6534483129402
 20
58.19616486829989
 30
0.0
 40
10.0
100
AcDbArc
 50
274.8684440628815
 51
358.9999999999721
  0
LINE
  5
585
330
2
100
AcDbEntity
  8
L-ZISSEN
100
AcDbLine
 10
444.5452699298998
 20
47.18333861362305
 30
0.0
 11
453.5021299934974
 21
48.23224297955118
 31
0.0
  0
LINE
  5
586
330
2
100
AcDbEntity
  8
L-ZISSEN
100
AcDbLine
 10
444.5452699298998
 20
47.18333861362305
 30
0.0
 11
444.5452699298998
 21
44.18333861362305
 31
0.0
  0
LINE
  5
587
330
2
100
AcDbEntity
  8
L-ZISSEN
100
AcDbLine
 10
594.5452699298998
 20
47.18333861362305
 30
0.0
 11
603.5021299934974
 21
48.23224297955118
 31
0.0
  0
LINE
  5
588
330
2
100
AcDbEntity
  8
L-TYUSIN
100
AcDbLine
 10
559.5063874905304
 20
61.18333861362396
 30
0.0
 11
536.465511781314
 21
61.18333861362396
 31
0.0
  0
LINE
  5
589
330
2
100
AcDbEntity
  8
L-ZISSEN
100
AcDbLine
 10
552.8655117813155
 20
56.18333861362396
 30
0.0
 11
556.6632949768304
 21
56.18333861362396
 31
0.0
  0
ARC
  5
58A
330
2
100
AcDbEntity
  8
L-ZISSEN
100
AcDbCircle
 10
543.7775143490912
 20
59.95855209780518
 30
0.0
 40
2.312215931624567
100
AcDbArc
 50
179.2216280233924
 51
259.7359316277957
  0
LINE
  5
58B
330
2
100
AcDbEntity
  8
L-ZISSEN
100
AcDbLine
 10
541.465511781314
 20
59.98996294064943
 30
0.0
 11
541.465511781314
 21
62.87671428659712
 31
0.0
  0
LINE
  5
58C
330
2
100
AcDbEntity
  8
L-ZISSEN
100
AcDbLine
 10
543.3655117813136
 20
56.18333861362396
 30
0.0
 11
552.8655117813136
 21
56.18333861362351
 31
0.0
  0
LINE
  5
58D
330
2
100
AcDbEntity
  8
L-ZISSEN
100
AcDbLine
 10
575.6749353934615
 20
47.18333861362305
 30
0.0
 11
566.7180753298639
 21
48.23224297955118
 31
0.0
  0
ARC
  5
58E
330
2
100
AcDbEntity
  8
L-ZISSEN
100
AcDbCircle
 10
567.566757010421
 20
58.19616486829989
 30
0.0
 40
10.0
100
AcDbArc
 50
191.6119735011067
 51
265.1315559371153
  0
LINE
  5
58F
330
2
100
AcDbEntity
  8
L-ZISSEN
 48
0.3
100
AcDbLine
 10
556.6632949768304
 20
56.18333861362396
 30
0.0
 11
557.9632949768306
 21
56.18333861362396
 31
0.0
  0
LINE
  5
590
330
2
100
AcDbEntity
  8
L-ZISSEN
100
AcDbLine
 10
593.7703566995257
 20
42.18333861362282
 30
0.0
 11
576.4498486238369
 21
42.18333861362282
 31
0.0
  0
LINE
  5
591
330
2
100
AcDbEntity
  8
L-ZISSEN
100
AcDbLine
 10
575.6749353934629
 20
44.18333861362305
 30
0.0
 11
594.5452699298998
 21
44.18333861362305
 31
0.0
  0
LINE
  5
592
330
2
100
AcDbEntity
  8
L-ZISSEN
100
AcDbLine
 10
575.6749353934623
 20
47.18333861362305
 30
0.0
 11
594.5452699298998
 21
47.18333861362305
 31
0.0
  0
LINE
  5
593
330
2
100
AcDbEntity
  8
L-ZISSEN
100
AcDbLine
 10
580.7799756427591
 20
42.18333861362282
 30
0.0
 11
580.7799756427591
 21
44.18333861362282
 31
0.0
  0
LINE
  5
594
330
2
100
AcDbEntity
  8
L-ZISSEN
100
AcDbLine
 10
576.4498486238369
 20
42.18333861362282
 30
0.0
 11
576.4498486238369
 21
44.18333861362282
 31
0.0
  0
LINE
  5
595
330
2
100
AcDbEntity
  8
L-ZISSEN
100
AcDbLine
 10
575.6749353934623
 20
47.18333861362305
 30
0.0
 11
575.6749353934627
 21
44.18333861362305
 31
0.0
  0
LINE
  5
596
330
2
100
AcDbEntity
  8
L-ZISSEN
100
AcDbLine
 10
589.4402296806036
 20
42.18333861362282
 30
0.0
 11
589.4402296806036
 21
44.18333861362282
 31
0.0
  0
LINE
  5
597
330
2
100
AcDbEntity
  8
L-ZISSEN
100
AcDbLine
 10
593.7703566995257
 20
42.18333861362282
 30
0.0
 11
593.7703566995257
 21
44.18333861362282
 31
0.0
  0
LINE
  5
598
330
2
100
AcDbEntity
  8
L-ZISSEN
100
AcDbLine
 10
594.5452699298998
 20
47.18333861362305
 30
0.0
 11
594.5452699298995
 21
44.18333861362305
 31
0.0
  0
ARC
  5
599
330
2
100
AcDbEntity
  8
L-ZISSEN
100
AcDbCircle
 10
602.6534483129402
 20
58.19616486829989
 30
0.0
 40
10.0
100
AcDbArc
 50
274.8684440628815
 51
358.9999999999721
  0
LINE
  5
59A
330
2
100
AcDbEntity
  8
L-ZISSEN
100
AcDbLine
 10
433.5736601024857
 20
151.9626879132478
 30
0.0
 11
420.1101026616806
 21
163.1823191139186
 31
0.0
  0
LINE
  5
59B
330
2
100
AcDbEntity
  8
L-ZISSEN
100
AcDbLine
 10
416.6101026616811
 20
137.1833386136248
 30
0.0
 11
431.3601026616806
 21
137.1833386136248
 31
0.0
  0
LINE
  5
59C
330
2
100
AcDbEntity
  8
L-ZISSEN
100
AcDbLine
 10
416.6101026616811
 20
147.183338613623
 30
0.0
 11
416.6101026616811
 21
137.1833386136239
 31
0.0
  0
LINE
  5
59D
330
2
100
AcDbEntity
  8
L-ZISSEN
100
AcDbLine
 10
404.9067317266467
 20
150.6823191139186
 30
0.0
 11
405.1541180614536
 21
137.1833386136239
 31
0.0
  0
LINE
  5
59E
330
2
100
AcDbEntity
  8
L-ZISSEN
100
AcDbLine
 10
408.6101026616811
 20
147.183338613623
 30
0.0
 11
408.6101026616811
 21
137.1833386136239
 31
0.0
  0
LINE
  5
59F
330
2
100
AcDbEntity
  8
L-ZISSEN
100
AcDbLine
 10
405.1541180614536
 20
137.1833386136239
 30
0.0
 11
408.6101026616811
 21
137.1833386136239
 31
0.0
  0
LINE
  5
5A0
330
2
100
AcDbEntity
  8
L-ZISSEN
100
AcDbLine
 10
408.6101026616811
 20
147.183338613623
 30
0.0
 11
416.6101026616811
 21
147.183338613623
 31
0.0
  0
TEXT
  5
5A1
330
2
100
AcDbEntity
  8
L-ZISSEN
100
AcDbText
 10
407.1101026616807
 20
160.9323191139186
 30
0.0
 40
4.5
  1
P.P
100
AcDbText
  0
LINE
  5
5A2
330
2
100
AcDbEntity
  8
L-ZISSEN
100
AcDbLine
 10
420.1101026616806
 20
163.1823191139186
 30
0.0
 11
418.1101026616806
 21
163.1823191139186
 31
0.0
  0
ARC
  5
5A3
330
2
100
AcDbEntity
  8
L-ZISSEN
100
AcDbCircle
 10
465.9460492531689
 20
116.5833386136245
 30
0.0
 40
2.368181818181991
100
AcDbArc
 50
302.3784125140463
 51
57.62158748595358
  0
LINE
  5
5A4
330
2
100
AcDbEntity
  8
L-ZISSEN
100
AcDbLine
 10
466.7142310713507
 20
110.0833386136236
 30
0.0
 11
466.7142310713516
 21
133.4022940298835
 31
0.0
  0
LINE
  5
5A5
330
2
100
AcDbEntity
  8
L-ZISSEN
100
AcDbLine
 10
432.6101026616806
 20
67.68333861362396
 30
0.0
 11
432.6101026616806
 21
121.6833386136239
 31
0.0
  0
LINE
  5
5A6
330
2
100
AcDbEntity
  8
L-ZISSEN
100
AcDbLine
 10
437.6101026616806
 20
121.6833386136239
 30
0.0
 11
437.6101026616806
 21
67.68333861362396
 31
0.0
  0
LINE
  5
5A7
330
2
100
AcDbEntity
  8
L-ZISSEN
100
AcDbLine
 10
463.7142310713507
 20
107.0833386136245
 30
0.0
 11
466.7142310713507
 21
110.0833386136236
 31
0.0
  0
LINE
  5
5A8
330
2
100
AcDbEntity
  8
L-ZISSEN
100
AcDbLine
 10
437.6101026616806
 20
67.68333861362396
 30
0.0
 11
432.6101026616806
 21
67.68333861362396
 31
0.0
  0
LINE
  5
5A9
330
2
100
AcDbEntity
  8
L-ZISSEN
100
AcDbLine
 10
466.7142310713511
 20
114.5833386136245
 30
0.0
 11
467.2142310713511
 21
114.5833386136245
 31
0.0
  0
LINE
  5
5AA
330
2
100
AcDbEntity
  8
L-ZISSEN
100
AcDbLine
 10
466.7142310713511
 20
126.8833386136242
 30
0.0
 11
464.5846900898841
 21
126.8833386136246
 31
0.0
  0
LINE
  5
5AB
330
2
100
AcDbEntity
  8
L-ZISSEN
100
AcDbLine
 10
467.2021187570448
 20
137.1833386136248
 30
0.0
 11
464.5393791554766
 21
137.1833386136248
 31
0.0
  0
LINE
  5
5AC
330
2
100
AcDbEntity
  8
L-ZISSEN
100
AcDbLine
 10
464.0173653280071
 20
121.0833386136231
 30
0.0
 11
466.7142310713516
 21
121.0833386136231
 31
0.0
  0
LINE
  5
5AD
330
2
100
AcDbEntity
  8
L-ZISSEN
100
AcDbLine
 10
459.1214570999386
 20
147.183338613623
 30
0.0
 11
459.1214570999386
 21
137.1833386136257
 31
0.0
  0
LINE
  5
5AE
330
2
100
AcDbEntity
  8
L-ZISSEN
100
AcDbLine
 10
453.6101026616811
 20
147.1833386136248
 30
0.0
 11
453.6101026616811
 21
137.1833386136257
 31
0.0
  0
LINE
  5
5AF
330
2
100
AcDbEntity
  8
L-ZISSEN
100
AcDbLine
 10
438.8601026616802
 20
147.1833386136235
 30
0.0
 11
438.8601026616802
 21
137.1833386136248
 31
0.0
  0
LINE
  5
5B0
330
2
100
AcDbEntity
  8
L-ZISSEN
100
AcDbLine
 10
431.3601026616806
 20
147.1833386136235
 30
0.0
 11
431.3601026616806
 21
137.1833386136248
 31
0.0
  0
LINE
  5
5B1
330
2
100
AcDbEntity
  8
L-ZISSEN
100
AcDbLine
 10
426.3601026616806
 20
133.1833386136239
 30
0.0
 11
443.8601026616806
 21
133.1833386136244
 31
0.0
  0
LINE
  5
5B2
330
2
100
AcDbEntity
  8
L-ZISSEN
100
AcDbLine
 10
453.6101026616811
 20
137.1833386136257
 30
0.0
 11
438.8601026616802
 21
137.1833386136239
 31
0.0
  0
POLYLINE
  5
5B3
330
2
100
AcDbEntity
  8
L-ZISSEN
100
AcDb2dPolyline
 66
     1
 10
0.0
 20
0.0
 30
0.0
 70
     1
  0
VERTEX
  5
7F4
330
5B3
100
AcDbEntity
  8
L-ZISSEN
100
AcDbVertex
100
AcDb2dVertex
 10
433.8601026616807
 20
127.2116507771373
 30
0.0
  0
VERTEX
  5
7F5
330
5B3
100
AcDbEntity
  8
L-ZISSEN
100
AcDbVertex
100
AcDb2dVertex
 10
435.1101026616807
 20
126.4899629406503
 30
0.0
  0
VERTEX
  5
7F6
330
5B3
100
AcDbEntity
  8
L-ZISSEN
100
AcDbVertex
100
AcDb2dVertex
 10
436.3601026616806
 20
127.2116507771373
 30
0.0
  0
VERTEX
  5
7F7
330
5B3
100
AcDbEntity
  8
L-ZISSEN
100
AcDbVertex
100
AcDb2dVertex
 10
436.3601026616806
 20
128.6550264501114
 30
0.0
  0
VERTEX
  5
7F8
330
5B3
100
AcDbEntity
  8
L-ZISSEN
100
AcDbVertex
100
AcDb2dVertex
 10
435.1101026616807
 20
129.3767142865984
 30
0.0
  0
VERTEX
  5
7F9
330
5B3
100
AcDbEntity
  8
L-ZISSEN
100
AcDbVertex
100
AcDb2dVertex
 10
433.8601026616807
 20
128.6550264501114
 30
0.0
  0
SEQEND
  5
7FA
330
5B3
100
AcDbEntity
  8
L-ZISSEN
  0
CIRCLE
  5
5B4
330
2
100
AcDbEntity
  8
L-ZISSEN
100
AcDbCircle
 10
435.1101026616807
 20
127.9333386136244
 30
0.0
 40
3.75
  0
LINE
  5
5B5
330
2
100
AcDbEntity
  8
L-TYUSIN
100
AcDbLine
 10
441.3601026616807
 20
127.9333386136244
 30
0.0
 11
428.8601026616807
 21
127.9333386136244
 31
0.0
  0
LINE
  5
5B6
330
2
100
AcDbEntity
  8
L-ZISSEN
100
AcDbLine
 10
432.6101026616806
 20
121.6833386136239
 30
0.0
 11
437.6101026616806
 21
121.6833386136239
 31
0.0
  0
LINE
  5
5B7
330
2
100
AcDbEntity
  8
L-ZISSEN
100
AcDbLine
 10
464.5846900898841
 20
126.8833386136242
 30
0.0
 11
464.5846900898841
 21
137.1833386136239
 31
0.0
  0
LINE
  5
5B8
330
2
100
AcDbEntity
  8
L-ZISSEN
100
AcDbLine
 10
464.5846900898832
 20
128.1658022185546
 30
0.0
 11
464.5846900898841
 21
137.1833386136239
 31
0.0
  0
LINE
  5
5B9
330
2
100
AcDbEntity
  8
L-ZISSEN
100
AcDbLine
 10
459.1214570999386
 20
137.1833386136257
 30
0.0
 11
464.3659697231619
 21
137.1833386136257
 31
0.0
  0
LINE
  5
5BA
330
2
100
AcDbEntity
  8
L-ZISSEN
100
AcDbLine
 10
464.3659697231619
 20
137.1833386136239
 30
0.0
 11
465.0660872619077
 21
137.1833386136239
 31
0.0
  0
LINE
  5
5BB
330
2
100
AcDbEntity
  8
L-ZISSEN
100
AcDbLine
 10
438.8601026616806
 20
147.1833386136235
 30
0.0
 11
431.3601026616806
 21
147.1833386136235
 31
0.0
  0
SOLID
  5
5BC
330
2
100
AcDbEntity
  8
L-ZISSEN
100
AcDbTrace
 10
433.3602653025978
 20
151.7066141533818
 30
0.0
 11
433.7870549023739
 21
152.2187616731133
 31
0.0
 12
435.1101026616807
 22
150.6823191139186
 32
0.0
 13
435.1101026616807
 23
150.6823191139186
 33
0.0
  0
LINE
  5
5BD
330
2
100
AcDbEntity
  8
L-ZISSEN
100
AcDbLine
 10
453.6101026616802
 20
147.1833386136248
 30
0.0
 11
459.1214570999386
 21
147.183338613623
 31
0.0
  0
LINE
  5
5BE
330
2
100
AcDbEntity
  8
L-ZISSEN
100
AcDbLine
 10
467.2021187570448
 20
145.683338613623
 30
0.0
 11
467.2021187570448
 21
137.1833386136248
 31
0.0
  0
LINE
  5
5BF
330
2
100
AcDbEntity
  8
L-ZISSEN
100
AcDbLine
 10
468.9142310713513
 20
150.3833386136242
 30
0.0
 11
468.9142310713513
 21
130.9186851022281
 31
0.0
  0
LINE
  5
5C0
330
2
100
AcDbEntity
  8
L-ZISSEN
100
AcDbLine
 10
465.1796171228593
 20
145.683338613623
 30
0.0
 11
465.1796171228593
 21
137.1833386136248
 31
0.0
  0
LINE
  5
5C1
330
2
100
AcDbEntity
  8
L-ZISSEN
100
AcDbLine
 10
474.7142310713512
 20
130.3078867098528
 30
0.0
 11
474.7142310713512
 21
126.023717727255
 31
0.0
  0
LINE
  5
5C2
330
2
100
AcDbEntity
  8
L-ZISSEN
100
AcDbLine
 10
466.7142310713511
 20
124.0833386136245
 30
0.0
 11
466.7142310713511
 21
137.1833386136253
 31
0.0
  0
LINE
  5
5C3
330
2
100
AcDbEntity
  8
L-ZISSEN
100
AcDbLine
 10
465.5142310713513
 20
121.0833386136231
 30
0.0
 11
465.5142310713513
 21
126.8833386136246
 31
0.0
  0
LINE
  5
5C4
330
2
100
AcDbEntity
  8
L-ZISSEN
100
AcDbLine
 10
466.7142310713511
 20
118.5833386136245
 30
0.0
 11
467.2142310713511
 21
118.5833386136245
 31
0.0
  0
LINE
  5
5C5
330
2
100
AcDbEntity
  8
L-ZISSEN
100
AcDbLine
 10
474.7142310713512
 20
126.023717727255
 30
0.0
 11
466.7142310713511
 21
124.0833386136245
 31
0.0
  0
LINE
  5
5C6
330
2
100
AcDbEntity
  8
L-ZISSEN
100
AcDbLine
 10
468.9142310713513
 20
130.9186851022281
 30
0.0
 11
474.7142310713512
 21
130.3078867098528
 31
0.0
  0
LINE
  5
5C7
330
2
100
AcDbEntity
  8
L-ZISSEN
100
AcDbLine
 10
466.7142310713511
 20
145.683338613623
 30
0.0
 11
466.7142310713511
 21
150.3833386136246
 31
0.0
  0
LINE
  5
5C8
330
2
100
AcDbEntity
  8
L-ZISSEN
100
AcDbLine
 10
467.2021187570448
 20
145.683338613623
 30
0.0
 11
465.1796171228593
 21
145.683338613623
 31
0.0
  0
LINE
  5
5C9
330
2
100
AcDbEntity
  8
L-ZISSEN
100
AcDbLine
 10
468.9142310713513
 20
150.3833386136242
 30
0.0
 11
466.7142310713511
 21
150.3833386136242
 31
0.0
  0
LINE
  5
5CA
330
2
100
AcDbEntity
  8
L-ZISSEN
100
AcDbLine
 10
466.7142310713511
 20
150.6823191139186
 30
0.0
 11
466.7142310713511
 21
150.3833386136246
 31
0.0
  0
TEXT
  5
5CB
330
2
100
AcDbEntity
  8
L-ZISSEN
100
AcDbText
 10
402.0190189629102
 20
201.8070075661497
 30
0.0
 40
4.5
  1
MODEL NO. L64-600-*2**
100
AcDbText
  0
LINE
  5
5CE
330
2
100
AcDbEntity
  8
L-ZISSEN
100
AcDbLine
 10
603.6101026616811
 20
137.1833386136257
 30
0.0
 11
596.6101026616811
 21
137.1833386136248
 31
0.0
  0
LINE
  5
5CF
330
2
100
AcDbEntity
  8
L-ZISSEN
100
AcDbLine
 10
594.7101026616805
 20
121.0833386136245
 30
0.0
 11
594.7101026616805
 21
110.0833386136236
 31
0.0
  0
LINE
  5
5D0
330
2
100
AcDbEntity
  8
L-ZISSEN
100
AcDbLine
 10
595.1101026616811
 20
121.0833386136245
 30
0.0
 11
595.1101026616811
 21
107.0833386136245
 31
0.0
  0
LINE
  5
5D1
330
2
100
AcDbEntity
  8
L-ZISSEN
100
AcDbLine
 10
592.7101026616806
 20
126.1100052802911
 30
0.0
 11
592.7101026616806
 21
112.0833386136245
 31
0.0
  0
LINE
  5
5D2
330
2
100
AcDbEntity
  8
L-TYUSIN
100
AcDbLine
 10
589.3601026616811
 20
119.8333386136245
 30
0.0
 11
589.3601026616811
 21
113.3333386136245
 31
0.0
  0
CIRCLE
  5
5D3
330
2
100
AcDbEntity
  8
L-ZISSEN
100
AcDbCircle
 10
589.3601026616811
 20
116.5833386136245
 30
0.0
 40
2.0
  0
LINE
  5
5D4
330
2
100
AcDbEntity
  8
L-ZISSEN
100
AcDbLine
 10
575.1101026616802
 20
121.0833386136245
 30
0.0
 11
575.1101026616802
 21
107.0833386136245
 31
0.0
  0
LINE
  5
5D5
330
2
100
AcDbEntity
  8
L-TYUSIN
100
AcDbLine
 10
580.8601026616802
 20
119.8333386136245
 30
0.0
 11
580.8601026616802
 21
113.3333386136245
 31
0.0
  0
LINE
  5
5D6
330
2
100
AcDbEntity
  8
L-ZISSEN
100
AcDbLine
 10
575.5101026616798
 20
121.0833386136245
 30
0.0
 11
575.5101026616808
 21
110.0833386136245
 31
0.0
  0
LINE
  5
5D7
330
2
100
AcDbEntity
  8
L-ZISSEN
100
AcDbLine
 10
577.5101026616803
 20
126.1100052802902
 30
0.0
 11
577.5101026616807
 21
112.0833386136245
 31
0.0
  0
CIRCLE
  5
5D8
330
2
100
AcDbEntity
  8
L-ZISSEN
100
AcDbCircle
 10
580.8601026616802
 20
116.5833386136245
 30
0.0
 40
2.0
  0
LINE
  5
5D9
330
2
100
AcDbEntity
  8
L-ZISSEN
100
AcDbLine
 10
575.5101026616808
 20
110.0833386136236
 30
0.0
 11
594.7101026616805
 21
110.0833386136236
 31
0.0
  0
LINE
  5
5DA
330
2
100
AcDbEntity
  8
L-ZISSEN
100
AcDbLine
 10
575.1101026616802
 20
107.0833386136245
 30
0.0
 11
595.1101026616802
 21
107.0833386136245
 31
0.0
  0
LINE
  5
5DB
330
2
100
AcDbEntity
  8
L-ZISSEN
100
AcDbLine
 10
575.5101026616808
 20
110.0833386136245
 30
0.0
 11
575.1101026616802
 21
107.0833386136245
 31
0.0
  0
LINE
  5
5DC
330
2
100
AcDbEntity
  8
L-ZISSEN
100
AcDbLine
 10
577.5101026616807
 20
112.0833386136245
 30
0.0
 11
592.7101026616806
 21
112.0833386136245
 31
0.0
  0
LINE
  5
5DD
330
2
100
AcDbEntity
  8
L-ZISSEN
100
AcDbLine
 10
577.5101026616807
 20
113.0833386136245
 30
0.0
 11
592.7101026616806
 21
113.0833386136245
 31
0.0
  0
LINE
  5
5DE
330
2
100
AcDbEntity
  8
L-ZISSEN
100
AcDbLine
 10
594.7101026616805
 20
110.0833386136236
 30
0.0
 11
595.1101026616811
 21
107.0833386136245
 31
0.0
  0
LINE
  5
5DF
330
2
100
AcDbEntity
  8
L-TYUSIN
100
AcDbLine
 10
536.465511781314
 20
128.1833386136234
 30
0.0
 11
560.9871864909641
 21
128.1833386136239
 31
0.0
  0
LINE
  5
5E0
330
2
100
AcDbEntity
  8
L-ZISSEN
100
AcDbLine
 10
551.1541180614536
 20
133.1833386136239
 30
0.0
 11
554.6101026616811
 21
133.1833386136239
 31
0.0
  0
LINE
  5
5E1
330
2
100
AcDbEntity
  8
L-ZISSEN
100
AcDbLine
 10
552.8655117813136
 20
133.1833386136239
 30
0.0
 11
555.9656293200601
 21
133.1833386136239
 31
0.0
  0
LINE
  5
5E2
330
2
100
AcDbEntity
  8
L-ZISSEN
100
AcDbLine
 10
541.465511781314
 20
129.376714286598
 30
0.0
 11
541.465511781314
 21
126.4899629406498
 31
0.0
  0
ARC
  5
5E3
330
2
100
AcDbEntity
  8
L-ZISSEN
100
AcDbCircle
 10
543.7775143490912
 20
126.458552097806
 30
0.0
 40
2.312215931624567
100
AcDbArc
 50
179.2216280233924
 51
259.7359316277957
  0
ARC
  5
5E4
330
2
100
AcDbEntity
  8
L-ZISSEN
100
AcDbCircle
 10
543.7775143490912
 20
129.4081251294418
 30
0.0
 40
2.312215931624567
100
AcDbArc
 50
100.2640683722043
 51
180.7783719766075
  0
LINE
  5
5E5
330
2
100
AcDbEntity
  8
L-ZISSEN
100
AcDbLine
 10
543.3655117813136
 20
133.1833386136239
 30
0.0
 11
552.8655117813136
 21
133.1833386136239
 31
0.0
  0
LINE
  5
5E6
330
2
100
AcDbEntity
  8
L-ZISSEN
100
AcDbLine
 10
596.1101026616802
 20
150.3833386136242
 30
0.0
 11
596.1101026616802
 21
121.5833386136236
 31
0.0
  0
LINE
  5
5E7
330
2
100
AcDbEntity
  8
L-ZISSEN
100
AcDbLine
 10
595.9072901616787
 20
150.3833386136242
 30
0.0
 11
595.9072901616787
 21
126.9625886136244
 31
0.0
  0
LINE
  5
5E8
330
2
100
AcDbEntity
  8
L-ZISSEN
100
AcDbLine
 10
595.1874776616786
 20
150.3833386136242
 30
0.0
 11
595.1874776616786
 21
132.2412136136243
 31
0.0
  0
LINE
  5
5E9
330
2
100
AcDbEntity
  8
L-ZISSEN
100
AcDbLine
 10
597.4101026616813
 20
145.683338613623
 30
0.0
 11
597.4101026616803
 21
137.1833386136248
 31
0.0
  0
LINE
  5
5EA
330
2
100
AcDbEntity
  8
L-ZISSEN
100
AcDbLine
 10
584.150352661682
 20
148.077088613625
 30
0.0
 11
584.150352661682
 21
140.3990886136251
 31
0.0
  0
LINE
  5
5EB
330
2
100
AcDbEntity
  8
L-ZISSEN
100
AcDbLine
 10
584.150352661682
 20
148.077088613625
 30
0.0
 11
584.150352661682
 21
140.3990886136251
 31
0.0
  0
LINE
  5
5EC
330
2
100
AcDbEntity
  8
L-ZISSEN
100
AcDbLine
 10
586.069852661682
 20
148.077088613625
 30
0.0
 11
586.069852661682
 21
140.3990886136251
 31
0.0
  0
LINE
  5
5ED
330
2
100
AcDbEntity
  8
L-ZISSEN
100
AcDbLine
 10
586.069852661682
 20
148.077088613625
 30
0.0
 11
586.069852661682
 21
140.3990886136251
 31
0.0
  0
LINE
  5
5EE
330
2
100
AcDbEntity
  8
L-ZISSEN
100
AcDbLine
 10
574.312915161679
 20
150.3833386136242
 30
0.0
 11
574.3129151616785
 21
126.9625886136244
 31
0.0
  0
LINE
  5
5EF
330
2
100
AcDbEntity
  8
L-ZISSEN
100
AcDbLine
 10
575.0327276616785
 20
150.3833386136242
 30
0.0
 11
575.0327276616785
 21
132.2412136136243
 31
0.0
  0
LINE
  5
5F0
330
2
100
AcDbEntity
  8
L-ZISSEN
100
AcDbLine
 10
574.1101026616802
 20
150.3833386136242
 30
0.0
 11
574.1101026616802
 21
121.5833386136236
 31
0.0
  0
LINE
  5
5F1
330
2
100
AcDbEntity
  8
L-ZISSEN
100
AcDbLine
 10
572.8101026616809
 20
145.683338613623
 30
0.0
 11
572.8101026616809
 21
137.1833386136248
 31
0.0
  0
LINE
  5
5F2
330
2
100
AcDbEntity
  8
L-ZISSEN
100
AcDbLine
 10
566.6101026616811
 20
147.183338613623
 30
0.0
 11
566.6101026616811
 21
137.1833386136239
 31
0.0
  0
LINE
  5
5F3
330
2
100
AcDbEntity
  8
L-ZISSEN
100
AcDbLine
 10
554.9067317266467
 20
150.6823191139182
 30
0.0
 11
555.1541180614536
 21
137.1833386136239
 31
0.0
  0
LINE
  5
5F4
330
2
100
AcDbEntity
  8
L-ZISSEN
100
AcDbLine
 10
558.6101026616811
 20
147.183338613623
 30
0.0
 11
558.6101026616811
 21
137.1833386136239
 31
0.0
  0
LINE
  5
5F5
330
2
100
AcDbEntity
  8
L-ZISSEN
100
AcDbLine
 10
574.6101026616802
 20
121.0833386136235
 30
0.0
 11
577.5101026616803
 21
121.0833386136231
 31
0.0
  0
LINE
  5
5F6
330
2
100
AcDbEntity
  8
L-ZISSEN
100
AcDbLine
 10
574.3129151616785
 20
126.9625886136244
 30
0.0
 11
575.9622009007548
 21
127.9668514262442
 31
0.0
  0
LINE
  5
5F7
330
2
100
AcDbEntity
  8
L-ZISSEN
100
AcDbLine
 10
575.9622009007548
 20
132.1084317223279
 30
0.0
 11
575.0327276616785
 21
132.2412136136243
 31
0.0
  0
LINE
  5
5F8
330
2
100
AcDbEntity
  8
L-ZISSEN
100
AcDbLine
 10
575.9622009007548
 20
131.4702576632288
 30
0.0
 11
575.0327276616785
 21
132.2412136136243
 31
0.0
  0
LINE
  5
5F9
330
2
100
AcDbEntity
  8
L-ZISSEN
100
AcDbLine
 10
585.1101026616807
 20
124.0833386136245
 30
0.0
 11
574.3129151616785
 21
126.9625886136244
 31
0.0
  0
LINE
  5
5FA
330
2
100
AcDbEntity
  8
L-ZISSEN
100
AcDbLine
 10
585.1101026616807
 20
130.8015886136244
 30
0.0
 11
575.0327276616785
 21
132.2412136136243
 31
0.0
  0
ARC
  5
5FB
330
2
100
AcDbEntity
  8
L-ZISSEN
100
AcDbCircle
 10
574.6101026616802
 20
121.5833386136236
 30
0.0
 40
0.5
100
AcDbArc
 50
180.0
 51
270.0
  0
LINE
  5
5FC
330
2
100
AcDbEntity
  8
L-ZISSEN
100
AcDbLine
 10
555.8542356002003
 20
137.1833386136239
 30
0.0
 11
555.8920893988888
 21
133.1833386136239
 31
0.0
  0
LINE
  5
5FD
330
2
100
AcDbEntity
  8
L-ZISSEN
 48
0.3
100
AcDbLine
 10
557.9632949768306
 20
133.1833386136239
 30
0.0
 11
555.9656293200601
 21
133.1833386136239
 31
0.0
  0
LINE
  5
5FE
330
2
100
AcDbEntity
  8
L-ZISSEN
100
AcDbLine
 10
555.1541180614536
 20
137.1833386136239
 30
0.0
 11
558.6101026616811
 21
137.1833386136239
 31
0.0
  0
LINE
  5
5FF
330
2
100
AcDbEntity
  8
L-ZISSEN
100
AcDbLine
 10
566.6101026616811
 20
137.1833386136248
 30
0.0
 11
573.6101026616811
 21
137.1833386136248
 31
0.0
  0
LINE
  5
600
330
2
100
AcDbEntity
  8
L-ZISSEN
100
AcDbLine
 10
572.8101026616809
 20
137.1833386136248
 30
0.0
 11
574.1101026616802
 21
137.1833386136248
 31
0.0
  0
LINE
  5
601
330
2
100
AcDbEntity
  8
L-ZISSEN
100
AcDbLine
 10
594.2580044226065
 20
131.4702576632288
 30
0.0
 11
594.2580044226065
 21
127.9668514262442
 31
0.0
  0
LINE
  5
602
330
2
100
AcDbEntity
  8
L-ZISSEN
100
AcDbLine
 10
575.9622009007548
 20
131.4702576632288
 30
0.0
 11
575.9622009007548
 21
127.9668514262442
 31
0.0
  0
LINE
  5
603
330
2
100
AcDbEntity
  8
L-ZISSEN
100
AcDbLine
 10
594.2580044226065
 20
127.9668514262442
 30
0.0
 11
585.1101026616807
 21
126.0516833734762
 31
0.0
  0
LINE
  5
604
330
2
100
AcDbEntity
  8
L-ZISSEN
100
AcDbLine
 10
585.1101026616807
 20
124.0833386136245
 30
0.0
 11
595.9072901616787
 21
126.9625886136244
 31
0.0
  0
LINE
  5
605
330
2
100
AcDbEntity
  8
L-TYUSIN
100
AcDbLine
 10
577.5101026616807
 20
116.5833386136245
 30
0.0
 11
592.7101026616806
 21
116.5833386136245
 31
0.0
  0
ARC
  5
606
330
2
100
AcDbEntity
  8
L-ZISSEN
100
AcDbCircle
 10
585.1101026616807
 20
122.3333386136244
 30
0.0
 40
1.25
100
AcDbArc
 50
180.0
 51
0.0
  0
LINE
  5
607
330
2
100
AcDbEntity
  8
L-ZISSEN
100
AcDbLine
 10
575.9622009007548
 20
127.9668514262442
 30
0.0
 11
585.1101026616807
 21
126.0516833734762
 31
0.0
  0
LINE
  5
608
330
2
100
AcDbEntity
  8
L-ZISSEN
100
AcDbLine
 10
583.8601026616807
 20
122.3333386136244
 30
0.0
 11
583.8601026616807
 21
124.4166719469575
 31
0.0
  0
LINE
  5
609
330
2
100
AcDbEntity
  8
L-ZISSEN
100
AcDbLine
 10
586.3601026616806
 20
122.3333386136244
 30
0.0
 11
586.3601026616806
 21
124.4166719469575
 31
0.0
  0
ARC
  5
60A
330
2
100
AcDbEntity
  8
L-ZISSEN
100
AcDbCircle
 10
595.6101026616802
 20
121.5833386136236
 30
0.0
 40
0.5
100
AcDbArc
 50
270.0
 51
0.0
  0
LINE
  5
60B
330
2
100
AcDbEntity
  8
L-ZISSEN
100
AcDbLine
 10
592.7101026616806
 20
121.0833386136231
 30
0.0
 11
595.6101026616802
 21
121.0833386136235
 31
0.0
  0
LINE
  5
60C
330
2
100
AcDbEntity
  8
L-ZISSEN
100
AcDbLine
 10
595.9072901616787
 20
126.9625886136244
 30
0.0
 11
594.2580044226065
 21
127.9668514262442
 31
0.0
  0
LINE
  5
60D
330
2
100
AcDbEntity
  8
L-ZISSEN
100
AcDbLine
 10
587.9893526616824
 20
140.3990886136251
 30
0.0
 11
585.110102661682
 21
135.6003386136252
 31
0.0
  0
LINE
  5
60E
330
2
100
AcDbEntity
  8
L-ZISSEN
100
AcDbLine
 10
586.069852661682
 20
140.3990886136251
 30
0.0
 11
587.9893526616824
 21
140.3990886136251
 31
0.0
  0
LINE
  5
60F
330
2
100
AcDbEntity
  8
L-ZISSEN
100
AcDbLine
 10
585.1101026616807
 20
130.1634145545252
 30
0.0
 11
594.2580044226065
 21
131.4702576632288
 31
0.0
  0
LINE
  5
610
330
2
100
AcDbEntity
  8
L-ZISSEN
100
AcDbLine
 10
585.1101026616807
 20
130.8015886136244
 30
0.0
 11
595.1874776616786
 21
132.2412136136243
 31
0.0
  0
LINE
  5
611
330
2
100
AcDbEntity
  8
L-ZISSEN
100
AcDbLine
 10
585.1101026616807
 20
130.1634145545252
 30
0.0
 11
575.9622009007548
 21
131.4702576632288
 31
0.0
  0
LINE
  5
612
330
2
100
AcDbEntity
  8
L-ZISSEN
100
AcDbLine
 10
585.1101026616807
 20
130.8015886136244
 30
0.0
 11
585.1101026616807
 21
130.1634145545252
 31
0.0
  0
LINE
  5
613
330
2
100
AcDbEntity
  8
L-ZISSEN
100
AcDbLine
 10
582.230852661682
 20
140.3990886136251
 30
0.0
 11
585.110102661682
 21
135.6003386136252
 31
0.0
  0
LINE
  5
614
330
2
100
AcDbEntity
  8
L-ZISSEN
100
AcDbLine
 10
584.150352661682
 20
140.3990886136251
 30
0.0
 11
582.230852661682
 21
140.3990886136251
 31
0.0
  0
LINE
  5
615
330
2
100
AcDbEntity
  8
L-ZISSEN
100
AcDbLine
 10
594.2580044226065
 20
131.4702576632288
 30
0.0
 11
595.1874776616786
 21
132.2412136136243
 31
0.0
  0
LINE
  5
616
330
2
100
AcDbEntity
  8
L-ZISSEN
100
AcDbLine
 10
594.2580044226065
 20
132.1084317223279
 30
0.0
 11
595.1874776616786
 21
132.2412136136243
 31
0.0
  0
LINE
  5
617
330
2
100
AcDbEntity
  8
L-ZISSEN
100
AcDbLine
 10
597.4101026616803
 20
137.1833386136248
 30
0.0
 11
596.1101026616802
 21
137.1833386136248
 31
0.0
  0
LINE
  5
618
330
2
100
AcDbEntity
  8
L-ZISSEN
100
AcDbLine
 10
597.4101026616803
 20
137.1833386136248
 30
0.0
 11
596.1101026616802
 21
137.1833386136239
 31
0.0
  0
LINE
  5
619
330
2
100
AcDbEntity
  8
L-ZISSEN
100
AcDbLine
 10
597.1101026616806
 20
150.3833386136242
 30
0.0
 11
573.1101026616807
 21
150.3833386136242
 31
0.0
  0
LINE
  5
61A
330
2
100
AcDbEntity
  8
L-ZISSEN
100
AcDbLine
 10
583.5736601024859
 20
151.9626879132473
 30
0.0
 11
570.1101026616806
 21
163.1823191139182
 31
0.0
  0
LINE
  5
61B
330
2
100
AcDbEntity
  8
L-ZISSEN
100
AcDbLine
 10
558.6101026616811
 20
147.183338613623
 30
0.0
 11
566.6101026616811
 21
147.183338613623
 31
0.0
  0
LINE
  5
61C
330
2
100
AcDbEntity
  8
L-ZISSEN
100
AcDbLine
 10
572.8101026616809
 20
145.683338613623
 30
0.0
 11
574.1101026616802
 21
145.683338613623
 31
0.0
  0
LINE
  5
61D
330
2
100
AcDbEntity
  8
L-ZISSEN
100
AcDbLine
 10
573.1101026616807
 20
150.6823191139182
 30
0.0
 11
573.1101026616807
 21
150.3833386136242
 31
0.0
  0
TEXT
  5
61E
330
2
100
AcDbEntity
  8
L-ZISSEN
100
AcDbText
 10
557.1101026616807
 20
160.9323191139182
 30
0.0
 40
4.5
  1
P.P
100
AcDbText
  0
LINE
  5
61F
330
2
100
AcDbEntity
  8
L-ZISSEN
100
AcDbLine
 10
570.1101026616806
 20
163.1823191139182
 30
0.0
 11
568.1101026616807
 21
163.1823191139182
 31
0.0
  0
LINE
  5
620
330
2
100
AcDbEntity
  8
L-ZISSEN
100
AcDbLine
 10
582.7107276616807
 20
145.1978386136241
 30
0.0
 11
578.8717276616803
 21
145.1978386136241
 31
0.0
  0
LINE
  5
621
330
2
100
AcDbEntity
  8
L-ZISSEN
100
AcDbLine
 10
582.7107276616807
 20
145.1978386136241
 30
0.0
 11
578.8717276616803
 21
145.1978386136241
 31
0.0
  0
LINE
  5
622
330
2
100
AcDbEntity
  8
L-ZISSEN
100
AcDbLine
 10
582.7107276616807
 20
146.1575886136241
 30
0.0
 11
578.8717276616803
 21
146.1575886136241
 31
0.0
  0
LINE
  5
623
330
2
100
AcDbEntity
  8
L-ZISSEN
100
AcDbLine
 10
582.7107276616807
 20
146.1575886136241
 30
0.0
 11
578.8717276616803
 21
146.1575886136241
 31
0.0
  0
LINE
  5
624
330
2
100
AcDbEntity
  8
L-ZISSEN
100
AcDbLine
 10
578.8717276616803
 20
147.1173386136241
 30
0.0
 11
576.4723526616803
 21
145.6777136136241
 31
0.0
  0
LINE
  5
625
330
2
100
AcDbEntity
  8
L-ZISSEN
100
AcDbLine
 10
578.8717276616803
 20
146.1575886136241
 30
0.0
 11
578.8717276616803
 21
147.1173386136241
 31
0.0
  0
LINE
  5
626
330
2
100
AcDbEntity
  8
L-ZISSEN
100
AcDbLine
 10
578.8717276616803
 20
144.2380886136241
 30
0.0
 11
576.4723526616803
 21
145.6777136136241
 31
0.0
  0
LINE
  5
627
330
2
100
AcDbEntity
  8
L-ZISSEN
100
AcDbLine
 10
578.8717276616803
 20
145.1978386136241
 30
0.0
 11
578.8717276616803
 21
144.2380886136241
 31
0.0
  0
LINE
  5
628
330
2
100
AcDbEntity
  8
L-ZISSEN
100
AcDbLine
 10
582.7107276616807
 20
146.1575886136241
 30
0.0
 11
582.7107276616807
 21
145.1978386136241
 31
0.0
  0
SOLID
  5
629
330
2
100
AcDbEntity
  8
L-ZISSEN
100
AcDbTrace
 10
583.3602653025978
 20
151.7066141533813
 30
0.0
 11
583.7870549023741
 21
152.2187616731129
 31
0.0
 12
585.1101026616807
 22
150.6823191139182
 32
0.0
 13
585.1101026616807
 23
150.6823191139182
 33
0.0
  0
LINE
  5
62A
330
2
100
AcDbEntity
  8
L-ZISSEN
100
AcDbLine
 10
586.069852661682
 20
148.077088613625
 30
0.0
 11
584.150352661682
 21
148.077088613625
 31
0.0
  0
LINE
  5
62B
330
2
100
AcDbEntity
  8
L-ZISSEN
100
AcDbLine
 10
591.3484776616805
 20
147.117338613625
 30
0.0
 11
593.7478526616805
 21
145.677713613625
 31
0.0
  0
LINE
  5
62C
330
2
100
AcDbEntity
  8
L-ZISSEN
100
AcDbLine
 10
591.3484776616805
 20
144.2380886136251
 30
0.0
 11
593.7478526616805
 21
145.677713613625
 31
0.0
  0
LINE
  5
62D
330
2
100
AcDbEntity
  8
L-ZISSEN
100
AcDbLine
 10
591.3484776616805
 20
146.157588613625
 30
0.0
 11
591.3484776616805
 21
147.117338613625
 31
0.0
  0
LINE
  5
62E
330
2
100
AcDbEntity
  8
L-ZISSEN
100
AcDbLine
 10
591.3484776616805
 20
145.197838613625
 30
0.0
 11
591.3484776616805
 21
144.2380886136251
 31
0.0
  0
LINE
  5
62F
330
2
100
AcDbEntity
  8
L-ZISSEN
100
AcDbLine
 10
587.5094776616806
 20
146.157588613625
 30
0.0
 11
587.5094776616806
 21
145.197838613625
 31
0.0
  0
LINE
  5
630
330
2
100
AcDbEntity
  8
L-ZISSEN
100
AcDbLine
 10
587.5094776616806
 20
145.197838613625
 30
0.0
 11
591.3484776616805
 21
145.197838613625
 31
0.0
  0
LINE
  5
631
330
2
100
AcDbEntity
  8
L-ZISSEN
100
AcDbLine
 10
587.5094776616806
 20
145.197838613625
 30
0.0
 11
591.3484776616805
 21
145.197838613625
 31
0.0
  0
LINE
  5
632
330
2
100
AcDbEntity
  8
L-ZISSEN
100
AcDbLine
 10
587.5094776616806
 20
146.157588613625
 30
0.0
 11
591.3484776616805
 21
146.157588613625
 31
0.0
  0
LINE
  5
633
330
2
100
AcDbEntity
  8
L-ZISSEN
100
AcDbLine
 10
587.5094776616806
 20
146.157588613625
 30
0.0
 11
591.3484776616805
 21
146.157588613625
 31
0.0
  0
LINE
  5
634
330
2
100
AcDbEntity
  8
L-ZISSEN
100
AcDbLine
 10
597.4101026616813
 20
145.683338613623
 30
0.0
 11
596.1101026616802
 21
145.683338613623
 31
0.0
  0
LINE
  5
635
330
2
100
AcDbEntity
  8
L-ZISSEN
100
AcDbLine
 10
597.1101026616802
 20
150.6823191139186
 30
0.0
 11
597.1101026616802
 21
150.3833386136242
 31
0.0
  0
LINE
  5
636
330
2
100
AcDbEntity
  8
L-ZISSEN
100
AcDbLine
 10
609.1214570999386
 20
147.183338613623
 30
0.0
 11
609.1214570999386
 21
137.1833386136257
 31
0.0
  0
LINE
  5
637
330
2
100
AcDbEntity
  8
L-ZISSEN
100
AcDbLine
 10
615.2463857771063
 20
150.6823191139182
 30
0.0
 11
615.0660872619077
 21
137.1833386136239
 31
0.0
  0
LINE
  5
638
330
2
100
AcDbEntity
  8
L-ZISSEN
100
AcDbLine
 10
603.6101026616811
 20
147.1833386136248
 30
0.0
 11
603.6101026616811
 21
137.1833386136257
 31
0.0
  0
LINE
  5
639
330
2
100
AcDbEntity
  8
L-ZISSEN
100
AcDbLine
 10
609.1214570999386
 20
137.1833386136257
 30
0.0
 11
614.3659697231619
 21
137.1833386136257
 31
0.0
  0
LINE
  5
63A
330
2
100
AcDbEntity
  8
L-ZISSEN
100
AcDbLine
 10
614.3659697231619
 20
137.1833386136239
 30
0.0
 11
615.0660872619077
 21
137.1833386136239
 31
0.0
  0
LINE
  5
63B
330
2
100
AcDbEntity
  8
L-ZISSEN
100
AcDbLine
 10
603.6101026616802
 20
147.1833386136248
 30
0.0
 11
609.1214570999386
 21
147.183338613623
 31
0.0
  0
LINE
  5
776
330
2
100
AcDbEntity
  8
L-ZISSEN
100
AcDbLine
 10
337.4999999999999
 20
75.19923795254704
 30
0.0
 11
262.4999999999999
 21
75.19923795254704
 31
0.0
  0
ENDSEC
  0
SECTION
  2
OBJECTS
  0
DICTIONARY
  5
9
330
0
100
AcDbDictionary
  3
ACAD_GROUP
350
25
  3
ACAD_LAYOUT
350
D
  3
ACAD_MLINESTYLE
350
26
  3
ACAD_PLOTSETTINGS
350
27
1001
ACAD
1000
TREAT_AS_HARD
1070
     0
  0
DICTIONARY
  5
15
330
14
100
AcDbDictionary
  3
ACAD_LAYERSTATES
350
16
1001
ACAD
1000
TREAT_AS_HARD
1070
     1
  0
DICTIONARY
  5
3
330
2
100
AcDbDictionary
  3
ACAD_LAYOUTSELFREF
350
7EB
1001
ACAD
1000
TREAT_AS_HARD
1070
     1
  0
DICTIONARY
  5
F
330
E
100
AcDbDictionary
  3
ACAD_LAYOUTSELFREF
350
7EC
1001
ACAD
1000
TREAT_AS_HARD
1070
     1
  0
DICTIONARY
  5
25
102
{ACAD_REACTORS
330
9
102
}
330
9
100
AcDbDictionary
1001
ACAD
1000
TREAT_AS_HARD
1070
     0
  0
DICTIONARY
  5
D
102
{ACAD_REACTORS
330
9
102
}
330
9
100
AcDbDictionary
1001
ACAD
1000
TREAT_AS_HARD
1070
     0
  0
DICTIONARY
  5
26
102
{ACAD_REACTORS
330
9
102
}
330
9
100
AcDbDictionary
  3
STANDARD
350
2B
1001
ACAD
1000
TREAT_AS_HARD
1070
     0
  0
DICTIONARY
  5
27
102
{ACAD_REACTORS
330
9
102
}
330
9
100
AcDbDictionary
1001
ACAD
1000
TREAT_AS_HARD
1070
     0
  0
DICTIONARY
  5
16
102
{ACAD_REACTORS
330
15
102
}
330
15
100
AcDbDictionary
1001
ACAD
1000
TREAT_AS_HARD
1070
     0
  0
XRECORD
  5
7EB
102
{ACAD_REACTORS
330
3
102
}
330
3
100
AcDbXrecord
340
2
  0
XRECORD
  5
7EC
102
{ACAD_REACTORS
330
F
102
}
330
F
100
AcDbXrecord
340
E
  0
MLINESTYLE
  5
2B
102
{ACAD_REACTORS
330
26
102
}
330
26
100
AcDbMlineStyle
  2
STANDARD
 70
     0
  3

 62
     0
 51
90.0
 52
90.0
 71
     2
 49
0.5
 62
   256
  6
BYLAYER
 49
-0.5
 62
   256
  6
BYLAYER
  0
ENDSEC
  0
EOF
